  0
SECTION
  2
HEADER
  9
$ACADVER
  1
AC1014
  9
$ACADMAINTVER
 70
     9
  9
$DWGCODEPAGE
  3
ANSI_932
  9
$INSBASE
 10
0.0
 20
0.0
 30
0.0
  9
$EXTMIN
 10
444.2868309101127
 20
77.21251094160311
 30
0.0
  9
$EXTMAX
 10
1055.712583302669
 20
240.5489981977427
 30
0.0
  9
$LIMMIN
 10
0.0
 20
0.0
  9
$LIMMAX
 10
12.0
 20
9.0
  9
$ORTHOMODE
 70
     0
  9
$REGENMODE
 70
     1
  9
$FILLMODE
 70
     1
  9
$QTEXTMODE
 70
     0
  9
$MIRRTEXT
 70
     1
  9
$DRAGMODE
 70
     2
  9
$LTSCALE
 40
1.0
  9
$OSMODE
 70
    37
  9
$ATTMODE
 70
     1
  9
$TEXTSIZE
 40
0.2
  9
$TRACEWID
 40
0.05
  9
$TEXTSTYLE
  7
STANDARD
  9
$CLAYER
  8
0
  9
$CELTYPE
  6
BYLAYER
  9
$CECOLOR
 62
   256
  9
$CELTSCALE
 40
1.0
  9
$DELOBJ
 70
     1
  9
$DISPSILH
 70
     0
  9
$DIMSCALE
 40
1.0
  9
$DIMASZ
 40
3.0
  9
$DIMEXO
 40
0.0625
  9
$DIMDLI
 40
0.38
  9
$DIMRND
 40
0.0
  9
$DIMDLE
 40
0.0
  9
$DIMEXE
 40
1.5
  9
$DIMTP
 40
0.0
  9
$DIMTM
 40
0.0
  9
$DIMTXT
 40
3.0
  9
$DIMCEN
 40
0.09
  9
$DIMTSZ
 40
0.0
  9
$DIMTOL
 70
     0
  9
$DIMLIM
 70
     0
  9
$DIMTIH
 70
     1
  9
$DIMTOH
 70
     1
  9
$DIMSE1
 70
     0
  9
$DIMSE2
 70
     0
  9
$DIMTAD
 70
     1
  9
$DIMZIN
 70
     0
  9
$DIMBLK
  1

  9
$DIMASO
 70
     1
  9
$DIMSHO
 70
     1
  9
$DIMPOST
  1

  9
$DIMAPOST
  1

  9
$DIMALT
 70
     0
  9
$DIMALTD
 70
     2
  9
$DIMALTF
 40
25.4
  9
$DIMLFAC
 40
1.0
  9
$DIMTOFL
 70
     0
  9
$DIMTVP
 40
0.0
  9
$DIMTIX
 70
     0
  9
$DIMSOXD
 70
     0
  9
$DIMSAH
 70
     0
  9
$DIMBLK1
  1

  9
$DIMBLK2
  1

  9
$DIMSTYLE
  2
STANDARD
  9
$DIMCLRD
 70
     0
  9
$DIMCLRE
 70
     0
  9
$DIMCLRT
 70
     0
  9
$DIMTFAC
 40
1.0
  9
$DIMGAP
 40
1.5
  9
$DIMJUST
 70
     0
  9
$DIMSD1
 70
     0
  9
$DIMSD2
 70
     0
  9
$DIMTOLJ
 70
     1
  9
$DIMTZIN
 70
     0
  9
$DIMALTZ
 70
     0
  9
$DIMALTTZ
 70
     0
  9
$DIMFIT
 70
     3
  9
$DIMUPT
 70
     0
  9
$DIMUNIT
 70
     2
  9
$DIMDEC
 70
     2
  9
$DIMTDEC
 70
     4
  9
$DIMALTU
 70
     2
  9
$DIMALTTD
 70
     2
  9
$DIMTXSTY
  7
ＭＳ_ゴシック
  9
$DIMAUNIT
 70
     0
  9
$LUNITS
 70
     2
  9
$LUPREC
 70
     4
  9
$SKETCHINC
 40
0.1
  9
$FILLETRAD
 40
0.5
  9
$AUNITS
 70
     0
  9
$AUPREC
 70
     0
  9
$MENU
  1
.
  9
$ELEVATION
 40
0.0
  9
$PELEVATION
 40
0.0
  9
$THICKNESS
 40
0.0
  9
$LIMCHECK
 70
     0
  9
$CHAMFERA
 40
0.0
  9
$CHAMFERB
 40
0.0
  9
$CHAMFERC
 40
0.0
  9
$CHAMFERD
 40
0.0
  9
$SKPOLY
 70
     0
  9
$TDCREATE
 40
2459548.626473704
  9
$TDUPDATE
 40
2459548.626473993
  9
$TDINDWG
 40
0.0000000116
  9
$TDUSRTIMER
 40
0.0000000116
  9
$USRTIMER
 70
     1
  9
$ANGBASE
 50
0.0
  9
$ANGDIR
 70
     0
  9
$PDMODE
 70
     0
  9
$PDSIZE
 40
0.0
  9
$PLINEWID
 40
0.0
  9
$COORDS
 70
     1
  9
$SPLFRAME
 70
     0
  9
$SPLINETYPE
 70
     6
  9
$SPLINESEGS
 70
     8
  9
$ATTDIA
 70
     0
  9
$ATTREQ
 70
     1
  9
$HANDLING
 70
     1
  9
$HANDSEED
  5
262
  9
$SURFTAB1
 70
     6
  9
$SURFTAB2
 70
     6
  9
$SURFTYPE
 70
     6
  9
$SURFU
 70
     6
  9
$SURFV
 70
     6
  9
$UCSNAME
  2

  9
$UCSORG
 10
0.0
 20
0.0
 30
0.0
  9
$UCSXDIR
 10
1.0
 20
0.0
 30
0.0
  9
$UCSYDIR
 10
0.0
 20
1.0
 30
0.0
  9
$PUCSNAME
  2

  9
$PUCSORG
 10
0.0
 20
0.0
 30
0.0
  9
$PUCSXDIR
 10
1.0
 20
0.0
 30
0.0
  9
$PUCSYDIR
 10
0.0
 20
1.0
 30
0.0
  9
$USERI1
 70
     0
  9
$USERI2
 70
     0
  9
$USERI3
 70
     0
  9
$USERI4
 70
     0
  9
$USERI5
 70
     0
  9
$USERR1
 40
0.0
  9
$USERR2
 40
0.0
  9
$USERR3
 40
0.0
  9
$USERR4
 40
0.0
  9
$USERR5
 40
0.0
  9
$WORLDVIEW
 70
     1
  9
$SHADEDGE
 70
     3
  9
$SHADEDIF
 70
    70
  9
$TILEMODE
 70
     1
  9
$MAXACTVP
 70
    64
  9
$PINSBASE
 10
0.0
 20
0.0
 30
0.0
  9
$PLIMCHECK
 70
     0
  9
$PEXTMIN
 10
1.000000000000000E+20
 20
1.000000000000000E+20
 30
1.000000000000000E+20
  9
$PEXTMAX
 10
-1.000000000000000E+20
 20
-1.000000000000000E+20
 30
-1.000000000000000E+20
  9
$PLIMMIN
 10
0.0
 20
0.0
  9
$PLIMMAX
 10
12.0
 20
9.0
  9
$UNITMODE
 70
     0
  9
$VISRETAIN
 70
     1
  9
$PLINEGEN
 70
     0
  9
$PSLTSCALE
 70
     1
  9
$TREEDEPTH
 70
  3020
  9
$PICKSTYLE
 70
     1
  9
$CMLSTYLE
  2
STANDARD
  9
$CMLJUST
 70
     0
  9
$CMLSCALE
 40
1.0
  9
$PROXYGRAPHICS
 70
     1
  9
$MEASUREMENT
 70
     1
  0
ENDSEC
  0
SECTION
  2
CLASSES
  0
CLASS
  1
ACDBDICTIONARYWDFLT
  2
AcDbDictionaryWithDefault
  3
ObjectDBX Classes
 90
        0
280
     0
281
     0
  0
CLASS
  1
VISUALSTYLE
  2
AcDbVisualStyle
  3
ObjectDBX Classes
 90
     4095
280
     0
281
     0
  0
CLASS
  1
MATERIAL
  2
AcDbMaterial
  3
ObjectDBX Classes
 90
     1153
280
     0
281
     0
  0
CLASS
  1
SCALE
  2
AcDbScale
  3
ObjectDBX Classes
 90
     1153
280
     0
281
     0
  0
CLASS
  1
TABLESTYLE
  2
AcDbTableStyle
  3
ObjectDBX Classes
 90
     4095
280
     0
281
     0
  0
CLASS
  1
MLEADERSTYLE
  2
AcDbMLeaderStyle
  3
ACDB_MLEADERSTYLE_CLASS
 90
     4095
280
     0
281
     0
  0
CLASS
  1
SUN
  2
AcDbSun
  3
SCENEOE
 90
     1153
280
     0
281
     0
  0
CLASS
  1
DICTIONARYVAR
  2
AcDbDictionaryVar
  3
ObjectDBX Classes
 90
        0
280
     0
281
     0
  0
CLASS
  1
XRECORD
  2
AcDbXrecord
  3
ObjectDBX Classes
 90
        0
280
     0
281
     0
  0
CLASS
  1
LWPOLYLINE
  2
AcDbPolyline
  3
ObjectDBX Classes
 90
        0
280
     0
281
     1
  0
CLASS
  1
HATCH
  2
AcDbHatch
  3
ObjectDBX Classes
 90
        0
280
     0
281
     1
  0
CLASS
  1
ACDBPLACEHOLDER
  2
AcDbPlaceHolder
  3
ObjectDBX Classes
 90
        0
280
     0
281
     0
  0
CLASS
  1
LAYOUT
  2
AcDbLayout
  3
ObjectDBX Classes
 90
        0
280
     0
281
     0
  0
ENDSEC
  0
SECTION
  2
TABLES
  0
TABLE
  2
VPORT
  5
8
102
{ACAD_XDICTIONARY
360
257
102
}
330
0
100
AcDbSymbolTable
 70
     1
  0
VPORT
  5
29
330
8
100
AcDbSymbolTableRecord
100
AcDbViewportTableRecord
  2
*ACTIVE
 70
     0
 10
0.0
 20
0.0
 11
1.0
 21
1.0
 12
749.9997071063908
 22
158.8807545696729
 13
0.0
 23
0.0
 14
0.5
 24
0.5
 15
0.5
 25
0.5
 16
0.0
 26
0.0
 36
1.0
 17
0.0
 27
0.0
 37
0.0
 40
163.3364872561396
 41
1.6
 42
50.0
 43
0.0
 44
0.0
 50
0.0
 51
0.0
 71
     0
 72
   100
 73
     1
 74
     3
 75
     0
 76
     0
 77
     0
 78
     0
  0
ENDTAB
  0
TABLE
  2
LTYPE
  5
5
330
0
100
AcDbSymbolTable
 70
     1
  0
LTYPE
  5
14
330
5
100
AcDbSymbolTableRecord
100
AcDbLinetypeTableRecord
  2
BYBLOCK
 70
     0
  3

 72
    65
 73
     0
 40
0.0
  0
LTYPE
  5
15
330
5
100
AcDbSymbolTableRecord
100
AcDbLinetypeTableRecord
  2
BYLAYER
 70
     0
  3

 72
    65
 73
     0
 40
0.0
  0
LTYPE
  5
16
330
5
100
AcDbSymbolTableRecord
100
AcDbLinetypeTableRecord
  2
CONTINUOUS
 70
     0
  3
Solid line
 72
    65
 73
     0
 40
0.0
  0
ENDTAB
  0
TABLE
  2
LAYER
  5
2
330
0
100
AcDbSymbolTable
 70
     1
  0
LAYER
  5
10
330
2
100
AcDbSymbolTableRecord
100
AcDbLayerTableRecord
  2
0
 70
     0
 62
     7
  6
CONTINUOUS
  0
ENDTAB
  0
TABLE
  2
STYLE
  5
3
330
0
100
AcDbSymbolTable
 70
     2
  0
STYLE
  5
11
330
3
100
AcDbSymbolTableRecord
100
AcDbTextStyleTableRecord
  2
STANDARD
 70
     0
 40
0.0
 41
1.0
 50
0.0
 71
     0
 42
0.2
  3
txt
  4

  0
STYLE
  5
6E
330
3
100
AcDbSymbolTableRecord
100
AcDbTextStyleTableRecord
  2
ＭＳ_ゴシック
 70
     0
 40
0.0
 41
1.0
 50
0.0
 71
     0
 42
0.2
  3
ＭＳ ゴシック.shx
  4

  0
ENDTAB
  0
TABLE
  2
VIEW
  5
6
330
0
100
AcDbSymbolTable
 70
     0
  0
ENDTAB
  0
TABLE
  2
UCS
  5
7
330
0
100
AcDbSymbolTable
 70
     0
  0
ENDTAB
  0
TABLE
  2
APPID
  5
9
330
0
100
AcDbSymbolTable
 70
     2
  0
APPID
  5
12
330
9
100
AcDbSymbolTableRecord
100
AcDbRegAppTableRecord
  2
ACAD
 70
     0
  0
APPID
  5
261
330
9
100
AcDbSymbolTableRecord
100
AcDbRegAppTableRecord
  2
ACAD_MLEADERVER
 70
     0
  0
ENDTAB
  0
TABLE
  2
DIMSTYLE
  5
A
330
0
100
AcDbSymbolTable
 70
     1
  0
DIMSTYLE
105
27
330
A
100
AcDbSymbolTableRecord
100
AcDbDimStyleTableRecord
  2
STANDARD
 70
     0
  3

  4

  5

  6

  7

 40
1.0
 41
0.18
 42
0.0625
 43
0.38
 44
0.18
 45
0.0
 46
0.0
 47
0.0
 48
0.0
140
0.18
141
0.09
142
0.0
143
25.4
144
1.0
145
0.0
146
1.0
147
0.09
 71
     0
 72
     0
 73
     1
 74
     1
 75
     0
 76
     0
 77
     0
 78
     0
170
     0
171
     2
172
     0
173
     0
174
     0
175
     0
176
     0
177
     0
178
     0
270
     2
271
     4
272
     4
273
     2
274
     2
340
11
275
     0
280
     0
281
     0
282
     0
283
     1
284
     0
285
     0
286
     0
287
     3
288
     0
  0
ENDTAB
  0
TABLE
  2
BLOCK_RECORD
  5
1
330
0
100
AcDbSymbolTable
 70
     0
  0
BLOCK_RECORD
  5
1F
330
1
100
AcDbSymbolTableRecord
100
AcDbBlockTableRecord
  2
*MODEL_SPACE
  0
BLOCK_RECORD
  5
1B
330
1
100
AcDbSymbolTableRecord
100
AcDbBlockTableRecord
  2
*PAPER_SPACE
  0
ENDTAB
  0
ENDSEC
  0
SECTION
  2
BLOCKS
  0
BLOCK
  5
20
330
1F
100
AcDbEntity
  8
0
100
AcDbBlockBegin
  2
*MODEL_SPACE
 70
     0
 10
0.0
 20
0.0
 30
0.0
  3
*MODEL_SPACE
  1

  0
ENDBLK
  5
21
330
1F
100
AcDbEntity
  8
0
100
AcDbBlockEnd
  0
BLOCK
  5
1C
330
1B
100
AcDbEntity
 67
     1
  8
0
100
AcDbBlockBegin
  2
*PAPER_SPACE
 70
     0
 10
0.0
 20
0.0
 30
0.0
  3
*PAPER_SPACE
  1

  0
ENDBLK
  5
1D
330
1B
100
AcDbEntity
 67
     1
  8
0
100
AcDbBlockEnd
  0
ENDSEC
  0
SECTION
  2
ENTITIES
  0
LWPOLYLINE
  5
6F
330
1F
100
AcDbEntity
  8
0
  6
CONTINUOUS
 62
     7
100
AcDbPolyline
 90
       33
 70
     0
 43
0.0
 10
-805.499734314321
 20
238.5491813041948
 10
-805.5067610918579
 20
238.548593120412
 10
-805.5137878693946
 20
238.5467592290591
 10
-805.5208146469314
 20
238.5436794357699
 10
-805.5278414244682
 20
238.5393544726665
 10
-805.534868202005
 20
238.5337851628003
 10
-805.5418949795416
 20
238.5269723292225
 10
-805.5489217570785
 20
238.5189167949844
 10
-805.5559485346153
 20
238.5096193831372
 10
-805.562975312152
 20
238.4990809167323
 10
-805.5700020896886
 20
238.4873022188209
 10
-805.5770288672254
 20
238.4742841124543
 10
-805.5840556447622
 20
238.4600274206836
 10
-805.5910824222991
 20
238.4445329665603
 10
-805.5981091998358
 20
238.4278015731355
 10
-805.6051359773725
 20
238.4098340634606
 10
-805.6121627549094
 20
238.3906312605867
 10
-805.6191895324461
 20
238.3701939875653
 10
-805.6262163099827
 20
238.3485230674474
 10
-805.6332430875195
 20
238.3256193232846
 10
-805.6402698650563
 20
238.3014835781279
 10
-805.6472966425931
 20
238.2761166550286
 10
-805.6543234201298
 20
238.2495193770381
 10
-805.6613501976665
 20
238.2216925672075
 10
-805.6683769752035
 20
238.1926370485882
 10
-805.6754037527401
 20
238.1623536442314
 10
-805.6824305302769
 20
238.1308431771884
 10
-805.6894573078137
 20
238.0981064705105
 10
-805.6964840853504
 20
238.0641443472489
 10
-805.7035108628872
 20
238.028957630455
 10
-805.7105376404237
 20
237.9925471431797
 10
-805.7175644179606
 20
237.9549137084747
 10
-805.7245911954974
 20
237.9160581493913
210
0.0
220
0.0
230
-1.0
  0
LWPOLYLINE
  5
70
330
1F
100
AcDbEntity
  8
0
  6
CONTINUOUS
 62
     7
100
AcDbPolyline
 90
      113
 70
     0
 43
0.0
 10
-852.0000113523527
 20
238.5482556341294
 10
-852.0426780163908
 20
238.5255519398403
 10
-852.085344680429
 20
238.4572703527009
 10
-852.1280113444672
 20
238.3433567396354
 10
-852.1706780085051
 20
238.1837586469407
 10
-852.2133446725434
 20
237.9785466215683
 10
-852.2560113365818
 20
237.7279958838628
 10
-852.2986780006199
 20
237.4324010079197
 10
-852.3413446646582
 20
237.0920565678344
 10
-852.3840113286965
 20
236.7072571377026
 10
-852.4266779927347
 20
236.2782972916197
 10
-852.4693446567728
 20
235.8054716036812
 10
-852.5120113208112
 20
235.2890746479825
 10
-852.5546779848494
 20
234.7294009986193
 10
-852.5973446488875
 20
234.126745229687
 10
-852.6400113129256
 20
233.481414961558
 10
-852.6826779769639
 20
232.793896723015
 10
-852.7253446410022
 20
232.0648068779168
 10
-852.7680113050403
 20
231.2947647043867
 10
-852.8106779690783
 20
230.484389480548
 10
-852.8533446331163
 20
229.634300484524
 10
-852.8960112971546
 20
228.745116994438
 10
-852.9386779611925
 20
227.8174582884131
 10
-852.9813446252306
 20
226.8519436445728
 10
-853.0240112892686
 20
225.8491923410403
 10
-853.0666779533069
 20
224.8098236559389
 10
-853.109344617345
 20
223.7344945747133
 10
-853.152011281383
 20
222.6240438858257
 10
-853.194677945421
 20
221.4793650990691
 10
-853.2373446094591
 20
220.3013517351928
 10
-853.2800112734972
 20
219.0908973149462
 10
-853.3226779375353
 20
217.8488953590788
 10
-853.3653446015736
 20
216.57623938834
 10
-853.4080112656117
 20
215.2738229234791
 10
-853.4506779296498
 20
213.9425394852455
 10
-853.493344593688
 20
212.5832825943887
 10
-853.536011257726
 20
211.1969463178465
 10
-853.5786779217642
 20
209.7844886436702
 10
-853.6213445858025
 20
208.3469905550896
 10
-853.6640112498408
 20
206.8855470076291
 10
-853.7066779138789
 20
205.401252956813
 10
-853.7493445779172
 20
203.8952033581657
 10
-853.7920112419556
 20
202.3684931672118
 10
-853.8346779059935
 20
200.8222173394755
 10
-853.877344570032
 20
199.2574708304815
 10
-853.9200112340702
 20
197.6753485957539
 10
-853.9626778981084
 20
196.0769455908173
 10
-854.0053445621465
 20
194.4633602146309
 10
-854.0480112261848
 20
192.8357493153738
 10
-854.0906778902228
 20
191.1953185633019
 10
-854.1333445542612
 20
189.5432751271055
 10
-854.1760112182991
 20
187.8808261754753
 10
-854.2186778823374
 20
186.2091788771019
 10
-854.2613445463755
 20
184.5295404006758
 10
-854.3040112104136
 20
182.8431179148876
 10
-854.3466778744518
 20
181.1511185884277
 10
-854.3893445384899
 20
179.454749589987
 10
-854.4320112025279
 20
177.7552180882558
 10
-854.4746778665659
 20
176.0537328484913
 10
-854.517344530604
 20
174.3515116935735
 10
-854.5600111946421
 20
172.6497756365819
 10
-854.6026778586802
 20
170.9497456941607
 10
-854.6453445227181
 20
169.2526428829541
 10
-854.6880111867563
 20
167.5596882196066
 10
-854.7306778507943
 20
165.8721027207623
 10
-854.7733445148323
 20
164.1911074030656
 10
-854.8160111788704
 20
162.5179232831608
 10
-854.8586778429085
 20
160.8537713776922
 10
-854.9013445069465
 20
159.1998725892597
 10
-854.9440111709848
 20
157.55742361609
 10
-854.986677835023
 20
155.9275671400063
 10
-855.029344499061
 20
154.3114385320045
 10
-855.0720111630995
 20
152.7101731630802
 10
-855.1146778271377
 20
151.1249064042291
 10
-855.1573444911759
 20
149.5567736264472
 10
-855.2000111552143
 20
148.0069102007301
 10
-855.2426778192524
 20
146.4764514980736
 10
-855.2853444832906
 20
144.9665328894735
 10
-855.3280111473289
 20
143.4782897459256
 10
-855.3706778113672
 20
142.0128533726314
 10
-855.4133444754054
 20
140.5712680000604
 10
-855.4560111394436
 20
139.1544942174692
 10
-855.498677803482
 20
137.7634892353726
 10
-855.54134446752
 20
136.3992102642856
 10
-855.5840111315582
 20
135.0626145147226
 10
-855.6266777955965
 20
133.7546591971987
 10
-855.6693444596347
 20
132.4763015222285
 10
-855.7120111236727
 20
131.2284987003268
 10
-855.7546777877109
 20
130.0122079420084
 10
-855.7973444517492
 20
128.828386457788
 10
-855.8400111157871
 20
127.6779669648418
 10
-855.8826777798251
 20
126.5617181116273
 10
-855.9253444438634
 20
125.4803411569475
 10
-855.9680111079015
 20
124.4345371532737
 10
-856.0106777719395
 20
123.4250071530768
 10
-856.0533444359776
 20
122.4524522088281
 10
-856.0960111000157
 20
121.5175733729985
 10
-856.1386777640538
 20
120.6210716980592
 10
-856.1813444280918
 20
119.7636482364813
 10
-856.22401109213
 20
118.9460040407359
 10
-856.2666777561681
 20
118.1688399993349
 10
-856.3093444202062
 20
117.4327789818404
 10
-856.3520110842443
 20
116.7382412287103
 10
-856.3946777482824
 20
116.0856145096505
 10
-856.4373444123205
 20
115.4752865943672
 10
-856.4800110763588
 20
114.9076452525661
 10
-856.5226777403967
 20
114.3830782539532
 10
-856.5653444044349
 20
113.9019733682346
 10
-856.608011068473
 20
113.464718365116
 10
-856.6506777325113
 20
113.0717010143036
 10
-856.6933443965495
 20
112.7233090855031
 10
-856.7360110605877
 20
112.4199246822841
 10
-856.778677724625
 20
112.1617729714182
210
0.0
220
0.0
230
-1.0
  0
LWPOLYLINE
  5
71
330
1F
100
AcDbEntity
  8
0
  6
CONTINUOUS
 62
     7
100
AcDbPolyline
 90
      105
 70
     0
 43
0.0
 10
-791.9994754460834
 20
238.5491602893811
 10
-792.0454216598814
 20
238.5229062047635
 10
-792.0913678736796
 20
238.4436478114488
 10
-792.1373140874774
 20
238.3115873832438
 10
-792.1832603012755
 20
238.1269271939555
 10
-792.2292065150737
 20
237.8898695173906
 10
-792.2751527288716
 20
237.600616627356
 10
-792.3210989426698
 20
237.2593707976586
 10
-792.3670451564678
 20
236.8663343021052
 10
-792.4129913702658
 20
236.4217094145028
 10
-792.4589375840638
 20
235.9257046747435
 10
-792.5048837978619
 20
235.378716169754
 10
-792.5508300116599
 20
234.7813553961579
 10
-792.5967762254579
 20
234.1342457227333
 10
-792.6427224392559
 20
233.438010518258
 10
-792.688668653054
 20
232.6932731515099
 10
-792.734614866852
 20
231.9006569912668
 10
-792.7805610806499
 20
231.0607854063068
 10
-792.8265072944479
 20
230.1742817654077
 10
-792.8724535082459
 20
229.2417694373475
 10
-792.918399722044
 20
228.2638807262397
 10
-792.964345935842
 20
227.2414311179296
 10
-793.0102921496399
 20
226.17540767102
 10
-793.056238363438
 20
225.0668040545347
 10
-793.1021845772359
 20
223.9166139374969
 10
-793.1481307910337
 20
222.7258309889301
 10
-793.1940770048318
 20
221.4954488778579
 10
-793.2400232186297
 20
220.2264612733037
 10
-793.2859694324279
 20
218.9198618442908
 10
-793.3319156462258
 20
217.5766442598429
 10
-793.3778618600237
 20
216.1978127745163
 10
-793.4238080738216
 20
214.7845280198529
 10
-793.4697542876197
 20
213.3380699849191
 10
-793.5157005014177
 20
211.8597216706276
 10
-793.5616467152156
 20
210.3507660778913
 10
-793.6075929290137
 20
208.812486207623
 10
-793.6535391428115
 20
207.2461650607354
 10
-793.6994853566094
 20
205.6530856381414
 10
-793.7454315704075
 20
204.0345309407537
 10
-793.7913777842057
 20
202.3917839694852
 10
-793.8373239980037
 20
200.726137468381
 10
-793.8832702118016
 20
199.0389916027728
 10
-793.9292164255995
 20
197.3318131649779
 10
-793.9751626393976
 20
195.6060699434559
 10
-794.0211088531955
 20
193.8632297266658
 10
-794.0670550669935
 20
192.1047603030674
 10
-794.1130012807914
 20
190.33212946112
 10
-794.1589474945896
 20
188.5468049892829
 10
-794.2048937083874
 20
186.7502546760157
 10
-794.2508399221855
 20
184.9439463097776
 10
-794.2967861359837
 20
183.1293524393751
 10
-794.3427323497816
 20
181.3079857547077
 10
-794.3886785635796
 20
179.4813790790965
 10
-794.4346247773777
 20
177.6510653869336
 10
-794.4805709911757
 20
175.8185776526111
 10
-794.5265172049737
 20
173.9854488505214
 10
-794.5724634187719
 20
172.1532119550565
 10
-794.61840963257
 20
170.3233999406085
 10
-794.6643558463679
 20
168.4975457815698
 10
-794.7103020601659
 20
166.6771824523324
 10
-794.7562482739638
 20
164.8638370760081
 10
-794.802194487762
 20
163.0589984035234
 10
-794.84814070156
 20
161.2641397245396
 10
-794.8940869153581
 20
159.4807342861423
 10
-794.9400331291561
 20
157.7102553354168
 10
-794.9859793429541
 20
155.9541761194488
 10
-795.031925556752
 20
154.2139698853237
 10
-795.0778717705499
 20
152.491109880127
 10
-795.1238179843481
 20
150.7870693509441
 10
-795.1697641981459
 20
149.1033215448606
 10
-795.2157104119437
 20
147.4413166940649
 10
-795.2616566257418
 20
145.8023864018356
 10
-795.30760283954
 20
144.1878241594171
 10
-795.3535490533378
 20
142.5989234401823
 10
-795.3994952671356
 20
141.0369777175044
 10
-795.4454414809336
 20
139.5032804647563
 10
-795.4913876947315
 20
137.999125155311
 10
-795.5373339085296
 20
136.5258052625416
 10
-795.5832801223276
 20
135.0846142598209
 10
-795.6292263361256
 20
133.676845620522
 10
-795.6751725499236
 20
132.3037461442682
 10
-795.7211187637215
 20
130.9663725267618
 10
-795.7670649775196
 20
129.6657330699904
 10
-795.8130111913176
 20
128.4028360759317
 10
-795.8589574051158
 20
127.1786898465629
 10
-795.9049036189137
 20
125.9943026838616
 10
-795.9508498327118
 20
124.8506828898051
 10
-795.9967960465099
 20
123.7488387663709
 10
-796.0427422603079
 20
122.6897786155363
 10
-796.0886884741058
 20
121.6745107163187
 10
-796.1346346879037
 20
120.7039679944443
 10
-796.1805809017018
 20
119.7788403290017
 10
-796.2265271154998
 20
118.8997686898617
 10
-796.2724733292978
 20
118.0673940468948
 10
-796.318419543096
 20
117.2823573699718
 10
-796.3643657568938
 20
116.545299628963
 10
-796.410311970692
 20
115.8568617937394
 10
-796.4562581844899
 20
115.2176848341713
 10
-796.5022043982879
 20
114.6284097201296
 10
-796.548150612086
 20
114.0896771842498
 10
-796.5940968258838
 20
113.6020224858273
 10
-796.6400430396818
 20
113.1657099380345
 10
-796.6859892534798
 20
112.7809609496982
 10
-796.7319354672779
 20
112.4479969296453
 10
-796.7778816810754
 20
112.1670392867042
210
0.0
220
0.0
230
-1.0
  0
LWPOLYLINE
  5
72
330
1F
100
AcDbEntity
  8
0
  6
CONTINUOUS
 62
     7
100
AcDbPolyline
 90
      105
 70
     0
 43
0.0
 10
-772.0002431384767
 20
238.5488331340704
 10
-772.046157128259
 20
238.5216192365183
 10
-772.0920711180411
 20
238.4416440686259
 10
-772.1379851078233
 20
238.3090537591378
 10
-772.1838990976055
 20
238.123994436799
 10
-772.2298130873877
 20
237.8866122303541
 10
-772.27572707717
 20
237.5970532685479
 10
-772.3216410669521
 20
237.2554636801251
 10
-772.3675550567344
 20
236.8619895938305
 10
-772.4134690465166
 20
236.4168044050129
 10
-772.4593830362987
 20
235.9203372154103
 10
-772.5052970260808
 20
235.3731570106251
 10
-772.5512110158629
 20
234.7758342016168
 10
-772.5971250056454
 20
234.128939199345
 10
-772.6430389954276
 20
233.433042414769
 10
-772.6889529852098
 20
232.6887142588485
 10
-772.734866974992
 20
231.896525142543
 10
-772.7807809647742
 20
231.057045476812
 10
-772.8266949545563
 20
230.1708456726151
 10
-772.8726089443385
 20
229.2385282633693
 10
-772.9185229341206
 20
228.2609339256733
 10
-772.964436923903
 20
227.2390103621276
 10
-773.010350913685
 20
226.1737057864079
 10
-773.0562649034671
 20
225.0659684121903
 10
-773.1021788932494
 20
223.9167464531508
 10
-773.1480928830316
 20
222.7269881229652
 10
-773.1940068728138
 20
221.4976416353095
 10
-773.2399208625959
 20
220.2296552038595
 10
-773.2858348523781
 20
218.9239770422912
 10
-773.3317488421603
 20
217.5815883730729
 10
-773.3776628319428
 20
216.2036660437723
 10
-773.4235768217247
 20
214.7914586968197
 10
-773.469490811507
 20
213.3462150841454
 10
-773.5154048012893
 20
211.8691839576795
 10
-773.5613187910716
 20
210.3616140693521
 10
-773.6072327808537
 20
208.8247541710933
 10
-773.6531467706359
 20
207.2598530148333
 10
-773.6990607604181
 20
205.6681593525023
 10
-773.7449747502002
 20
204.0509219360302
 10
-773.7908887399825
 20
202.409417158238
 10
-773.8368027297646
 20
200.7450532724023
 10
-773.882716719547
 20
199.0592778084493
 10
-773.928630709329
 20
197.3535383029727
 10
-773.9745446991112
 20
195.6292822925662
 10
-774.0204586888933
 20
193.8879573138233
 10
-774.0663726786756
 20
192.1310109033377
 10
-774.1122866684577
 20
190.359890597703
 10
-774.1582006582398
 20
188.5760439335128
 10
-774.204114648022
 20
186.7809184473877
 10
-774.2500286378042
 20
184.9759756629519
 10
-774.2959426275863
 20
183.1627309799539
 10
-774.3418566173685
 20
181.342712768245
 10
-774.3877706071507
 20
179.5174493976759
 10
-774.433684596933
 20
177.6884692380978
 10
-774.4795985867152
 20
175.8573006593617
 10
-774.5255125764972
 20
174.0254720313184
 10
-774.5714265662795
 20
172.1945117238191
 10
-774.6173405560615
 20
170.3659481067148
 10
-774.6632545458438
 20
168.5413095455754
 10
-774.709168535626
 20
166.7221151509301
 10
-774.7550825254082
 20
164.909855190588
 10
-774.8009965151904
 20
163.1060143296154
 10
-774.8469105049727
 20
161.312077233079
 10
-774.8928244947548
 20
159.5295285660449
 10
-774.938738484537
 20
157.7598529935797
 10
-774.9846524743192
 20
156.0045351807497
 10
-775.0305664641013
 20
154.2650597926213
 10
-775.0764804538836
 20
152.542911494261
 10
-775.1223944436658
 20
150.8395748486333
 10
-775.1683084334479
 20
149.1564925428609
 10
-775.2142224232301
 20
147.4950011237543
 10
-775.2601364130123
 20
145.8564205748042
 10
-775.3060504027944
 20
144.2420708795012
 10
-775.3519643925766
 20
142.6532720213359
 10
-775.3978783823587
 20
141.0913439837989
 10
-775.4437923721409
 20
139.5576067503808
 10
-775.489706361923
 20
138.0533803045723
 10
-775.5356203517053
 20
136.5799846298639
 10
-775.5815343414876
 20
135.1387391851025
 10
-775.6274483312696
 20
133.7308818889631
 10
-775.6733623210519
 20
132.3574815139402
 10
-775.719276310834
 20
131.0195858041089
 10
-775.7651903006163
 20
129.7182425035444
 10
-775.8111042903985
 20
128.4544993563218
 10
-775.8570182801806
 20
127.2294041065164
 10
-775.9029322699628
 20
126.0440044982034
 10
-775.9488462597451
 20
124.899348275458
 10
-775.9947602495272
 20
123.7964831823553
 10
-776.0406742393094
 20
122.7364553965972
 10
-776.0865882290916
 20
121.7201872259968
 10
-776.1325022188738
 20
120.748389480719
 10
-776.178416208656
 20
119.8217522908034
 10
-776.2243301984382
 20
118.9409657862895
 10
-776.2702441882203
 20
118.1067200972168
 10
-776.3161581780026
 20
117.319705353625
 10
-776.3620721677847
 20
116.5806116855534
 10
-776.4079861575669
 20
115.8901292230418
 10
-776.4539001473493
 20
115.2489480961296
 10
-776.4998141371315
 20
114.6577549835856
 10
-776.5457281269137
 20
114.1170735952635
 10
-776.5916421166959
 20
113.6271975834337
 10
-776.6375561064781
 20
113.1884032293846
 10
-776.6834700962603
 20
112.8009668144045
 10
-776.7293840860423
 20
112.4651646197819
 10
-776.775298075825
 20
112.1812729268026
210
0.0
220
0.0
230
-1.0
  0
LWPOLYLINE
  5
73
330
1F
100
AcDbEntity
  8
0
  6
CONTINUOUS
 62
     7
100
AcDbPolyline
 90
       65
 70
     0
 43
0.0
 10
694.4999998075346
 20
175.0435124494427
 10
694.5355445346133
 20
173.6254873778516
 10
694.5710892616922
 20
172.2081602346198
 10
694.6066339887713
 20
170.7922374696681
 10
694.64217871585
 20
169.3784255329166
 10
694.6777234429289
 20
167.967430874286
 10
694.713268170008
 20
166.5599599436966
 10
694.7488128970869
 20
165.1567191910689
 10
694.7843576241658
 20
163.7584150663234
 10
694.8199023512447
 20
162.3657540193805
 10
694.8554470783236
 20
160.9794425001607
 10
694.8909918054025
 20
159.6001868230841
 10
694.9265365324814
 20
158.2286779188789
 10
694.9620812595603
 20
156.8655773701868
 10
694.9976259866392
 20
155.5115434604609
 10
695.033170713718
 20
154.1672344731539
 10
695.0687154407971
 20
152.833308691719
 10
695.104260167876
 20
151.5104243996088
 10
695.1398048949549
 20
150.1992398802764
 10
695.1753496220338
 20
148.9004134171746
 10
695.2108943491127
 20
147.6146032937564
 10
695.2464390761916
 20
146.3424677934747
 10
695.2819838032706
 20
145.0846651997823
 10
695.3175285303493
 20
143.8418537961322
 10
695.3530732574283
 20
142.6146905053994
 10
695.388617984507
 20
141.4037879484777
 10
695.424162711586
 20
140.2097057247761
 10
695.459707438665
 20
139.0330003115589
 10
695.4952521657441
 20
137.8742281860908
 10
695.5307968928229
 20
136.7339458256358
 10
695.5663416199017
 20
135.6127097074587
 10
695.6018863469807
 20
134.5110763088239
 10
695.6374310740596
 20
133.4296021069956
 10
695.6729758011385
 20
132.3688435792386
 10
695.7085205282174
 20
131.329357202817
 10
695.7440652552962
 20
130.3116994549953
 10
695.7796099823752
 20
129.3164268130381
 10
695.8151547094541
 20
128.3440902982861
 10
695.850699436533
 20
127.3951611808843
 10
695.8862441636119
 20
126.4700502886596
 10
695.9217888906909
 20
125.569166948566
 10
695.9573336177698
 20
124.6929204875576
 10
695.9928783448487
 20
123.8417202325883
 10
696.0284230719276
 20
123.0159755106122
 10
696.0639677990065
 20
122.2160956485832
 10
696.0995125260854
 20
121.4424899734554
 10
696.1350572531643
 20
120.6955678121828
 10
696.1706019802432
 20
119.9757384917194
 10
696.2061467073221
 20
119.2834113390193
 10
696.241691434401
 20
118.6189956810363
 10
696.27723616148
 20
117.9828865336619
 10
696.3127808885588
 20
117.3753663104209
 10
696.3483256156378
 20
116.7966641518537
 10
696.3838703427166
 20
116.2470088809117
 10
696.4194150697955
 20
115.7266293205467
 10
696.4549597968745
 20
115.2357542937099
 10
696.4905045239533
 20
114.7746126233531
 10
696.5260492510322
 20
114.3434331324276
 10
696.5615939781111
 20
113.9424446438851
 10
696.5971387051899
 20
113.571875980677
 10
696.6326834322688
 20
113.2319559657548
 10
696.6682281593478
 20
112.9229134220703
 10
696.7037728864268
 20
112.6449771725747
 10
696.7393176135056
 20
112.3983471004664
 10
696.7748623405846
 20
112.1830907110587
  0
LWPOLYLINE
  5
74
330
1F
100
AcDbEntity
  8
0
  6
CONTINUOUS
 62
     7
100
AcDbPolyline
 90
        3
 70
     0
 43
0.0
 10
850.8476389875337
 20
114.1532340156379
 10
850.9138776803377
 20
114.0581677140914
 10
850.9405191357204
 20
114.0492583560284
  0
LWPOLYLINE
  5
75
330
1F
100
AcDbEntity
  8
0
  6
CONTINUOUS
 62
     7
100
AcDbPolyline
 90
        3
 70
     0
 43
0.0
 10
830.8417862391906
 20
114.1667527438538
 10
830.9079882886862
 20
114.0620249690292
 10
830.9405923226163
 20
114.0492583560085
  0
LWPOLYLINE
  5
76
330
1F
100
AcDbEntity
  8
0
  6
CONTINUOUS
 62
     7
100
AcDbPolyline
 90
        3
 70
     0
 43
0.0
 10
810.8435406350882
 20
114.1627128001944
 10
810.9098145422323
 20
114.0610366406582
 10
810.9406548607931
 20
114.0492583560099
  0
LWPOLYLINE
  5
77
330
1F
100
AcDbEntity
  8
0
  6
CONTINUOUS
 62
     7
100
AcDbPolyline
 90
        3
 70
     0
 43
0.0
 10
740.8267562812689
 20
114.2056213988426
 10
740.892894853203
 20
114.0767893013306
 10
740.9404953914914
 20
114.0492583560865
  0
LWPOLYLINE
  5
78
330
1F
100
AcDbEntity
  8
0
  6
CONTINUOUS
 62
     7
100
AcDbPolyline
 90
        3
 70
     0
 43
0.0
 10
820.8426780829385
 20
114.1648828547778
 10
820.9089547813999
 20
114.061522121546
 10
820.9406281639249
 20
114.0492583560078
  0
LWPOLYLINE
  5
79
330
1F
100
AcDbEntity
  8
0
  6
CONTINUOUS
 62
     7
100
AcDbPolyline
 90
        3
 70
     0
 43
0.0
 10
860.8506491235394
 20
114.1468643969144
 10
860.9187696152493
 20
114.0551706055998
 10
860.940491214183
 20
114.0492583560784
  0
LWPOLYLINE
  5
7A
330
1F
100
AcDbEntity
  8
0
  6
CONTINUOUS
 62
     7
100
AcDbPolyline
 90
        3
 70
     0
 43
0.0
 10
870.3351924099629
 20
118.4094982128379
 10
870.4175885925231
 20
117.3123683457847
 10
870.4999998075341
 20
116.3706438090269
  0
LWPOLYLINE
  5
7B
330
1F
100
AcDbEntity
  8
0
  6
CONTINUOUS
 62
     7
100
AcDbPolyline
 90
        3
 70
     0
 43
0.0
 10
840.8485434352114
 20
114.1509948480654
 10
840.9147417225231
 20
114.0574669859286
 10
840.9405533294952
 20
114.0492583560361
  0
LWPOLYLINE
  5
7C
330
1F
100
AcDbEntity
  8
0
  6
CONTINUOUS
 62
     7
100
AcDbPolyline
 90
      105
 70
     0
 43
0.0
 10
865.7245022695746
 20
237.9175737976987
 10
865.7704205151321
 20
237.6334178471405
 10
865.8163387606894
 20
237.2971274518747
 10
865.8622570062468
 20
236.9090969649496
 10
865.9081752518042
 20
236.4697207394138
 10
865.9540934973614
 20
235.9793931283155
 10
866.000011742919
 20
235.438508484703
 10
866.0459299884764
 20
234.8474611616248
 10
866.0918482340337
 20
234.2066455121292
 10
866.1377664795909
 20
233.5164558892646
 10
866.1836847251484
 20
232.7773344828784
 10
866.2296029707056
 20
231.9899869858981
 10
866.2755212162627
 20
231.1552093339367
 10
866.3214394618202
 20
230.2737975422772
 10
866.3673577073774
 20
229.3465476262024
 10
866.4132759529346
 20
228.3742556009948
 10
866.459194198492
 20
227.3577174819373
 10
866.5051124440491
 20
226.2977292843126
 10
866.5510306896063
 20
225.1950870234035
 10
866.5969489351636
 20
224.0505867144926
 10
866.6428671807208
 20
222.8650749934234
 10
866.6887854262783
 20
221.6396226492412
 10
866.7347036718354
 20
220.3753624945889
 10
866.7806219173926
 20
219.0734273442905
 10
866.8265401629499
 20
217.7349500131699
 10
866.8724584085072
 20
216.3610633160512
 10
866.9183766540646
 20
214.9529000677582
 10
866.9642948996219
 20
213.5115930831149
 10
867.0102131451791
 20
212.0382751769453
 10
867.0561313907366
 20
210.5340791663507
 10
867.1020496362938
 20
209.0001834629385
 10
867.1479678818511
 20
207.4379291230943
 10
867.1938861274086
 20
205.8486934546385
 10
867.239804372966
 20
204.2338537653915
 10
867.2857226185233
 20
202.5947873631737
 10
867.3316408640807
 20
200.9328715558055
 10
867.3775591096381
 20
199.2494836511074
 10
867.4234773551956
 20
197.5460009568997
 10
867.4693956007528
 20
195.8238007810027
 10
867.5153138463102
 20
194.0842604608469
 10
867.5612320918674
 20
192.3287873908458
 10
867.6071503374249
 20
190.558875620158
 10
867.653068582982
 20
188.7760347207318
 10
867.6989868285394
 20
186.9817742645156
 10
867.7449050740969
 20
185.1776038234576
 10
867.7908233196539
 20
183.3650329695059
 10
867.8367415652114
 20
181.5455712746091
 10
867.8826598107689
 20
179.7207283107154
 10
867.9285780563262
 20
177.892013649773
 10
867.9744963018835
 20
176.0609368730996
 10
868.0204145474407
 20
174.2290100754309
 10
868.0663327929981
 20
172.3977512433557
 10
868.1122510385554
 20
170.5686792066408
 10
868.1581692841127
 20
168.743312795053
 10
868.2040875296701
 20
166.9231708383593
 10
868.2500057752275
 20
165.1097721663264
 10
868.2959240207847
 20
163.3046356087213
 10
868.341842266342
 20
161.5092799953109
 10
868.3877605118994
 20
159.725224155862
 10
868.4336787574565
 20
157.9539866054122
 10
868.479597003014
 20
156.1970494371778
 10
868.5255152485712
 20
154.4558248837038
 10
868.5714334941284
 20
152.7317172719002
 10
868.6173517396857
 20
151.0261309286768
 10
868.6632699852428
 20
149.3404701809437
 10
868.7091882308002
 20
147.6761393556107
 10
868.7551064763574
 20
146.0345427795876
 10
868.8010247219146
 20
144.4170847797845
 10
868.8469429674719
 20
142.8251696831113
 10
868.8928612130293
 20
141.260200486698
 10
868.9387794585866
 20
139.7234964185336
 10
868.9846977041437
 20
138.2162445212915
 10
869.0306159497012
 20
136.7396201885264
 10
869.0765341952587
 20
135.2947988137931
 10
869.1224524408159
 20
133.8829557906461
 10
869.1683706863731
 20
132.5052665126401
 10
869.2142889319305
 20
131.1629063733298
 10
869.260207177488
 20
129.8570507662699
 10
869.3061254230453
 20
128.5888750850149
 10
869.3520436686028
 20
127.3595512920218
 10
869.39796191416
 20
126.1701169723473
 10
869.4438801597173
 20
125.0214345731273
 10
869.4897984052749
 20
123.9143547785214
 10
869.5357166508322
 20
122.849728272689
 10
869.5816348963895
 20
121.8284057397897
 10
869.627553141947
 20
120.851237863983
 10
869.6734713875044
 20
119.9190753294284
 10
869.7193896330614
 20
119.0327688202853
 10
869.7653078786188
 20
118.1931690207134
 10
869.8112261241762
 20
117.4011197596908
 10
869.8571443697333
 20
116.6572833195077
 10
869.9030626152908
 20
115.9621260876036
 10
869.948980860848
 20
115.3161047213983
 10
869.9948991064052
 20
114.7196758783115
 10
870.0408173519626
 20
114.1732962157632
 10
870.0867355975198
 20
113.6774223911732
 10
870.1326538430772
 20
113.2325110619611
 10
870.1785720886344
 20
112.839018885547
 10
870.2244903341916
 20
112.4974025193506
 10
870.270408579749
 20
112.2081071168134
 10
870.3163268253063
 20
111.9713598364676
 10
870.3622450708635
 20
111.78719296063
 10
870.4081633164208
 20
111.6556319096019
 10
870.4540815619782
 20
111.576702103685
 10
870.4999998075344
 20
111.5504289631805
  0
LWPOLYLINE
  5
7D
330
1F
100
AcDbEntity
  8
0
  6
CONTINUOUS
 62
     7
100
AcDbPolyline
 90
      105
 70
     0
 43
0.0
 10
855.7244946515107
 20
237.9174428036887
 10
855.7704131751283
 20
237.6332492394899
 10
855.8163316987456
 20
237.2969989239034
 10
855.8622502223633
 20
236.9090590481525
 10
855.9081687459807
 20
236.4697968034599
 10
855.9540872695983
 20
235.9795793810488
 10
856.0000057932159
 20
235.4387739721421
 10
856.0459243168334
 20
234.8477477679629
 10
856.0918428404508
 20
234.2068679597341
 10
856.1377613640683
 20
233.5165117417936
 10
856.1836798876858
 20
232.7772575700836
 10
856.2295984113032
 20
231.9898703493558
 10
856.2755169349205
 20
231.1551220194886
 10
856.321435458538
 20
230.2737845203605
 10
856.3673539821554
 20
229.3466297918498
 10
856.4132725057727
 20
228.3744297738351
 10
856.4591910293901
 20
227.3579564061947
 10
856.5051095530075
 20
226.2979816288071
 10
856.5510280766249
 20
225.1952773815507
 10
856.5969466002422
 20
224.0506280009367
 10
856.6428651238596
 20
222.8650022448348
 10
856.6887836474771
 20
221.6395102942834
 10
856.7347021710945
 20
220.3752659368891
 10
856.7806206947117
 20
219.0733829602584
 10
856.8265392183291
 20
217.7349751519978
 10
856.8724577419466
 20
216.3611562997137
 10
856.9183762655641
 20
214.9530401910127
 10
856.9642947891816
 20
213.5117406135012
 10
857.0102133127991
 20
212.0383713547857
 10
857.0561318364164
 20
210.5340589943154
 10
857.1020503600339
 20
209.0000751240315
 10
857.1479688836516
 20
207.4377831682305
 10
857.193887407269
 20
205.8485480061203
 10
857.2398059308865
 20
204.233734516909
 10
857.2857244545044
 20
202.5947075798045
 10
857.3316429781215
 20
200.9328320740147
 10
857.3775615017393
 20
199.2494728787477
 10
857.4234800253568
 20
197.5459948732113
 10
857.4693985489744
 20
195.8237629366137
 10
857.5153170725916
 20
194.0841516183292
 10
857.5612355962091
 20
192.3286208276324
 10
857.6071541198266
 20
190.5586749362112
 10
857.6530726434439
 20
188.7758186987427
 10
857.6989911670614
 20
186.9815568699036
 10
857.7449096906788
 20
185.1773942043706
 10
857.7908282142963
 20
183.3648354568207
 10
857.8367467379137
 20
181.5453853819305
 10
857.882665261531
 20
179.720548734377
 10
857.9285837851484
 20
177.8918302688368
 10
857.9745023087656
 20
176.0607363143734
 10
858.0204208323831
 20
174.2287841878248
 10
858.0663393560004
 20
172.3974958882005
 10
858.1122578796177
 20
170.5683934318687
 10
858.158176403235
 20
168.7429988351972
 10
858.2040949268522
 20
166.9228341145541
 10
858.2500134504696
 20
165.1094212863073
 10
858.2959319740871
 20
163.304282366825
 10
858.3418504977046
 20
161.508939372475
 10
858.3877690213219
 20
159.7249143196254
 10
858.4336875449393
 20
157.9537166763117
 10
858.4796060685569
 20
156.1967859564572
 10
858.5255245921745
 20
154.4555374413978
 10
858.5714431157919
 20
152.7313863888597
 10
858.6173616394093
 20
151.0257480565685
 10
858.663280163027
 20
149.3400377022504
 10
858.7091986866444
 20
147.6756705836312
 10
858.755117210262
 20
146.0340619584367
 10
858.8010357338795
 20
144.4166270843929
 10
858.8469542574971
 20
142.8247812192258
 10
858.8928727811145
 20
141.2599066402968
 10
858.9387913047321
 20
139.7232378818449
 10
858.9847098283498
 20
138.2159681237537
 10
859.0306283519672
 20
136.7392905439196
 10
859.0765468755845
 20
135.294398320239
 10
859.122465399202
 20
133.8824846306084
 10
859.1683839228195
 20
132.504742652924
 10
859.214302446437
 20
131.1623655650823
 10
859.2602209700544
 20
129.8565465449797
 10
859.3061394936718
 20
128.5884787683391
 10
859.3520580172893
 20
127.3592965124803
 10
859.3979765409066
 20
126.1699215568775
 10
859.4438950645241
 20
125.0212277744144
 10
859.4898135881414
 20
123.9140890379746
 10
859.5357321117588
 20
122.8493792204415
 10
859.5816506353761
 20
121.8279721946988
 10
859.6275691589935
 20
120.8507418336301
 10
859.6734876826108
 20
119.9185620101188
 10
859.7194062062282
 20
119.0323065970486
 10
859.7653247298457
 20
118.1928493884602
 10
859.811243253463
 20
117.4009762963834
 10
859.8571617770804
 20
116.6572170927258
 10
859.9030803006979
 20
115.9620551384983
 10
859.9489988243154
 20
115.3159737947119
 10
859.9949173479329
 20
114.7194564223773
 10
860.0408358715503
 20
114.1729863825054
 10
860.0867543951676
 20
113.6770470361071
 10
860.132672918785
 20
113.2321217441932
 10
860.1785914424025
 20
112.8386938677747
 10
860.2245099660199
 20
112.4972463585542
 10
860.2704284896375
 20
112.2081464524426
 10
860.3163470132549
 20
111.9714872966233
 10
860.3622655368724
 20
111.7873223539343
 10
860.4081840604898
 20
111.6557050872134
 10
860.4541025841074
 20
111.5766889592987
 10
860.5000211077237
 20
111.5503274330279
  0
LWPOLYLINE
  5
7E
330
1F
100
AcDbEntity
  8
0
  6
CONTINUOUS
 62
     7
100
AcDbPolyline
 90
      105
 70
     0
 43
0.0
 10
-731.9999868944379
 20
238.5481033311623
 10
-732.045929168217
 20
238.5214459276384
 10
-732.0918714419962
 20
238.4420797506524
 10
-732.137813715775
 20
238.3100390385438
 10
-732.1837559895541
 20
238.1253580296522
 10
-732.229698263333
 20
237.8880709623172
 10
-732.2756405371122
 20
237.5982134526981
 10
-732.3215828108911
 20
237.2559620804309
 10
-732.3675250846703
 20
236.8617543356241
 10
-732.4134673584492
 20
236.4160559650605
 10
-732.4594096322284
 20
235.9193327155237
 10
-732.5053519060073
 20
235.3720503337967
 10
-732.5512941797863
 20
234.7746745666626
 10
-732.5972364535654
 20
234.1276711609048
 10
-732.6431787273443
 20
233.4315058633064
 10
-732.6891210011233
 20
232.6866444206507
 10
-732.7350632749024
 20
231.8935552702463
 10
-732.7810055486814
 20
231.0528556389752
 10
-732.8269478224604
 20
230.1653863880294
 10
-732.8728900962395
 20
229.2320068216172
 10
-732.9188323700184
 20
228.2535762439471
 10
-732.9647746437975
 20
227.2309539592273
 10
-733.0107169175765
 20
226.1649992716662
 10
-733.0566591913555
 20
225.0565714854721
 10
-733.1026014651344
 20
223.9065299048535
 10
-733.1485437389135
 20
222.7157338340186
 10
-733.1944860126926
 20
221.4850466344275
 10
-733.2404282864715
 20
220.2154705439764
 10
-733.2863705602505
 20
218.9081780011239
 10
-733.3323128340295
 20
217.5643518477613
 10
-733.3782551078085
 20
216.1851749257791
 10
-733.4241973815875
 20
214.7718300770683
 10
-733.4701396553666
 20
213.32550014352
 10
-733.5160819291455
 20
211.8473679670249
 10
-733.5620242029245
 20
210.338616389474
 10
-733.6079664767037
 20
208.8004282527583
 10
-733.6539087504826
 20
207.233991115951
 10
-733.6998510242619
 20
205.6406013069611
 10
-733.7457932980408
 20
204.0216640747699
 10
-733.7917355718198
 20
202.3785894159891
 10
-733.8376778455989
 20
200.7127873272304
 10
-733.8836201193778
 20
199.0256678051052
 10
-733.9295623931569
 20
197.3186408462253
 10
-733.9755046669359
 20
195.5931164472022
 10
-734.0214469407149
 20
193.8505046046476
 10
-734.067389214494
 20
192.0922153151731
 10
-734.1133314882729
 20
190.3196621651499
 10
-734.1592737620521
 20
188.5343177282267
 10
-734.2052160358312
 20
186.7377028446921
 10
-734.25115830961
 20
184.9313397733888
 10
-734.2971005833892
 20
183.1167507731597
 10
-734.3430428571683
 20
181.2954581028474
 10
-734.388985130947
 20
179.4689840212948
 10
-734.4349274047261
 20
177.6388507873445
 10
-734.4808696785053
 20
175.8065806598395
 10
-734.5268119522841
 20
173.9736958976222
 10
-734.5727542260634
 20
172.1417182103034
 10
-734.6186964998424
 20
170.3121626213299
 10
-734.6646387736212
 20
168.4865396929561
 10
-734.7105810474003
 20
166.666359906165
 10
-734.7565233211793
 20
164.8531337419391
 10
-734.8024655949583
 20
163.0483716812612
 10
-734.8484078687374
 20
161.2535842051141
 10
-734.8943501425163
 20
159.4702817944804
 10
-734.9402924162954
 20
157.699974930343
 10
-734.9862346900743
 20
155.9441740936845
 10
-735.0321769638532
 20
154.2043809732311
 10
-735.0781192376323
 20
152.4820157779708
 10
-735.1240615114114
 20
150.7784545664492
 10
-735.1700037851905
 20
149.0950729614079
 10
-735.2159460589695
 20
147.433246585588
 10
-735.2618883327486
 20
145.7943510617312
 10
-735.3078306065277
 20
144.1797620125788
 10
-735.3537728803067
 20
142.5908550608723
 10
-735.3997151540857
 20
141.0290058293531
 10
-735.4456574278646
 20
139.4955899407626
 10
-735.4915997016437
 20
137.9919612542924
 10
-735.5375419754229
 20
136.5193171733356
 10
-735.5834842492019
 20
135.0787866592229
 10
-735.6294265229809
 20
133.6714983848933
 10
-735.6753687967599
 20
132.2985810232856
 10
-735.7213110705388
 20
130.9611632473388
 10
-735.767253344318
 20
129.660373729992
 10
-735.8131956180969
 20
128.3973411441839
 10
-735.8591378918759
 20
127.1731941628536
 10
-735.905080165655
 20
125.9890614589399
 10
-735.951022439434
 20
124.8460324267623
 10
-735.9969647132131
 20
123.7449746725668
 10
-736.042906986992
 20
122.6866780342646
 10
-736.088849260771
 20
121.6719322659456
 10
-736.13479153455
 20
120.7015271216998
 10
-736.180733808329
 20
119.7762523556173
 10
-736.226676082108
 20
118.896897721788
 10
-736.2726183558871
 20
118.0642529743018
 10
-736.3185606296661
 20
117.2791078672488
 10
-736.3645029034451
 20
116.542252154719
 10
-736.4104451772241
 20
115.8544155229799
 10
-736.4563874510033
 20
115.2160593458193
 10
-736.5023297247824
 20
114.6275701093135
 10
-736.5482719985613
 20
114.0893342961991
 10
-736.5942142723404
 20
113.6017383892123
 10
-736.6401565461198
 20
113.1651688710895
 10
-736.6860988198985
 20
112.7800122245671
 10
-736.7320410936777
 20
112.4466549323813
 10
-736.7779833674567
 20
112.1654834772689
210
0.0
220
0.0
230
-1.0
  0
LWPOLYLINE
  5
7F
330
1F
100
AcDbEntity
  8
0
  6
CONTINUOUS
 62
     7
100
AcDbPolyline
 90
       33
 70
     0
 43
0.0
 10
820.5002398472858
 20
111.5495305783949
 10
820.5072497949717
 20
111.5501713467967
 10
820.5142597426577
 20
111.5520476196327
 10
820.5212696903436
 20
111.5551599852098
 10
820.5282796380294
 20
111.5595090318353
 10
820.5352895857155
 20
111.5650953478162
 10
820.5422995334014
 20
111.5719195214596
 10
820.5493094810872
 20
111.5799821410727
 10
820.5563194287731
 20
111.5892837945019
 10
820.5633293764591
 20
111.5998247066028
 10
820.5703393241449
 20
111.6116040882334
 10
820.5773492718309
 20
111.624620974562
 10
820.5843592195167
 20
111.6388744007568
 10
820.5913691672027
 20
111.6543634019862
 10
820.5983791148885
 20
111.6710870134183
 10
820.6053890625747
 20
111.6890442702214
 10
820.6123990102604
 20
111.7082342075637
 10
820.6194089579462
 20
111.7286558606135
 10
820.6264189056322
 20
111.7503082645392
 10
820.6334288533182
 20
111.7731904545088
 10
820.640438801004
 20
111.7973014656907
 10
820.6474487486901
 20
111.8226403332531
 10
820.654458696376
 20
111.8492060923643
 10
820.6614686440619
 20
111.8769977781926
 10
820.6684785917475
 20
111.9060144259061
 10
820.6754885394337
 20
111.9362550706732
 10
820.6824984871195
 20
111.9677187476621
 10
820.6895084348055
 20
112.000404492041
 10
820.6965183824914
 20
112.0343113389782
 10
820.7035283301772
 20
112.069438323642
 10
820.710538277863
 20
112.1057844812006
 10
820.717548225549
 20
112.1433488468223
 10
820.7245581732345
 20
112.1821304556729
  0
LWPOLYLINE
  5
80
330
1F
100
AcDbEntity
  8
0
  6
CONTINUOUS
 62
     7
100
AcDbPolyline
 90
       33
 70
     0
 43
0.0
 10
-825.5001262559506
 20
238.5488867637072
 10
-825.5071348674084
 20
238.5482719983768
 10
-825.514143478866
 20
238.5464234367782
 10
-825.5211520903239
 20
238.5433405405452
 10
-825.5281607017815
 20
238.5390227713119
 10
-825.5351693132391
 20
238.5334695907119
 10
-825.542177924697
 20
238.5266804603795
 10
-825.5491865361546
 20
238.5186548419482
 10
-825.5561951476122
 20
238.5093921970521
 10
-825.56320375907
 20
238.4988919873252
 10
-825.5702123705279
 20
238.4871536744039
 10
-825.5772209819855
 20
238.4741769960201
 10
-825.5842295934433
 20
238.4599627236176
 10
-825.5912382049008
 20
238.4445118705186
 10
-825.5982468163586
 20
238.4278254500453
 10
-825.6052554278165
 20
238.40990447552
 10
-825.612264039274
 20
238.3907499602646
 10
-825.6192726507319
 20
238.3703629176015
 10
-825.6262812621895
 20
238.3487443608528
 10
-825.6332898736473
 20
238.3258953033406
 10
-825.6402984851048
 20
238.3018167583873
 10
-825.6473070965625
 20
238.2765097393148
 10
-825.6543157080205
 20
238.2499752594456
 10
-825.6613243194782
 20
238.2222143321016
 10
-825.6683329309357
 20
238.1932279706049
 10
-825.6753415423937
 20
238.163017188278
 10
-825.6823501538513
 20
238.1315829984429
 10
-825.689358765309
 20
238.0989264144218
 10
-825.6963673767665
 20
238.0650484495368
 10
-825.7033759882245
 20
238.0299501171102
 10
-825.7103845996822
 20
237.9936324304641
 10
-825.7173932111399
 20
237.9560964029207
 10
-825.7244018225974
 20
237.9173430478031
210
0.0
220
0.0
230
-1.0
  0
LWPOLYLINE
  5
81
330
1F
100
AcDbEntity
  8
0
  6
CONTINUOUS
 62
     7
100
AcDbPolyline
 90
      105
 70
     0
 43
0.0
 10
-721.9998183954925
 20
238.5480509456401
 10
-722.045736866527
 20
238.5217290672346
 10
-722.0916553375612
 20
238.4427377443556
 10
-722.1375738085957
 20
238.3110831132936
 10
-722.1834922796301
 20
238.1267713103388
 10
-722.2294107506646
 20
237.8898084717815
 10
-722.2753292216989
 20
237.6002525909077
 10
-722.3212476927333
 20
237.258445313917
 10
-722.3671661637678
 20
236.8648247821258
 10
-722.4130846348023
 20
236.4198292171111
 10
-722.4590031058368
 20
235.9238968404503
 10
-722.5049215768712
 20
235.3774658737205
 10
-722.5508400479056
 20
234.780974538499
 10
-722.5967585189402
 20
234.134861056363
 10
-722.6426769899746
 20
233.4395636488897
 10
-722.6885954610091
 20
232.6955205376564
 10
-722.7345139320436
 20
231.903229953418
 10
-722.7804324030781
 20
231.0634539905458
 10
-722.8263508741122
 20
230.1770272456853
 10
-722.8722693451468
 20
229.2447843175524
 10
-722.9181878161812
 20
228.2675598048632
 10
-722.9641062872155
 20
227.2461883063336
 10
-723.0100247582501
 20
226.1815044206795
 10
-723.0559432292845
 20
225.074342746617
 10
-723.1018617003188
 20
223.925537882862
 10
-723.1477801713532
 20
222.7359244317992
 10
-723.1936986423876
 20
221.5063986538272
 10
-723.2396171134219
 20
220.2380751921395
 10
-723.2855355844564
 20
218.9321170159565
 10
-723.3314540554908
 20
217.5896870944983
 10
-723.3773725265252
 20
216.211948396985
 10
-723.4232909975594
 20
214.8000638926368
 10
-723.469209468594
 20
213.355196550674
 10
-723.5151279396283
 20
211.8785093403166
 10
-723.5610464106628
 20
210.3711652307848
 10
-723.6069648816972
 20
208.8343272471413
 10
-723.6528833527316
 20
207.2692118393215
 10
-723.698801823766
 20
205.6771883916714
 10
-723.7447202948005
 20
204.0596534802629
 10
-723.7906387658348
 20
202.4180036811676
 10
-723.8365572368692
 20
200.7536355704574
 10
-723.8824757079038
 20
199.0679457242043
 10
-723.9283941789383
 20
197.3623307184799
 10
-723.9743126499727
 20
195.6381871293561
 10
-724.0202311210071
 20
193.8969115329046
 10
-724.0661495920415
 20
192.1399006314749
 10
-724.1120680630758
 20
190.3685838429171
 10
-724.1579865341104
 20
188.5844667387318
 10
-724.2039050051447
 20
186.7890657029153
 10
-724.2498234761792
 20
184.9838971194637
 10
-724.2957419472136
 20
183.1704773723733
 10
-724.341660418248
 20
181.3503228456404
 10
-724.3875788892824
 20
179.5249499232613
 10
-724.4334973603168
 20
177.6958749892322
 10
-724.4794158313512
 20
175.8646144275492
 10
-724.5253343023857
 20
174.0326846115804
 10
-724.57125277342
 20
172.2016007145074
 10
-724.6171712444545
 20
170.3728756233816
 10
-724.6630897154888
 20
168.5480219687399
 10
-724.7090081865233
 20
166.7285523811191
 10
-724.7549266575577
 20
164.9159794910562
 10
-724.8008451285923
 20
163.111815929088
 10
-724.8467635996267
 20
161.3175743257514
 10
-724.8926820706611
 20
159.5347673115833
 10
-724.9386005416956
 20
157.7649075171207
 10
-724.98451901273
 20
156.0095068175025
 10
-725.0304374837643
 20
154.2700303950584
 10
-725.0763559547987
 20
152.5478702599481
 10
-725.1222744258332
 20
150.8444120337132
 10
-725.1681928968676
 20
149.1610413378951
 10
-725.2141113679019
 20
147.4991437940353
 10
-725.2600298389364
 20
145.8601050236753
 10
-725.3059483099707
 20
144.2453106483565
 10
-725.3518667810052
 20
142.6561462896206
 10
-725.3977852520396
 20
141.0939975690087
 10
-725.443703723074
 20
139.5602475223882
 10
-725.4896221941084
 20
138.0561794822814
 10
-725.5355406651428
 20
136.5829477324221
 10
-725.5814591361772
 20
135.1416979790508
 10
-725.6273776072115
 20
133.7335759284076
 10
-725.6732960782459
 20
132.359727286733
 10
-725.7192145492804
 20
131.0212977602673
 10
-725.7651330203148
 20
129.7194330552507
 10
-725.8110514913492
 20
128.4552788779237
 10
-725.8569699623836
 20
127.2299809345265
 10
-725.9028884334181
 20
126.0446790334407
 10
-725.9488069044523
 20
124.9003588586322
 10
-725.9947253754868
 20
123.7978409492777
 10
-726.0406438465216
 20
122.7379377393246
 10
-726.0865623175558
 20
121.7214616627202
 10
-726.1324807885906
 20
120.7492251534117
 10
-726.1783992596247
 20
119.8220406453463
 10
-726.2243177306593
 20
118.9407205724714
 10
-726.2702362016937
 20
118.1060773687343
 10
-726.3161546727281
 20
117.3189234680821
 10
-726.3620731437627
 20
116.5800604862134
 10
-726.407991614797
 20
115.8900874465481
 10
-726.4539100858315
 20
115.249423553473
 10
-726.4998285568657
 20
114.6584817680868
 10
-726.5457470279002
 20
114.1176750514884
 10
-726.5916654989348
 20
113.6274163647766
 10
-726.637583969969
 20
113.1881186690501
 10
-726.6835024410036
 20
112.8001949254078
 10
-726.7294209120378
 20
112.4640580949484
 10
-726.7753393830724
 20
112.1801211387699
210
0.0
220
0.0
230
-1.0
  0
LWPOLYLINE
  5
82
330
1F
100
AcDbEntity
  8
0
  6
CONTINUOUS
 62
     7
100
AcDbPolyline
 90
      113
 70
     0
 43
0.0
 10
-711.9997636511829
 20
238.5480715608167
 10
-712.0423982633072
 20
238.5255404940941
 10
-712.0850328754317
 20
238.4575767790195
 10
-712.1276674875558
 20
238.3441628744101
 10
-712.1703020996802
 20
238.185281239083
 10
-712.2129367118043
 20
237.9809147052549
 10
-712.2555713239287
 20
237.7311410795758
 10
-712.298205936053
 20
237.4362584183546
 10
-712.3408405481773
 20
237.0965959175685
 10
-712.3834751603017
 20
236.7124827731948
 10
-712.426109772426
 20
236.2842481812106
 10
-712.4687443845503
 20
235.812221337593
 10
-712.5113789966746
 20
235.2967314383193
 10
-712.5540136087991
 20
234.7381076793667
 10
-712.5966482209233
 20
234.1366792567122
 10
-712.6392828330478
 20
233.4927753663331
 10
-712.6819174451721
 20
232.8067316214882
 10
-712.7245520572963
 20
232.0790356704196
 10
-712.7671866694207
 20
231.310329703275
 10
-712.8098212815449
 20
230.5012628289105
 10
-712.8524558936692
 20
229.6524841561821
 10
-712.8950905057934
 20
228.764642793946
 10
-712.9377251179177
 20
227.838387851058
 10
-712.9803597300422
 20
226.8743684363745
 10
-713.0229943421666
 20
225.8732336587512
 10
-713.0656289542908
 20
224.8356326270444
 10
-713.108263566415
 20
223.76221445011
 10
-713.1508981785391
 20
222.6536511258195
 10
-713.1935327906635
 20
221.5107831623865
 10
-713.2361674027878
 20
220.3345263397867
 10
-713.278802014912
 20
219.1257967876191
 10
-713.3214366270364
 20
217.8855106354827
 10
-713.3640712391608
 20
216.6145840129764
 10
-713.4067058512851
 20
215.3139330496993
 10
-713.4493404634092
 20
213.9844738752502
 10
-713.4919750755337
 20
212.6271226192282
 10
-713.5346096876578
 20
211.2427954112324
 10
-713.5772442997823
 20
209.8324084220203
 10
-713.6198789119065
 20
208.3969213503965
 10
-713.6625135240309
 20
206.9374199934803
 10
-713.7051481361553
 20
205.4550128514976
 10
-713.7477827482796
 20
203.9508084246746
 10
-713.7904173604039
 20
202.4259152132373
 10
-713.8330519725282
 20
200.8814417174119
 10
-713.8756865846527
 20
199.3184964374244
 10
-713.9183211967771
 20
197.7381878735007
 10
-713.9609558089014
 20
196.141624525867
 10
-714.0035904210257
 20
194.5299148947494
 10
-714.0462250331501
 20
192.9041687061643
 10
-714.0888596452744
 20
191.2655390862801
 10
-714.1314942573987
 20
189.6152331958988
 10
-714.1741288695229
 20
187.9544615805849
 10
-714.2167634816474
 20
186.2844347859033
 10
-714.2593980937714
 20
184.6063633574185
 10
-714.3020327058957
 20
182.9214578406953
 10
-714.34466731802
 20
181.2309287812984
 10
-714.3873019301443
 20
179.5359867247924
 10
-714.4299365422687
 20
177.837842216742
 10
-714.4725711543929
 20
176.1377058027119
 10
-714.5152057665173
 20
174.436788243306
 10
-714.5578403786416
 20
172.736302344975
 10
-714.600474990766
 20
171.037462046269
 10
-714.6431096028903
 20
169.3414812977167
 10
-714.6857442150144
 20
167.6495740498473
 10
-714.728378827139
 20
165.9629542531896
 10
-714.7710134392631
 20
164.2828358582724
 10
-714.8136480513873
 20
162.6104328156248
 10
-714.8562826635118
 20
160.9469590757756
 10
-714.898917275636
 20
159.2936285892537
 10
-714.9415518877605
 20
157.6516553061088
 10
-714.9841864998848
 20
156.0222357271337
 10
-715.0268211120091
 20
154.4065027688787
 10
-715.0694557241335
 20
152.8055748690117
 10
-715.1120903362576
 20
151.2205704652004
 10
-715.1547249483822
 20
149.6526079951127
 10
-715.1973595605064
 20
148.1028058964165
 10
-715.2399941726306
 20
146.5722826067796
 10
-715.2826287847548
 20
145.0621565638698
 10
-715.3252633968792
 20
143.5735462053551
 10
-715.3678980090036
 20
142.1075699689032
 10
-715.4105326211277
 20
140.6653450847163
 10
-715.4531672332521
 20
139.2479190006939
 10
-715.4958018453765
 20
137.8562325076784
 10
-715.5384364575008
 20
136.4912173954433
 10
-715.5810710696251
 20
135.1538054537621
 10
-715.6237056817492
 20
133.8449284724084
 10
-715.6663402938736
 20
132.5655182411556
 10
-715.7089749059979
 20
131.3165065497774
 10
-715.7516095181223
 20
130.0988251880471
 10
-715.7942441302465
 20
128.9134059457384
 10
-715.8368787423708
 20
127.7611806126246
 10
-715.8795133544951
 20
126.6430691774361
 10
-715.9221479666194
 20
125.5598436518415
 10
-715.9647825787438
 20
124.5121751919288
 10
-716.0074171908681
 20
123.5007330134039
 10
-716.0500518029925
 20
122.5261863319731
 10
-716.0926864151166
 20
121.5892043633422
 10
-716.1353210272408
 20
120.6904563232174
 10
-716.1779556393653
 20
119.8306114273048
 10
-716.2205902514896
 20
119.0103388913103
 10
-716.2632248636139
 20
118.2303079309401
 10
-716.3058594757383
 20
117.4911877619003
 10
-716.3484940878627
 20
116.7936017790619
 10
-716.3911286999869
 20
116.1379626429173
 10
-716.4337633121112
 20
115.5246224698797
 10
-716.4763979242355
 20
114.9539333710602
 10
-716.5190325363598
 20
114.4262474575705
 10
-716.561667148484
 20
113.9419168405219
 10
-716.6043017606085
 20
113.501293631026
 10
-716.6469363727326
 20
113.104729940194
 10
-716.6895709848568
 20
112.7525778791375
 10
-716.7322055969812
 20
112.4451895589679
 10
-716.7748402091058
 20
112.1829160659694
210
0.0
220
0.0
230
-1.0
  0
LWPOLYLINE
  5
83
330
1F
100
AcDbEntity
  8
0
  6
CONTINUOUS
 62
     7
100
AcDbPolyline
 90
      113
 70
     0
 43
0.0
 10
-831.9997189178043
 20
238.5486568500995
 10
-832.0423536625766
 20
238.5263283813536
 10
-832.0849884073486
 20
238.4583407516764
 10
-832.1276231521209
 20
238.3446123035776
 10
-832.1702578968931
 20
238.1852615705346
 10
-832.2128926416655
 20
237.9805365135433
 10
-832.2555273864374
 20
237.7306872629808
 10
-832.2981621312097
 20
237.4359639492244
 10
-832.3407968759818
 20
237.096616702651
 10
-832.3834316207542
 20
236.7128956536379
 10
-832.4260663655264
 20
236.2850509325622
 10
-832.4687011102985
 20
235.8133326698009
 10
-832.5113358550709
 20
235.2979909957313
 10
-832.5539705998431
 20
234.7392760407305
 10
-832.5966053446155
 20
234.1374884413495
 10
-832.6392400893878
 20
233.4931476563478
 10
-832.6818748341601
 20
232.8068323927935
 10
-832.7245095789325
 20
232.0791213587862
 10
-832.7671443237048
 20
231.3105932624261
 10
-832.8097790684772
 20
230.5018268118128
 10
-832.8524138132494
 20
229.6534007150464
 10
-832.8950485580218
 20
228.7658936802268
 10
-832.9376833027942
 20
227.8398844154538
 10
-832.9803180475664
 20
226.8759516288274
 10
-833.0229527923387
 20
225.8746750680011
 10
-833.065587537111
 20
224.8367288934493
 10
-833.1082222818833
 20
223.7629557940293
 10
-833.1508570266554
 20
222.6542158999793
 10
-833.1934917714277
 20
221.5113693415373
 10
-833.2361265162
 20
220.3352762489418
 10
-833.2787612609723
 20
219.1267967524308
 10
-833.3213960057442
 20
217.8867909822425
 10
-833.3640307505166
 20
216.6161190686153
 10
-833.4066654952887
 20
215.3156411417874
 10
-833.4493002400609
 20
213.9862173319967
 10
-833.4919349848329
 20
212.6287149449601
 10
-833.5345697296054
 20
211.2441137421975
 10
-833.5772044743775
 20
209.8334827330332
 10
-833.6198392191495
 20
208.3978933827928
 10
-833.6624739639218
 20
206.9384171568017
 10
-833.705108708694
 20
205.4561255203855
 10
-833.7477434534661
 20
203.9520899388697
 10
-833.7903781982382
 20
202.4273818775798
 10
-833.8330129430107
 20
200.8830728018413
 10
-833.8756476877826
 20
199.3202341769797
 10
-833.9182824325549
 20
197.7399374683205
 10
-833.9609171773272
 20
196.1432690062537
 10
-834.0035519220995
 20
194.531396532452
 10
-834.0461866668718
 20
192.9055155164903
 10
-834.0888214116442
 20
191.2668214512535
 10
-834.1314561564164
 20
189.6165098296262
 10
-834.1740909011887
 20
187.9557761444932
 10
-834.2167256459609
 20
186.2858158887392
 10
-834.2593603907335
 20
184.6078245552491
 10
-834.3019951355055
 20
182.9229976369074
 10
-834.3446298802779
 20
181.2325306265991
 10
-834.3872646250503
 20
179.5376190545474
 10
-834.4298993698225
 20
177.8394660321679
 10
-834.4725341145949
 20
176.1392914240788
 10
-834.515168859367
 20
174.4383173369057
 10
-834.5578036041393
 20
172.7377658772743
 10
-834.6004383489114
 20
171.0388591518103
 10
-834.6430730936838
 20
169.3428192671391
 10
-834.685707838456
 20
167.6508683298865
 10
-834.7283425832283
 20
165.9642284466781
 10
-834.7709773280004
 20
164.2841217241395
 10
-834.8136120727727
 20
162.6117702688963
 10
-834.856246817545
 20
160.9483945654807
 10
-834.8988815623172
 20
159.2951796379125
 10
-834.9415163070893
 20
157.6532760467685
 10
-834.9841510518615
 20
156.0238329299964
 10
-835.0267857966337
 20
154.4079994255444
 10
-835.069420541406
 20
152.8069246713603
 10
-835.1120552861781
 20
151.2217578053921
 10
-835.1546900309504
 20
149.6536479655877
 10
-835.1973247757227
 20
148.1037442898951
 10
-835.239959520495
 20
146.5731959162624
 10
-835.2825942652672
 20
145.0631519826372
 10
-835.3252290100395
 20
143.5747464039603
 10
-835.3678637548119
 20
142.1090070183156
 10
-835.4104984995838
 20
140.6669165245346
 10
-835.4531332443563
 20
139.2494574552658
 10
-835.4957679891287
 20
137.8576123431573
 10
-835.5384027339009
 20
136.4923637208575
 10
-835.5810374786731
 20
135.1546941210146
 10
-835.6236722234454
 20
133.8455860762771
 10
-835.6663069682177
 20
132.5660221192931
 10
-835.70894171299
 20
131.316984782711
 10
-835.7515764577621
 20
130.0994565170385
 10
-835.7942112025345
 20
128.9143614178134
 10
-835.8368459473069
 20
127.7624628029999
 10
-835.879480692079
 20
126.6444965390294
 10
-835.9221154368514
 20
125.5611984923334
 10
-835.9647501816236
 20
124.5133045293432
 10
-836.0073849263958
 20
123.5015505164902
 10
-836.050019671168
 20
122.5266723202058
 10
-836.0926544159403
 20
121.5894058069213
 10
-836.1352891607127
 20
120.6904868430683
 10
-836.1779239054848
 20
119.8306512950781
 10
-836.2205586502569
 20
119.0106308673497
 10
-836.263193395029
 20
118.2310233847338
 10
-836.3058281398012
 20
117.492267378878
 10
-836.3484628845736
 20
116.7947920884865
 10
-836.3910976293458
 20
116.1390267522636
 10
-836.4337323741181
 20
115.5254006089135
 10
-836.47636711889
 20
114.9543428971404
 10
-836.5190018636624
 20
114.4262828556486
 10
-836.5616366084346
 20
113.9416497231422
 10
-836.6042713532066
 20
113.5008727383254
 10
-836.6469060979788
 20
113.1043811399026
 10
-836.6895408427512
 20
112.7525810048706
 10
-836.7321755875232
 20
112.445670626419
 10
-836.7748103322945
 20
112.1837386288786
210
0.0
220
0.0
230
-1.0
  0
LWPOLYLINE
  5
84
330
1F
100
AcDbEntity
  8
0
  6
CONTINUOUS
 62
     7
100
AcDbPolyline
 90
      105
 70
     0
 43
0.0
 10
-741.999826460055
 20
238.5482256822262
 10
-742.0457442993802
 20
238.521670783958
 10
-742.0916621387054
 20
238.4424602192316
 10
-742.1375799780304
 20
238.3106562080017
 10
-742.1834978173557
 20
238.1263209702233
 10
-742.2294156566807
 20
237.8895167258514
 10
-742.2753334960059
 20
237.6003056948408
 10
-742.3212513353309
 20
237.2587676246377
 10
-742.3671691746562
 20
236.865219631561
 10
-742.4130870139812
 20
236.4201496090832
 10
-742.4590048533064
 20
235.9240492055609
 10
-742.5049226926315
 20
235.377410069351
 10
-742.5508405319567
 20
234.7807238488104
 10
-742.5967583712818
 20
234.1344821922959
 10
-742.642676210607
 20
233.4391767481645
 10
-742.688594049932
 20
232.6952991647729
 10
-742.7345118892572
 20
231.903341090478
 10
-742.7804297285822
 20
231.0638162097794
 10
-742.8263475679073
 20
230.1774675733022
 10
-742.8722654072326
 20
229.2451744027113
 10
-742.9181832465576
 20
228.267817713177
 10
-742.9641010858827
 20
227.2462785198701
 10
-743.010018925208
 20
226.181437837961
 10
-743.055936764533
 20
225.0741766826202
 10
-743.1018546038582
 20
223.9253760690181
 10
-743.1477724431832
 20
222.7359170123254
 10
-743.1936902825082
 20
221.5066805277125
 10
-743.2396081218334
 20
220.2385717637092
 10
-743.2855259611584
 20
218.9326926800437
 10
-743.3314438004837
 20
217.5902412231105
 10
-743.3773616398089
 20
216.2124159860499
 10
-743.4232794791341
 20
214.8004155620025
 10
-743.4691973184589
 20
213.3554385441087
 10
-743.5151151577843
 20
211.8786835255093
 10
-743.5610329971094
 20
210.3713490993445
 10
-743.6069508364344
 20
208.834633858755
 10
-743.6528686757597
 20
207.2697363968813
 10
-743.6987865150849
 20
205.6778771618155
 10
-743.7447043544098
 20
204.0604181340237
 10
-743.7906221937349
 20
202.4187776727509
 10
-743.8365400330603
 20
200.7543742826673
 10
-743.8824578723853
 20
199.0686264684431
 10
-743.9283757117103
 20
197.3629527347486
 10
-743.9742935510355
 20
195.6387715862539
 10
-744.0202113903605
 20
193.8975015276294
 10
-744.0661292296858
 20
192.1405610635452
 10
-744.1120470690108
 20
190.3693686986716
 10
-744.1579649083361
 20
188.585356201083
 10
-744.2038827476613
 20
186.7900241459513
 10
-744.2498005869863
 20
184.9848953525396
 10
-744.2957184263115
 20
183.1714926512856
 10
-744.3416362656365
 20
181.3513388726272
 10
-744.3875541049617
 20
179.525956847002
 10
-744.4334719442868
 20
177.6968694048477
 10
-744.479389783612
 20
175.8655993766021
 10
-744.525307622937
 20
174.033669592703
 10
-744.5712254622623
 20
172.2026028835881
 10
-744.6171433015872
 20
170.3739189253232
 10
-744.6630611409124
 20
168.5491242240435
 10
-744.7089789802376
 20
166.7297218492967
 10
-744.7548968195628
 20
164.9172148706209
 10
-744.8008146588879
 20
163.1131063575541
 10
-744.846732498213
 20
161.3188993796346
 10
-744.8926503375382
 20
159.5360970064004
 10
-744.9385681768633
 20
157.7662023073898
 10
-744.9844860161884
 20
156.0107183521407
 10
-745.0304038555136
 20
154.2711482056298
 10
-745.0763216948386
 20
152.5489668973997
 10
-745.1222395341637
 20
150.8455550924795
 10
-745.1681573734888
 20
149.1622736230421
 10
-745.2140752128139
 20
147.5004833212607
 10
-745.259993052139
 20
145.8615450193084
 10
-745.3059108914641
 20
144.2468195493583
 10
-745.3518287307892
 20
142.6576677435835
 10
-745.3977465701144
 20
141.095450434157
 10
-745.4436644094393
 20
139.561528453252
 10
-745.4895822487646
 20
138.0572625408957
 10
-745.5355000880897
 20
136.5839529746268
 10
-745.5814179274148
 20
135.1427352675665
 10
-745.6273357667401
 20
133.73471712816
 10
-745.6732536060651
 20
132.3610062648521
 10
-745.7191714453904
 20
131.0227103860877
 10
-745.7650892847153
 20
129.7209372003117
 10
-745.8110071240405
 20
128.4567944159693
 10
-745.8569249633656
 20
127.2313897415052
 10
-745.9028428026908
 20
126.0458308853645
 10
-745.9487606420159
 20
124.9012250859376
 10
-745.9946784813412
 20
123.7985821308026
 10
-746.0405963206664
 20
122.7386954528515
 10
-746.0865141599915
 20
121.7223293760302
 10
-746.1324319993166
 20
120.7502482242847
 10
-746.1783498386417
 20
119.8232163215611
 10
-746.224267677967
 20
118.9419979918055
 10
-746.270185517292
 20
118.1073575589637
 10
-746.3161033566172
 20
117.3200593469819
 10
-746.3620211959424
 20
116.5808676798061
 10
-746.4079390352676
 20
115.890545493966
 10
-746.4538568745926
 20
115.2497215435245
 10
-746.4997747139178
 20
114.6587803831935
 10
-746.5456925532428
 20
114.1180806720711
 10
-746.591610392568
 20
113.6279810692554
 10
-746.637528231893
 20
113.1888402338447
 10
-746.6834460712182
 20
112.801016824937
 10
-746.7293639105433
 20
112.4648695016305
 10
-746.7752817498686
 20
112.1807569230217
210
0.0
220
0.0
230
-1.0
  0
LWPOLYLINE
  5
85
330
1F
100
AcDbEntity
  8
0
  6
CONTINUOUS
 62
     7
100
AcDbPolyline
 90
      113
 70
     0
 43
0.0
 10
-701.9999902722667
 20
238.5481649114523
 10
-702.0426487202586
 20
238.5254521647736
 10
-702.0853071682507
 20
238.4572134577372
 10
-702.1279656162426
 20
238.3434087350796
 10
-702.1706240642345
 20
238.1839979415377
 10
-702.2132825122266
 20
237.978980314398
 10
-702.2559409602185
 20
237.7285822984723
 10
-702.2985994082103
 20
237.4331118195371
 10
-702.3412578562022
 20
237.0928769082057
 10
-702.3839163041944
 20
236.7081855950918
 10
-702.4265747521863
 20
236.2793459108085
 10
-702.4692332001782
 20
235.8066658859695
 10
-702.5118916481704
 20
235.2904535511881
 10
-702.5545500961622
 20
234.7310169370779
 10
-702.5972085441541
 20
234.1286640742522
 10
-702.6398669921462
 20
233.4837033722352
 10
-702.6825254401381
 20
232.7965328158806
 10
-702.72518388813
 20
232.0677549881443
 10
-702.767842336122
 20
231.2980009058787
 10
-702.810500784114
 20
230.4879015859365
 10
-702.8531592321059
 20
229.6380880451701
 10
-702.8958176800978
 20
228.749191300432
 10
-702.93847612809
 20
227.8218423685747
 10
-702.9811345760819
 20
226.8566722664508
 10
-703.0237930240739
 20
225.8543120109125
 10
-703.0664514720659
 20
224.8153926188127
 10
-703.1091099200579
 20
223.7405509394688
 10
-703.1517683680498
 20
222.6305548120128
 10
-703.1944268160419
 20
221.4863013352043
 10
-703.2370852640338
 20
220.3086930942119
 10
-703.2797437120258
 20
219.0986326742042
 10
-703.3224021600178
 20
217.8570226603499
 10
-703.3650606080098
 20
216.5847656378175
 10
-703.4077190560017
 20
215.2827641917757
 10
-703.4503775039938
 20
213.951920907393
 10
-703.4930359519858
 20
212.593138369838
 10
-703.5356943999777
 20
211.2073191642794
 10
-703.5783528479697
 20
209.7953839764915
 10
-703.6210112959615
 20
208.3583795784562
 10
-703.6636697439537
 20
206.8974063800241
 10
-703.7063281919457
 20
205.4135649882216
 10
-703.7489866399374
 20
203.9079560100751
 10
-703.7916450879293
 20
202.3816800526111
 10
-703.8343035359214
 20
200.8358377228558
 10
-703.8769619839134
 20
199.2715296278355
 10
-703.9196204319053
 20
197.6898563745767
 10
-703.9622788798973
 20
196.0919185701056
 10
-704.0049373278893
 20
194.4788168629759
 10
-704.0475957758811
 20
192.8516779278894
 10
-704.0902542238731
 20
191.2116989029836
 10
-704.1329126718653
 20
189.5600887350256
 10
-704.1755711198572
 20
187.8980563707822
 10
-704.2182295678491
 20
186.2268107570204
 10
-704.2608880158413
 20
184.5475608405071
 10
-704.303546463833
 20
182.8615155680094
 10
-704.346204911825
 20
181.169883886294
 10
-704.3888633598169
 20
179.4738747421281
 10
-704.431521807809
 20
177.7746970822785
 10
-704.474180255801
 20
176.0735599983149
 10
-704.5168387037929
 20
174.3716769501859
 10
-704.559497151785
 20
172.6702664349092
 10
-704.6021555997769
 20
170.9705472288949
 10
-704.6448140477688
 20
169.2737381085529
 10
-704.6874724957609
 20
167.5810578502933
 10
-704.7301309437528
 20
165.8937252305259
 10
-704.7727893917447
 20
164.2129590256607
 10
-704.8154478397366
 20
162.5399780121076
 10
-704.8581062877287
 20
160.8760009662766
 10
-704.9007647357207
 20
159.2222466645776
 10
-704.9434231837126
 20
157.5799273651587
 10
-704.9860816317048
 20
155.9502002464068
 10
-705.0287400796966
 20
154.3341948123347
 10
-705.0713985276885
 20
152.7330403579367
 10
-705.1140569756806
 20
151.1478661782073
 10
-705.1567154236726
 20
149.579801568141
 10
-705.1993738716645
 20
148.0299758227322
 10
-705.2420323196566
 20
146.4995182369754
 10
-705.2846907676486
 20
144.9895581058651
 10
-705.3273492156404
 20
143.5012247243955
 10
-705.3700076636325
 20
142.035647376106
 10
-705.4126661116245
 20
140.593918088052
 10
-705.4553245596164
 20
139.1770088021825
 10
-705.4979830076084
 20
137.7858673123423
 10
-705.5406414556005
 20
136.4214414123761
 10
-705.5832999035924
 20
135.0846788961287
 10
-705.6259583515844
 20
133.776527557445
 10
-705.6686167995764
 20
132.4979351901696
 10
-705.7112752475682
 20
131.2498495881475
 10
-705.7539336955602
 20
130.0332185452234
 10
-705.7965921435523
 20
128.8489898552421
 10
-705.8392505915441
 20
127.6981088358838
 10
-705.8819090395361
 20
126.5814159474748
 10
-705.9245674875281
 20
125.4996102439534
 10
-705.9672259355201
 20
124.4533807877622
 10
-706.0098843835119
 20
123.4434166413437
 10
-706.052542831504
 20
122.4704068671405
 10
-706.095201279496
 20
121.5350405275951
 10
-706.1378597274881
 20
120.6380066851501
 10
-706.18051817548
 20
119.779994402248
 10
-706.2231766234719
 20
118.9616927413316
 10
-706.2658350714639
 20
118.1837907648431
 10
-706.3084935194559
 20
117.4469595925282
 10
-706.3511519674478
 20
116.7516846230623
 10
-706.3938104154397
 20
116.0983414673899
 10
-706.4364688634317
 20
115.4873043088282
 10
-706.4791273114238
 20
114.9189473306943
 10
-706.5217857594157
 20
114.3936447163053
 10
-706.5644442074077
 20
113.9117706489783
 10
-706.6071026553997
 20
113.4736993120305
 10
-706.6497611033917
 20
113.0798048887789
 10
-706.6924195513836
 20
112.7304615625406
 10
-706.7350779993757
 20
112.4260435165149
 10
-706.7777364473676
 20
112.1668651519555
210
0.0
220
0.0
230
-1.0
  0
LWPOLYLINE
  5
86
330
1F
100
AcDbEntity
  8
0
  6
CONTINUOUS
 62
     7
100
AcDbPolyline
 90
        3
 70
     0
 43
0.0
 10
700.8109869117185
 20
114.2516090965387
 10
700.8790797956053
 20
114.0948859778151
 10
700.9405048463155
 20
114.0492583560669
  0
LWPOLYLINE
  5
87
330
1F
100
AcDbEntity
  8
0
  6
CONTINUOUS
 62
     7
100
AcDbPolyline
 90
        3
 70
     0
 43
0.0
 10
790.8377615005496
 20
114.176816483839
 10
790.9039534318857
 20
114.0654856258264
 10
790.9406542280208
 20
114.0492583560108
  0
LWPOLYLINE
  5
88
330
1F
100
AcDbEntity
  8
0
  6
CONTINUOUS
 62
     7
100
AcDbPolyline
 90
        3
 70
     0
 43
0.0
 10
770.8337142128802
 20
114.1870845341565
 10
770.9018184358256
 20
114.0677793646528
 10
770.9405915610133
 20
114.0492583560212
  0
LWPOLYLINE
  5
89
330
1F
100
AcDbEntity
  8
0
  6
CONTINUOUS
 62
     7
100
AcDbPolyline
 90
        3
 70
     0
 43
0.0
 10
730.8218422880929
 20
114.21924511132
 10
730.8899045786247
 20
114.0805303978277
 10
730.9404799856966
 20
114.0492583561156
  0
LWPOLYLINE
  5
8A
330
1F
100
AcDbEntity
  8
0
  6
CONTINUOUS
 62
     7
100
AcDbPolyline
 90
      113
 70
     0
 43
0.0
 10
-812.0000955161522
 20
238.5490644090695
 10
-812.0427280498864
 20
238.5261454387026
 10
-812.0853605836202
 20
238.4574259637242
 10
-812.1279931173543
 20
238.3430609614695
 10
-812.1706256510882
 20
238.1832564109845
 10
-812.2132581848222
 20
237.9782182913152
 10
-812.2558907185561
 20
237.7281525815076
 10
-812.29852325229
 20
237.4332652606078
 10
-812.341155786024
 20
237.0937623076617
 10
-812.3837883197582
 20
236.7098497017154
 10
-812.4264208534922
 20
236.2817334218149
 10
-812.469053387226
 20
235.8096194470062
 10
-812.5116859209602
 20
235.293716138867
 10
-812.5543184546942
 20
234.7343588284835
 10
-812.5969509884283
 20
234.1320709717533
 10
-812.6395835221622
 20
233.4873912339454
 10
-812.6822160558963
 20
232.8008582803294
 10
-812.7248485896305
 20
232.0730107761746
 10
-812.7674811233646
 20
231.3043873867503
 10
-812.8101136570986
 20
230.4955267773257
 10
-812.8527461908326
 20
229.6469676131703
 10
-812.8953787245665
 20
228.7592485595532
 10
-812.9380112583007
 20
227.8329082817441
 10
-812.9806437920346
 20
226.8684991080918
 10
-813.0232763257686
 20
225.8667377774996
 10
-813.0659088595025
 20
224.8284498099898
 10
-813.1085413932364
 20
223.7544626643299
 10
-813.1511739269704
 20
222.6456037992873
 10
-813.1938064607042
 20
221.5027006736294
 10
-813.2364389944382
 20
220.3265807461237
 10
-813.2790715281723
 20
219.1180714755375
 10
-813.3217040619062
 20
217.8780003206383
 10
-813.3643365956401
 20
216.6071947401934
 10
-813.4069691293739
 20
215.3064821929703
 10
-813.449601663108
 20
213.9767232065146
 10
-813.492234196842
 20
212.6189256082904
 10
-813.5348667305759
 20
211.234138224024
 10
-813.57749926431
 20
209.8234098811396
 10
-813.6201317980441
 20
208.3877894070614
 10
-813.662764331778
 20
206.9283256292134
 10
-813.7053968655121
 20
205.44606737502
 10
-813.748029399246
 20
203.9420634719052
 10
-813.7906619329801
 20
202.4173627472933
 10
-813.8332944667142
 20
200.8730140286084
 10
-813.8759270004483
 20
199.3100665946789
 10
-813.9185595341825
 20
197.7296144392891
 10
-813.9611920679165
 20
196.1328335244679
 10
-814.0038246016504
 20
194.5209085834
 10
-814.0464571353846
 20
192.8950243492705
 10
-814.0890896691187
 20
191.256365555264
 10
-814.1317222028528
 20
189.6061169345654
 10
-814.1743547365868
 20
187.9454632203596
 10
-814.2169872703208
 20
186.2755891458315
 10
-814.259619804055
 20
184.5976794441658
 10
-814.302252337789
 20
182.9129188485474
 10
-814.344884871523
 20
181.2224933596621
 10
-814.3875174052569
 20
179.5276096940241
 10
-814.4301499389909
 20
177.8294914606608
 10
-814.4727824727249
 20
176.1293627614453
 10
-814.515415006459
 20
174.4284476982507
 10
-814.5580475401929
 20
172.7279703729498
 10
-814.6006800739267
 20
171.0291548874159
 10
-814.6433126076608
 20
169.333225343522
 10
-814.6859451413949
 20
167.641405843141
 10
-814.7285776751287
 20
165.954920488146
 10
-814.7712102088626
 20
164.2749933804101
 10
-814.8138427425966
 20
162.6028416461378
 10
-814.8564752763305
 20
160.9396429128726
 10
-814.8991078100646
 20
159.2865609214692
 10
-814.9417403437985
 20
157.644759397489
 10
-814.9843728775323
 20
156.0154020664936
 10
-815.0270054112663
 20
154.3996526540444
 10
-815.0696379450002
 20
152.7986748857028
 10
-815.1122704787342
 20
151.2136324870305
 10
-815.1549030124681
 20
149.6456891835887
 10
-815.1975355462023
 20
148.0960087009391
 10
-815.2401680799363
 20
146.5657545816111
 10
-815.2828006136702
 20
145.0560472921955
 10
-815.3254331474042
 20
143.5679090027404
 10
-815.3680656811382
 20
142.1023482372132
 10
-815.4106982148722
 20
140.6603735195815
 10
-815.4533307486064
 20
139.2429933738127
 10
-815.4959632823404
 20
137.8512163238743
 10
-815.5385958160743
 20
136.4860508937338
 10
-815.5812283498085
 20
135.1485056073585
 10
-815.6238608835425
 20
133.839588988716
 10
-815.6664934172766
 20
132.5603095617737
 10
-815.7091259510107
 20
131.3116709365646
 10
-815.7517584847445
 20
130.0945631362034
 10
-815.7943910184787
 20
128.9097622813131
 10
-815.8370235522126
 20
127.7580395154672
 10
-815.8796560859467
 20
126.6401659822394
 10
-815.9222886196808
 20
125.5569128252031
 10
-815.9649211534148
 20
124.5090511879318
 10
-816.0075536871486
 20
123.4973522139992
 10
-816.0501862208827
 20
122.5225870469788
 10
-816.0928187546168
 20
121.5855268304442
 10
-816.1354512883507
 20
120.6869427079688
 10
-816.1780838220847
 20
119.8275796345455
 10
-816.2207163558186
 20
119.0079926346878
 10
-816.2633488895527
 20
118.2286530014835
 10
-816.3059814232867
 20
117.4900316620712
 10
-816.3486139570206
 20
116.7925995435893
 10
-816.3912464907548
 20
116.1368275731766
 10
-816.4338790244888
 20
115.5231866779715
 10
-816.4765115582227
 20
114.9521477851126
 10
-816.5191440919566
 20
114.4241818217385
 10
-816.5617766256909
 20
113.9397597149878
 10
-816.6044091594247
 20
113.4993523109078
 10
-816.6470416931586
 20
113.1033530072908
 10
-816.6896742268927
 20
112.7519335438964
 10
-816.7323067606266
 20
112.4452262582923
 10
-816.7749392943614
 20
112.1833634880426
210
0.0
220
0.0
230
-1.0
  0
LWPOLYLINE
  5
8B
330
1F
100
AcDbEntity
  8
0
  6
CONTINUOUS
 62
     7
100
AcDbPolyline
 90
        3
 70
     0
 43
0.0
 10
720.8207871033604
 20
114.2219014486843
 10
720.8868821263954
 20
114.0840785594112
 10
720.9404761184829
 20
114.0492583561044
  0
LWPOLYLINE
  5
8C
330
1F
100
AcDbEntity
  8
0
  6
CONTINUOUS
 62
     7
100
AcDbPolyline
 90
        3
 70
     0
 43
0.0
 10
780.8347530984321
 20
114.1845271073848
 10
780.902913254361
 20
114.0666162349017
 10
780.9406269955493
 20
114.0492583560156
  0
LWPOLYLINE
  5
8D
330
1F
100
AcDbEntity
  8
0
  6
CONTINUOUS
 62
     7
100
AcDbPolyline
 90
       33
 70
     0
 43
0.0
 10
810.4999761699047
 20
111.5493771130505
 10
810.5068827528157
 20
111.5499728992831
 10
810.5137893357268
 20
111.5517706719342
 10
810.5206959186377
 20
111.5547710884617
 10
810.5276025015486
 20
111.5589748046396
 10
810.5345090844597
 20
111.5643820661687
 10
810.5414156673705
 20
111.5709921762693
 10
810.5483222502816
 20
111.5788043062551
 10
810.5552288331926
 20
111.5878176274399
 10
810.5621354161034
 20
111.5980313111375
 10
810.5690419990144
 20
111.6094445286619
 10
810.5759485819254
 20
111.6220564513268
 10
810.5828551648365
 20
111.6358662504461
 10
810.5897617477474
 20
111.6508730973335
 10
810.5966683306585
 20
111.667076163303
 10
810.6035749135694
 20
111.6844746196682
 10
810.6104814964804
 20
111.7030676377432
 10
810.6173880793914
 20
111.7228543888416
 10
810.6242946623024
 20
111.7438340442773
 10
810.6312012452133
 20
111.7660057753642
 10
810.6381078281242
 20
111.789368753416
 10
810.6450144110353
 20
111.8139221497466
 10
810.6519209939463
 20
111.8396651356699
 10
810.6588275768572
 20
111.8665968824996
 10
810.6657341597682
 20
111.8947165615496
 10
810.6726407426793
 20
111.9240233441336
 10
810.6795473255902
 20
111.9545164015656
 10
810.6864539085011
 20
111.9861949051594
 10
810.693360491412
 20
112.0190580262287
 10
810.7002670743232
 20
112.0531049360874
 10
810.7071736572342
 20
112.0883348060494
 10
810.7140802401451
 20
112.1247468074284
 10
810.7209868230563
 20
112.1623401115398
  0
LWPOLYLINE
  5
8E
330
1F
100
AcDbEntity
  8
0
  6
CONTINUOUS
 62
     7
100
AcDbPolyline
 90
      113
 70
     0
 43
0.0
 10
-861.999985555787
 20
238.548122051051
 10
-862.042619602711
 20
238.5254109637044
 10
-862.0852536496349
 20
238.4572436950809
 10
-862.1278876965589
 20
238.3435886747247
 10
-862.1705217434829
 20
238.1844143321803
 10
-862.2131557904069
 20
237.9797028290661
 10
-862.2557898373308
 20
237.7296270228804
 10
-862.2984238842547
 20
237.4344993607137
 10
-862.3410579311787
 20
237.0946354876031
 10
-862.3836919781025
 20
236.7103510485852
 10
-862.4263260250267
 20
236.2819616886974
 10
-862.4689600719505
 20
235.8097830529764
 10
-862.5115941188744
 20
235.2941307864594
 10
-862.5542281657983
 20
234.7353205341832
 10
-862.5968622127224
 20
234.1336679411849
 10
-862.6394962596463
 20
233.4894886525015
 10
-862.6821303065703
 20
232.8031409191747
 10
-862.7247643534943
 20
232.0751956467153
 10
-862.7673984004181
 20
231.3062899542289
 10
-862.810032447342
 20
230.4970609821521
 10
-862.8526664942658
 20
229.6481458709212
 10
-862.8953005411896
 20
228.7601817609728
 10
-862.9379345881135
 20
227.8338057927435
 10
-862.9805686350376
 20
226.8696551066696
 10
-863.023202681961
 20
225.8683668431876
 10
-863.0658367288851
 20
224.8305781427341
 10
-863.1084707758089
 20
223.7569267197352
 10
-863.1511048227328
 20
222.6481323722331
 10
-863.1937388696566
 20
221.5050816071175
 10
-863.2363729165803
 20
220.3286811433261
 10
-863.2790069635045
 20
219.1198376997962
 10
-863.3216410104283
 20
217.8794579954654
 10
-863.3642750573523
 20
216.6084487492711
 10
-863.406909104276
 20
215.3077166801508
 10
-863.4495431512
 20
213.9781685070421
 10
-863.4921771981241
 20
212.6207109488824
 10
-863.534811245048
 20
211.2362507246092
 10
-863.5774452919719
 20
209.8256997205667
 10
-863.6200793388957
 20
208.3900685317467
 10
-863.6627133858198
 20
206.9304564204099
 10
-863.7053474327437
 20
205.4479658006995
 10
-863.7479814796675
 20
203.9436990867587
 10
-863.7906155265916
 20
202.4187586927305
 10
-863.8332495735154
 20
200.8742470327582
 10
-863.8758836204395
 20
199.3112665209849
 10
-863.9185176673634
 20
197.7309195715539
 10
-863.9611517142874
 20
196.1343085986082
 10
-864.0037857612112
 20
194.5225360162909
 10
-864.0464198081353
 20
192.8967150149485
 10
-864.0890538550593
 20
191.2580271146072
 10
-864.1316879019831
 20
189.6076805338183
 10
-864.1743219489072
 20
187.9468835525622
 10
-864.216955995831
 20
186.2768444508191
 10
-864.259590042755
 20
184.5987715085689
 10
-864.3022240896788
 20
182.913873005792
 10
-864.3448581366026
 20
181.2233572224684
 10
-864.3874921835268
 20
179.5284324385785
 10
-864.4301262304506
 20
177.8303069341022
 10
-864.4727602773745
 20
176.1301889936879
 10
-864.5153943242984
 20
174.4292887900372
 10
-864.5580283712223
 20
172.7288212700981
 10
-864.6006624181465
 20
171.0300021239229
 10
-864.6432964650703
 20
169.3340470415635
 10
-864.6859305119942
 20
167.6421717130723
 10
-864.7285645589182
 20
165.9555918285014
 10
-864.771198605842
 20
164.275523077903
 10
-864.813832652766
 20
162.6031811513293
 10
-864.8564666996898
 20
160.9397817388324
 10
-864.8991007466138
 20
159.2865405304646
 10
-864.9417347935379
 20
157.6446716991532
 10
-864.9843688404617
 20
156.0153476446256
 10
-865.0270028873854
 20
154.3996947714149
 10
-865.0696369343094
 20
152.7988371200764
 10
-865.1122709812331
 20
151.2138987311651
 10
-865.154905028157
 20
149.6460036452363
 10
-865.1975390750807
 20
148.0962759028453
 10
-865.2401731220045
 20
146.5658395445471
 10
-865.2828071689285
 20
145.0558186108969
 10
-865.3254412158524
 20
143.56733714245
 10
-865.3680752627762
 20
142.1015191797615
 10
-865.4107093097002
 20
140.6594747968512
 10
-865.4533433566241
 20
139.2422004550339
 10
-865.495977403548
 20
137.8506373232395
 10
-865.538611450472
 20
136.485726200946
 10
-865.5812454973959
 20
135.1484078876314
 10
-865.6238795443198
 20
133.8396231827736
 10
-865.6665135912439
 20
132.5603128858506
 10
-865.7091476381678
 20
131.3114177963404
 10
-865.7517816850918
 20
130.0938787137208
 10
-865.7944157320158
 20
128.90863643747
 10
-865.8370497789397
 20
127.7566317466876
 10
-865.8796838258636
 20
126.6387512718304
 10
-865.9223178727876
 20
125.555709886724
 10
-865.9649519197117
 20
124.5081884894472
 10
-866.0075859666356
 20
123.4968679780786
 10
-866.0502200135597
 20
122.5224292506972
 10
-866.0928540604835
 20
121.5855532053816
 10
-866.1354881074074
 20
120.6869207402108
 10
-866.1781221543314
 20
119.8272127532634
 10
-866.2207562012554
 20
119.0071101426183
 10
-866.2633902481792
 20
118.2272938063541
 10
-866.3060242951034
 20
117.4884416403702
 10
-866.3486583420272
 20
116.7911038676337
 10
-866.3912923889509
 20
116.1356582227336
 10
-866.4339264358748
 20
115.5224702198933
 10
-866.4765604827986
 20
114.9519053733361
 10
-866.5191945297225
 20
114.4243291972851
 10
-866.5618285766465
 20
113.9401072059636
 10
-866.6044626235703
 20
113.4996049135951
 10
-866.6470966704942
 20
113.1031878344026
 10
-866.689730717418
 20
112.7512214826095
 10
-866.7323647643419
 20
112.4440713724391
 10
-866.7749988112656
 20
112.1820839182989
210
0.0
220
0.0
230
-1.0
  0
LWPOLYLINE
  5
8F
330
1F
100
AcDbEntity
  8
0
  6
CONTINUOUS
 62
     7
100
AcDbPolyline
 90
      113
 70
     0
 43
0.0
 10
-841.999614428855
 20
238.5484386001258
 10
-842.0422518140991
 20
238.5262262885782
 10
-842.0848891993435
 20
238.4584319540123
 10
-842.1275265845875
 20
238.3449791490326
 10
-842.1701639698316
 20
238.1858459862877
 10
-842.2128013550758
 20
237.9812428076092
 10
-842.2554387403197
 20
237.7314417306706
 10
-842.2980761255639
 20
237.4367148736614
 10
-842.340713510808
 20
237.0973343547706
 10
-842.383350896052
 20
236.7135722921878
 10
-842.4259882812961
 20
236.285700804102
 10
-842.4686256665403
 20
235.8139920087027
 10
-842.5112630517845
 20
235.298718024179
 10
-842.5539004370286
 20
234.7401509687203
 10
-842.5965378222727
 20
234.1385642527805
 10
-842.6391752075168
 20
233.4943422082478
 10
-842.681812592761
 20
232.8080636665122
 10
-842.724449978005
 20
232.0803271380059
 10
-842.7670873632494
 20
231.3117311331613
 10
-842.8097247484935
 20
230.5028741624107
 10
-842.8523621337378
 20
229.6543547361864
 10
-842.8949995189819
 20
228.7667713649207
 10
-842.9376369042261
 20
227.840722559046
 10
-842.9802742894702
 20
226.8768068289946
 10
-843.0229116747145
 20
225.8756226851988
 10
-843.0655490599586
 20
224.8377784161188
 10
-843.1081864452027
 20
223.7640311762403
 10
-843.150823830447
 20
222.6552540398211
 10
-843.1934612156912
 20
221.5123231403747
 10
-843.2360986009352
 20
220.3361146114138
 10
-843.2787359861794
 20
219.1275045864516
 10
-843.3213733714234
 20
217.8873691990012
 10
-843.3640107566677
 20
216.6165845825757
 10
-843.4066481419117
 20
215.316026870688
 10
-843.4492855271559
 20
213.9865721968514
 10
-843.4919229124
 20
212.6290966945788
 10
-843.534560297644
 20
211.2445018740659
 10
-843.5771976828884
 20
209.8338249170906
 10
-843.6198350681325
 20
208.3981481585892
 10
-843.6624724533766
 20
206.9385539640897
 10
-843.7051098386208
 20
205.4561246991207
 10
-843.7477472238652
 20
203.9519427292103
 10
-843.7903846091091
 20
202.4270904198867
 10
-843.8330219943534
 20
200.8826501366783
 10
-843.8756593795974
 20
199.3197042451133
 10
-843.9182967648418
 20
197.7393351107199
 10
-843.9609341500859
 20
196.1426252864181
 10
-844.00357153533
 20
194.5306915983584
 10
-844.0462089205743
 20
192.9047248216985
 10
-844.0888463058184
 20
191.265925358259
 10
-844.1314836910626
 20
189.6154936098607
 10
-844.1741210763066
 20
187.9546299783243
 10
-844.2167584615507
 20
186.2845348654707
 10
-844.259395846795
 20
184.6064086731205
 10
-844.3020332320391
 20
182.9214518030945
 10
-844.3446706172831
 20
181.2308646572134
 10
-844.3873080025272
 20
179.5358476372981
 10
-844.4299453877713
 20
177.8376016194899
 10
-844.4725827730155
 20
176.1373374224225
 10
-844.5152201582595
 20
174.4362752980016
 10
-844.5578575435037
 20
172.7356358705213
 10
-844.6004949287477
 20
171.0366397642755
 10
-844.6431323139917
 20
169.3405076035584
 10
-844.685769699236
 20
167.6484600126638
 10
-844.7284070844801
 20
165.9617176158858
 10
-844.7710444697241
 20
164.2815010375184
 10
-844.8136818549683
 20
162.6090309018556
 10
-844.8563192402123
 20
160.9455278331916
 10
-844.8989566254565
 20
159.2922049501957
 10
-844.9415940107007
 20
157.6502246803925
 10
-844.984231395945
 20
156.0207284757408
 10
-845.0268687811891
 20
154.4048577213761
 10
-845.0695061664334
 20
152.8037538024338
 10
-845.1121435516775
 20
151.2185581040491
 10
-845.1547809369218
 20
149.6504120113575
 10
-845.197418322166
 20
148.1004569094944
 10
-845.2400557074102
 20
146.569834183595
 10
-845.2826930926544
 20
145.059685218795
 10
-845.3253304778989
 20
143.5711513272283
 10
-845.3679678631429
 20
142.1053319730967
 10
-845.4106052483872
 20
140.6632147812229
 10
-845.4532426336314
 20
139.2457688926936
 10
-845.4958800188757
 20
137.8539634485954
 10
-845.5385174041198
 20
136.4887675900152
 10
-845.5811547893638
 20
135.1511504580396
 10
-845.6237921746081
 20
133.8420811937554
 10
-845.6664295598522
 20
132.5625289382493
 10
-845.7090669450964
 20
131.3134628326081
 10
-845.7517043303407
 20
130.0958520179184
 10
-845.7943417155846
 20
128.9106619540617
 10
-845.8369791008287
 20
127.7587465868029
 10
-845.8796164860727
 20
126.640831014107
 10
-845.9222538713167
 20
125.5576331632959
 10
-845.9648912565607
 20
124.5098709616916
 10
-846.0075286418048
 20
123.4982623366159
 10
-846.0501660270488
 20
122.5235252153908
 10
-846.0928034122928
 20
121.5863775253383
 10
-846.1354407975368
 20
120.6875371937801
 10
-846.1780781827808
 20
119.8277221480382
 10
-846.2207155680251
 20
119.0076503154346
 10
-846.2633529532691
 20
118.2280175986069
 10
-846.3059903385133
 20
117.4893300067286
 10
-846.3486277237575
 20
116.7919965330103
 10
-846.3912651090018
 20
116.1364253912536
 10
-846.4339024942461
 20
115.5230247952598
 10
-846.4765398794904
 20
114.9522029588302
 10
-846.5191772647345
 20
114.4243680957663
 10
-846.5618146499788
 20
113.9399284198695
 10
-846.6044520352232
 20
113.4992921449411
 10
-846.6470894204673
 20
113.1028674847826
 10
-846.6897268057116
 20
112.751062640216
 10
-846.7323641909559
 20
112.4442175880272
 10
-846.7750015761987
 20
112.1824448915701
210
0.0
220
0.0
230
-1.0
  0
LWPOLYLINE
  5
90
330
1F
100
AcDbEntity
  8
0
  6
CONTINUOUS
 62
     7
100
AcDbPolyline
 90
      113
 70
     0
 43
0.0
 10
-822.0001262559598
 20
238.5488787031828
 10
-822.0427867976584
 20
238.5260242289713
 10
-822.0854473393567
 20
238.4573588235908
 10
-822.1281078810551
 20
238.3428998099671
 10
-822.1707684227536
 20
238.1828604758509
 10
-822.213428964452
 20
237.9774693446207
 10
-822.2560895061505
 20
237.7269549396551
 10
-822.2987500478488
 20
237.4315457843327
 10
-822.3414105895472
 20
237.091470402032
 10
-822.3840711312457
 20
236.7069573161316
 10
-822.4267316729441
 20
236.27823505001
 10
-822.4693922146424
 20
235.8055321270458
 10
-822.512052756341
 20
235.2890770706175
 10
-822.5547132980396
 20
234.7291153653341
 10
-822.597373839738
 20
234.1260840177247
 10
-822.6400343814363
 20
233.4805409647782
 10
-822.6826949231348
 20
232.7930460439711
 10
-822.7253554648332
 20
232.0641590927797
 10
-822.7680160065318
 20
231.2944399486805
 10
-822.8106765482304
 20
230.48444844915
 10
-822.8533370899286
 20
229.6347444316643
 10
-822.8959976316271
 20
228.7458877337001
 10
-822.9386581733255
 20
227.8184381927337
 10
-822.9813187150239
 20
226.8529556462415
 10
-823.0239792567224
 20
225.8500459508316
 10
-823.066639798421
 20
224.8105053909115
 10
-823.1093003401193
 20
223.7351795000606
 10
-823.1519608818176
 20
222.6249138119265
 10
-823.194621423516
 20
221.4805538601576
 10
-823.2372819652145
 20
220.3029451784019
 10
-823.2799425069129
 20
219.0929333003073
 10
-823.3226030486113
 20
217.8513637595219
 10
-823.3652635903097
 20
216.5790820896938
 10
-823.4079241320081
 20
215.2769338244709
 10
-823.4505846737063
 20
213.9457654993595
 10
-823.4932452154047
 20
212.5864995166613
 10
-823.535905757103
 20
211.2001859560825
 10
-823.5785662988015
 20
209.7878871497836
 10
-823.6212268404998
 20
208.350665429925
 10
-823.6638873821983
 20
206.8895831286676
 10
-823.7065479238966
 20
205.4057025781718
 10
-823.7492084655951
 20
203.9000861105982
 10
-823.7918690072935
 20
202.3737960581074
 10
-823.8345295489918
 20
200.82789475286
 10
-823.8771900906902
 20
199.2634445270166
 10
-823.9198506323887
 20
197.6815128022807
 10
-823.962511174087
 20
196.083238352795
 10
-824.0051717157855
 20
194.469812523025
 10
-824.0478322574838
 20
192.8424278803248
 10
-824.0904927991825
 20
191.2022769920482
 10
-824.1331533408809
 20
189.5505524255492
 10
-824.1758138825794
 20
187.8884467481819
 10
-824.2184744242779
 20
186.2171525273002
 10
-824.2611349659763
 20
184.537862330258
 10
-824.3037955076749
 20
182.8517687244094
 10
-824.3464560493732
 20
181.1600642771084
 10
-824.3891165910717
 20
179.4639459965229
 10
-824.4317771327702
 20
177.764632777036
 10
-824.4744376744686
 20
176.0633502439208
 10
-824.5170982161671
 20
174.3613240242913
 10
-824.5597587578654
 20
172.6597797452608
 10
-824.6024192995641
 20
170.9599430339433
 10
-824.6450798412623
 20
169.2630395174521
 10
-824.6877403829609
 20
167.5702948229011
 10
-824.7304009246594
 20
165.8829345774039
 10
-824.7730614663578
 20
164.2021844080742
 10
-824.8157220080562
 20
162.5292697790896
 10
-824.8583825497544
 20
160.8653953395004
 10
-824.901043091453
 20
159.2117247067823
 10
-824.9437036331514
 20
157.5694166985259
 10
-824.9863641748497
 20
155.9396301323216
 10
-825.0290247165478
 20
154.3235238257599
 10
-825.0716852582465
 20
152.7222565964314
 10
-825.1143457999448
 20
151.1369872619265
 10
-825.1570063416431
 20
149.5688746398359
 10
-825.1996668833416
 20
148.01907754775
 10
-825.2423274250398
 20
146.4887548032592
 10
-825.2849879667384
 20
144.9790605408445
 10
-825.3276485084367
 20
143.4910658891306
 10
-825.3703090501351
 20
142.0257707423634
 10
-825.4129695918335
 20
140.5841726832502
 10
-825.455630133532
 20
139.167269294498
 10
-825.4982906752304
 20
137.7760581588141
 10
-825.5409512169288
 20
136.4115368589056
 10
-825.5836117586274
 20
135.0747029774797
 10
-825.6262723003257
 20
133.7665540972436
 10
-825.6689328420242
 20
132.4880878009043
 10
-825.7115933837226
 20
131.2403016711691
 10
-825.754253925421
 20
130.0241664398205
 10
-825.7969144671193
 20
128.8404948460267
 10
-825.8395750088179
 20
127.6900420340472
 10
-825.8822355505163
 20
126.573563064446
 10
-825.9248960922148
 20
125.4918129977874
 10
-825.9675566339131
 20
124.4455468946351
 10
-826.0102171756117
 20
123.4355198155535
 10
-826.05287771731
 20
122.4624868211066
 10
-826.0955382590085
 20
121.5272029718585
 10
-826.1381988007068
 20
120.6304233283732
 10
-826.1808593424054
 20
119.7729026224055
 10
-826.2235198841039
 20
118.9553122538465
 10
-826.2661804258024
 20
118.1781305150763
 10
-826.3088409675007
 20
117.4418084189866
 10
-826.3515015091991
 20
116.746796978469
 10
-826.3941620508975
 20
116.0935472064151
 10
-826.436822592596
 20
115.4825101157165
 10
-826.4794831342946
 20
114.9141367192648
 10
-826.5221436759929
 20
114.3888780299515
 10
-826.5648042176913
 20
113.9071850606684
 10
-826.6074647593898
 20
113.469508824307
 10
-826.650125301088
 20
113.0762932128392
 10
-826.6927858427864
 20
112.7278187144707
 10
-826.7354463844848
 20
112.4242026230247
 10
-826.7781069261825
 20
112.1655551532863
210
0.0
220
0.0
230
-1.0
  0
LWPOLYLINE
  5
91
330
1F
100
AcDbEntity
  8
0
  6
CONTINUOUS
 62
     7
100
AcDbPolyline
 90
      113
 70
     0
 43
0.0
 10
-801.9997343143302
 20
238.549173243633
 10
-802.0423705956443
 20
238.5264582237355
 10
-802.0850068769585
 20
238.4579942690742
 10
-802.1276431582726
 20
238.3439639532218
 10
-802.1702794395867
 20
238.1845511399555
 10
-802.2129157209008
 20
237.9799396930526
 10
-802.2555520022149
 20
237.7303134762903
 10
-802.298188283529
 20
237.4358563534458
 10
-802.3408245648432
 20
237.0967521882964
 10
-802.3834608461574
 20
236.7131848446193
 10
-802.4260971274713
 20
236.2853381861918
 10
-802.4687334087856
 20
235.8133960779016
 10
-802.5113696900996
 20
235.2976028208238
 10
-802.5540059714135
 20
234.7384255981358
 10
-802.5966422527276
 20
234.1363829605388
 10
-802.6392785340416
 20
233.4919934587335
 10
-802.6819148153555
 20
232.8057756434208
 10
-802.7245510966695
 20
232.0782480653017
 10
-802.7671873779836
 20
231.309929275077
 10
-802.8098236592979
 20
230.5013378234477
 10
-802.8524599406117
 20
229.6529922611145
 10
-802.8950962219259
 20
228.7654111387784
 10
-802.9377325032398
 20
227.8391148394455
 10
-802.980368784554
 20
226.8747323790414
 10
-803.0230050658679
 20
225.8730604081761
 10
-803.0656413471822
 20
224.834909910769
 10
-803.1082776284964
 20
223.7610918707394
 10
-803.1509139098102
 20
222.652417272007
 10
-803.1935501911244
 20
221.5096970984911
 10
-803.2361864724385
 20
220.3337423341112
 10
-803.2788227537527
 20
219.1253639627867
 10
-803.3214590350668
 20
217.8853729684371
 10
-803.3640953163809
 20
216.6145803349819
 10
-803.406731597695
 20
215.3138070703909
 10
-803.4493678790092
 20
213.9840013715174
 10
-803.4920041603234
 20
212.6261988550613
 10
-803.5346404416373
 20
211.2414368557597
 10
-803.5772767229514
 20
209.8307527083496
 10
-803.6199130042656
 20
208.395183747568
 10
-803.6625492855796
 20
206.9357673081519
 10
-803.7051855668938
 20
205.4535407248383
 10
-803.7478218482079
 20
203.9495413323642
 10
-803.7904581295219
 20
202.4248064654665
 10
-803.8330944108359
 20
200.8803734588823
 10
-803.8757306921499
 20
199.3172999637752
 10
-803.9183669734639
 20
197.7367378458497
 10
-803.961003254778
 20
196.1398662614192
 10
-804.0036395360919
 20
194.5278643696151
 10
-804.0462758174059
 20
192.9019113295686
 10
-804.08891209872
 20
191.263186300411
 10
-804.1315483800339
 20
189.6128684412733
 10
-804.1741846613481
 20
187.9521369112871
 10
-804.2168209426621
 20
186.2821708695834
 10
-804.2594572239763
 20
184.6041494752934
 10
-804.3020935052904
 20
182.9192520195099
 10
-804.3447297866043
 20
181.2286724676332
 10
-804.3873660679185
 20
179.5336326144898
 10
-804.4300023492325
 20
177.8353573607303
 10
-804.4726386305466
 20
176.135071607005
 10
-804.5152749118608
 20
174.4340002539645
 10
-804.5579111931748
 20
172.733368202259
 10
-804.6005474744891
 20
171.0344003525393
 10
-804.6431837558032
 20
169.3383216054557
 10
-804.6858200371173
 20
167.6463568616587
 10
-804.7284563184315
 20
165.9597310217988
 10
-804.7710925997457
 20
164.2796673475838
 10
-804.8137288810595
 20
162.6073610110238
 10
-804.8563651623737
 20
160.9439835779342
 10
-804.8990014436877
 20
159.2907058803972
 10
-804.9416377250017
 20
157.6486987504951
 10
-804.9842740063157
 20
156.0191330203099
 10
-805.0269102876298
 20
154.4031795219239
 10
-805.0695465689437
 20
152.8020090874192
 10
-805.1121828502577
 20
151.216792548878
 10
-805.1548191315718
 20
149.6487007383826
 10
-805.1974554128857
 20
148.098904488015
 10
-805.2400916941997
 20
146.5685579710615
 10
-805.2827279755139
 20
145.0587179197772
 10
-805.3253642568279
 20
143.570405742604
 10
-805.368000538142
 20
142.104642798704
 10
-805.4106368194563
 20
140.6624504472393
 10
-805.4532731007702
 20
139.2448500473719
 10
-805.4959093820843
 20
137.852862958264
 10
-805.5385456633984
 20
136.4875105390775
 10
-805.5811819447126
 20
135.1498141489747
 10
-805.6238182260267
 20
133.8407951471174
 10
-805.6664545073407
 20
132.5614746574617
 10
-805.7090907886551
 20
131.31281063966
 10
-805.7517270699691
 20
130.0956129546479
 10
-805.7943633512832
 20
128.9106702640015
 10
-805.8369996325974
 20
127.7587712292968
 10
-805.8796359139116
 20
126.64070451211
 10
-805.9222721952256
 20
125.5572587740171
 10
-805.9649084765396
 20
124.5092226765941
 10
-806.0075447578539
 20
123.4973848814174
 10
-806.0501810391679
 20
122.5225340500627
 10
-806.0928173204819
 20
121.5854588441064
 10
-806.1354536017959
 20
120.686942093096
 10
-806.1780898831098
 20
119.827626147955
 10
-806.2207261644238
 20
119.0080092646356
 10
-806.2633624457378
 20
118.228583143646
 10
-806.3059987270516
 20
117.4898394854941
 10
-806.3486350083658
 20
116.7922699906881
 10
-806.3912712896796
 20
116.136366359736
 10
-806.4339075709936
 20
115.5226202931459
 10
-806.4765438523077
 20
114.9515234914259
 10
-806.5191801336215
 20
114.423567655084
 10
-806.5618164149357
 20
113.9392444846283
 10
-806.6044526962496
 20
113.4990171198592
 10
-806.6470889775638
 20
113.1031363615902
 10
-806.6897252588778
 20
112.7517573453697
 10
-806.7323615401918
 20
112.4450347448
 10
-806.7749978215069
 20
112.183123233479
210
0.0
220
0.0
230
-1.0
  0
LWPOLYLINE
  5
92
330
1F
100
AcDbEntity
  8
0
  6
CONTINUOUS
 62
     7
100
AcDbPolyline
 90
      105
 70
     0
 43
0.0
 10
-761.9997587565181
 20
238.5486168437781
 10
-762.0457025254278
 20
238.5219515537022
 10
-762.0916462943377
 20
238.4425116020911
 10
-762.1375900632474
 20
238.310415409579
 10
-762.1835338321574
 20
238.1257813968004
 10
-762.2294776010672
 20
237.8887279843895
 10
-762.275421369977
 20
237.5993735929807
 10
-762.3213651388868
 20
237.2578366432082
 10
-762.3673089077967
 20
236.8642388123868
 10
-762.4132526767065
 20
236.4188668346318
 10
-762.4591964456162
 20
235.9222472105131
 10
-762.5051402145261
 20
235.3749252952883
 10
-762.551083983436
 20
234.7774464442145
 10
-762.5970277523459
 20
234.1303560125492
 10
-762.6429715212557
 20
233.4341993555499
 10
-762.6889152901656
 20
232.6895218284735
 10
-762.7348590590755
 20
231.8968687865779
 10
-762.7808028279853
 20
231.0567855851201
 10
-762.8267465968951
 20
230.1698228383561
 10
-762.872690365805
 20
229.2366986295746
 10
-762.9186341347149
 20
228.2583293323528
 10
-762.9645779036247
 20
227.2356427987175
 10
-763.0105216725345
 20
226.1695668806953
 10
-763.0564654414445
 20
225.0610294303128
 10
-763.1024092103543
 20
223.9109582995966
 10
-763.1483529792641
 20
222.7202813405733
 10
-763.194296748174
 20
221.4899264052697
 10
-763.2402405170839
 20
220.2208213457123
 10
-763.2861842859936
 20
218.913900916782
 10
-763.3321280549035
 20
217.5702493939831
 10
-763.3780718238133
 20
216.1910956108265
 10
-763.4240155927232
 20
214.7776743107992
 10
-763.4699593616331
 20
213.3312202373882
 10
-763.5159031305428
 20
211.8529681340805
 10
-763.5618468994528
 20
210.3441527443634
 10
-763.6077906683624
 20
208.8060088117236
 10
-763.6537344372722
 20
207.2397710796484
 10
-763.699678206182
 20
205.6466742916249
 10
-763.7456219750919
 20
204.027960272035
 10
-763.7915657440017
 20
202.3849808628759
 10
-763.8375095129115
 20
200.7191747271056
 10
-763.8834532818214
 20
199.0319828875478
 10
-763.9293970507313
 20
197.3248463670266
 10
-763.9753408196409
 20
195.5992061883659
 10
-764.0212845885507
 20
193.8565033743897
 10
-764.0672283574606
 20
192.0981789479221
 10
-764.1131721263705
 20
190.3256739317871
 10
-764.1591158952803
 20
188.5404293488086
 10
-764.2050596641901
 20
186.7438906397295
 10
-764.2510034330999
 20
184.9375543236453
 10
-764.2969472020098
 20
183.1229497409782
 10
-764.3428909709196
 20
181.3016067732522
 10
-764.3888347398296
 20
179.4750553019917
 10
-764.4347785087393
 20
177.6448252087211
 10
-764.4807222776492
 20
175.8124463749647
 10
-764.5266660465592
 20
173.9794486822466
 10
-764.572609815469
 20
172.1473620120912
 10
-764.6185535843789
 20
170.3177162460227
 10
-764.6644973532888
 20
168.4920387903344
 10
-764.7104411221984
 20
166.6718352025207
 10
-764.7563848911083
 20
164.85859965961
 10
-764.8023286600181
 20
163.0538262406073
 10
-764.848272428928
 20
161.2590090245178
 10
-764.894216197838
 20
159.4756420903465
 10
-764.9401599667476
 20
157.7052195170985
 10
-764.9861037356575
 20
155.949235383779
 10
-765.0320475045672
 20
154.2091837693931
 10
-765.0779912734771
 20
152.4865587529459
 10
-765.123935042387
 20
150.7828397543918
 10
-765.1698788112967
 20
149.0994056418913
 10
-765.2158225802066
 20
147.4375930926471
 10
-765.2617663491164
 20
145.7987386392662
 10
-765.3077101180263
 20
144.1841788143558
 10
-765.3536538869361
 20
142.5952501505231
 10
-765.3995976558458
 20
141.0332891803752
 10
-765.4455414247558
 20
139.4996324365194
 10
-765.4914851936657
 20
137.9956164515627
 10
-765.5374289625754
 20
136.5225777581124
 10
-765.5833727314853
 20
135.0818204036954
 10
-765.6293165003951
 20
133.6744732815469
 10
-765.675260269305
 20
132.3016065145974
 10
-765.7212040382148
 20
130.9642901827246
 10
-765.7671478071246
 20
129.663594365806
 10
-765.8130915760346
 20
128.4005891437192
 10
-765.8590353449445
 20
127.1763445963417
 10
-765.9049791138542
 20
125.9919308035511
 10
-765.9509228827642
 20
124.8484178452249
 10
-765.996866651674
 20
123.7468758012407
 10
-766.0428104205837
 20
122.6883195060697
 10
-766.0887541894934
 20
121.6735281888107
 10
-766.1346979584035
 20
120.7032182825495
 10
-766.1806417273133
 20
119.7781062197983
 10
-766.2265854962233
 20
118.898908433069
 10
-766.272529265133
 20
118.0663413548737
 10
-766.3184730340428
 20
117.2811214177245
 10
-766.3644168029525
 20
116.5439650541333
 10
-766.4103605718624
 20
115.8555886966123
 10
-766.4563043407722
 20
115.2167087654423
 10
-766.5022481096821
 20
114.6279608034377
 10
-766.548191878592
 20
114.0897069375004
 10
-766.5941356475018
 20
113.6022515748246
 10
-766.6400794164116
 20
113.1658991226046
 10
-766.6860231853215
 20
112.7809539880346
 10
-766.7319669542312
 20
112.4477205783089
 10
-766.7779107231407
 20
112.1665033006245
210
0.0
220
0.0
230
-1.0
  0
LWPOLYLINE
  5
93
330
1F
100
AcDbEntity
  8
0
  6
CONTINUOUS
 62
     7
100
AcDbPolyline
 90
       33
 70
     0
 43
0.0
 10
-815.500095516143
 20
238.5490724696175
 10
-815.5070952595399
 20
238.5484505714844
 10
-815.5140950029366
 20
238.5465954497041
 10
-815.5210947463337
 20
238.5435064691677
 10
-815.5280944897305
 20
238.5391829947661
 10
-815.5350942331273
 20
238.5336243913902
 10
-815.5420939765243
 20
238.526830025269
 10
-815.5490937199212
 20
238.5187996735117
 10
-815.556093463318
 20
238.5095341020682
 10
-815.5630932067148
 20
238.499034222626
 10
-815.5700929501116
 20
238.4873009468728
 10
-815.5770926935087
 20
238.474335186496
 10
-815.5840924369055
 20
238.4601378531832
 10
-815.5910921803024
 20
238.444709858622
 10
-815.5980919236993
 20
238.4280521144999
 10
-815.6050916670961
 20
238.4101655325044
 10
-815.612091410493
 20
238.3910510243231
 10
-815.6190911538899
 20
238.3707095016436
 10
-815.6260908972868
 20
238.3491418761533
 10
-815.6330906406836
 20
238.3263490595398
 10
-815.6400903840805
 20
238.3023319634908
 10
-815.6470901274774
 20
238.2770914996937
 10
-815.6540898708741
 20
238.2506285798361
 10
-815.6610896142711
 20
238.2229441156055
 10
-815.668089357668
 20
238.1940390186895
 10
-815.6750891010647
 20
238.1639142007755
 10
-815.6820888444618
 20
238.1325705735513
 10
-815.6890885878586
 20
238.1000090487042
 10
-815.6960883312554
 20
238.066230537922
 10
-815.7030880746526
 20
238.0312359528921
 10
-815.7100878180493
 20
237.995026205302
 10
-815.7170875614464
 20
237.9576022068393
 10
-815.7240873048431
 20
237.9189648691916
210
0.0
220
0.0
230
-1.0
  0
LWPOLYLINE
  5
94
330
1F
100
AcDbEntity
  8
0
  6
CONTINUOUS
 62
     7
100
AcDbPolyline
 90
      105
 70
     0
 43
0.0
 10
-781.9999242446673
 20
238.5490329139485
 10
-782.0458406070978
 20
238.5222080468111
 10
-782.0917569695283
 20
238.4425413334007
 10
-782.1376733319588
 20
238.3102068185653
 10
-782.1835896943894
 20
238.1253785471529
 10
-782.22950605682
 20
237.8882305640113
 10
-782.2754224192503
 20
237.5989369139882
 10
-782.3213387816809
 20
237.2576716419318
 10
-782.3672551441115
 20
236.8646087926899
 10
-782.4131715065419
 20
236.4199224557649
 10
-782.4590878689725
 20
235.9238766888264
 10
-782.5050042314028
 20
235.3770141534666
 10
-782.5509205938336
 20
234.7799312768717
 10
-782.5968369562639
 20
234.1332244862277
 10
-782.6427533186944
 20
233.4374902087209
 10
-782.6886696811249
 20
232.6933248715373
 10
-782.7345860435555
 20
231.9013249018632
 10
-782.7805024059859
 20
231.0620867268847
 10
-782.8264187684163
 20
230.1762067737878
 10
-782.8723351308469
 20
229.2442817136975
 10
-782.9182514932772
 20
228.2670038834142
 10
-782.964167855708
 20
227.2453062541921
 10
-783.0100842181384
 20
226.1801590361451
 10
-783.0560005805688
 20
225.0725324393868
 10
-783.1019169429994
 20
223.9233966740311
 10
-783.1478333054297
 20
222.7337219501917
 10
-783.1937496678604
 20
221.5044784779826
 10
-783.2396660302909
 20
220.2366364675174
 10
-783.2855823927214
 20
218.93116612891
 10
-783.3314987551519
 20
217.5890382645894
 10
-783.3774151175825
 20
216.2113125623089
 10
-783.4233314800131
 20
214.7992314728353
 10
-783.4692478424436
 20
213.354059932385
 10
-783.515164204874
 20
211.8770628771744
 10
-783.5610805673047
 20
210.36950524342
 10
-783.6069969297353
 20
208.8326519673383
 10
-783.6529132921657
 20
207.2677679851456
 10
-783.6988296545964
 20
205.6761182330584
 10
-783.7447460170267
 20
204.0589676472932
 10
-783.7906623794574
 20
202.4175820352348
 10
-783.8365787418878
 20
200.7532940602512
 10
-783.8824951043184
 20
199.0675494033848
 10
-783.9284114667489
 20
197.3618046545997
 10
-783.9743278291793
 20
195.6375164038601
 10
-784.0202441916098
 20
193.8961412411304
 10
-784.0661605540403
 20
192.1391357563748
 10
-784.1120769164708
 20
190.3679565395574
 10
-784.1579932789012
 20
188.5840601806427
 10
-784.2039096413318
 20
186.7889032695948
 10
-784.2498260037622
 20
184.9839430259613
 10
-784.2957423661925
 20
183.170665606112
 10
-784.3416587286231
 20
181.3505975628667
 10
-784.3875750910537
 20
179.5252684508244
 10
-784.4334914534841
 20
177.6962078245838
 10
-784.4794078159147
 20
175.8649452387443
 10
-784.5253241783452
 20
174.0330102479045
 10
-784.5712405407755
 20
172.2019324066634
 10
-784.6171569032061
 20
170.3732412696203
 10
-784.6630732656367
 20
168.5484663913738
 10
-784.708989628067
 20
166.7291365707221
 10
-784.7549059904976
 20
164.916757678987
 10
-784.800822352928
 20
163.1128090778017
 10
-784.8467387153585
 20
161.3187686518201
 10
-784.8926550777892
 20
159.5361142856953
 10
-784.9385714402194
 20
157.7663238640809
 10
-784.9844878026499
 20
156.0108752716304
 10
-785.0304041650805
 20
154.2712463929972
 10
-785.0763205275109
 20
152.5489151128349
 10
-785.1222368899415
 20
150.8453593157968
 10
-785.168153252372
 20
149.1620529437422
 10
-785.2140696148025
 20
147.5003857570473
 10
-785.259985977233
 20
145.8616667962151
 10
-785.3059023396635
 20
144.2472018516591
 10
-785.351818702094
 20
142.6582967137928
 10
-785.3977350645246
 20
141.0962571730298
 10
-785.4436514269551
 20
139.5623890197835
 10
-785.4895677893853
 20
138.0579980444675
 10
-785.535484151816
 20
136.5843900374952
 10
-785.5814005142465
 20
135.1428707892801
 10
-785.627316876677
 20
133.7347366640749
 10
-785.6732332391075
 20
132.3611359303603
 10
-785.719149601538
 20
131.0230991340112
 10
-785.7650659639684
 20
129.7216535698735
 10
-785.8109823263991
 20
128.4578265327931
 10
-785.8568986888295
 20
127.2326453176158
 10
-785.9028150512601
 20
126.0471372191875
 10
-785.9487314136906
 20
124.9023295323541
 10
-785.994647776121
 20
123.7992495519615
 10
-786.0405641385515
 20
122.7389245728556
 10
-786.086480500982
 20
121.7223645750305
 10
-786.1323968634125
 20
120.7503729163018
 10
-786.178313225843
 20
119.8236170710694
 10
-786.2242295882736
 20
118.9427621302812
 10
-786.2701459507041
 20
118.1084731848849
 10
-786.3160623131347
 20
117.3214153258282
 10
-786.3619786755653
 20
116.5822536440589
 10
-786.4078950379957
 20
115.8916532305248
 10
-786.4538114004263
 20
115.2502791761735
 10
-786.4997277628568
 20
114.6587965719529
 10
-786.5456441252874
 20
114.1178433798287
 10
-786.5915604877181
 20
113.6278060087965
 10
-786.6374768501485
 20
113.1889344996206
 10
-786.6833932125791
 20
112.801477544926
 10
-786.7293095750094
 20
112.4656838373382
 10
-786.7752259374394
 20
112.181802069486
210
0.0
220
0.0
230
-1.0
  0
LWPOLYLINE
  5
95
330
1F
100
AcDbEntity
  8
0
  6
CONTINUOUS
 62
     7
100
AcDbPolyline
 90
      105
 70
     0
 43
0.0
 10
-751.9996148599407
 20
238.5484039085251
 10
-752.0455352958469
 20
238.5219958391606
 10
-752.0914557317528
 20
238.4429050077999
 10
-752.1373761676589
 20
238.311221665014
 10
-752.183296603565
 20
238.1270360613734
 10
-752.2292170394711
 20
237.8904384474488
 10
-752.2751374753772
 20
237.6015190738109
 10
-752.3210579112832
 20
237.2603681910305
 10
-752.3669783471893
 20
236.8671444315731
 10
-752.4128987830954
 20
236.4222916549421
 10
-752.4588192190015
 20
235.9263280762916
 10
-752.5047396549076
 20
235.3797719109695
 10
-752.5506600908135
 20
234.7831413743239
 10
-752.5965805267197
 20
234.1369546817028
 10
-752.6425009626258
 20
233.4417300484541
 10
-752.6884213985318
 20
232.6979856899258
 10
-752.7343418344379
 20
231.906239821466
 10
-752.7802622703441
 20
231.0670106713706
 10
-752.8261827062499
 20
230.1808926868869
 10
-752.8721031421561
 20
229.2487361876684
 10
-752.9180235780622
 20
228.2714451274612
 10
-752.9639440139682
 20
227.2499234600113
 10
-753.0098644498744
 20
226.1850751390651
 10
-753.0557848857803
 20
225.0778041183687
 10
-753.1017053216866
 20
223.9290143516683
 10
-753.1476257575926
 20
222.73960979271
 10
-753.1935461934988
 20
221.5104943952401
 10
-753.2394666294049
 20
220.2425722304534
 10
-753.2853870653109
 20
218.9368221876977
 10
-753.331307501217
 20
217.5944261908733
 10
-753.3772279371232
 20
216.2166002741489
 10
-753.4231483730292
 20
214.8045604716928
 10
-753.4690688089354
 20
213.3595228176736
 10
-753.5149892448416
 20
211.8827033462598
 10
-753.5609096807477
 20
210.3753180916201
 10
-753.6068301166537
 20
208.8385830879227
 10
-753.6527505525596
 20
207.2737143693364
 10
-753.6986709884658
 20
205.6819282703812
 10
-753.7445914243718
 20
204.0645018459571
 10
-753.7905118602779
 20
202.4228462033567
 10
-753.8364322961841
 20
200.7583903695617
 10
-753.8823527320901
 20
199.0725633715541
 10
-753.9282731679962
 20
197.3667942363155
 10
-753.9741936039024
 20
195.6425119908278
 10
-754.0201140398083
 20
193.9011456620728
 10
-754.0660344757144
 20
192.1441242770323
 10
-754.1119549116204
 20
190.3728768626881
 10
-754.1578753475264
 20
188.5888327856135
 10
-754.2037957834326
 20
186.7934535123434
 10
-754.2497162193386
 20
184.9882585214272
 10
-754.2956366552446
 20
183.1747733894952
 10
-754.3415570911509
 20
181.3545236931778
 10
-754.3874775270568
 20
179.5290350091055
 10
-754.4333979629629
 20
177.6998329139088
 10
-754.479318398869
 20
175.868442984218
 10
-754.5252388347751
 20
174.0363907966636
 10
-754.5711592706814
 20
172.205201927876
 10
-754.6170797065876
 20
170.3764017579394
 10
-754.6630001424935
 20
168.5515050967185
 10
-754.7089205783997
 20
166.7320110370219
 10
-754.7548410143058
 20
164.9194173946904
 10
-754.800761450212
 20
163.1152219855643
 10
-754.846681886118
 20
161.3209226254843
 10
-754.8926023220241
 20
159.5380171302908
 10
-754.9385227579302
 20
157.7680033158244
 10
-754.9844431938363
 20
156.0123789979256
 10
-755.0303636297424
 20
154.272641992435
 10
-755.0762840656485
 20
152.5502882454855
 10
-755.1222045015545
 20
150.8467494644177
 10
-755.1681249374607
 20
149.1633784898552
 10
-755.2140453733665
 20
147.5015233284769
 10
-755.2599658092727
 20
145.8625319869614
 10
-755.3058862451786
 20
144.2477524719875
 10
-755.3518066810847
 20
142.6585327902339
 10
-755.3977271169907
 20
141.0962209483792
 10
-755.4436475528969
 20
139.5621649531023
 10
-755.489567988803
 20
138.0577128110818
 10
-755.535488424709
 20
136.5842073096701
 10
-755.581408860615
 20
135.1428677842723
 10
-755.6273292965213
 20
133.7347881951189
 10
-755.6732497324274
 20
132.3610568984393
 10
-755.7191701683336
 20
131.0227622504627
 10
-755.7650906042398
 20
129.7209926074186
 10
-755.8110110401459
 20
128.4568363255361
 10
-755.8569314760521
 20
127.2313817610449
 10
-755.9028519119581
 20
126.045717270174
 10
-755.9487723478644
 20
124.900931209153
 10
-755.9946927837705
 20
123.7981013711256
 10
-756.0406132196765
 20
122.7381245670523
 10
-756.0865336555827
 20
121.7217455433875
 10
-756.1324540914887
 20
120.7497043220408
 10
-756.1783745273947
 20
119.8227409249219
 10
-756.2242949633007
 20
118.9415953739403
 10
-756.2702153992068
 20
118.1070076910056
 10
-756.3161358351128
 20
117.3197178980275
 10
-756.3620562710188
 20
116.5804660169154
 10
-756.4079767069248
 20
115.889992069579
 10
-756.4538971428309
 20
115.2490182890535
 10
-756.4998175787367
 20
114.6580380780116
 10
-756.5457380146429
 20
114.1173860219886
 10
-756.591658450549
 20
113.6273935084581
 10
-756.6375788864551
 20
113.1883919248937
 10
-756.6834993223611
 20
112.8007126587689
 10
-756.7294197582672
 20
112.4646870975576
 10
-756.7753401941729
 20
112.1806466287354
210
0.0
220
0.0
230
-1.0
  0
LWPOLYLINE
  5
96
330
1F
100
AcDbEntity
  8
0
  6
CONTINUOUS
 62
     7
100
AcDbPolyline
 90
        3
 70
     0
 43
0.0
 10
800.8445002371122
 20
114.1603817921018
 10
800.9106957540396
 20
114.0602501797797
 10
800.940664729375
 20
114.0492583560135
  0
LWPOLYLINE
  5
97
330
1F
100
AcDbEntity
  8
0
  6
CONTINUOUS
 62
     7
100
AcDbPolyline
 90
        3
 70
     0
 43
0.0
 10
760.83273857159
 20
114.1894561534436
 10
760.8988426773601
 20
114.0704757246021
 10
760.9405548263785
 20
114.049258356045
  0
LWPOLYLINE
  5
98
330
1F
100
AcDbEntity
  8
0
  6
CONTINUOUS
 62
     7
100
AcDbPolyline
 90
        3
 70
     0
 43
0.0
 10
750.825918034868
 20
114.2078220256874
 10
750.8920216248481
 20
114.077645067419
 10
750.9405218692799
 20
114.049258356097
  0
LWPOLYLINE
  5
99
330
1F
100
AcDbEntity
  8
0
  6
CONTINUOUS
 62
     7
100
AcDbPolyline
 90
        3
 70
     0
 43
0.0
 10
710.8139782599231
 20
114.2421957461118
 10
710.88007737224
 20
114.0931807676143
 10
710.9404845928444
 20
114.0492583560817
  0
LWPOLYLINE
  5
9A
330
1F
100
AcDbEntity
  8
0
  6
CONTINUOUS
 62
     7
100
AcDbPolyline
 90
       33
 70
     0
 43
0.0
 10
720.4997306326617
 20
111.5504568203034
 10
720.5066262220728
 20
111.5510246839549
 10
720.5135218114841
 20
111.5527804731069
 10
720.5204174008952
 20
111.555724214477
 10
720.5273129903061
 20
111.5598559347832
 10
720.5342085797174
 20
111.5651756607433
 10
720.5411041691285
 20
111.5716834190751
 10
720.5479997585395
 20
111.5793792364966
 10
720.5548953479506
 20
111.5882631397256
 10
720.5617909373617
 20
111.5983351554798
 10
720.5686865267728
 20
111.6095953104773
 10
720.5755821161839
 20
111.6220436314358
 10
720.5824777055951
 20
111.6356801450732
 10
720.5893732950061
 20
111.6505048781074
 10
720.5962688844173
 20
111.6665178572561
 10
720.6031644738284
 20
111.6837191092373
 10
720.6100600632395
 20
111.7021086607688
 10
720.6169556526507
 20
111.7216865385685
 10
720.6238512420618
 20
111.7424527693542
 10
720.6307468314731
 20
111.7644073798438
 10
720.6376424208839
 20
111.7875503967551
 10
720.644538010295
 20
111.811881846806
 10
720.6514335997063
 20
111.8374017567143
 10
720.6583291891175
 20
111.864110153198
 10
720.6652247785287
 20
111.8920070629748
 10
720.6721203679396
 20
111.9210925127625
 10
720.6790159573507
 20
111.9513665292792
 10
720.6859115467619
 20
111.9828291392425
 10
720.6928071361731
 20
112.0154803693705
 10
720.6997027255843
 20
112.0493202463808
 10
720.7065983149953
 20
112.0843487969914
 10
720.7134939044064
 20
112.1205660479202
 10
720.7203894938175
 20
112.1579720254956
  0
LWPOLYLINE
  5
9B
330
1F
100
AcDbEntity
  8
0
  6
CONTINUOUS
 62
     7
100
AcDbPolyline
 90
        3
 70
     0
 43
0.0
 10
851.6385010350059
 20
235.9731353262436
 10
851.5704412276513
 20
236.0473216662728
 10
851.5592134742651
 20
236.049258355899
  0
LWPOLYLINE
  5
9C
330
1F
100
AcDbEntity
  8
0
  6
CONTINUOUS
 62
     7
100
AcDbPolyline
 90
      105
 70
     0
 43
0.0
 10
705.7243644817648
 20
237.9182897811274
 10
705.770282852231
 20
237.6342663369658
 10
705.8162012226973
 20
237.298138399783
 10
705.8621195931636
 20
236.9102901526166
 10
705.9080379636299
 20
236.4711057785042
 10
705.953956334096
 20
235.9809694604838
 10
705.9998747045624
 20
235.440265381593
 10
706.0457930750284
 20
234.8493777248695
 10
706.0917114454948
 20
234.2086906733511
 10
706.1376298159611
 20
233.5185885552789
 10
706.1835481864274
 20
232.7795518185167
 10
706.2294665568936
 20
231.9923231669812
 10
706.27538492736
 20
231.1576896197567
 10
706.3213032978261
 20
230.2764381959272
 10
706.3672216682924
 20
229.3493559145766
 10
706.4131400387588
 20
228.3772297947894
 10
706.459058409225
 20
227.3608468556492
 10
706.5049767796912
 20
226.3009941162403
 10
706.5508951501575
 20
225.1984585956469
 10
706.5968135206239
 20
224.054027774455
 10
706.6427318910901
 20
222.8685851887121
 10
706.6886502615563
 20
221.643227817828
 10
706.7345686320226
 20
220.3790813872884
 10
706.7804870024889
 20
219.0772716225788
 10
706.8264053729553
 20
217.7389242491847
 10
706.8723237434214
 20
216.3651649925917
 10
706.9182421138877
 20
214.9571195782855
 10
706.9641604843539
 20
213.5159137317515
 10
707.0100788548201
 20
212.0426731784754
 10
707.0559972252865
 20
210.5385244868069
 10
707.1019155957528
 20
209.0046758860557
 10
707.147833966219
 20
207.4424843005708
 10
707.1937523366852
 20
205.8533224333639
 10
707.2396707071514
 20
204.2385629874465
 10
707.2855890776177
 20
202.5995786658303
 10
707.3315074480839
 20
200.9377421715269
 10
707.3774258185501
 20
199.2544262075479
 10
707.4233441890166
 20
197.5510034769049
 10
707.4692625594828
 20
195.8288466826094
 10
707.5151809299489
 20
194.0893294581686
 10
707.5610993004153
 20
192.3338765977049
 10
707.6070176708814
 20
190.5639896200879
 10
707.6529360413477
 20
188.7811763522058
 10
707.6988544118143
 20
186.9869446209471
 10
707.7447727822804
 20
185.1828022532
 10
707.7906911527467
 20
183.3702570758531
 10
707.8366095232129
 20
181.5508169157946
 10
707.8825278936791
 20
179.7259895999129
 10
707.9284462641454
 20
177.8972829550964
 10
707.9743646346117
 20
176.0662049572924
 10
708.0202830050779
 20
174.2342688100816
 10
708.0662013755442
 20
172.4029941969708
 10
708.1121197460104
 20
170.5739012046106
 10
708.1580381164767
 20
168.7485099196519
 10
708.203956486943
 20
166.9283404287453
 10
708.2498748574092
 20
165.1149128185414
 10
708.2957932278754
 20
163.3097471756911
 10
708.3417115983417
 20
161.5143635868449
 10
708.3876299688079
 20
159.7302821386536
 10
708.4335483392741
 20
157.95902072985
 10
708.4794667097402
 20
156.2020444850239
 10
708.5253850802067
 20
154.4607643553325
 10
708.5713034506731
 20
152.7365888240971
 10
708.6172218211394
 20
151.030926374639
 10
708.6631401916056
 20
149.3451854902793
 10
708.7090585620718
 20
147.6807746543395
 10
708.754976932538
 20
146.0391023501407
 10
708.8008953030045
 20
144.4215770610042
 10
708.8468136734707
 20
142.8296072702513
 10
708.892732043937
 20
141.2645947606669
 10
708.9386504144034
 20
139.7278243043525
 10
708.9845687848695
 20
138.2204811802418
 10
709.0304871553359
 20
136.7437474991465
 10
709.0764055258021
 20
135.2988053718779
 10
709.1223238962683
 20
133.8868369092479
 10
709.1682422667345
 20
132.5090242220679
 10
709.2141606372007
 20
131.1665494211494
 10
709.2600790076671
 20
129.860594617304
 10
709.3059973781333
 20
128.5923419213434
 10
709.3519157485996
 20
127.362959723302
 10
709.3978341190659
 20
126.1734365600276
 10
709.443752489532
 20
125.024634478354
 10
709.4896708599982
 20
123.9174128931927
 10
709.5355892304647
 20
122.8526312194553
 10
709.5815076009308
 20
121.831148872053
 10
709.627425971397
 20
120.8538252658975
 10
709.6733443418633
 20
119.9215198159
 10
709.7192627123296
 20
119.0350919369722
 10
709.7651810827958
 20
118.1954010440253
 10
709.8110994532622
 20
117.4032834839034
 10
709.8570178237284
 20
116.6593426781786
 10
709.9029361941946
 20
115.9640469743651
 10
709.9488545646609
 20
115.3178630627112
 10
709.9947729351272
 20
114.721257633465
 10
710.0406913055934
 20
114.1746973768747
 10
710.0866096760597
 20
113.6786489831884
 10
710.132528046526
 20
113.2335791426545
 10
710.1784464169921
 20
112.839954545521
 10
710.2243647874586
 20
112.4982418820362
 10
710.2702831579246
 20
112.2088739711697
 10
710.316201528391
 20
111.972015258637
 10
710.3621198988573
 20
111.7877024624442
 10
710.4080382693237
 20
111.6559715202802
 10
710.4539566397898
 20
111.576858369834
 10
710.4998750102561
 20
111.5503989487945
  0
LWPOLYLINE
  5
9D
330
1F
100
AcDbEntity
  8
0
  6
CONTINUOUS
 62
     7
100
AcDbPolyline
 90
      113
 70
     0
 43
0.0
 10
735.7248345893823
 20
237.9156880690285
 10
735.7674695369193
 20
237.6536145796563
 10
735.8101044844562
 20
237.34636592632
 10
735.8527394319934
 20
236.9942719717794
 10
735.8953743795304
 20
236.597704944568
 10
735.9380093270676
 20
236.1570370732193
 10
735.9806442746047
 20
235.6726405862668
 10
736.0232792221416
 20
235.1448877122439
 10
736.0659141696786
 20
234.5741506796843
 10
736.1085491172157
 20
233.9608017171213
 10
736.1511840647528
 20
233.3052130530886
 10
736.1938190122899
 20
232.6077569161196
 10
736.2364539598268
 20
231.8688089977346
 10
736.2790889073639
 20
231.0888762969777
 10
736.3217238549009
 20
230.2686344920176
 10
736.3643588024379
 20
229.4087703456121
 10
736.406993749975
 20
228.5099706205193
 10
736.4496286975119
 20
227.572922079497
 10
736.492263645049
 20
226.5983114853029
 10
736.5348985925859
 20
225.5868256006951
 10
736.5775335401229
 20
224.5391511884313
 10
736.62016848766
 20
223.4559750112696
 10
736.662803435197
 20
222.3379838319676
 10
736.705438382734
 20
221.1858799556194
 10
736.7480733302712
 20
220.0005196883589
 10
736.7907082778081
 20
218.7828473352762
 10
736.8333432253451
 20
217.5338082330182
 10
736.8759781728822
 20
216.2543477182321
 10
736.9186131204191
 20
214.9454111275649
 10
736.961248067956
 20
213.6079437976637
 10
737.0038830154932
 20
212.2428910651755
 10
737.0465179630303
 20
210.8511982667474
 10
737.0891529105671
 20
209.4338107390264
 10
737.1317878581044
 20
207.9916738188794
 10
737.1744228056414
 20
206.5257648916324
 10
737.2170577531783
 20
205.0371823044331
 10
737.2596927007155
 20
203.5270529377879
 10
737.3023276482526
 20
201.9965036722033
 10
737.3449625957896
 20
200.4466613881861
 10
737.3875975433267
 20
198.8786529662426
 10
737.4302324908637
 20
197.2936052868796
 10
737.4728674384007
 20
195.6926452306034
 10
737.5155023859377
 20
194.0768996779207
 10
737.5581373334747
 20
192.447495509338
 10
737.6007722810117
 20
190.8055601278599
 10
737.6434072285489
 20
189.1522537831162
 10
737.6860421760861
 20
187.4887885168096
 10
737.7286771236231
 20
185.8163809303148
 10
737.7713120711601
 20
184.1362476250062
 10
737.813947018697
 20
182.4496052022586
 10
737.8565819662341
 20
180.7576702634464
 10
737.8992169137714
 20
179.0616594099443
 10
737.9418518613082
 20
177.3627892431267
 10
737.9844868088452
 20
175.6622763643682
 10
738.0271217563821
 20
173.9613373750435
 10
738.0697567039193
 20
172.2611884758101
 10
738.1123916514564
 20
170.5630406197734
 10
738.1550265989933
 20
168.8681010719595
 10
738.1976615465303
 20
167.1775770207838
 10
738.2402964940674
 20
165.4926756546615
 10
738.2829314416043
 20
163.8146041620076
 10
738.3255663891414
 20
162.1445697312374
 10
738.3682013366783
 20
160.4837795507659
 10
738.4108362842154
 20
158.8334408090084
 10
738.4534712317525
 20
157.1947606943801
 10
738.4961061792895
 20
155.568946395296
 10
738.5387411268264
 20
153.957190082598
 10
738.5813760743636
 20
152.3606124254713
 10
738.6240110219006
 20
150.7803128360487
 10
738.6666459694374
 20
149.2173907229663
 10
738.7092809169746
 20
147.6729454948603
 10
738.7519158645117
 20
146.1480765603667
 10
738.7945508120488
 20
144.6438833281218
 10
738.8371857595857
 20
143.1614652067615
 10
738.8798207071228
 20
141.701921604922
 10
738.9224556546599
 20
140.2663519312395
 10
738.9650906021969
 20
138.8558550828195
 10
739.0077255497339
 20
137.4714678177673
 10
739.050360497271
 20
136.1141060796436
 10
739.0929954448081
 20
134.784671912838
 10
739.1356303923451
 20
133.4840673617406
 10
739.178265339882
 20
132.2131944707409
 10
739.2209002874191
 20
130.972955284229
 10
739.263535234956
 20
129.7642518465946
 10
739.3061701824931
 20
128.5879862022274
 10
739.3488051300301
 20
127.4450603955174
 10
739.3914400775672
 20
126.3363764708542
 10
739.4340750251042
 20
125.2628286643943
 10
739.4767099726413
 20
124.2251719912615
 10
739.5193449201784
 20
123.2240415496367
 10
739.5619798677152
 20
122.26006851727
 10
739.6046148152523
 20
121.3338840719116
 10
739.6472497627892
 20
120.4461193913116
 10
739.6898847103264
 20
119.5974056532201
 10
739.7325196578633
 20
118.7883740353871
 10
739.7751546054004
 20
118.0196557155629
 10
739.8177895529376
 20
117.2918818714975
 10
739.8604245004746
 20
116.605683680941
 10
739.9030594480117
 20
115.9616575890053
 10
739.9456943955487
 20
115.3601906747165
 10
739.9883293430859
 20
114.8015919511272
 10
740.0309642906228
 20
114.2861702983142
 10
740.0735992381599
 20
113.8142345963544
 10
740.116234185697
 20
113.3860937253245
 10
740.158869133234
 20
113.0020565653015
 10
740.2015040807712
 20
112.662431996362
 10
740.2441390283083
 20
112.367528898583
 10
740.2867739758453
 20
112.1176561520413
 10
740.3294089233824
 20
111.9131223406773
 10
740.3720438709194
 20
111.7541439377296
 10
740.4146788184565
 20
111.6407151970217
 10
740.4573137659935
 20
111.5727975321015
 10
740.4999487135304
 20
111.5503523565172
  0
LWPOLYLINE
  5
9E
330
1F
100
AcDbEntity
  8
0
  6
CONTINUOUS
 62
     7
100
AcDbPolyline
 90
        3
 70
     0
 43
0.0
 10
811.6947662131303
 20
235.8279076785105
 10
811.6266493403302
 20
235.9940867224256
 10
811.5590736108213
 20
236.0492583560043
  0
LWPOLYLINE
  5
9F
330
1F
100
AcDbEntity
  8
0
  6
CONTINUOUS
 62
     7
100
AcDbPolyline
 90
       33
 70
     0
 43
0.0
 10
786.7752259374394
 20
112.181802069486
 10
786.78223959259
 20
112.1430256114127
 10
786.7892532477406
 20
112.1054670568613
 10
786.7962669028914
 20
112.0691272921581
 10
786.8032805580418
 20
112.0340072036297
 10
786.8102942131925
 20
112.0001076776024
 10
786.8173078683432
 20
111.9674296004027
 10
786.824321523494
 20
111.9359738583571
 10
786.8313351786445
 20
111.905741337792
 10
786.8383488337951
 20
111.8767329250338
 10
786.8453624889459
 20
111.848949506409
 10
786.8523761440965
 20
111.822391968244
 10
786.8593897992471
 20
111.7970611968653
 10
786.8664034543979
 20
111.7729580785993
 10
786.8734171095484
 20
111.7500834997724
 10
786.880430764699
 20
111.7284383467112
 10
786.8874444198498
 20
111.708023505742
 10
786.8944580750002
 20
111.6888398631912
 10
786.901471730151
 20
111.6708883053854
 10
786.9084853853016
 20
111.654169718651
 10
786.9154990404521
 20
111.6386849893144
 10
786.9225126956028
 20
111.6244350037021
 10
786.9295263507536
 20
111.6114206481405
 10
786.9365400059041
 20
111.599642808956
 10
786.9435536610548
 20
111.5891023724752
 10
786.9505673162055
 20
111.5798002250243
 10
786.9575809713563
 20
111.57173725293
 10
786.9645946265066
 20
111.5649143425185
 10
786.9716082816573
 20
111.5593323430847
 10
786.9786219368082
 20
111.5549913363965
 10
786.9856355919587
 20
111.5518906807496
 10
786.9926492471093
 20
111.5500297062289
 10
786.9996629022602
 20
111.549407742919
  0
LWPOLYLINE
  5
A0
330
1F
100
AcDbEntity
  8
0
  6
CONTINUOUS
 62
     7
100
AcDbPolyline
 90
      105
 70
     0
 43
0.0
 10
695.7223100574915
 20
237.9295834052141
 10
695.7682499103698
 20
237.6477288596552
 10
695.814189763248
 20
237.3137773745908
 10
695.8601296161263
 20
236.9280864182413
 10
695.9060694690046
 20
236.4910134588274
 10
695.9520093218829
 20
236.0029159645692
 10
695.9979491747614
 20
235.4641514036874
 10
696.0438890276396
 20
234.8750772444022
 10
696.0898288805179
 20
234.2360509549343
 10
696.135768733396
 20
233.547455693133
 10
696.1817085862743
 20
232.8099188556307
 10
696.2276484391526
 20
232.0242029180675
 10
696.2735882920308
 20
231.1910717828223
 10
696.3195281449092
 20
230.3112893522741
 10
696.3654679977875
 20
229.3856195288018
 10
696.4114078506657
 20
228.4148262147845
 10
696.457347703544
 20
227.3996733126009
 10
696.5032875564223
 20
226.3409247246302
 10
696.5492274093004
 20
225.239344353251
 10
696.5951672621786
 20
224.0957255384993
 10
696.641107115057
 20
222.9110787593846
 10
696.6870469679353
 20
221.6865116516965
 10
696.7329868208137
 20
220.4231323059746
 10
696.778926673692
 20
219.1220488127584
 10
696.8248665265701
 20
217.7843692625874
 10
696.8708063794486
 20
216.4112017460013
 10
696.9167462323268
 20
215.0036543535395
 10
696.9626860852051
 20
213.5628351757417
 10
697.0086259380834
 20
212.0898523031474
 10
697.0545657909615
 20
210.5858424066354
 10
697.10050564384
 20
209.0521078377739
 10
697.1464454967182
 20
207.4900105053394
 10
697.1923853495964
 20
205.9009123961268
 10
697.2383252024748
 20
204.2861754969308
 10
697.284265055353
 20
202.647161794546
 10
697.3302049082313
 20
200.9852332757672
 10
697.3761447611096
 20
199.301751927389
 10
697.422084613988
 20
197.5980797362062
 10
697.468024466866
 20
195.8755786890135
 10
697.5139643197443
 20
194.1356314635904
 10
697.5599041726227
 20
192.3797157213888
 10
697.6058440255009
 20
190.6093363627166
 10
697.6517838783793
 20
188.8259982901769
 10
697.6977237312575
 20
187.0312064063732
 10
697.7436635841359
 20
185.2264656139086
 10
697.7896034370141
 20
183.4132808153865
 10
697.8355432898925
 20
181.5931569134101
 10
697.8814831427707
 20
179.7675988105827
 10
697.927422995649
 20
177.9381114096077
 10
697.9733628485272
 20
176.1062033179739
 10
698.0193027014055
 20
174.2733966507187
 10
698.0652425542838
 20
172.4412166004227
 10
698.1111824071621
 20
170.6111883596665
 10
698.1571222600405
 20
168.7848371210305
 10
698.2030621129187
 20
166.9636880770954
 10
698.2490019657971
 20
165.1492664204417
 10
698.2949418186753
 20
163.3430973436499
 10
698.3408816715535
 20
161.5467060393006
 10
698.3868215244319
 20
159.7616176783255
 10
698.4327613773102
 20
157.9893339624149
 10
698.4787012301884
 20
156.2312884083105
 10
698.5246410830666
 20
154.4889022194257
 10
698.5705809359449
 20
152.7635965991738
 10
698.6165207888232
 20
151.0567927509679
 10
698.6624606417015
 20
149.3699118782214
 10
698.7084004945799
 20
147.7043751843477
 10
698.7543403474581
 20
146.0616038727599
 10
698.8002802003364
 20
144.4430191468714
 10
698.8462200532146
 20
142.8500419801472
 10
698.892159906093
 20
141.2840333912141
 10
698.9380997589714
 20
139.7462146582488
 10
698.9840396118493
 20
138.2377871898301
 10
699.0299794647276
 20
136.759952394537
 10
699.075919317606
 20
135.3139116809483
 10
699.1218591704842
 20
133.9008664576428
 10
699.1677990233625
 20
132.5220181331995
 10
699.2137388762409
 20
131.178568116197
 10
699.2596787291191
 20
129.8717178152142
 10
699.3056185819975
 20
128.6026676948265
 10
699.3515584348758
 20
127.3725157657339
 10
699.397498287754
 20
126.1821670941056
 10
699.4434381406322
 20
125.0325053978317
 10
699.4893779935105
 20
123.9244143948026
 10
699.535317846389
 20
122.8587778029085
 10
699.5812576992672
 20
121.8364793400397
 10
699.6271975521455
 20
120.8584027240863
 10
699.6731374050238
 20
119.9254316729387
 10
699.7190772579022
 20
119.0384499044872
 10
699.7650171107805
 20
118.1983386283363
 10
699.8109569636587
 20
117.4058335052328
 10
699.8568968165368
 20
116.6614473953646
 10
699.9028366694151
 20
115.9656743168607
 10
699.9487765222934
 20
115.31900828785
 10
699.9947163751716
 20
114.7219433264616
 10
700.0406562280499
 20
114.1749734508244
 10
700.0865960809282
 20
113.6785926790675
 10
700.1325359338064
 20
113.2332950293197
 10
700.1784757866848
 20
112.8395745197102
 10
700.224415639563
 20
112.4979200546221
 10
700.2703554924414
 20
112.2086380653234
 10
700.3162953453196
 20
111.9718069776093
 10
700.3622351981977
 20
111.7874908551601
 10
700.4081750510761
 20
111.6557537616563
 10
700.4541149039544
 20
111.5766597607781
 10
700.5000547568326
 20
111.5502729162061
  0
LWPOLYLINE
  5
A1
330
1F
100
AcDbEntity
  8
0
  6
CONTINUOUS
 62
     7
100
AcDbPolyline
 90
       33
 70
     0
 43
0.0
 10
-781.7751614790124
 20
237.9164067999792
 10
-781.782185315439
 20
237.9552574940426
 10
-781.7892091518659
 20
237.9928863913913
 10
-781.7962329882923
 20
238.0292925523405
 10
-781.8032568247193
 20
238.0644750372057
 10
-781.810280661146
 20
238.098432906302
 10
-781.8173044975725
 20
238.131165219945
 10
-781.8243283339993
 20
238.1626710384498
 10
-781.831352170426
 20
238.1929494221318
 10
-781.8383760068527
 20
238.2219994313064
 10
-781.8453998432794
 20
238.2498201262888
 10
-781.8524236797062
 20
238.2764105673944
 10
-781.859447516133
 20
238.3017698149384
 10
-781.8664713525598
 20
238.3258969292363
 10
-781.8734951889865
 20
238.3487909706032
 10
-781.8805190254133
 20
238.3704509993547
 10
-781.8875428618398
 20
238.3908760758058
 10
-781.8945666982667
 20
238.4100652602721
 10
-781.9015905346932
 20
238.4280176130688
 10
-781.90861437112
 20
238.4447321945112
 10
-781.9156382075467
 20
238.4602080649147
 10
-781.9226620439733
 20
238.4744442845945
 10
-781.9296858804001
 20
238.487439913866
 10
-781.936709716827
 20
238.4991940130446
 10
-781.9437335532537
 20
238.5097056424455
 10
-781.9507573896803
 20
238.5189738623841
 10
-781.9577812261069
 20
238.5269977983677
 10
-781.9648050625337
 20
238.533777443519
 10
-781.9718288989606
 20
238.5393134076602
 10
-781.9788527353871
 20
238.5436063137826
 10
-781.9858765718141
 20
238.5466567848773
 10
-781.9929004082408
 20
238.5484654439356
 10
-781.9999242446675
 20
238.5490329139485
210
0.0
220
0.0
230
-1.0
  0
LWPOLYLINE
  5
A2
330
1F
100
AcDbEntity
  8
0
  6
CONTINUOUS
 62
     7
100
AcDbPolyline
 90
        3
 70
     0
 43
0.0
 10
741.6702412389515
 20
235.9007012400267
 10
741.6041165010331
 20
236.025016274817
 10
741.5592171724518
 20
236.049258355947
  0
LWPOLYLINE
  5
A3
330
1F
100
AcDbEntity
  8
0
  6
CONTINUOUS
 62
     7
100
AcDbPolyline
 90
      105
 70
     0
 43
0.0
 10
815.7240873048431
 20
237.9189648691916
 10
815.7700118485203
 20
237.6354395404075
 10
815.8159363921976
 20
237.2999824142411
 10
815.8618609358749
 20
236.9128509651862
 10
815.9077854795524
 20
236.4743026677372
 10
815.9537100232295
 20
235.9845949963878
 10
815.9996345669068
 20
235.4439854427428
 10
816.0455591105842
 20
234.8528146189322
 10
816.0914836542618
 20
234.2116987911567
 10
816.1374081979391
 20
233.5213112927985
 10
816.1833327416165
 20
232.7823254572398
 10
816.2292572852938
 20
231.9954146178625
 10
816.2751818289711
 20
231.1612521080489
 10
816.3211063726486
 20
230.2805112611813
 10
816.3670309163258
 20
229.3538654106415
 10
816.4129554600032
 20
228.3819878898119
 10
816.4588800036806
 20
227.3655521840734
 10
816.5048045473577
 20
226.3053194192598
 10
816.5507290910352
 20
225.202285142911
 10
816.5966536347125
 20
224.0574836812442
 10
816.6425781783896
 20
222.8719493604767
 10
816.688502722067
 20
221.6467165068262
 10
816.7344272657442
 20
220.3828194465098
 10
816.7803518094215
 20
219.081292505745
 10
816.8262763530987
 20
217.743170010749
 10
816.8722008967759
 20
216.3694862877393
 10
816.9181254404532
 20
214.9612760879674
 10
816.9640499841306
 20
213.5196540956337
 10
817.0099745278078
 20
212.0459085808944
 10
817.0558990714853
 20
210.541350581526
 10
817.1018236151625
 20
209.0072911353045
 10
817.1477481588397
 20
207.445041280006
 10
817.193672702517
 20
205.8559120534068
 10
817.2395972461945
 20
204.241214493283
 10
817.285521789872
 20
202.6022596374108
 10
817.3314463335493
 20
200.9403585235665
 10
817.3773708772267
 20
199.2568228321098
 10
817.4232954209041
 20
197.5530214872348
 10
817.4692199645814
 20
195.8304249782938
 10
817.5151445082588
 20
194.0905142257167
 10
817.5610690519362
 20
192.3347701499335
 10
817.6069935956136
 20
190.5646736713743
 10
817.6529181392909
 20
188.7817057104691
 10
817.6988426829682
 20
186.9873471876479
 10
817.7447672266455
 20
185.1830790233408
 10
817.790691770323
 20
183.3703821379777
 10
817.8366163140005
 20
181.5507378238777
 10
817.8825408576778
 20
179.7256463622865
 10
817.9284654013551
 20
177.8966356999997
 10
817.9743899450323
 20
176.0652359684387
 10
818.0203144887097
 20
174.2329772990251
 10
818.0662390323872
 20
172.4013898231804
 10
818.1121635760643
 20
170.5720036723258
 10
818.1580881197414
 20
168.7463489778831
 10
818.2040126634189
 20
166.9259558712737
 10
818.2499372070961
 20
165.1123544839191
 10
818.2958617507734
 20
163.3070739467989
 10
818.3417862944506
 20
161.5116106066467
 10
818.3877108381279
 20
159.7274214530833
 10
818.4336353818052
 20
157.9559611469396
 10
818.4795599254824
 20
156.1986843490463
 10
818.5254844691596
 20
154.4570457202342
 10
818.571409012837
 20
152.7324999213342
 10
818.6173335565142
 20
151.0265016131769
 10
818.6632581001912
 20
149.3405054565933
 10
818.7091826438688
 20
147.6759661124141
 10
818.755107187546
 20
146.0343341138609
 10
818.8010317312232
 20
144.4169666087795
 10
818.8469562749005
 20
142.8251282125196
 10
818.8928808185779
 20
141.260079583402
 10
818.9388053622553
 20
139.7230813797479
 10
818.9847299059328
 20
138.2153942598779
 10
819.0306544496102
 20
136.7382788821133
 10
819.0765789932876
 20
135.2929959047749
 10
819.1225035369648
 20
133.8808059861836
 10
819.1684280806422
 20
132.5029697846606
 10
819.2143526243195
 20
131.1607384592656
 10
819.2602771679971
 20
129.855207218535
 10
819.3062017116742
 20
128.5873437380565
 10
819.3521262553518
 20
127.3581119498674
 10
819.3980507990291
 20
126.168475786005
 10
819.4439753427064
 20
125.0193991785067
 10
819.4898998863838
 20
123.9118460594097
 10
819.535824430061
 20
122.8467803607513
 10
819.5817489737382
 20
121.825166014569
 10
819.6276735174155
 20
120.8479669529
 10
819.673598061093
 20
119.9161298959538
 10
819.7195226047702
 20
119.03038922253
 10
819.7654471484475
 20
118.1913362645242
 10
819.8113716921249
 20
117.3995596824292
 10
819.8572962358022
 20
116.6556481367378
 10
819.9032207794796
 20
115.960190287943
 10
819.9491453231568
 20
115.3137747965377
 10
819.9950698668341
 20
114.7169903230149
 10
820.0409944105114
 20
114.1704255278674
 10
820.0869189541888
 20
113.6746690715881
 10
820.1328434978662
 20
113.2302828546407
 10
820.1787680415434
 20
112.8375744268874
 10
820.2246925852209
 20
112.4967106952529
 10
820.270617128898
 20
112.2078570821383
 10
820.3165416725753
 20
111.9711790099444
 10
820.3624662162529
 20
111.7868419010723
 10
820.40839075993
 20
111.6550111779226
 10
820.4543153036071
 20
111.5758522628965
 10
820.5002398472858
 20
111.5495305783949
  0
LWPOLYLINE
  5
A4
330
1F
100
AcDbEntity
  8
0
  6
CONTINUOUS
 62
     7
100
AcDbPolyline
 90
      113
 70
     0
 43
0.0
 10
725.7236886019119
 20
237.9222172190674
 10
725.7663334737551
 20
237.661115814003
 10
725.8089783455981
 20
237.3548743481459
 10
725.8516232174413
 20
237.0038429847447
 10
725.8942680892844
 20
236.6083727439087
 10
725.9369129611274
 20
236.1688146457473
 10
725.9795578329707
 20
235.68551971037
 10
726.0222027048137
 20
235.1588389578863
 10
726.064847576657
 20
234.5891234084056
 10
726.1074924485
 20
233.9767240820372
 10
726.1501373203432
 20
233.3219919988906
 10
726.1927821921863
 20
232.6252781930958
 10
726.2354270640293
 20
231.8869974248734
 10
726.2780719358725
 20
231.1077748549263
 10
726.3207168077157
 20
230.2882790056362
 10
726.3633616795588
 20
229.4291783993851
 10
726.4060065514018
 20
228.531141558555
 10
726.448651423245
 20
227.5948370055277
 10
726.491296295088
 20
226.6209332626852
 10
726.5339411669311
 20
225.6100988524092
 10
726.5765860387742
 20
224.5630022970819
 10
726.6192309106173
 20
223.4803121190851
 10
726.6618757824604
 20
222.3626991392063
 10
726.7045206543033
 20
221.2109387664397
 10
726.7471655261465
 20
220.0259518115182
 10
726.7898103979895
 20
218.8086698250642
 10
726.8324552698326
 20
217.5600243576999
 10
726.8751001416756
 20
216.2809469600473
 10
726.9177450135188
 20
214.972369182729
 10
726.9603898853618
 20
213.6352225763667
 10
727.0030347572048
 20
212.2704386915831
 10
727.0456796290482
 20
210.8789490790003
 10
727.0883245008911
 20
209.4616852892403
 10
727.1309693727342
 20
208.0195888673538
 10
727.1736142445772
 20
206.5537104023765
 10
727.2162591164204
 20
205.0651675854214
 10
727.2589039882635
 20
203.5550790886649
 10
727.3015488601067
 20
202.0245635842836
 10
727.3441937319496
 20
200.4747397444538
 10
727.3868386037929
 20
198.9067262413519
 10
727.4294834756358
 20
197.3216417471545
 10
727.4721283474792
 20
195.720604934038
 10
727.5147732193221
 20
194.1047344741788
 10
727.5574180911652
 20
192.4751490397534
 10
727.6000629630083
 20
190.8329830289808
 10
727.6427078348514
 20
189.1794348153242
 10
727.6853527066946
 20
187.5157190383692
 10
727.7279975785375
 20
185.8430503377044
 10
727.7706424503807
 20
184.1626433529187
 10
727.8132873222238
 20
182.4757127236007
 10
727.855932194067
 20
180.783473089339
 10
727.8985770659099
 20
179.0871390897223
 10
727.941221937753
 20
177.3879253643393
 10
727.9838668095961
 20
175.6870465527787
 10
728.0265116814392
 20
173.9857172804927
 10
728.0691565532823
 20
172.2851511173087
 10
728.1118014251255
 20
170.5865598648942
 10
728.1544462969686
 20
168.8911551562775
 10
728.1970911688115
 20
167.2001486244865
 10
728.2397360406547
 20
165.5147519025494
 10
728.2823809124977
 20
163.8361766234944
 10
728.3250257843408
 20
162.1656344203494
 10
728.3676706561841
 20
160.5043369261426
 10
728.4103155280271
 20
158.8534957739021
 10
728.4529603998703
 20
157.2143225966559
 10
728.4956052717133
 20
155.5880250935593
 10
728.5382501435564
 20
153.9757553465944
 10
728.5808950153996
 20
152.3786242248738
 10
728.6235398872426
 20
150.7977416258795
 10
728.6661847590858
 20
149.2342174470934
 10
728.7088296309288
 20
147.6891615859976
 10
728.7514745027719
 20
146.1636839400741
 10
728.7941193746149
 20
144.6588944068048
 10
728.836764246458
 20
143.1759028836719
 10
728.8794091183009
 20
141.7158192681572
 10
728.922053990144
 20
140.2797534577427
 10
728.9646988619872
 20
138.8687900400852
 10
729.0073437338302
 20
137.4838865400169
 10
729.0499886056734
 20
136.1259606941061
 10
729.0926334775164
 20
134.7959302251458
 10
729.1352783493594
 20
133.4947128559294
 10
729.1779232212025
 20
132.2232263092499
 10
729.2205680930456
 20
130.9823883079004
 10
729.2632129648887
 20
129.773116574674
 10
729.3058578367318
 20
128.5963288323639
 10
729.3485027085749
 20
127.4529428037633
 10
729.391147580418
 20
126.3438756374499
 10
729.4337924522611
 20
125.2699630591221
 10
729.4764373241042
 20
124.2318757900989
 10
729.5190821959474
 20
123.2302645985485
 10
729.5617270677907
 20
122.265780252639
 10
729.6043719396337
 20
121.3390735205386
 10
729.6470168114766
 20
120.4507951704157
 10
729.6896616833201
 20
119.6015959704384
 10
729.7323065551632
 20
118.7921266887748
 10
729.7749514270063
 20
118.0230380935932
 10
729.8175962988493
 20
117.2949809530618
 10
729.8602411706923
 20
116.6085974206884
 10
729.9028860425356
 20
115.9643675766214
 10
729.9455309143787
 20
115.3626272434145
 10
729.9881757862219
 20
114.8037072072674
 10
730.0308206580648
 20
114.2879382543795
 10
730.073465529908
 20
113.8156511709504
 10
730.1161104017509
 20
113.3871767431797
 10
730.1587552735941
 20
113.0028457572669
 10
730.2014001454371
 20
112.6629889994115
 10
730.2440450172802
 20
112.3679372558132
 10
730.2866898891233
 20
112.1180213126714
 10
730.3293347609664
 20
111.9135358584695
 10
730.3719796328094
 20
111.7545510870455
 10
730.4146245046525
 20
111.6410510262897
 10
730.4572693764956
 20
111.573019526574
 10
730.499914248339
 20
111.55044043827
  0
LWPOLYLINE
  5
A5
330
1F
100
AcDbEntity
  8
0
  6
CONTINUOUS
 62
     7
100
AcDbPolyline
 90
      113
 70
     0
 43
0.0
 10
795.7246514555547
 20
237.9157132448778
 10
795.767283413969
 20
237.6538610840171
 10
795.8099153723829
 20
237.3472164729536
 10
795.8525473307969
 20
236.9959409949472
 10
795.8951792892112
 20
236.6001962332586
 10
795.9378112476253
 20
236.1601437711477
 10
795.9804432060392
 20
235.6759989572872
 10
796.0230751644533
 20
235.148201332935
 10
796.0657071228673
 20
234.5772488663197
 10
796.1083390812814
 20
233.9636395258192
 10
796.1509710396955
 20
233.3078712798113
 10
796.1936029981094
 20
232.610442096674
 10
796.2362349565236
 20
231.871849944785
 10
796.2788669149376
 20
231.0925927925223
 10
796.3214988733516
 20
230.2731686082636
 10
796.3641308317657
 20
229.4140753603869
 10
796.4067627901796
 20
228.5158122567693
 10
796.4493947485937
 20
227.5789801102063
 10
796.4920267070077
 20
226.6043552712413
 10
796.5346586654216
 20
225.5927315167993
 10
796.5772906238357
 20
224.5449026238055
 10
796.6199225822497
 20
223.461662369185
 10
796.6625545406637
 20
222.3438045298629
 10
796.7051864990777
 20
221.1921228827643
 10
796.7478184574916
 20
220.0074112048144
 10
796.7904504159058
 20
218.7904632729382
 10
796.8330823743198
 20
217.542072864061
 10
796.8757143327337
 20
216.2630420658077
 10
796.9183462911476
 20
214.9542974360149
 10
796.9609782495617
 20
213.6168614100729
 10
797.0036102079757
 20
212.2517588931518
 10
797.0462421663897
 20
210.8600147904216
 10
797.0888741248036
 20
209.4426540070524
 10
797.1315060832177
 20
208.0007014482142
 10
797.1741380416317
 20
206.5351820190771
 10
797.2167700000457
 20
205.0471206248113
 10
797.2594019584596
 20
203.5375421705867
 10
797.3020339168738
 20
202.0074715615735
 10
797.3446658752877
 20
200.4579520338746
 10
797.3872978337017
 20
198.8901240050349
 10
797.4299297921159
 20
197.3051599747957
 10
797.4725617505298
 20
195.7042324629625
 10
797.5151937089439
 20
194.0885139893408
 10
797.5578256673579
 20
192.4591770737358
 10
797.6004576257718
 20
190.8173942359532
 10
797.643089584186
 20
189.1643379957982
 10
797.6857215425999
 20
187.5011808730763
 10
797.7283535010139
 20
185.8290953875929
 10
797.7709854594282
 20
184.1492541434735
 10
797.813617417842
 20
182.4628449118483
 10
797.8562493762561
 20
180.771088061016
 10
797.8988813346702
 20
179.0752081835429
 10
797.9415132930843
 20
177.376429871995
 10
797.9841452514984
 20
175.6759777189385
 10
798.0267772099124
 20
173.9750763169394
 10
798.0694091683267
 20
172.2749502585638
 10
798.1120411267406
 20
170.576824136378
 10
798.1546730851545
 20
168.8819225429479
 10
798.1973050435687
 20
167.1914700708397
 10
798.2399370019826
 20
165.5066901932613
 10
798.2825689603967
 20
163.8287829242487
 10
798.325200918811
 20
162.1589260225228
 10
798.3678328772247
 20
160.4982963684267
 10
798.4104648356389
 20
158.8480708423037
 10
798.4530967940528
 20
157.2094263244973
 10
798.4957287524669
 20
155.5835396953507
 10
798.538360710881
 20
153.9715878352072
 10
798.5809926692949
 20
152.37474762441
 10
798.623624627709
 20
150.7941959433026
 10
798.6662565861229
 20
149.231109672228
 10
798.7088885445369
 20
147.6866521536291
 10
798.7515205029509
 20
146.1618949165557
 10
798.7941524613649
 20
144.6578713558623
 10
798.836784419779
 20
143.1756147424798
 10
798.8794163781929
 20
141.7161583473389
 10
798.922048336607
 20
140.2805354413703
 10
798.964680295021
 20
138.8697792955048
 10
799.007312253435
 20
137.4849231806733
 10
799.0499442118489
 20
136.1270003678063
 10
799.0925761702631
 20
134.7970441278348
 10
799.1352081286769
 20
133.4960876407195
 10
799.1778400870911
 20
132.2251091108689
 10
799.220472045505
 20
130.9849386789796
 10
799.2631040039191
 20
129.7763818112828
 10
799.3057359623333
 20
128.6002439740095
 10
799.3483679207471
 20
127.4573306333907
 10
799.3909998791613
 20
126.3484472556575
 10
799.4336318375754
 20
125.2743993070409
 10
799.4762637959893
 20
124.235992253772
 10
799.5188957544035
 20
123.2340315620817
 10
799.5615277128175
 20
122.2693226982012
 10
799.6041596712315
 20
121.3426669446325
 10
799.6467916296456
 20
120.4547360961321
 10
799.6894235880596
 20
119.6060507415577
 10
799.7320555464736
 20
118.7971229096441
 10
799.7746875048877
 20
118.0284646291262
 10
799.8173194633017
 20
117.3005879287391
 10
799.8599514217158
 20
116.6140048372175
 10
799.90258338013
 20
115.9692273832964
 10
799.9452153385439
 20
115.3667675957107
 10
799.9878472969579
 20
114.8071375031952
 10
800.0304792553718
 20
114.290849134485
 10
800.0731112137859
 20
113.8183911936041
 10
800.1157431721999
 20
113.3900476247719
 10
800.1583751306138
 20
113.0059961969416
 10
800.2010070890277
 20
112.6664137790843
 10
800.2436390474419
 20
112.371477240171
 10
800.2862710058558
 20
112.1213634491728
 10
800.3289029642697
 20
111.9162492750609
 10
800.3715349226841
 20
111.7563115868062
 10
800.4141668810978
 20
111.6417272533799
 10
800.456798839512
 20
111.572673143753
 10
800.4994307979259
 20
111.5493261175983
  0
LWPOLYLINE
  5
A6
330
1F
100
AcDbEntity
  8
0
  6
CONTINUOUS
 62
     7
100
AcDbPolyline
 90
        3
 70
     0
 43
0.0
 10
791.6888853257643
 20
235.8464424067579
 10
791.6226067577986
 20
236.0005134213522
 10
791.55905866077
 20
236.0492583559943
  0
LWPOLYLINE
  5
A7
330
1F
100
AcDbEntity
  8
0
  6
CONTINUOUS
 62
     7
100
AcDbPolyline
 90
       33
 70
     0
 43
0.0
 10
-721.7758567808036
 20
237.9213155237199
 10
-721.7828555812627
 20
237.9598757126742
 10
-721.7898543817216
 20
237.9972115198859
 10
-721.7968531821807
 20
238.0333229562227
 10
-721.8038519826397
 20
238.0682100434125
 10
-721.8108507830987
 20
238.101872803183
 10
-721.8178495835579
 20
238.134311257262
 10
-721.8248483840168
 20
238.1655254273772
 10
-721.8318471844758
 20
238.1955153352562
 10
-721.8388459849349
 20
238.2242810026269
 10
-721.845844785394
 20
238.251822451217
 10
-721.852843585853
 20
238.2781397027542
 10
-721.859842386312
 20
238.3032327789663
 10
-721.866841186771
 20
238.3271017015809
 10
-721.8738399872301
 20
238.3497464923259
 10
-721.8808387876891
 20
238.3711671729289
 10
-721.887837588148
 20
238.3913637651177
 10
-721.8948363886072
 20
238.4103362906201
 10
-721.9018351890662
 20
238.4280847711638
 10
-721.9088339895252
 20
238.4446092284765
 10
-721.9158327899843
 20
238.4599096842858
 10
-721.9228315904433
 20
238.4739861603197
 10
-721.9298303909023
 20
238.4868386783057
 10
-721.9368291913613
 20
238.4984672599718
 10
-721.9438279918204
 20
238.5088719270455
 10
-721.9508267922795
 20
238.5180527012546
 10
-721.9578255927385
 20
238.5260096043269
 10
-721.9648243931974
 20
238.5327426579901
 10
-721.9718231936564
 20
238.5382518839719
 10
-721.9788219941154
 20
238.542537304
 10
-721.9858207945747
 20
238.5455989398024
 10
-721.9928195950336
 20
238.5474368131065
 10
-721.9998183954925
 20
238.5480509456401
210
0.0
220
0.0
230
-1.0
  0
LWPOLYLINE
  5
A8
330
1F
100
AcDbEntity
  8
0
  6
CONTINUOUS
 62
     7
100
AcDbPolyline
 90
       33
 70
     0
 43
0.0
 10
-791.7751071021413
 20
237.9160099361002
 10
-791.7821186128895
 20
237.9547871233569
 10
-791.7891301236377
 20
237.9923474240971
 10
-791.7961416343859
 20
238.0286900021142
 10
-791.803153145134
 20
238.0638140212015
 10
-791.8101646558821
 20
238.0977186451522
 10
-791.8171761666304
 20
238.1304030377599
 10
-791.8241876773785
 20
238.1618663628177
 10
-791.8311991881268
 20
238.192107784119
 10
-791.8382106988751
 20
238.2211264654572
 10
-791.8452222096231
 20
238.2489215706257
 10
-791.8522337203713
 20
238.2754922634176
 10
-791.8592452311194
 20
238.3008377076264
 10
-791.8662567418676
 20
238.3249570670454
 10
-791.873268252616
 20
238.347849505468
 10
-791.880279763364
 20
238.3695141866874
 10
-791.8872912741122
 20
238.3899502744971
 10
-791.8943027848602
 20
238.4091569326903
 10
-791.9013142956087
 20
238.4271333250604
 10
-791.908325806357
 20
238.4438786154008
 10
-791.915337317105
 20
238.4593919675046
 10
-791.922348827853
 20
238.4736725451654
 10
-791.9293603386013
 20
238.4867195121764
 10
-791.9363718493496
 20
238.498532032331
 10
-791.9433833600978
 20
238.5091092694225
 10
-791.9503948708459
 20
238.5184503872443
 10
-791.957406381594
 20
238.5265545495896
 10
-791.9644178923422
 20
238.5334209202518
 10
-791.9714294030905
 20
238.5390486630243
 10
-791.9784409138387
 20
238.5434369417005
 10
-791.985452424587
 20
238.5465849388315
 10
-791.9924639353351
 20
238.5484924989238
 10
-791.9994754460834
 20
238.5491602893811
210
0.0
220
0.0
230
-1.0
  0
LWPOLYLINE
  5
A9
330
1F
100
AcDbEntity
  8
0
  6
CONTINUOUS
 62
     7
100
AcDbPolyline
 90
      105
 70
     0
 43
0.0
 10
845.7239797900462
 20
237.9201197625883
 10
845.7699015371411
 20
237.6364982992679
 10
845.8158232842362
 20
237.3008702735899
 10
845.8617450313313
 20
236.9135756559843
 10
845.9076667784262
 20
236.4749544168807
 10
845.9535885255212
 20
235.985346526709
 10
845.9995102726162
 20
235.4450919558991
 10
846.0454320197114
 20
234.8545306748806
 10
846.0913537668064
 20
234.2140029023891
 10
846.1372755139015
 20
233.5239523142871
 10
846.1831972609965
 20
232.7850855099943
 10
846.2291190080917
 20
231.9981502375739
 10
846.2750407551866
 20
231.1638942450885
 10
846.3209625022819
 20
230.2830652806012
 10
846.3668842493769
 20
229.3564110921748
 10
846.4128059964721
 20
228.3846794278725
 10
846.4587277435672
 20
227.3686180357571
 10
846.5046494906624
 20
226.3089746638915
 10
846.5505712377575
 20
225.2064977354312
 10
846.5964929848526
 20
224.0620397290159
 10
846.6424147319475
 20
222.8766685270608
 10
846.6883364790427
 20
221.6514787255859
 10
846.7342582261377
 20
220.3875649206115
 10
846.7801799732326
 20
219.0860217081577
 10
846.8261017203279
 20
217.7479436842449
 10
846.8720234674228
 20
216.374425444893
 10
846.9179452145179
 20
214.9665615861225
 10
846.963866961613
 20
213.5254467039533
 10
847.0097887087081
 20
212.0521765508141
 10
847.0557104558031
 20
210.5479365412434
 10
847.1016322028981
 20
209.0140641810058
 10
847.1475539499935
 20
207.4519117217637
 10
847.1934756970885
 20
205.8628314151795
 10
847.2393974441835
 20
204.2481755129159
 10
847.2853191912787
 20
202.6092962666353
 10
847.3312409383736
 20
200.9475459280004
 10
847.3771626854686
 20
199.2642767486735
 10
847.4230844325639
 20
197.5608409803174
 10
847.4690061796589
 20
195.8385921459475
 10
847.514927926754
 20
194.0989422421723
 10
847.560849673849
 20
192.3433849191265
 10
847.606771420944
 20
190.5734198969282
 10
847.6526931680393
 20
188.7905468956955
 10
847.6986149151342
 20
186.9962656355462
 10
847.744536662229
 20
185.1920758365986
 10
847.7904584093244
 20
183.3794772189706
 10
847.8363801564193
 20
181.5599695027803
 10
847.8823019035142
 20
179.7350524081457
 10
847.9282236506094
 20
177.9062260273909
 10
847.9741453977042
 20
176.0750016809352
 10
848.0200671447993
 20
174.2429036357319
 10
848.0659888918944
 20
172.4114568768141
 10
848.1119106389893
 20
170.5821863892147
 10
848.1578323860844
 20
168.7566171579669
 10
848.2037541331795
 20
166.9362741681036
 10
848.2496758802745
 20
165.1226824046579
 10
848.2955976273696
 20
163.317366852663
 10
848.3415193744645
 20
161.5218524971518
 10
848.3874411215596
 20
159.7376620256486
 10
848.4333628686549
 20
157.9662695647698
 10
848.4792846157499
 20
156.2091029462165
 10
848.525206362845
 20
154.4675881577042
 10
848.5711281099402
 20
152.7431511869483
 10
848.6170498570352
 20
151.0372180216642
 10
848.6629716041305
 20
149.3512146495673
 10
848.7088933512256
 20
147.6865670583731
 10
848.7548150983206
 20
146.0447012357969
 10
848.8007368454159
 20
144.4270431695542
 10
848.846658592511
 20
142.8350114372056
 10
848.8925803396062
 20
141.2699097690788
 10
848.9385020867013
 20
139.7329514107312
 10
848.9844238337964
 20
138.2253471570482
 10
849.0303455808915
 20
136.7483078029151
 10
849.0762673279866
 20
135.3030441432174
 10
849.1221890750817
 20
133.8907669728405
 10
849.1681108221767
 20
132.5126870866698
 10
849.2140325692718
 20
131.1700152795906
 10
849.2599543163667
 20
129.8639623464883
 10
849.3058760634617
 20
128.5957237660728
 10
849.3517978105568
 20
127.3663152558135
 10
849.3977195576516
 20
126.1766357406779
 10
849.4436413047467
 20
125.0275821620311
 10
849.4895630518417
 20
123.9200514612385
 10
849.5354847989364
 20
122.8549405796652
 10
849.5814065460316
 20
121.8331464586767
 10
849.6273282931264
 20
120.855566039638
 10
849.6732500402213
 20
119.9230962639145
 10
849.7191717873164
 20
119.0366340728715
 10
849.7650935344117
 20
118.197050602493
 10
849.8110152815067
 20
117.4049822905266
 10
849.8569370286017
 20
116.6609403128052
 10
849.9028587756968
 20
115.9654346705966
 10
849.948780522792
 20
115.3189753651684
 10
849.9947022698873
 20
114.7220723977886
 10
850.0406240169825
 20
114.1752357697248
 10
850.0865457640775
 20
113.6789754822448
 10
850.1324675111729
 20
113.2338015366163
 10
850.178389258268
 20
112.8402239341072
 10
850.2243110053631
 20
112.4987147568876
 10
850.2702327524581
 20
112.2094744557652
 10
850.316154499553
 20
111.9725850265885
 10
850.3620762466483
 20
111.7881279734666
 10
850.4079979937435
 20
111.6561848005087
 10
850.4539197408383
 20
111.5768370118237
 10
850.4998414879328
 20
111.550166111521
  0
LWPOLYLINE
  5
AA
330
1F
100
AcDbEntity
  8
0
  6
CONTINUOUS
 62
     7
100
AcDbPolyline
 90
        3
 70
     0
 43
0.0
 10
761.676235663208
 20
235.8842971351692
 10
761.6099840560379
 20
236.017831245657
 10
761.5591510149017
 20
236.0492583559103
  0
LWPOLYLINE
  5
AB
330
1F
100
AcDbEntity
  8
0
  6
CONTINUOUS
 62
     7
100
AcDbPolyline
 90
      113
 70
     0
 43
0.0
 10
775.7247942728843
 20
237.9151108432933
 10
775.767431597811
 20
237.6532324193736
 10
775.8100689227376
 20
237.3464619638698
 10
775.8527062476644
 20
236.9949164995743
 10
775.8953435725911
 20
236.5987156623587
 10
775.937980897518
 20
236.1581106683661
 10
775.9806182224447
 20
235.6735433768696
 10
776.0232555473713
 20
235.1454705842603
 10
776.065892872298
 20
234.5743490869291
 10
776.1085301972247
 20
233.9606356812673
 10
776.1511675221516
 20
233.3047871636658
 10
776.1938048470782
 20
232.6072603305158
 10
776.2364421720048
 20
231.8685119782081
 10
776.2790794969316
 20
231.0889989031341
 10
776.3217168218583
 20
230.2691779016845
 10
776.3643541467851
 20
229.409520722338
 10
776.4069914717118
 20
228.5106728260811
 10
776.4496287966385
 20
227.5733916964077
 10
776.4922661215652
 20
226.5984366816052
 10
776.5349034464919
 20
225.5865671299606
 10
776.5775407714186
 20
224.5385423897612
 10
776.6201780963453
 20
223.4551218092942
 10
776.662815421272
 20
222.3370647368467
 10
776.7054527461987
 20
221.1851305207061
 10
776.7480900711255
 20
220.0000785091594
 10
776.790727396052
 20
218.7826680504938
 10
776.8333647209789
 20
217.5336956708058
 10
776.8760020459057
 20
216.2541181988541
 10
776.9186393708324
 20
214.9449356592832
 10
776.9612766957591
 20
213.6071480773653
 10
777.0039140206857
 20
212.2417554783723
 10
777.0465513456124
 20
210.8497578875766
 10
777.0891886705392
 20
209.4321553302502
 10
777.131825995466
 20
207.9899478316651
 10
777.1744633203928
 20
206.5241354170935
 10
777.2171006453193
 20
205.0357181118074
 10
777.259737970246
 20
203.5256965433581
 10
777.3023752951726
 20
201.9951249826373
 10
777.3450126200994
 20
200.4451528719219
 10
777.3876499450262
 20
198.8769394271785
 10
777.4302872699528
 20
197.291643864374
 10
777.4729245948795
 20
195.6904253994749
 10
777.5155619198063
 20
194.0744432484483
 10
777.5581992447328
 20
192.4448566272607
 10
777.6008365696596
 20
190.802824751879
 10
777.6434738945862
 20
189.1495068382698
 10
777.6861112195129
 20
187.4860621024001
 10
777.7287485444398
 20
185.8136519907337
 10
777.7713858693663
 20
184.1334725019321
 10
777.8140231942932
 20
182.4467468483209
 10
777.8566605192196
 20
180.7546989787398
 10
777.8992978441465
 20
179.0585528420288
 10
777.9419351690733
 20
177.3595323870276
 10
777.9845724939998
 20
175.6588615625761
 10
778.0272098189266
 20
173.9577643175142
 10
778.0698471438533
 20
172.2574646006815
 10
778.11248446878
 20
170.559186360918
 10
778.1551217937066
 20
168.8641535470635
 10
778.1977591186333
 20
167.1735858631775
 10
778.2403964435601
 20
165.4886800162298
 10
778.2830337684869
 20
163.810624961332
 10
778.3256710934135
 20
162.1406096476669
 10
778.3683084183402
 20
160.4798230244176
 10
778.4109457432669
 20
158.8294540407669
 10
778.4535830681938
 20
157.1906916458978
 10
778.4962203931204
 20
155.5647247889933
 10
778.5388577180472
 20
153.952742419236
 10
778.5814950429739
 20
152.3559334858092
 10
778.6241323679005
 20
150.7754867411983
 10
778.6667696928272
 20
149.2125530155852
 10
778.7094070177537
 20
147.6682003133932
 10
778.7520443426804
 20
146.1434857035384
 10
778.7946816676073
 20
144.6394662549372
 10
778.837318992534
 20
143.1571990365055
 10
778.8799563174606
 20
141.6977411171598
 10
778.9225936423873
 20
140.262149565816
 10
778.965230967314
 20
138.8514814513905
 10
779.0078682922407
 20
137.4667938427993
 10
779.0505056171673
 20
136.1091438089588
 10
779.0931429420941
 20
134.7795834333528
 10
779.1357802670208
 20
133.4790581992535
 10
779.1784175919476
 20
132.2084112864862
 10
779.2210549168742
 20
130.9684817492526
 10
779.263692241801
 20
129.7601086417546
 10
779.3063295667276
 20
128.5841310181937
 10
779.3489668916544
 20
127.4413879327718
 10
779.3916042165811
 20
126.3327184396905
 10
779.4342415415077
 20
125.2589615931516
 10
779.4768788664344
 20
124.2209564473567
 10
779.5195161913613
 20
123.2195420565078
 10
779.5621535162879
 20
122.2555307777879
 10
779.6047908412147
 20
121.3295521423124
 10
779.6474281661414
 20
120.4421590804279
 10
779.6900654910681
 20
119.5939042619351
 10
779.7327028159948
 20
118.785340356635
 10
779.7753401409213
 20
118.0170200343284
 10
779.8179774658482
 20
117.2894959648163
 10
779.860614790775
 20
116.6033208178995
 10
779.9032521157015
 20
115.9590472633789
 10
779.9458894406283
 20
115.3572279710554
 10
779.9885267655551
 20
114.798415483451
 10
780.0311640904818
 20
114.2830827104419
 10
780.0738014154084
 20
113.8114870163621
 10
780.1164387403352
 20
113.3838496527378
 10
780.1590760652618
 20
113.0003918710956
 10
780.2017133901887
 20
112.6613349229616
 10
780.2443507151152
 20
112.3669000598622
 10
780.286988040042
 20
112.1173085333239
 10
780.3296253649687
 20
111.9127815948728
 10
780.3722626898953
 20
111.7535404960353
 10
780.4149000148221
 20
111.6398064883379
 10
780.4575373397488
 20
111.5717958540383
 10
780.5001746646755
 20
111.5495707591309
  0
LWPOLYLINE
  5
AC
330
1F
100
AcDbEntity
  8
0
  6
CONTINUOUS
 62
     7
100
AcDbPolyline
 90
        3
 70
     0
 43
0.0
 10
831.6968156192894
 20
235.8206821419134
 10
831.6286615857717
 20
235.9907662621089
 10
831.5591423381534
 20
236.0492583560023
  0
LWPOLYLINE
  5
AD
330
1F
100
AcDbEntity
  8
0
  6
CONTINUOUS
 62
     7
100
AcDbPolyline
 90
       33
 70
     0
 43
0.0
 10
796.7778816810754
 20
112.1670392867042
 10
796.7848050909773
 20
112.129225638111
 10
796.7917285008792
 20
112.0925986311602
 10
796.798651910781
 20
112.0571590233924
 10
796.8055753206829
 20
112.0229075723482
 10
796.8124987305848
 20
111.9898450355681
 10
796.8194221404866
 20
111.9579721705926
 10
796.8263455503883
 20
111.9272897349623
 10
796.8332689602904
 20
111.8977984862177
 10
796.8401923701921
 20
111.8694991818994
 10
796.8471157800941
 20
111.8423925795478
 10
796.854039189996
 20
111.8164794367036
 10
796.8609625998977
 20
111.7917605109072
 10
796.8678860097997
 20
111.7682365596993
 10
796.8748094197014
 20
111.7459083406202
 10
796.8817328296033
 20
111.7247766112107
 10
796.8886562395052
 20
111.7048421290111
 10
796.8955796494071
 20
111.6861056515622
 10
796.9025030593091
 20
111.6685679364043
 10
796.9094264692108
 20
111.652229741078
 10
796.9163498791125
 20
111.6370918231239
 10
796.9232732890144
 20
111.6231549400825
 10
796.9301966989163
 20
111.6104198494943
 10
796.9371201088184
 20
111.5988873089
 10
796.9440435187203
 20
111.5885580758399
 10
796.9509669286219
 20
111.5794329078547
 10
796.9578903385237
 20
111.5715125624849
 10
796.9648137484256
 20
111.5647977972711
 10
796.9717371583276
 20
111.5592893697537
 10
796.9786605682295
 20
111.5549880374733
 10
796.9855839781312
 20
111.5518945579704
 10
796.9925073880331
 20
111.5500096887857
 10
796.9994307979352
 20
111.5493341781613
  0
LWPOLYLINE
  5
AE
330
1F
100
AcDbEntity
  8
0
  6
CONTINUOUS
 62
     7
100
AcDbPolyline
 90
        3
 70
     0
 43
0.0
 10
751.6732306979219
 20
235.8924023156518
 10
751.6050963188832
 20
236.0236869991005
 10
751.55918740416
 20
236.0492583559358
  0
LWPOLYLINE
  5
AF
330
1F
100
AcDbEntity
  8
0
  6
CONTINUOUS
 62
     7
100
AcDbPolyline
 90
      113
 70
     0
 43
0.0
 10
765.724897660199
 20
237.9147157368754
 10
765.7675328901508
 20
237.6527772204938
 10
765.8101681201027
 20
237.345883643052
 10
765.8528033500546
 20
236.9941296451673
 10
765.8954385800065
 20
236.5976747813927
 10
765.9380738099585
 20
236.1569053792654
 10
765.9807090399103
 20
235.6722572571553
 10
766.023344269862
 20
235.1441662334319
 10
766.065979499814
 20
234.5730681264652
 10
766.1086147297659
 20
233.959398754625
 10
766.1512499597179
 20
233.3035939362809
 10
766.1938851896698
 20
232.6060894898027
 10
766.2365204196216
 20
231.8673212335602
 10
766.2791556495736
 20
231.0877249859231
 10
766.3217908795253
 20
230.2677388036371
 10
766.3644261094771
 20
229.4079179341064
 10
766.4070613394291
 20
228.5089900598583
 10
766.4496965693812
 20
227.5716966699537
 10
766.4923317993329
 20
226.5967792534535
 10
766.5349670292849
 20
225.5849792994185
 10
766.5776022592368
 20
224.5370382969097
 10
766.6202374891886
 20
223.453697734988
 10
766.6628727191404
 20
222.3356991027142
 10
766.7055079490923
 20
221.1837838891494
 10
766.7481431790443
 20
219.9986935833542
 10
766.7907784089961
 20
218.7811814524005
 10
766.8334136389478
 20
217.5321407944059
 10
766.8760488688997
 20
216.2525567499326
 10
766.9186840988517
 20
214.9434160590665
 10
766.9613193288035
 20
213.6057054618938
 10
767.0039545587554
 20
212.2404116985007
 10
767.0465897887074
 20
210.8485215089733
 10
767.0892250186591
 20
209.4310216333976
 10
767.131860248611
 20
207.98889881186
 10
767.1744954785627
 20
206.5231397844463
 10
767.2171307085146
 20
205.0347312912429
 10
767.2597659384663
 20
203.5246850026775
 10
767.3024011684184
 20
201.9941223225648
 10
767.3450363983702
 20
200.4441948373695
 10
767.387671628322
 20
198.8760541344457
 10
767.4303068582741
 20
197.2908518011479
 10
767.4729420882258
 20
195.6897394248301
 10
767.5155773181777
 20
194.0738685928468
 10
767.5582125481294
 20
192.4443908925521
 10
767.6008477780814
 20
190.8024579113005
 10
767.6434830080332
 20
189.149221236446
 10
767.686118237985
 20
187.4858327035191
 10
767.7287534679369
 20
185.81346772957
 10
767.7713886978887
 20
184.1333444170192
 10
767.8140239278407
 20
182.4466853642791
 10
767.8566591577925
 20
180.7547131697622
 10
767.8992943877446
 20
179.0586504318809
 10
767.9419296176966
 20
177.3597197490476
 10
767.9845648476482
 20
175.6591437196747
 10
768.0272000776004
 20
173.9581449421747
 10
768.0698353075521
 20
172.2579460149601
 10
768.112470537504
 20
170.5597695364432
 10
768.1551057674559
 20
168.8648371582268
 10
768.1977409974075
 20
167.174355389132
 10
768.2403762273597
 20
165.4895185609488
 10
768.2830114573115
 20
163.8115206606564
 10
768.3256466872634
 20
162.1415556752341
 10
768.3682819172152
 20
160.4808175916609
 10
768.4109171471671
 20
158.8305003969161
 10
768.4535523771189
 20
157.1917980779789
 10
768.4961876070706
 20
155.5659046218284
 10
768.5388228370225
 20
153.9540140154438
 10
768.5814580669744
 20
152.3573202458043
 10
768.6240932969263
 20
150.7770024560988
 10
768.666728526878
 20
149.2141572683209
 10
768.7093637568299
 20
147.6698527940658
 10
768.7519989867818
 20
146.1451571177685
 10
768.7946342167338
 20
144.6411383238644
 10
768.8372694466855
 20
143.1588644967885
 10
768.8799046766374
 20
141.6994037209758
 10
768.9225399065891
 20
140.2638240808615
 10
768.9651751365412
 20
138.8531936608809
 10
769.0078103664931
 20
137.4685805454689
 10
769.0504455964448
 20
136.111052540858
 10
769.0930808263968
 20
134.7816174476577
 10
769.1357160563485
 20
133.4811486782749
 10
769.1783512863004
 20
132.2105013825619
 10
769.2209865162525
 20
130.9705307103711
 10
769.2636217462044
 20
129.7620918115545
 10
769.3062569761562
 20
128.5860398359644
 10
769.3488922061081
 20
127.4432299334533
 10
769.39152743606
 20
126.3345172538732
 10
769.4341626660118
 20
125.2607569470766
 10
769.4767978959637
 20
124.2228041629156
 10
769.5194331259156
 20
123.2215079387353
 10
769.5620683558674
 20
122.2575807852318
 10
769.6047035858194
 20
121.3316009051723
 10
769.6473388157713
 20
120.444140832598
 10
769.6899740457231
 20
119.5957731015503
 10
769.732609275675
 20
118.7870702460704
 10
769.7752445056268
 20
118.0186048001999
 10
769.8178797355788
 20
117.2909492979798
 10
769.8605149655306
 20
116.6046762734516
 10
769.9031501954825
 20
115.9603582606566
 10
769.9457854254345
 20
115.358567793636
 10
769.9884206553862
 20
114.79984781745
 10
770.0310558853381
 20
114.2845321062679
 10
770.0736911152899
 20
113.8128642794613
 10
770.1163263452421
 20
113.3850876027646
 10
770.1589615751939
 20
113.001445341912
 10
770.2015968051458
 20
112.662180762638
 10
770.2442320350974
 20
112.3675371306767
 10
770.2868672650494
 20
112.1177577117625
 10
770.3295024950013
 20
111.9130857716298
 10
770.3721377249532
 20
111.7537645760128
 10
770.4147729549048
 20
111.6400372861819
 10
770.4574081848568
 20
111.5720654019786
 10
770.5000434148087
 20
111.5497825396934
  0
LWPOLYLINE
  5
B0
330
1F
100
AcDbEntity
  8
0
  6
CONTINUOUS
 62
     7
100
AcDbPolyline
 90
      105
 70
     0
 43
0.0
 10
805.7245911954974
 20
237.9160581493913
 10
805.7705083587127
 20
237.6321243596877
 10
805.8164255219283
 20
237.2962694836937
 10
805.8623426851439
 20
236.9087231803852
 10
805.9082598483594
 20
236.4697151087379
 10
805.9541770115748
 20
235.9794749277278
 10
806.0000941747903
 20
235.4382570394107
 10
806.0460113380058
 20
234.8465641329936
 10
806.0919285012209
 20
234.2050421833065
 10
806.1378456644364
 20
233.5143388971719
 10
806.1837628276518
 20
232.775101981412
 10
806.2296799908672
 20
231.9879791428492
 10
806.2755971540826
 20
231.1536180883059
 10
806.321514317298
 20
230.2726665246046
 10
806.3674314805135
 20
229.3457721585676
 10
806.4133486437288
 20
228.3735826970172
 10
806.4592658069442
 20
227.3567747389775
 10
806.5051829701598
 20
226.2962526651493
 10
806.5511001333751
 20
225.1930288042574
 10
806.5970172965908
 20
224.0481161330783
 10
806.6429344598062
 20
222.8625276283886
 10
806.6888516230218
 20
221.6372762669648
 10
806.7347687862372
 20
220.3733750255836
 10
806.780685949453
 20
219.0718368810214
 10
806.8266031126684
 20
217.7336748100548
 10
806.8725202758839
 20
216.3599017894604
 10
806.9184374390992
 20
214.9515599278107
 10
806.9643546023149
 20
213.5098740763644
 10
807.0102717655303
 20
212.0361397871172
 10
807.0561889287459
 20
210.5316527651661
 10
807.1021060919612
 20
208.9977087156084
 10
807.1480232551767
 20
207.435603343541
 10
807.193940418392
 20
205.8466323540612
 10
807.2398575816078
 20
204.232091452266
 10
807.2857747448231
 20
202.5932763432525
 10
807.3316919080386
 20
200.9314827321178
 10
807.3776090712539
 20
199.2480295974355
 10
807.4235262344694
 20
197.5443530264818
 10
807.4694433976846
 20
195.8219258600558
 10
807.5153605609001
 20
194.0822209520419
 10
807.5612777241156
 20
192.3267111563242
 10
807.607194887331
 20
190.5568693267869
 10
807.6531120505465
 20
188.7741683173143
 10
807.699029213762
 20
186.9800809817908
 10
807.7449463769773
 20
185.1760801741003
 10
807.790863540193
 20
183.3636387481273
 10
807.8367807034083
 20
181.5442389557651
 10
807.8826978666239
 20
179.7194011374305
 10
807.9286150298394
 20
177.8906552814282
 10
807.9745321930551
 20
176.0595313760633
 10
808.0204493562704
 20
174.2275594096411
 10
808.066366519486
 20
172.3962693704669
 10
808.1122836827016
 20
170.567191246846
 10
808.1582008459171
 20
168.7418550270836
 10
808.2041180091325
 20
166.921790699485
 10
808.250035172348
 20
165.1085282488946
 10
808.2959523355635
 20
163.3035839816322
 10
808.3418694987789
 20
161.5084294776328
 10
808.3877866619943
 20
159.7245271897023
 10
808.4337038252097
 20
157.9533395706466
 10
808.479620988425
 20
156.1963290732714
 10
808.5255381516408
 20
154.4549581503827
 10
808.571455314856
 20
152.7306892547862
 10
808.6173724780713
 20
151.0249848392879
 10
808.6632896412868
 20
149.3393073566936
 10
808.7092068045021
 20
147.6751191755826
 10
808.7551239677176
 20
146.0338369772913
 10
808.8010411309331
 20
144.4167563484319
 10
808.8469582941485
 20
142.8251530394686
 10
808.8928754573642
 20
141.2603028008655
 10
808.9387926205796
 20
139.7234813830869
 10
808.9847097837953
 20
138.2159645365971
 10
809.0306269470105
 20
136.7390280118601
 10
809.0765441102261
 20
135.2939475593403
 10
809.1224612734417
 20
133.8819989295017
 10
809.1683784366572
 20
132.504457416236
 10
809.2142955998729
 20
131.1625140581132
 10
809.2602127630884
 20
129.857177722215
 10
809.3061299263039
 20
128.5894335031183
 10
809.3520470895194
 20
127.3602664954002
 10
809.3979642527349
 20
126.170661793638
 10
809.4438814159505
 20
125.0216044924085
 10
809.489798579166
 20
123.9140796862889
 10
809.5357157423814
 20
122.8490724698562
 10
809.5816329055968
 20
121.8275679376876
 10
809.6275500688122
 20
120.8505497816741
 10
809.6734672320276
 20
119.9188767119636
 10
809.7193843952431
 20
119.0331856752349
 10
809.7653015584584
 20
118.1940908405039
 10
809.8112187216739
 20
117.4022063767866
 10
809.857135884889
 20
116.6581464530988
 10
809.9030530481044
 20
115.9625252384564
 10
809.9489702113198
 20
115.3159569018753
 10
809.9948873745351
 20
114.7190556123713
 10
810.0408045377504
 20
114.1724355389604
 10
810.0867217009658
 20
113.6767077124999
 10
810.1326388641813
 20
113.2323211787058
 10
810.1785560273968
 20
112.8394879655244
 10
810.2244731906122
 20
112.4984012713205
 10
810.2703903538278
 20
112.2092542944589
 10
810.3163075170434
 20
111.9722402333043
 10
810.3622246802588
 20
111.7875522862213
 10
810.4081418434741
 20
111.6553836515749
 10
810.45405900669
 20
111.5759275277297
 10
810.4999761699047
 20
111.5493771130505
  0
LWPOLYLINE
  5
B1
330
1F
100
AcDbEntity
  8
0
  6
CONTINUOUS
 62
     7
100
AcDbPolyline
 90
      113
 70
     0
 43
0.0
 10
745.7248203621243
 20
237.9155841704502
 10
745.767453074945
 20
237.6536705998356
 10
745.8100857877657
 20
237.3466291668661
 10
745.8527185005864
 20
236.9946589000632
 10
745.8953512134069
 20
236.5981416461404
 10
745.9379839262276
 20
236.1574709001
 10
745.9806166390483
 20
235.6730401569448
 10
746.023249351869
 20
235.1452429116774
 10
746.0658820646897
 20
234.5744726593003
 10
746.1085147775102
 20
233.9611228948162
 10
746.1511474903309
 20
233.3055871132278
 10
746.1937802031516
 20
232.6082588095376
 10
746.2364129159724
 20
231.8695314787483
 10
746.279045628793
 20
231.0898179173624
 10
746.3216783416137
 20
230.2697175209707
 10
746.3643110544344
 20
229.409934264645
 10
746.406943767255
 20
228.5111732764751
 10
746.4495764800756
 20
227.5741396845512
 10
746.4922091928963
 20
226.5995386169632
 10
746.5348419057171
 20
225.5880752018012
 10
746.5774746185377
 20
224.5404545671551
 10
746.6201073313584
 20
223.4573818411151
 10
746.6627400441791
 20
222.3395621517708
 10
746.7053727569996
 20
221.187700627953
 10
746.7480054698203
 20
220.0025481426096
 10
746.790638182641
 20
218.785024850581
 10
746.8332708954619
 20
217.5360900562246
 10
746.8759036082824
 20
216.2567030638974
 10
746.918536321103
 20
214.9478231779568
 10
746.9611690339237
 20
213.6104097027599
 10
747.0038017467444
 20
212.2454219426642
 10
747.046434459565
 20
210.8538192020266
 10
747.0890671723859
 20
209.4365607852046
 10
747.1316998852064
 20
207.9946059965555
 10
747.1743325980269
 20
206.5289152231634
 10
747.2169653108479
 20
205.0405139953321
 10
747.2595980236686
 20
203.5305289187547
 10
747.302230736489
 20
202.0000953058779
 10
747.34486344931
 20
200.4503484691482
 10
747.3874961621306
 20
198.8824237210124
 10
747.4301288749512
 20
197.2974563739171
 10
747.4727615877717
 20
195.696581740309
 10
747.5153943005926
 20
194.0809351326348
 10
747.558027013413
 20
192.4516518633411
 10
747.6006597262339
 20
190.8098672448746
 10
747.6432924390546
 20
189.1567202369027
 10
747.6859251518753
 20
187.4933965887252
 10
747.7285578646957
 20
185.8211144612627
 10
747.7711905775166
 20
184.1410926649895
 10
747.8138232903373
 20
182.4545500103801
 10
747.856456003158
 20
180.7627053079089
 10
747.8990887159788
 20
179.0667773680504
 10
747.9417214287994
 20
177.367985001279
 10
747.9843541416201
 20
175.6675470180692
 10
748.0269868544408
 20
173.9666822288954
 10
748.0696195672614
 20
172.2666094442321
 10
748.1122522800821
 20
170.5685452362468
 10
748.1548849929028
 20
168.8736956765681
 10
748.1975177057235
 20
167.1832637602575
 10
748.240150418544
 20
165.498452481983
 10
748.2827831313648
 20
163.8204648364126
 10
748.3254158441854
 20
162.1505038182144
 10
748.3680485570061
 20
160.4897724220563
 10
748.410681269827
 20
158.8394736426065
 10
748.4533139826475
 20
157.2008104745327
 10
748.4959466954681
 20
155.5749859125032
 10
748.5385794082888
 20
153.9632026404565
 10
748.5812121211094
 20
152.3666271754114
 10
748.6238448339301
 20
150.7863565498256
 10
748.6664775467508
 20
149.2234799174654
 10
748.7091102595714
 20
147.6790864320969
 10
748.7517429723922
 20
146.1542652474863
 10
748.7943756852128
 20
144.6501055173999
 10
748.8370083980334
 20
143.1676963956037
 10
748.879641110854
 20
141.708127035864
 10
748.9222738236747
 20
140.2724865919469
 10
748.9649065364954
 20
138.8618642176188
 10
749.007539249316
 20
137.4773431068295
 10
749.0501719621367
 20
136.1199018732513
 10
749.0928046749574
 20
134.7904299385847
 10
749.1354373877781
 20
133.4898138668373
 10
749.1780701005987
 20
132.2189402220162
 10
749.2207028134193
 20
130.9786955681287
 10
749.2633355262401
 20
129.7699664691823
 10
749.3059682390609
 20
128.5936394891841
 10
749.3486009518814
 20
127.4506011921416
 10
749.3912336647022
 20
126.3417381420619
 10
749.433866377523
 20
125.2679369029525
 10
749.4764990903437
 20
124.2300540890554
 10
749.5191318031643
 20
123.2287675701928
 10
749.561764515985
 20
122.2646891851043
 10
749.6043972288059
 20
121.338430667052
 10
749.6470299416266
 20
120.4506037492981
 10
749.6896626544471
 20
119.6018201651046
 10
749.7322953672679
 20
118.7926916477337
 10
749.7749280800886
 20
118.0238299304473
 10
749.8175607929093
 20
117.2958467465077
 10
749.8601935057299
 20
116.6093538291768
 10
749.9028262185507
 20
115.9649626219731
 10
749.9454589313713
 20
115.3631979556607
 10
749.988091644192
 20
114.8043772773264
 10
750.0307243570127
 20
114.2887876428726
 10
750.0733570698334
 20
113.8167161082018
 10
750.1159897826539
 20
113.3884497292164
 10
750.1586224954746
 20
113.0042755618189
 10
750.2012552082952
 20
112.6644806619117
 10
750.243887921116
 20
112.3693520853972
 10
750.2865206339364
 20
112.1191768881779
 10
750.3291533467573
 20
111.9142421261563
 10
750.3717860595777
 20
111.7548283613214
 10
750.4144187723983
 20
111.6410533280935
 10
750.4570514852192
 20
111.5728640801305
 10
750.4996841980394
 20
111.5501996054456
  0
LWPOLYLINE
  5
B2
330
1F
100
AcDbEntity
  8
0
  6
CONTINUOUS
 62
     7
100
AcDbPolyline
 90
      105
 70
     0
 43
0.0
 10
715.7248078934632
 20
237.9159261471479
 10
715.7707206121094
 20
237.6315183739123
 10
715.8166333307556
 20
237.2949338118254
 10
715.8625460494017
 20
236.9065835790409
 10
715.9084587680479
 20
236.466878793713
 10
715.9543714866941
 20
235.9762305739951
 10
716.0002842053401
 20
235.4350500380413
 10
716.0461969239863
 20
234.8437483040052
 10
716.0921096426325
 20
234.2027364900409
 10
716.1380223612787
 20
233.5124257143021
 10
716.1839350799248
 20
232.773235540026
 10
716.229847798571
 20
231.9857775741787
 10
716.2757605172172
 20
231.1508542568595
 10
716.3216732358633
 20
230.2692762311291
 10
716.3675859545094
 20
229.3418541400484
 10
716.4134986731556
 20
228.3693986266781
 10
716.4594113918018
 20
227.3527203340791
 10
716.5053241104479
 20
226.292629905312
 10
716.551236829094
 20
225.1899379834377
 10
716.5971495477401
 20
224.045455211517
 10
716.6430622663862
 20
222.8600027068782
 10
716.6889749850322
 20
221.6345761443365
 10
716.7348877036783
 20
220.3703153202821
 10
716.7808004223244
 20
219.0683643480564
 10
716.8267131409706
 20
217.7298673410007
 10
716.8726258596167
 20
216.3559684124563
 10
716.9185385782628
 20
214.9478116757645
 10
716.9644512969089
 20
213.5065412442667
 10
717.0103640155551
 20
212.0333012313043
 10
717.0562767342012
 20
210.5292357502184
 10
717.1021894528475
 20
208.9954996206944
 10
717.1481021714935
 20
207.4333828266625
 10
717.1940148901397
 20
205.8442679216401
 10
717.2399276087858
 20
204.2295392620534
 10
717.2858403274321
 20
202.5905812043284
 10
717.3317530460782
 20
200.9287781048913
 10
717.3776657647245
 20
199.2455143201683
 10
717.4235784833706
 20
197.5421742065853
 10
717.4694912020168
 20
195.8201421205687
 10
717.5154039206631
 20
194.0808024185445
 10
717.561316639309
 20
192.3255472254842
 10
717.6072293579552
 20
190.555844758412
 10
717.6531420766014
 20
188.773206322693
 10
717.6990547952475
 20
186.979143714619
 10
717.7449675138937
 20
185.1751687304822
 10
717.7908802325396
 20
183.3627931665748
 10
717.8367929511858
 20
181.543528819189
 10
717.8827056698319
 20
179.7188874846167
 10
717.9286183884782
 20
177.8903809591503
 10
717.9745311071242
 20
176.0595210390817
 10
718.0204438257703
 20
174.2278198649194
 10
718.0663565444165
 20
172.3967922382249
 10
718.1122692630624
 20
170.5679542006577
 10
718.1581819817087
 20
168.7428218008177
 10
718.204094700355
 20
166.9229110873048
 10
718.250007419001
 20
165.1097381087188
 10
718.2959201376473
 20
163.3048189136598
 10
718.3418328562933
 20
161.5096695507275
 10
718.3877455749395
 20
159.7258060685218
 10
718.4336582935857
 20
157.9547445156426
 10
718.4795710122318
 20
156.197988429246
 10
718.5254837308779
 20
154.4569640912717
 10
718.5713964495242
 20
152.7330683267533
 10
718.6173091681703
 20
151.0276979025443
 10
718.6632218868164
 20
149.342249585498
 10
718.7091346054625
 20
147.6781201424677
 10
718.7550473241085
 20
146.0367063403068
 10
718.8009600427547
 20
144.4194049458686
 10
718.8468727614008
 20
142.8276127260065
 10
718.892785480047
 20
141.2627264475738
 10
718.9386981986931
 20
139.7261118429214
 10
718.9846109173392
 20
138.2189804159346
 10
719.0305236359853
 20
136.7424958518268
 10
719.0764363546316
 20
135.2978218212319
 10
719.1223490732776
 20
133.8861219947838
 10
719.1682617919237
 20
132.5085600431165
 10
719.2141745105699
 20
131.1662996368638
 10
719.2600872292161
 20
129.8605044466597
 10
719.3059999478621
 20
128.5923381431381
 10
719.3519126665083
 20
127.3629643969328
 10
719.3978253851545
 20
126.1734924260898
 10
719.4437381038006
 20
125.0248128377941
 10
719.4896508224467
 20
123.9177613856534
 10
719.5355635410929
 20
122.8531738232757
 10
719.581476259739
 20
121.8318859042687
 10
719.6273889783852
 20
120.8547333822401
 10
719.6733016970312
 20
119.9225520107978
 10
719.7192144156774
 20
119.0361775435494
 10
719.7651271343235
 20
118.1964457341028
 10
719.8110398529695
 20
117.4041923137312
 10
719.8569525716157
 20
116.6601723180279
 10
719.9028652902618
 20
115.9648786267862
 10
719.948778008908
 20
115.3187509758479
 10
719.9946907275541
 20
114.7222291010544
 10
720.0406034462003
 20
114.1757527382475
 10
720.0865161648464
 20
113.6797616232687
 10
720.1324288834926
 20
113.2346954919596
 10
720.1783416021387
 20
112.8409940801619
 10
720.2242543207847
 20
112.4990971237171
 10
720.2701670394309
 20
112.2094441584504
 10
720.3160797580771
 20
111.9723687199925
 10
720.3619924767232
 20
111.7879243804103
 10
720.4079051953695
 20
111.6561190262424
 10
720.4538179140159
 20
111.5769605440272
 10
720.4997306326617
 20
111.5504568203034
  0
LWPOLYLINE
  5
B3
330
1F
100
AcDbEntity
  8
0
  6
CONTINUOUS
 62
     7
100
AcDbPolyline
 90
      105
 70
     0
 43
0.0
 10
825.7244018225974
 20
237.9173430478031
 10
825.7703203730457
 20
237.6333980534746
 10
825.8162389234939
 20
237.2975275024448
 10
825.8621574739418
 20
236.9100163758431
 10
825.9080760243901
 20
236.4711496547993
 10
825.953994574838
 20
235.9812123204426
 10
825.9999131252863
 20
235.4404893539028
 10
826.0458316757345
 20
234.8492713431259
 10
826.0917502261827
 20
234.2080292633646
 10
826.1376687766309
 20
233.517448738429
 10
826.1835873270791
 20
232.7782279162173
 10
826.2295058775273
 20
231.9910649446276
 10
826.2754244279754
 20
231.156657971558
 10
826.3213429784238
 20
230.2757051449065
 10
826.3672615288718
 20
229.3489046125712
 10
826.41318007932
 20
228.3769545224503
 10
826.4590986297683
 20
227.3605530224418
 10
826.5050171802163
 20
226.3004059348298
 10
826.5509357306644
 20
225.197391041546
 10
826.5968542811127
 20
224.0525555930776
 10
826.642772831561
 20
222.8669540160467
 10
826.6886913820089
 20
221.6416407370752
 10
826.734609932457
 20
220.3776701827854
 10
826.7805284829054
 20
219.0760967797991
 10
826.8264470333531
 20
217.7379749547384
 10
826.8723655838013
 20
216.3643591342253
 10
826.9182841342493
 20
214.9563037448819
 10
826.9642026846976
 20
213.5148719036984
 10
827.0101212351458
 20
212.0412689425536
 10
827.0560397855937
 20
210.5368162556071
 10
827.101958336042
 20
209.0028386290628
 10
827.1478768864902
 20
207.4406608491238
 10
827.1937954369382
 20
205.851607701994
 10
827.2397139873863
 20
204.2370039738769
 10
827.2856325378344
 20
202.5981744509759
 10
827.3315510882826
 20
200.9364439194946
 10
827.3774696387308
 20
199.2531371656366
 10
827.4233881891789
 20
197.5495864068954
 10
827.4693067396271
 20
195.8272157149706
 10
827.5152252900753
 20
194.0875111252175
 10
827.5611438405234
 20
192.3319598342361
 10
827.6070623909716
 20
190.5620490386265
 10
827.6529809414197
 20
188.7792659349888
 10
827.6988994918681
 20
186.9850977199231
 10
827.7448180423163
 20
185.1810315900293
 10
827.7907365927643
 20
183.3685547419076
 10
827.8366551432126
 20
181.5491543721581
 10
827.8825736936609
 20
179.7243202645518
 10
827.928492244109
 20
177.8955669462199
 10
827.9744107945572
 20
176.0644226936186
 10
828.0203293450055
 20
174.2324159306729
 10
828.0662478954536
 20
172.4010750813085
 10
828.1121664459017
 20
170.5719285694504
 10
828.1580849963499
 20
168.7465048190241
 10
828.204003546798
 20
166.9263322539549
 10
828.2499220972463
 20
165.1129392981681
 10
828.2958406476944
 20
163.307854375589
 10
828.3417591981425
 20
161.5125989523092
 10
828.3876777485905
 20
159.7286421146246
 10
828.4335962990388
 20
157.9574290922517
 10
828.4795148494867
 20
156.2004049939929
 10
828.525433399935
 20
154.4590149286507
 10
828.5713519503831
 20
152.7347040050274
 10
828.617270500831
 20
151.0289173319255
 10
828.6631890512793
 20
149.3431000181474
 10
828.7091076017272
 20
147.6786971724954
 10
828.7550261521754
 20
146.037153903772
 10
828.8009447026237
 20
144.4198935234225
 10
828.8468632530717
 20
142.828208644444
 10
828.8927818035199
 20
141.263343386783
 10
828.938700353968
 20
139.7265417905393
 10
828.9846189044162
 20
138.2190478958132
 10
829.0305374548643
 20
136.7421057427047
 10
829.0764560053125
 20
135.2969593713137
 10
829.1223745557606
 20
133.8848528217405
 10
829.1682931062088
 20
132.5070301340849
 10
829.2142116566571
 20
131.1647353484472
 10
829.2601302071052
 20
129.8591708242542
 10
829.3060487575535
 20
128.5913384003504
 10
829.3519673080015
 20
127.3621796901475
 10
829.3978858584497
 20
126.1726362953923
 10
829.4438044088978
 20
125.0236498178318
 10
829.4897229593462
 20
123.9161618592127
 10
829.5356415097941
 20
122.8511140212819
 10
829.5815600602425
 20
121.8294479057862
 10
829.6274786106904
 20
120.8521051144726
 10
829.6733971611387
 20
119.9200272490089
 10
829.7193157115869
 20
119.0340906527318
 10
829.765234262035
 20
118.1949189367223
 10
829.8111528124832
 20
117.40307453868
 10
829.8570713629314
 20
116.6591198963042
 10
829.9029899133795
 20
115.9636174472943
 10
829.9489084638277
 20
115.3171296293497
 10
829.9948270142759
 20
114.7202188801699
 10
830.040745564724
 20
114.1734476374543
 10
830.0866641151723
 20
113.6773783389023
 10
830.1325826656205
 20
113.2325733817963
 10
830.1785012160684
 20
112.8395053654481
 10
830.2244197665166
 20
112.4983663624186
 10
830.2703383169649
 20
112.2092938165565
 10
830.3162568674129
 20
111.9724251717102
 10
830.3621754178612
 20
111.7878978717284
 10
830.4080939683092
 20
111.6558493604597
 10
830.4540125187577
 20
111.5764170817526
 10
830.4999310692049
 20
111.5497384794556
  0
LWPOLYLINE
  5
B4
330
1F
100
AcDbEntity
  8
0
  6
CONTINUOUS
 62
     7
100
AcDbPolyline
 90
      113
 70
     0
 43
0.0
 10
785.7243167294364
 20
237.917657171612
 10
785.7669537488366
 20
237.6562152295272
 10
785.8095907682366
 20
237.3499325021674
 10
785.8522277876367
 20
236.9989483434922
 10
785.8948648070369
 20
236.6034021074607
 10
785.9375018264371
 20
236.1634495873901
 10
785.9801388458372
 20
235.6794401305651
 10
786.0227758652373
 20
235.1518491293621
 10
786.0654128846376
 20
234.5811541301769
 10
786.1080499040376
 20
233.9678326794059
 10
786.1506869234377
 20
233.312362323445
 10
786.1933239428379
 20
232.6152206086902
 10
786.235960962238
 20
231.8768850815377
 10
786.278597981638
 20
231.0978332883836
 10
786.3212350010382
 20
230.2785427756239
 10
786.3638720204382
 20
229.4194910896547
 10
786.4065090398384
 20
228.5212014769541
 10
786.4491460592386
 20
227.5843964601091
 10
786.4917830786387
 20
226.6098528642661
 10
786.5344200980388
 20
225.5983475157569
 10
786.577057117439
 20
224.5506572409135
 10
786.6196941368391
 20
223.4675588660678
 10
786.6623311562394
 20
222.3498292175518
 10
786.7049681756394
 20
221.1982451216973
 10
786.7476051950395
 20
220.0135834048364
 10
786.7902422144397
 20
218.7966208933009
 10
786.8328792338398
 20
217.5481352705925
 10
786.87551625324
 20
216.2689831428889
 10
786.9181532726402
 20
214.9601625962956
 10
786.9607902920402
 20
213.6226864379842
 10
787.0034273114405
 20
212.2575674751265
 10
787.0460643308407
 20
210.8658185148937
 10
787.0887013502409
 20
209.4484523644575
 10
787.1313383696411
 20
208.0064818309893
 10
787.1739753890412
 20
206.5409197216609
 10
787.2166124084413
 20
205.0527788436435
 10
787.2592494278415
 20
203.5430720041088
 10
787.3018864472416
 20
202.0128171939469
 10
787.3445234666418
 20
200.4631139723288
 10
787.3871604860418
 20
198.8951268031061
 10
787.4297975054419
 20
197.3100219464766
 10
787.4724345248419
 20
195.7089656626378
 10
787.5150715442421
 20
194.0931242117873
 10
787.5577085636422
 20
192.4636638541228
 10
787.6003455830422
 20
190.8217508498419
 10
787.6429826024424
 20
189.1685514591422
 10
787.6856196218424
 20
187.5052319422214
 10
787.7282566412426
 20
185.832958559277
 10
787.7708936606429
 20
184.1529045624225
 10
787.813530680043
 20
182.4662815464507
 10
787.856167699443
 20
180.7743141816545
 10
787.898804718843
 20
179.0782271494423
 10
787.9414417382434
 20
177.3792451312224
 10
787.9840787576433
 20
175.6785928084032
 10
788.0267157770435
 20
173.9774948623931
 10
788.0693527964436
 20
172.2771759746007
 10
788.1119898158436
 20
170.5788608264341
 10
788.1546268352437
 20
168.8837740993019
 10
788.197263854644
 20
167.193140416448
 10
788.2399008740441
 20
165.5081726123945
 10
788.2825378934442
 20
163.8300574808692
 10
788.3251749128443
 20
162.1599783322683
 10
788.3678119322444
 20
160.4991184769882
 10
788.4104489516445
 20
158.8486612254254
 10
788.4530859710445
 20
157.2097898879763
 10
788.4957229904448
 20
155.5836877750374
 10
788.538360009845
 20
153.9715381970051
 10
788.580997029245
 20
152.3745244642757
 10
788.6236340486452
 20
150.7938298872457
 10
788.6662710680454
 20
149.2306347003586
 10
788.7089080874454
 20
147.6860521145559
 10
788.7515451068457
 20
146.1611303228137
 10
788.7941821262457
 20
144.6569148433789
 10
788.8368191456459
 20
143.1744511944983
 10
788.8794561650459
 20
141.7147848944186
 10
788.9220931844461
 20
140.2789614613867
 10
788.9647302038463
 20
138.8680264136494
 10
789.0073672232463
 20
137.4830252694534
 10
789.0500042426464
 20
136.1250035470455
 10
789.0926412620465
 20
134.7950067646726
 10
789.1352782814466
 20
133.4940599700597
 10
789.1779153008467
 20
132.2230461476435
 10
789.220552320247
 20
130.9827880480093
 10
789.263189339647
 20
129.7741082040039
 10
789.3058263590473
 20
128.5978291484743
 10
789.3484633784474
 20
127.4547734142672
 10
789.3911003978475
 20
126.3457635342295
 10
789.4337374172474
 20
125.271622041208
 10
789.4763744366477
 20
124.2331714680497
 10
789.5190114560479
 20
123.2312343476012
 10
789.5616484754479
 20
122.2666331118093
 10
789.6042854948482
 20
121.3401212599056
 10
789.6469225142482
 20
120.4522633861393
 10
789.6895595336484
 20
119.6035920145007
 10
789.7321965530487
 20
118.7946396689804
 10
789.7748335724489
 20
118.0259388735686
 10
789.817470591849
 20
117.298022152256
 10
789.860107611249
 20
116.6114220290327
 10
789.9027446306493
 20
115.9666710278894
 10
789.9453816500494
 20
115.3643016728163
 10
789.9880186694496
 20
114.804846487804
 10
790.0306556888496
 20
114.2888333950564
 10
790.0732927082499
 20
113.8166442211343
 10
790.1159297276499
 20
113.3884880640913
 10
790.1585667470501
 20
113.0045640467536
 10
790.2012037664504
 20
112.6650712919473
 10
790.2438407858504
 20
112.3702089224985
 10
790.2864778052507
 20
112.1201760612335
 10
790.3291148246509
 20
111.9151718309785
 10
790.371751844051
 20
111.7553953545594
 10
790.414388863451
 20
111.6410457548025
 10
790.4570258828512
 20
111.5723221545341
 10
790.4996629022509
 20
111.5493996823653
  0
LWPOLYLINE
  5
B5
330
1F
100
AcDbEntity
  8
0
  6
CONTINUOUS
 62
     7
100
AcDbPolyline
 90
      105
 70
     0
 43
0.0
 10
835.7245140786738
 20
237.9169033542007
 10
835.7704279180097
 20
237.6327797778615
 10
835.8163417573453
 20
237.2967154217095
 10
835.8622555966814
 20
236.9090226823612
 10
835.908169436017
 20
236.4700139564329
 10
835.954083275353
 20
235.9800016405407
 10
835.999997114689
 20
235.4392981313011
 10
836.0459109540249
 20
234.8482158253302
 10
836.0918247933607
 20
234.2071021048386
 10
836.1377386326967
 20
233.5165631252236
 10
836.1836524720328
 20
232.7773211061452
 10
836.2295663113687
 20
231.9900988164823
 10
836.2754801507047
 20
231.1556190251135
 10
836.3213939900406
 20
230.2746045009177
 10
836.3673078293766
 20
229.3477780127735
 10
836.4132216687126
 20
228.3758623295599
 10
836.4591355080487
 20
227.3595802201554
 10
836.5050493473847
 20
226.2996544534387
 10
836.5509631867207
 20
225.1968464929858
 10
836.5968770260565
 20
224.0521466411372
 10
836.6427908653924
 20
222.8666290187224
 10
836.6887047047284
 20
221.6413678726165
 10
836.7346185440642
 20
220.3774374496943
 10
836.7805323834
 20
219.0759119968308
 10
836.8264462227359
 20
217.7378657609009
 10
836.8723600620717
 20
216.3643729887799
 10
836.9182739014075
 20
214.9565079273424
 10
836.9641877407435
 20
213.5153448234636
 10
837.0101015800791
 20
212.0419947014779
 10
837.056015419415
 20
210.5377436875619
 10
837.1019292587509
 20
209.0039299638452
 10
837.1478430980866
 20
207.4418917210183
 10
837.1937569374224
 20
205.8529671497723
 10
837.2396707767582
 20
204.2384944407976
 10
837.2855846160941
 20
202.599811784785
 10
837.33149845543
 20
200.9382573724254
 10
837.3774122947657
 20
199.2551693944092
 10
837.4233261341017
 20
197.5518860414867
 10
837.4692399734377
 20
195.8297723571167
 10
837.5151538127734
 20
194.0902966261985
 10
837.5610676521095
 20
192.3349519417993
 10
837.6069814914453
 20
190.565231396986
 10
837.6528953307813
 20
188.7826280848259
 10
837.6988091701171
 20
186.988635098386
 10
837.7447230094531
 20
185.1847455307335
 10
837.7906368487892
 20
183.3724524749355
 10
837.8365506881252
 20
181.5532490240591
 10
837.8824645274611
 20
179.7286282744961
 10
837.9283783667969
 20
177.9000903725564
 10
837.9742922061329
 20
176.0691573972585
 10
838.0202060454687
 20
174.2373556805053
 10
838.0661198848045
 20
172.4062115542002
 10
838.1120337241404
 20
170.5772513502464
 10
838.1579475634763
 20
168.752001400547
 10
838.2038614028122
 20
166.9319880370051
 10
838.249775242148
 20
165.1187375915239
 10
838.2956890814838
 20
163.3137763960067
 10
838.3416029208198
 20
161.5186307252467
 10
838.3875167601556
 20
159.7348036491235
 10
838.4334305994913
 20
157.9637395143662
 10
838.4793444388273
 20
156.2068735197326
 10
838.5252582781632
 20
154.4656408639807
 10
838.5711721174991
 20
152.7414767458683
 10
838.6170859568348
 20
151.0358163641533
 10
838.6629997961708
 20
149.3500949175936
 10
838.7089136355067
 20
147.6857476049471
 10
838.7548274748427
 20
146.0442096249716
 10
838.8007413141785
 20
144.4269157726481
 10
838.8466551535145
 20
142.8352384493841
 10
838.8925689928503
 20
141.2704208148072
 10
838.9384828321863
 20
139.733689988463
 10
838.9843966715224
 20
138.2262730898971
 10
839.030310510858
 20
136.749397238655
 10
839.0762243501943
 20
135.3042895542822
 10
839.12213818953
 20
133.8921771563242
 10
839.168052028866
 20
132.5142871643264
 10
839.2139658682019
 20
131.1718466978345
 10
839.2598797075378
 20
129.8660815203623
 10
839.3057935468737
 20
128.5981105864317
 10
839.3517073862096
 20
127.3688707234411
 10
839.3976212255457
 20
126.179280980831
 10
839.4435350648815
 20
125.0302604080421
 10
839.4894489042173
 20
123.922728054515
 10
839.5353627435533
 20
122.8576029696904
 10
839.5812765828891
 20
121.835804203009
 10
839.6271904222252
 20
120.8582508039115
 10
839.673104261561
 20
119.9258618218384
 10
839.7190181008967
 20
119.039553100697
 10
839.7649319402327
 20
118.2000895637328
 10
839.8108457795685
 20
117.408023341814
 10
839.8567596189043
 20
116.6638905262395
 10
839.90267345824
 20
115.9682272083082
 10
839.948587297576
 20
115.321569479319
 10
839.9945011369118
 20
114.7244534305709
 10
840.0404149762476
 20
114.1774151533626
 10
840.0863288155836
 20
113.6809907389932
 10
840.1322426549194
 20
113.2357162787616
 10
840.1781564942552
 20
112.8421218026986
 10
840.2240703335912
 20
112.5005492180519
 10
840.2699841729269
 20
112.2111204558517
 10
840.3158980122628
 20
111.9739449662679
 10
840.3618118515989
 20
111.7891321994703
 10
840.4077256909347
 20
111.656791605629
 10
840.4536395302707
 20
111.5770326349138
 10
840.4995533696053
 20
111.5499647374947
  0
LWPOLYLINE
  5
B6
330
1F
100
AcDbEntity
  8
0
  6
CONTINUOUS
 62
     7
100
AcDbPolyline
 90
      113
 70
     0
 43
0.0
 10
755.724125289398
 20
237.9192616210778
 10
755.7667635051405
 20
237.658110459832
 10
755.8094017208837
 20
237.3519133752199
 10
755.8520399366262
 20
237.0007631902481
 10
755.8946781523691
 20
236.6049567400065
 10
755.9373163681119
 20
236.1649075030597
 10
755.9799545838546
 20
235.6810303277784
 10
756.0225927995975
 20
235.1537400625332
 10
756.0652310153401
 20
234.5834515556945
 10
756.1078692310829
 20
233.970579655633
 10
756.1505074468256
 20
233.3155392107194
 10
756.1931456625684
 20
232.6187450693239
 10
756.2357838783113
 20
231.8806120798175
 10
756.278422094054
 20
231.1015550909803
 10
756.3210603097968
 20
230.2820435614869
 10
756.3636985255397
 20
229.4227526922331
 10
756.4063367412823
 20
228.5244061278195
 10
756.448974957025
 20
227.5877275128473
 10
756.491613172768
 20
226.6134404919171
 10
756.5342513885107
 20
225.6022687096299
 10
756.5768896042534
 20
224.5549358105867
 10
756.6195278199962
 20
223.4721654393882
 10
756.6621660357389
 20
222.3546812406353
 10
756.7048042514817
 20
221.2032068589291
 10
756.7474424672243
 20
220.0184674129042
 10
756.7900806829674
 20
218.801279721157
 10
756.83271889871
 20
217.5526046428722
 10
756.875357114453
 20
216.2734156532573
 10
756.9179953301958
 20
214.9646862275196
 10
756.9606335459385
 20
213.6273898408665
 10
757.0032717616814
 20
212.2624999685054
 10
757.0459099774239
 20
210.8709900856437
 10
757.0885481931668
 20
209.453833667489
 10
757.1311864089097
 20
208.0120041892484
 10
757.1738246246524
 20
206.5464751261295
 10
757.2164628403951
 20
205.0582272893262
 10
757.259101056138
 20
203.5483367477547
 10
757.3017392718807
 20
202.0179461220218
 10
757.3443774876234
 20
200.4681993950628
 10
757.3870157033662
 20
198.900240549813
 10
757.4296539191089
 20
197.3152135692075
 10
757.4722921348517
 20
195.7142624361819
 10
757.5149303505945
 20
194.0985311336711
 10
757.5575685663372
 20
192.4691636446107
 10
757.6002067820798
 20
190.8273039519357
 10
757.6428449978227
 20
189.1740960385816
 10
757.6854832135652
 20
187.5106947623675
 10
757.7281214293081
 20
185.8383062820656
 10
757.7707596450508
 20
184.1581518696386
 10
757.8133978607938
 20
182.4714527991801
 10
757.8560360765363
 20
180.7794303447833
 10
757.8986742922791
 20
179.0833057805418
 10
757.9413125080221
 20
177.3843003805489
 10
757.9839507237649
 20
175.683635418898
 10
758.0265889395074
 20
173.9825321696825
 10
758.0692271552502
 20
172.2822119069959
 10
758.1118653709929
 20
170.5838958446013
 10
758.1545035867359
 20
168.8887981426566
 10
758.1971418024789
 20
167.1981193927134
 10
758.2397800182217
 20
165.513058645443
 10
758.2824182339643
 20
163.8348149515165
 10
758.3250564497072
 20
162.1645873616052
 10
758.36769466545
 20
160.5035749263805
 10
758.4103328811929
 20
158.8529766965134
 10
758.4529710969356
 20
157.2139917226753
 10
758.4956093126784
 20
155.5878190555373
 10
758.5382475284212
 20
153.9756577457707
 10
758.580885744164
 20
152.3787032986143
 10
758.6235239599067
 20
150.7980892458912
 10
758.6661621756493
 20
149.2348963921802
 10
758.7088003913921
 20
147.6902038610085
 10
758.7514386071348
 20
146.1650907759035
 10
758.7940768228776
 20
144.6606362603922
 10
758.8367150386205
 20
143.177919438002
 10
758.8793532543631
 20
141.7180194322599
 10
758.9219914701058
 20
140.2820153666933
 10
758.9646296858486
 20
138.8709863648293
 10
759.0072679015914
 20
137.4860115501951
 10
759.0499061173341
 20
136.1281472142538
 10
759.0925443330767
 20
134.798314348427
 10
759.1351825488198
 20
133.4973842932245
 10
759.1778207645624
 20
132.2262283134785
 10
759.2204589803054
 20
130.9857176740217
 10
759.2630971960482
 20
129.7767236396864
 10
759.3057354117911
 20
128.600117475305
 10
759.348373627534
 20
127.4567704457101
 10
759.3910118432767
 20
126.3475538157341
 10
759.4336500590196
 20
125.2733388502094
 10
759.4762882747623
 20
124.2349965490794
 10
759.5189264905051
 20
123.2333228773786
 10
759.561564706248
 20
122.2689360009606
 10
759.6042029219907
 20
121.3424283316181
 10
759.6468411377333
 20
120.4543922811441
 10
759.689479353476
 20
119.6054202613314
 10
759.7321175692189
 20
118.7961046839729
 10
759.7747557849616
 20
118.0270379608613
 10
759.8173940007042
 20
117.2988125037894
 10
759.860032216447
 20
116.6120207245502
 10
759.9026704321897
 20
115.9672550349365
 10
759.9453086479325
 20
115.3651015492689
 10
759.9879468636751
 20
114.8059923044261
 10
760.0305850794178
 20
114.2901999473046
 10
760.0732232951606
 20
113.8179897644385
 10
760.1158615109033
 20
113.3896270423615
 10
760.1584997266461
 20
113.0053770676074
 10
760.2011379423889
 20
112.6655051267103
 10
760.2437761581317
 20
112.3702765062038
 10
760.2864143738745
 20
112.1199564926219
 10
760.3290525896172
 20
111.9148103724984
 10
760.3716908053601
 20
111.7551034323672
 10
760.4143290211027
 20
111.6410717114454
 10
760.4569672368457
 20
111.5727318613658
 10
760.4996054525882
 20
111.5500009246565
  0
LWPOLYLINE
  5
B7
330
1F
100
AcDbEntity
  8
0
  6
CONTINUOUS
 62
     7
100
AcDbPolyline
 90
        3
 70
     0
 43
0.0
 10
771.6830234503095
 20
235.8648631856219
 10
771.6149010395729
 20
236.0116624454042
 10
771.5591129706762
 20
236.049258355894
  0
LWPOLYLINE
  5
B8
330
1F
100
AcDbEntity
  8
0
  6
CONTINUOUS
 62
     7
100
AcDbPolyline
 90
        3
 70
     0
 43
0.0
 10
781.683999907783
 20
235.8616245411588
 10
781.6158684927598
 20
236.0105293371382
 10
781.5590797325359
 20
236.0492583559295
  0
LWPOLYLINE
  5
B9
330
1F
100
AcDbEntity
  8
0
  6
CONTINUOUS
 62
     7
100
AcDbPolyline
 90
        3
 70
     0
 43
0.0
 10
801.6938039916388
 20
235.8309481859172
 10
801.6256048010388
 20
235.9956323514414
 10
801.5590556531375
 20
236.0492583559989
  0
LWPOLYLINE
  5
BA
330
1F
100
AcDbEntity
  8
0
  6
CONTINUOUS
 62
     7
100
AcDbPolyline
 90
        3
 70
     0
 43
0.0
 10
821.6957226405958
 20
235.8243842517386
 10
821.6276158611541
 20
235.9926675420728
 10
821.5591059107879
 20
236.049258355994
  0
LWPOLYLINE
  5
BB
330
1F
100
AcDbEntity
  8
0
  6
CONTINUOUS
 62
     7
100
AcDbPolyline
 90
       33
 70
     0
 43
0.0
 10
776.775298075825
 20
112.1812729268026
 10
776.782325469227
 20
112.1424198338754
 10
776.7893528626288
 20
112.1047902600496
 10
776.7963802560306
 20
112.0683851959269
 10
776.8034076494325
 20
112.0332056321095
 10
776.8104350428345
 20
111.9992525591991
 10
776.8174624362365
 20
111.9665269677978
 10
776.8244898296381
 20
111.9350298485074
 10
776.83151722304
 20
111.90476219193
 10
776.8385446164422
 20
111.8757249886674
 10
776.8455720098439
 20
111.8479192293216
 10
776.8525994032457
 20
111.8213459044945
 10
776.8596267966474
 20
111.7960060047881
 10
776.8666541900494
 20
111.7719005208042
 10
776.8736815834512
 20
111.7490304431449
 10
776.8807089768533
 20
111.727396762412
 10
776.887736370255
 20
111.7070004692076
 10
776.8947637636569
 20
111.6878425541334
 10
776.9017911570588
 20
111.6699240077916
 10
776.9088185504609
 20
111.6532458207839
 10
776.9158459438626
 20
111.6378089837124
 10
776.9228733372643
 20
111.623614487179
 10
776.9299007306662
 20
111.6106633217856
 10
776.9369281240681
 20
111.5989564781341
 10
776.94395551747
 20
111.5884948418607
 10
776.950982910872
 20
111.5792783486488
 10
776.9580103042738
 20
111.5713064292047
 10
776.9650376976756
 20
111.5645785095641
 10
776.9720650910776
 20
111.5590940157626
 10
776.9790924844795
 20
111.554852373836
 10
776.9861198778813
 20
111.55185300982
 10
776.9931472712832
 20
111.5500953497504
 10
777.0001746646848
 20
111.5495788196629
  0
LWPOLYLINE
  5
BC
330
1F
100
AcDbEntity
  8
0
  6
CONTINUOUS
 62
     7
100
AcDbPolyline
 90
       33
 70
     0
 43
0.0
 10
-771.7752930630955
 20
237.9172990094566
 10
-771.7823227529512
 20
237.95617123206
 10
-771.789352442807
 20
237.9938185674715
 10
-771.7963821326625
 20
238.0302399746636
 10
-771.8034118225182
 20
238.0654344126089
 10
-771.8104415123739
 20
238.0994008402795
 10
-771.8174712022295
 20
238.1321382166481
 10
-771.8245008920852
 20
238.1636455006871
 10
-771.8315305819408
 20
238.193921651369
 10
-771.8385602717965
 20
238.2229656276662
 10
-771.8455899616523
 20
238.2507763885511
 10
-771.8526196515079
 20
238.2773528929962
 10
-771.8596493413636
 20
238.3026940999741
 10
-771.8666790312191
 20
238.3267989684569
 10
-771.8737087210749
 20
238.3496664574174
 10
-771.8807384109303
 20
238.3712955258278
 10
-771.887768100786
 20
238.3916851326607
 10
-771.894797790642
 20
238.4108342368886
 10
-771.9018274804976
 20
238.4287417974837
 10
-771.9088571703533
 20
238.4454067734187
 10
-771.915886860209
 20
238.4608281236659
 10
-771.9229165500643
 20
238.4750048071977
 10
-771.9299462399201
 20
238.4879359270725
 10
-771.9369759297757
 20
238.4996215840563
 10
-771.9440056196313
 20
238.5100623010944
 10
-771.951035309487
 20
238.5192586026427
 10
-771.9580649993428
 20
238.5272110131572
 10
-771.9650946891985
 20
238.533920057094
 10
-771.9721243790542
 20
238.5393862589089
 10
-771.9791540689096
 20
238.543610143058
 10
-771.9861837587653
 20
238.5465922339973
 10
-771.9932134486212
 20
238.5483330561828
 10
-772.0002431384767
 20
238.5488331340704
210
0.0
220
0.0
230
-1.0
  0
LWPOLYLINE
  5
BD
330
1F
100
AcDbEntity
  8
0
  6
CONTINUOUS
 62
     7
100
AcDbPolyline
 90
        3
 70
     0
 43
0.0
 10
721.6624032451052
 20
235.9207473195079
 10
721.594317680389
 20
236.0340145872094
 10
721.5592470015905
 20
236.0492583560058
  0
LWPOLYLINE
  5
BE
330
1F
100
AcDbEntity
  8
0
  6
CONTINUOUS
 62
     7
100
AcDbPolyline
 90
        3
 70
     0
 43
0.0
 10
731.6634530509104
 20
235.9184659940074
 10
731.5973258143769
 20
236.0315838049545
 10
731.5592381583598
 20
236.0492583559929
  0
LWPOLYLINE
  5
BF
330
1F
100
AcDbEntity
  8
0
  6
CONTINUOUS
 62
     7
100
AcDbPolyline
 90
        3
 70
     0
 43
0.0
 10
841.6997724950008
 20
235.8108734727001
 10
841.6335969293015
 20
235.9821065563378
 10
841.5591809708902
 20
236.049258355937
  0
POINT
  5
C0
330
1F
100
AcDbEntity
  8
0
 62
     1
100
AcDbPoint
 10
782.5
 20
175.0
 30
0.0
  0
MTEXT
  5
C1
330
1F
100
AcDbEntity
  8
0
 62
     4
100
AcDbMText
 10
762.6498917539247
 20
79.87160185069403
 30
0.0
 40
3.0
 41
0.0
 71
     1
 72
     1
  1
{\fＭＳ ゴシック;BML-100}
  0
POINT
  5
C2
330
1F
100
AcDbEntity
  8
0
 62
     7
100
AcDbPoint
 10
509.7861638693859
 20
175.0492583560068
 30
0.0
  0
LINE
  5
C3
330
1F
100
AcDbEntity
  8
0
  6
CONTINUOUS
 62
     7
100
AcDbLine
 10
751.5591801349212
 20
236.0492583560068
 30
0.0
 11
746.0573377137356
 21
236.0492583560068
 31
0.0
  0
LINE
  5
C4
330
1F
100
AcDbEntity
  8
0
  6
CONTINUOUS
 62
     7
100
AcDbLine
 10
692.4999998075346
 20
114.0492583560068
 30
0.0
 11
696.4423817761669
 21
114.0492583560068
 31
0.0
  0
ARC
  5
C5
330
1F
100
AcDbEntity
  8
0
  6
CONTINUOUS
 62
     7
100
AcDbCircle
 10
509.7861638693859
 20
175.0492583560068
 30
0.0
 40
61.00000000000001
100
AcDbArc
 50
90.9393171499808
 51
89.06068285001919
  0
LINE
  5
C6
330
1F
100
AcDbEntity
  8
0
  6
CONTINUOUS
 62
     7
100
AcDbLine
 10
991.7233998689992
 20
236.0305769488328
 30
0.0
 11
988.4246737883404
 21
236.0230141703979
 31
0.0
  0
LINE
  5
C7
330
1F
100
AcDbEntity
  8
0
  6
CONTINUOUS
 62
     7
100
AcDbLine
 10
771.5591324489487
 20
236.0492583560068
 30
0.0
 11
766.0572627906337
 21
236.0492583560068
 31
0.0
  0
ARC
  5
C8
330
1F
100
AcDbEntity
  8
0
  6
CONTINUOUS
 62
     7
100
AcDbCircle
 10
515.264631232461
 20
182.1421074201342
 30
0.0
 40
61.58352361741923
100
AcDbArc
 50
134.0231596357484
 51
150.2247536305679
  0
LINE
  5
C9
330
1F
100
AcDbEntity
  8
0
  6
CONTINUOUS
 62
     7
100
AcDbLine
 10
573.2434276170923
 20
177.3762595441221
 30
0.0
 11
573.2849980695398
 21
174.7487896779661
 31
0.0
  0
LINE
  5
CA
330
1F
100
AcDbEntity
  8
0
  6
CONTINUOUS
 62
     7
100
AcDbLine
 10
851.5591858110033
 20
236.0492583560068
 30
0.0
 11
846.0572895260138
 21
236.0492583560068
 31
0.0
  0
LINE
  5
CB
330
1F
100
AcDbEntity
  8
0
  6
CONTINUOUS
 62
     7
100
AcDbLine
 10
841.5591847104404
 20
236.0492583560068
 30
0.0
 11
836.0572578055794
 21
236.0492583560068
 31
0.0
  0
CIRCLE
  5
CC
330
1F
100
AcDbEntity
  8
0
  6
CONTINUOUS
 62
     7
100
AcDbCircle
 10
509.7861638693859
 20
175.0492583560068
 30
0.0
 40
57.49999999999999
  0
LINE
  5
CD
330
1F
100
AcDbEntity
  8
0
  6
CONTINUOUS
 62
     7
100
AcDbLine
 10
710.9404972469438
 20
114.0492583560068
 30
0.0
 11
716.4423365302046
 21
114.0492583560068
 31
0.0
  0
LINE
  5
CE
330
1F
100
AcDbEntity
  8
0
  6
CONTINUOUS
 62
     7
100
AcDbLine
 10
508.7861638693859
 20
235.7492583560068
 30
0.0
 11
508.7861638693859
 21
236.0410610839144
 31
0.0
  0
ARC
  5
CF
330
1F
100
AcDbEntity
  8
0
  6
CONTINUOUS
 62
     7
100
AcDbCircle
 10
998.7788763441279
 20
172.4064619369568
 30
0.0
 40
61.45499296090511
100
AcDbArc
 50
245.75791924152
 51
261.9940787838534
  0
LINE
  5
D0
330
1F
100
AcDbEntity
  8
0
  6
CONTINUOUS
 62
     1
100
AcDbLine
 10
617.4999999999999
 20
175.0
 30
0.0
 11
882.4999999999999
 21
175.0
 31
0.0
  0
LINE
  5
D1
330
1F
100
AcDbEntity
  8
0
  6
CONTINUOUS
 62
     7
100
AcDbLine
 10
625.4999998075346
 20
232.0
 30
0.0
 11
692.4999998075346
 21
232.0
 31
0.0
  0
LINE
  5
D2
330
1F
100
AcDbEntity
  8
0
  6
CONTINUOUS
 62
     7
100
AcDbLine
 10
791.5590601953721
 20
236.0492583560068
 30
0.0
 11
786.0572037202031
 21
236.0492583560068
 31
0.0
  0
LINE
  5
D3
330
1F
100
AcDbEntity
  8
0
  6
CONTINUOUS
 62
     7
100
AcDbLine
 10
821.5590933522681
 20
236.0492583560068
 30
0.0
 11
816.0571987808058
 21
236.0492583560068
 31
0.0
  0
LINE
  5
D4
330
1F
100
AcDbEntity
  8
0
  6
CONTINUOUS
 62
     7
100
AcDbLine
 10
933.2181615670231
 20
167.5492583560068
 30
0.0
 11
929.6766574715455
 21
167.5492583560068
 31
0.0
  0
LINE
  5
D5
330
1F
100
AcDbEntity
  8
0
  6
CONTINUOUS
 62
     7
100
AcDbLine
 10
720.9404997213435
 20
114.0492583560068
 30
0.0
 11
726.4423428002899
 21
114.0492583560068
 31
0.0
  0
LINE
  5
D6
330
1F
100
AcDbEntity
  8
0
  6
CONTINUOUS
 62
     7
100
AcDbLine
 10
997.7138361306141
 20
232.0449329195978
 30
0.0
 11
997.7138361306141
 21
235.5864370150755
 31
0.0
  0
LINE
  5
D7
330
1F
100
AcDbEntity
  8
0
  6
CONTINUOUS
 62
     7
100
AcDbLine
 10
1050.751014789683
 20
182.5492583560068
 30
0.0
 11
1047.209510694205
 21
182.5492583560068
 31
0.0
  0
LINE
  5
D8
330
1F
100
AcDbEntity
  8
0
  6
CONTINUOUS
 62
     7
100
AcDbLine
 10
781.5591078425256
 20
236.0492583560068
 30
0.0
 11
776.0572291807017
 21
236.0492583560068
 31
0.0
  0
LINE
  5
D9
330
1F
100
AcDbEntity
  8
0
  6
CONTINUOUS
 62
     7
100
AcDbLine
 10
933.2181615670231
 20
182.5492583560068
 30
0.0
 11
929.6766574715455
 21
182.5492583560068
 31
0.0
  0
CIRCLE
  5
DA
330
1F
100
AcDbEntity
  8
0
  6
CONTINUOUS
 62
     7
100
AcDbCircle
 10
990.2136398338885
 20
175.0496780711094
 30
0.0
 40
63.49924939760769
  0
LINE
  5
DB
330
1F
100
AcDbEntity
  8
0
  6
CONTINUOUS
 62
     7
100
AcDbLine
 10
780.9406076982528
 20
114.0492583560068
 30
0.0
 11
786.4425232314072
 21
114.0492583560068
 31
0.0
  0
LINE
  5
DC
330
1F
100
AcDbEntity
  8
0
  6
CONTINUOUS
 62
     7
100
AcDbLine
 10
730.9405001625606
 20
114.0492583560068
 30
0.0
 11
736.4423794775587
 21
114.0492583560068
 31
0.0
  0
LINE
  5
DD
330
1F
100
AcDbEntity
  8
0
  6
CONTINUOUS
 62
     7
100
AcDbLine
 10
761.559136313816
 20
236.0492583560068
 30
0.0
 11
756.0573000334723
 21
236.0492583560068
 31
0.0
  0
LINE
  5
DE
330
1F
100
AcDbEntity
  8
0
  6
CONTINUOUS
 62
     7
100
AcDbLine
 10
831.5591414445355
 20
236.0492583560068
 30
0.0
 11
826.0572211992946
 21
236.0492583560068
 31
0.0
  0
LINE
  5
DF
330
1F
100
AcDbEntity
  8
0
  6
CONTINUOUS
 62
     7
100
AcDbLine
 10
760.9405729212497
 20
114.0492583560068
 30
0.0
 11
766.4424867034407
 21
114.0492583560068
 31
0.0
  0
LINE
  5
E0
330
1F
100
AcDbEntity
  8
0
  6
CONTINUOUS
 62
     7
100
AcDbLine
 10
625.4999998075346
 20
118.0
 30
0.0
 11
625.4999998075346
 21
232.0
 31
0.0
  0
LINE
  5
E1
330
1F
100
AcDbEntity
  8
0
  6
CONTINUOUS
 62
     7
100
AcDbLine
 10
989.213836130614
 20
235.7492583560068
 30
0.0
 11
989.213836130614
 21
236.0410610839144
 31
0.0
  0
LINE
  5
E2
330
1F
100
AcDbEntity
  8
0
  6
CONTINUOUS
 62
     7
100
AcDbLine
 10
1042.293480705873
 20
211.3793970885676
 30
0.0
 11
1041.525848028867
 21
212.4553470950642
 31
0.0
  0
LINE
  5
E3
330
1F
100
AcDbEntity
  8
0
  6
CONTINUOUS
 62
     7
100
AcDbLine
 10
510.7861638693859
 20
235.7492583560068
 30
0.0
 11
508.7861638693859
 21
235.7492583560068
 31
0.0
  0
LINE
  5
E4
330
1F
100
AcDbEntity
  8
0
  6
CONTINUOUS
 62
     7
100
AcDbLine
 10
1050.751014789683
 20
167.5492583560068
 30
0.0
 11
1047.209510694205
 21
167.5492583560068
 31
0.0
  0
LINE
  5
E5
330
1F
100
AcDbEntity
  8
0
  6
CONTINUOUS
 62
     7
100
AcDbLine
 10
741.5592127889366
 20
236.0492583560068
 30
0.0
 11
736.0573671270644
 21
236.0492583560068
 31
0.0
  0
LINE
  5
E6
330
1F
100
AcDbEntity
  8
0
  6
CONTINUOUS
 62
     7
100
AcDbLine
 10
982.7138361306141
 20
232.0449329195978
 30
0.0
 11
982.7138361306141
 21
235.5864370150755
 31
0.0
  0
LINE
  5
E7
330
1F
100
AcDbEntity
  8
0
  6
CONTINUOUS
 62
     7
100
AcDbLine
 10
997.713836130614
 20
118.0535837924158
 30
0.0
 11
997.713836130614
 21
114.5120796969381
 31
0.0
  0
LINE
  5
E8
330
1F
100
AcDbEntity
  8
0
  6
CONTINUOUS
 62
     7
100
AcDbLine
 10
694.4999998075346
 20
158.3658558884785
 30
0.0
 11
694.4999998075346
 21
238.5483260761605
 31
0.0
  0
LINE
  5
E9
330
1F
100
AcDbEntity
  8
0
  6
CONTINUOUS
 62
     7
100
AcDbLine
 10
721.5592197279603
 20
236.0492583560068
 30
0.0
 11
716.0573731261578
 21
236.0492583560068
 31
0.0
  0
LINE
  5
EA
330
1F
100
AcDbEntity
  8
0
  6
CONTINUOUS
 62
     7
100
AcDbLine
 10
700.9405073054965
 20
114.0492583560068
 30
0.0
 11
706.4423657113612
 21
114.0492583560068
 31
0.0
  0
LINE
  5
EB
330
1F
100
AcDbEntity
  8
0
  6
CONTINUOUS
 62
     7
100
AcDbLine
 10
801.5590835413026
 20
236.0492583560068
 30
0.0
 11
796.0571896583341
 21
236.0492583560068
 31
0.0
  0
LINE
  5
EC
330
1F
100
AcDbEntity
  8
0
  6
CONTINUOUS
 62
     7
100
AcDbLine
 10
731.5592129969327
 20
236.0492583560068
 30
0.0
 11
726.0573798604282
 21
236.0492583560068
 31
0.0
  0
LINE
  5
ED
330
1F
100
AcDbEntity
  8
0
  6
CONTINUOUS
 62
     7
100
AcDbLine
 10
991.213836130614
 20
235.7492583560068
 30
0.0
 11
991.213836130614
 21
236.0410610839144
 31
0.0
  0
CIRCLE
  5
EE
330
1F
100
AcDbEntity
  8
0
  6
CONTINUOUS
 62
     7
100
AcDbCircle
 10
509.7861638693859
 20
175.0492583560068
 30
0.0
 40
57.0
  0
LINE
  5
EF
330
1F
100
AcDbEntity
  8
0
  6
CONTINUOUS
 62
     7
100
AcDbLine
 10
740.9404973514603
 20
114.0492583560068
 30
0.0
 11
746.4424018236635
 21
114.0492583560068
 31
0.0
  0
CIRCLE
  5
F0
330
1F
100
AcDbEntity
  8
0
  6
CONTINUOUS
 62
     7
100
AcDbCircle
 10
990.213836130614
 20
175.0492583560068
 30
0.0
 40
60.99999999999993
  0
CIRCLE
  5
F1
330
1F
100
AcDbEntity
  8
0
  6
CONTINUOUS
 62
     7
100
AcDbCircle
 10
990.213836130614
 20
175.0492583560068
 30
0.0
 40
56.49999999999999
  0
ARC
  5
F2
330
1F
100
AcDbEntity
  8
0
  6
CONTINUOUS
 62
     7
100
AcDbCircle
 10
509.7873283813273
 20
175.050190014564
 30
0.0
 40
63.49973171322698
100
AcDbArc
 50
143.9961240000488
 51
126.0065115910726
  0
CIRCLE
  5
F3
330
1F
100
AcDbEntity
  8
0
  6
CONTINUOUS
 62
     7
100
AcDbCircle
 10
990.213836130614
 20
175.0492583560068
 30
0.0
 40
50.00000000000001
  0
LINE
  5
F4
330
1F
100
AcDbEntity
  8
0
  6
CONTINUOUS
 62
     7
100
AcDbLine
 10
982.7138361306141
 20
118.0535837924158
 30
0.0
 11
982.7138361306141
 21
114.5120796969381
 31
0.0
  0
LINE
  5
F5
330
1F
100
AcDbEntity
  8
0
  6
CONTINUOUS
 62
     7
100
AcDbLine
 10
625.4999998075346
 20
118.0
 30
0.0
 11
692.4999998075346
 21
118.0
 31
0.0
  0
LINE
  5
F6
330
1F
100
AcDbEntity
  8
0
  6
CONTINUOUS
 62
     7
100
AcDbLine
 10
770.940569417884
 20
114.0492583560068
 30
0.0
 11
776.4425042493148
 21
114.0492583560068
 31
0.0
  0
CIRCLE
  5
F7
330
1F
100
AcDbEntity
  8
0
  6
CONTINUOUS
 62
     7
100
AcDbCircle
 10
990.213836130614
 20
175.0492583560068
 30
0.0
 40
57.48684210526315
  0
LINE
  5
F8
330
1F
100
AcDbEntity
  8
0
  6
CONTINUOUS
 62
     7
100
AcDbLine
 10
510.7861638693859
 20
235.7492583560068
 30
0.0
 11
510.7861638693859
 21
236.0410610839144
 31
0.0
  0
ARC
  5
F9
330
1F
100
AcDbEntity
  8
0
  6
CONTINUOUS
 62
     7
100
AcDbCircle
 10
512.2871247495403
 20
183.6554444699225
 30
0.0
 40
61.60355769522832
100
AcDbArc
 50
335.7623974306273
 51
351.9639571733547
  0
LINE
  5
FA
330
1F
100
AcDbEntity
  8
0
  6
CONTINUOUS
 62
     7
100
AcDbLine
 10
811.5591141416118
 20
236.0492583560068
 30
0.0
 11
806.057182686423
 21
236.0492583560068
 31
0.0
  0
LINE
  5
FB
330
1F
100
AcDbEntity
  8
0
  6
CONTINUOUS
 62
     7
100
AcDbLine
 10
989.213836130614
 20
235.7492583560068
 30
0.0
 11
991.213836130614
 21
235.7492583560068
 31
0.0
  0
LINE
  5
FC
330
1F
100
AcDbEntity
  8
0
  6
CONTINUOUS
 62
     7
100
AcDbLine
 10
750.940533682895
 20
114.0492583560068
 30
0.0
 11
756.4424396325102
 21
114.0492583560068
 31
0.0
  0
ARC
  5
FD
330
1F
100
AcDbEntity
  8
0
  6
CONTINUOUS
 62
     7
100
AcDbCircle
 10
997.2204609559998
 20
169.4600177255521
 30
0.0
 40
61.72465803073043
100
AcDbArc
 50
44.05203040749382
 51
60.22002824293286
  0
ARC
  5
FE
330
1F
100
AcDbEntity
  8
0
  6
CONTINUOUS
 62
     7
100
AcDbCircle
 10
509.7862761988819
 20
175.0493691295445
 30
0.0
 40
63.49977722826307
100
AcDbArc
 50
0.8432209810855181
 51
126.0053081564327
  0
CIRCLE
  5
FF
330
1F
100
AcDbEntity
  8
0
  6
CONTINUOUS
 62
     7
100
AcDbCircle
 10
509.786178462886
 20
175.0483096084968
 30
0.0
 40
63.4995771703908
  0
CIRCLE
  5
100
330
1F
100
AcDbEntity
  8
0
  6
CONTINUOUS
 62
     7
100
AcDbCircle
 10
509.7861638693859
 20
175.0492583560068
 30
0.0
 40
50.00000000000004
  0
ARC
  5
101
330
1F
100
AcDbEntity
  8
0
  6
CONTINUOUS
 62
     7
100
AcDbCircle
 10
831.3469740108952
 20
231.2873256538863
 30
0.0
 40
20.82553435702853
100
AcDbArc
 50
0.8871784485611733
 51
13.00306012333262
  0
ARC
  5
102
330
1F
100
AcDbEntity
  8
0
  6
CONTINUOUS
 62
     7
100
AcDbCircle
 10
1130.735411038094
 20
151.0192671704349
 30
0.0
 40
435.9253582851103
100
AcDbArc
 50
180.5884575225469
 51
184.778111500769
  0
ARC
  5
103
330
1F
100
AcDbEntity
  8
0
  6
CONTINUOUS
 62
     7
100
AcDbCircle
 10
802.675506866607
 20
237.9529262647781
 30
0.0
 40
0.9012097437357168
100
AcDbArc
 50
138.5774270292512
 51
182.3642640257263
  0
ARC
  5
104
330
1F
100
AcDbEntity
  8
0
  6
CONTINUOUS
 62
     7
100
AcDbCircle
 10
752.8435874715722
 20
237.8928391763925
 30
0.0
 40
1.068669681052157
100
AcDbArc
 50
142.1613446342349
 51
178.6958217793868
  0
ARC
  5
105
330
1F
100
AcDbEntity
  8
0
  6
CONTINUOUS
 62
     7
100
AcDbCircle
 10
5786.531797476498
 20
295.8793091280586
 30
0.0
 40
5093.888276974053
100
AcDbArc
 50
181.5469318080796
 51
181.6799768186675
  0
ARC
  5
106
330
1F
100
AcDbEntity
  8
0
  6
CONTINUOUS
 62
     7
100
AcDbCircle
 10
1345.984752469177
 20
155.9956995483374
 30
0.0
 40
521.2955466715217
100
AcDbArc
 50
180.603039514482
 51
184.5446132381353
  0
ARC
  5
107
330
1F
100
AcDbEntity
  8
0
  6
CONTINUOUS
 62
     7
100
AcDbCircle
 10
-2816.47073858417
 20
76.0031713313098
 30
0.0
 40
3661.948617731986
100
AcDbArc
 50
1.162568244305094
 51
2.435240945001544
  0
ARC
  5
108
330
1F
100
AcDbEntity
  8
0
  6
CONTINUOUS
 62
     7
100
AcDbCircle
 10
832.6759805563684
 20
237.9520727754533
 30
0.0
 40
0.9017995131484225
100
AcDbArc
 50
138.5819260425411
 51
182.3342745719936
  0
LINE
  5
109
330
1F
100
AcDbEntity
  8
0
  6
CONTINUOUS
 62
     7
100
AcDbLine
 10
701.6513687041918
 20
235.9467438392532
 30
0.0
 11
701.5852947481525
 21
236.0410610839144
 31
0.0
  0
ARC
  5
10A
330
1F
100
AcDbEntity
  8
0
  6
CONTINUOUS
 62
     7
100
AcDbCircle
 10
733.4051737624128
 20
237.6916720982007
 30
0.0
 40
1.645607666098153
100
AcDbArc
 50
148.638589207675
 51
172.1598150530687
  0
ARC
  5
10B
330
1F
100
AcDbEntity
  8
0
  6
CONTINUOUS
 62
     7
100
AcDbCircle
 10
736.4988758159705
 20
230.8797111860974
 30
0.0
 40
25.66993045177437
100
AcDbArc
 50
2.354143830213702
 51
11.24233299870484
  0
ARC
  5
10C
330
1F
100
AcDbEntity
  8
0
  6
CONTINUOUS
 62
     7
100
AcDbCircle
 10
-2791.706272925207
 20
77.09798948504927
 30
0.0
 40
3627.167107988621
100
AcDbArc
 50
1.160177973381085
 51
2.442411947452973
  0
ARC
  5
10D
330
1F
100
AcDbEntity
  8
0
  6
CONTINUOUS
 62
     7
100
AcDbCircle
 10
-2785.181119258818
 20
78.26639818435788
 30
0.0
 40
3590.624241658546
100
AcDbArc
 50
1.156176122042855
 51
2.449320029636555
  0
ARC
  5
10E
330
1F
100
AcDbEntity
  8
0
  6
CONTINUOUS
 62
     7
100
AcDbCircle
 10
822.6722418956008
 20
237.9530924654161
 30
0.0
 40
0.8981651708690217
100
AcDbArc
 50
138.4451252200147
 51
182.4350437498331
  0
ARC
  5
10F
330
1F
100
AcDbEntity
  8
0
  6
CONTINUOUS
 62
     7
100
AcDbCircle
 10
-2692.68315628685
 20
82.32785038528657
 30
0.0
 40
3458.068019153794
100
AcDbArc
 50
1.140104571597756
 51
2.479559259599544
  0
ARC
  5
110
330
1F
100
AcDbEntity
  8
0
  6
CONTINUOUS
 62
     7
100
AcDbCircle
 10
-2734.385512317685
 20
80.40620261517701
 30
0.0
 40
3519.798218581707
100
AcDbArc
 50
1.147998840598463
 51
2.466019478654878
  0
ARC
  5
111
330
1F
100
AcDbEntity
  8
0
  6
CONTINUOUS
 62
     7
100
AcDbCircle
 10
867.666243381225
 20
112.1435438765529
 30
0.0
 40
0.8920774732610637
100
AcDbArc
 50
177.5239042653284
 51
221.6716053088921
  0
ARC
  5
112
330
1F
100
AcDbEntity
  8
0
  6
CONTINUOUS
 62
     7
100
AcDbCircle
 10
857.6345112001449
 20
112.1258064739581
 30
0.0
 40
0.8565888901684374
100
AcDbArc
 50
177.593554478286
 51
222.207457282591
  0
ARC
  5
113
330
1F
100
AcDbEntity
  8
0
  6
CONTINUOUS
 62
     7
100
AcDbCircle
 10
728.5620894216595
 20
112.4624875204941
 30
0.0
 40
1.808924120553257
100
AcDbArc
 50
188.9803842108395
 51
210.2775083658544
  0
ARC
  5
114
330
1F
100
AcDbEntity
  8
0
  6
CONTINUOUS
 62
     7
100
AcDbCircle
 10
810.9833196452071
 20
230.2437649041177
 30
0.0
 40
31.21687321766837
100
AcDbArc
 50
2.490060329741078
 51
10.27288183535528
  0
ARC
  5
115
330
1F
100
AcDbEntity
  8
0
  6
CONTINUOUS
 62
     7
100
AcDbCircle
 10
678.9916495977097
 20
230.9891806790107
 30
0.0
 40
23.19569577470058
100
AcDbArc
 50
1.051951494044704
 51
12.34089611029805
  0
ARC
  5
116
330
1F
100
AcDbEntity
  8
0
  6
CONTINUOUS
 62
     7
100
AcDbCircle
 10
807.6734094658646
 20
112.1452583387011
 30
0.0
 40
0.8992092264729614
100
AcDbArc
 50
177.5866124796715
 51
221.5033268950702
  0
ARC
  5
117
330
1F
100
AcDbEntity
  8
0
  6
CONTINUOUS
 62
     7
100
AcDbCircle
 10
1336.289608921598
 20
156.4898398696759
 30
0.0
 40
531.6088496918429
100
AcDbArc
 50
180.6222004950459
 51
184.5079191803219
  0
ARC
  5
118
330
1F
100
AcDbEntity
  8
0
  6
CONTINUOUS
 62
     7
100
AcDbCircle
 10
1364.549663111902
 20
155.8508325314129
 30
0.0
 40
519.8552101080855
100
AcDbArc
 50
180.6116452603422
 51
184.539390304007
  0
ARC
  5
119
330
1F
100
AcDbEntity
  8
0
  6
CONTINUOUS
 62
     7
100
AcDbCircle
 10
757.7206660645402
 20
112.1616252123322
 30
0.0
 40
0.9455172211375406
100
AcDbArc
 50
178.8472759863415
 51
220.3051927149413
  0
ARC
  5
11A
330
1F
100
AcDbEntity
  8
0
  6
CONTINUOUS
 62
     7
100
AcDbCircle
 10
717.6685113811255
 20
112.1444830467716
 30
0.0
 40
0.8944972110988832
100
AcDbArc
 50
177.5374681356331
 51
221.611823406722
  0
ARC
  5
11B
330
1F
100
AcDbEntity
  8
0
  6
CONTINUOUS
 62
     7
100
AcDbCircle
 10
-2716.938838566927
 20
81.31904946538872
 30
0.0
 40
3492.337283987595
100
AcDbArc
 50
1.144888923348601
 51
2.470659272058873
  0
ARC
  5
11C
330
1F
100
AcDbEntity
  8
0
  6
CONTINUOUS
 62
     7
100
AcDbCircle
 10
1371.79258009076
 20
155.7629502577854
 30
0.0
 40
517.0979122417472
100
AcDbArc
 50
180.6016041509508
 51
184.5560625767929
  0
ARC
  5
11D
330
1F
100
AcDbEntity
  8
0
  6
CONTINUOUS
 62
     7
100
AcDbCircle
 10
1306.188928549866
 20
157.0621248775725
 30
0.0
 40
541.5211096863904
100
AcDbArc
 50
180.6272448249481
 51
184.4875613740812
  0
ARC
  5
11E
330
1F
100
AcDbEntity
  8
0
  6
CONTINUOUS
 62
     7
100
AcDbCircle
 10
1313.497114607842
 20
156.9131503076694
 30
0.0
 40
538.8272364058449
100
AcDbArc
 50
180.6183005946298
 51
184.4926954459795
  0
ARC
  5
11F
330
1F
100
AcDbEntity
  8
0
  6
CONTINUOUS
 62
     7
100
AcDbCircle
 10
-2796.875501811407
 20
77.22514814551619
 30
0.0
 40
3622.334966628585
100
AcDbArc
 50
1.159238629075744
 51
2.443889098183569
  0
ARC
  5
120
330
1F
100
AcDbEntity
  8
0
  6
CONTINUOUS
 62
     7
100
AcDbCircle
 10
-3352.867688833013
 20
63.51285391581417
 30
0.0
 40
4058.525688654593
100
AcDbArc
 50
1.214064976295455
 51
2.37101673017263
  0
ARC
  5
121
330
1F
100
AcDbEntity
  8
0
  6
CONTINUOUS
 62
     7
100
AcDbCircle
 10
852.6697711994367
 20
237.9533576226106
 30
0.0
 40
0.8958135391224278
100
AcDbArc
 50
138.387689179466
 51
182.4575416612244
  0
ARC
  5
122
330
1F
100
AcDbEntity
  8
0
  6
CONTINUOUS
 62
     7
100
AcDbCircle
 10
792.1028920793016
 20
230.3745787509666
 30
0.0
 40
30.0904636159983
100
AcDbArc
 50
2.496092894632744
 51
10.4346563381208
  0
ARC
  5
123
330
1F
100
AcDbEntity
  8
0
  6
CONTINUOUS
 62
     7
100
AcDbCircle
 10
847.6710419075855
 20
112.1449704449102
 30
0.0
 40
0.8968236223606193
100
AcDbArc
 50
177.6051556819945
 51
221.5463322670739
  0
ARC
  5
124
330
1F
100
AcDbEntity
  8
0
  6
CONTINUOUS
 62
     7
100
AcDbCircle
 10
837.6783874828697
 20
112.1474293073184
 30
0.0
 40
0.9043063827452076
100
AcDbArc
 50
177.6988658867855
 51
221.3517007849135
  0
ARC
  5
125
330
1F
100
AcDbEntity
  8
0
  6
CONTINUOUS
 62
     7
100
AcDbCircle
 10
745.512156375029
 20
230.7682566169966
 30
0.0
 40
26.66251454734443
100
AcDbArc
 50
2.359519344829891
 51
11.02005097942921
  0
ARC
  5
126
330
1F
100
AcDbEntity
  8
0
  6
CONTINUOUS
 62
     7
100
AcDbCircle
 10
842.6763145825831
 20
237.9517355678867
 30
0.0
 40
0.902207075309648
100
AcDbArc
 50
138.5946839664039
 51
182.3262376496389
  0
ARC
  5
127
330
1F
100
AcDbEntity
  8
0
  6
CONTINUOUS
 62
     7
100
AcDbCircle
 10
782.7920163565044
 20
230.453131600291
 30
0.0
 40
29.39825109025506
100
AcDbArc
 50
2.429183107170092
 51
10.53443242442258
  0
ARC
  5
128
330
1F
100
AcDbEntity
  8
0
  6
CONTINUOUS
 62
     7
100
AcDbCircle
 10
827.6458709432862
 20
112.13028106095
 30
0.0
 40
0.868480656646982
100
AcDbArc
 50
177.6722421085586
 51
221.9474256176563
  0
ARC
  5
129
330
1F
100
AcDbEntity
  8
0
  6
CONTINUOUS
 62
     7
100
AcDbCircle
 10
1319.682984010543
 20
156.6969122790082
 30
0.0
 40
535.0079069772886
100
AcDbArc
 50
180.6180996057529
 51
184.5015710692333
  0
ARC
  5
12A
330
1F
100
AcDbEntity
  8
0
  6
CONTINUOUS
 62
     7
100
AcDbCircle
 10
-2778.517660195951
 20
78.16491216138685
 30
0.0
 40
3593.962502463961
100
AcDbArc
 50
1.156158300890025
 51
2.448423570371809
  0
ARC
  5
12B
330
1F
100
AcDbEntity
  8
0
  6
CONTINUOUS
 62
     7
100
AcDbCircle
 10
812.6717357321256
 20
237.9537237308244
 30
0.0
 40
0.8975138455121061
100
AcDbArc
 50
138.4462778403129
 51
182.4334213812096
  0
ARC
  5
12C
330
1F
100
AcDbEntity
  8
0
  6
CONTINUOUS
 62
     7
100
AcDbCircle
 10
1341.830197047929
 20
156.2793024620442
 30
0.0
 40
527.1467497589548
100
AcDbArc
 50
180.6084137137377
 51
184.5231720504421
  0
ARC
  5
12D
330
1F
100
AcDbEntity
  8
0
  6
CONTINUOUS
 62
     7
100
AcDbCircle
 10
762.6047184479859
 20
237.9780600206965
 30
0.0
 40
0.8315715944318092
100
AcDbArc
 50
136.676349638906
 51
184.159431662652
  0
ARC
  5
12E
330
1F
100
AcDbEntity
  8
0
  6
CONTINUOUS
 62
     7
100
AcDbCircle
 10
747.9719570430058
 20
112.2514293609774
 30
0.0
 40
1.198760339138455
100
AcDbArc
 50
183.3798096103781
 51
215.799860585706
  0
ARC
  5
12F
330
1F
100
AcDbEntity
  8
0
  6
CONTINUOUS
 62
     7
100
AcDbCircle
 10
767.4857024928725
 20
112.0730804466451
 30
0.0
 40
0.7139306821713973
100
AcDbArc
 50
172.4808799761817
 51
227.1359697371526
  0
ARC
  5
130
330
1F
100
AcDbEntity
  8
0
  6
CONTINUOUS
 62
     7
100
AcDbCircle
 10
743.1065143430662
 20
237.7989530472651
 30
0.0
 40
1.336475795480583
100
AcDbArc
 50
145.9004044086704
 51
174.867860708843
  0
ARC
  5
131
330
1F
100
AcDbEntity
  8
0
  6
CONTINUOUS
 62
     7
100
AcDbCircle
 10
862.6648230383879
 20
237.9556552634119
 30
0.0
 40
0.8905199451592158
100
AcDbArc
 50
138.2943219546116
 51
182.4793049057785
  0
ARC
  5
132
330
1F
100
AcDbEntity
  8
0
  6
CONTINUOUS
 62
     7
100
AcDbCircle
 10
802.010242113896
 20
230.3646443304447
 30
0.0
 40
30.18378695742648
100
AcDbArc
 50
2.479621863580203
 51
10.41406258468901
  0
ARC
  5
133
330
1F
100
AcDbEntity
  8
0
  6
CONTINUOUS
 62
     7
100
AcDbCircle
 10
1199.335208335945
 20
154.5209058014328
 30
0.0
 40
494.613738549332
100
AcDbArc
 50
180.5811343258975
 51
184.6186045314327
  0
ARC
  5
134
330
1F
100
AcDbEntity
  8
0
  6
CONTINUOUS
 62
     7
100
AcDbCircle
 10
738.2270153926877
 20
112.3407531181289
 30
0.0
 40
1.459593524633653
100
AcDbArc
 50
186.896784886205
 51
212.7868737909848
  0
ARC
  5
135
330
1F
100
AcDbEntity
  8
0
  6
CONTINUOUS
 62
     7
100
AcDbCircle
 10
763.7473482780431
 20
230.5569477252377
 30
0.0
 40
28.43779609208492
100
AcDbArc
 50
2.417921210971268
 51
10.7195726372755
  0
ARC
  5
136
330
1F
100
AcDbEntity
  8
0
  6
CONTINUOUS
 62
     7
100
AcDbCircle
 10
772.8534629133032
 20
230.460431805159
 30
0.0
 40
29.3361163024475
100
AcDbArc
 50
2.449390222119244
 51
10.54853770516459
  0
ARC
  5
137
330
1F
100
AcDbEntity
  8
0
  6
CONTINUOUS
 62
     7
100
AcDbCircle
 10
1324.149566848663
 20
156.4252556966461
 30
0.0
 40
529.4688730245446
100
AcDbArc
 50
180.6138890824734
 51
184.5207785369055
  0
ARC
  5
138
330
1F
100
AcDbEntity
  8
0
  6
CONTINUOUS
 62
     7
100
AcDbCircle
 10
-2805.185077531579
 20
76.04171143584753
 30
0.0
 40
3660.662190581479
100
AcDbArc
 50
1.162877101716206
 51
2.435646444156776
  0
ARC
  5
139
330
1F
100
AcDbEntity
  8
0
  6
CONTINUOUS
 62
     7
100
AcDbCircle
 10
817.6706119868594
 20
112.1447856594546
 30
0.0
 40
0.8965031070471863
100
AcDbArc
 50
177.533717993307
 51
221.6030005649934
  0
ARC
  5
13A
330
1F
100
AcDbEntity
  8
0
  6
CONTINUOUS
 62
     7
100
AcDbCircle
 10
1357.955426064156
 20
156.0656845601339
 30
0.0
 40
523.2673539845421
100
AcDbArc
 50
180.6051394392269
 51
184.5332216528182
  0
ARC
  5
13B
330
1F
100
AcDbEntity
  8
0
  6
CONTINUOUS
 62
     7
100
AcDbCircle
 10
754.8450219910645
 20
230.6895227339376
 30
0.0
 40
27.33278933293061
100
AcDbArc
 50
2.437786039201883
 51
10.90767641913757
  0
ARC
  5
13C
330
1F
100
AcDbEntity
  8
0
  6
CONTINUOUS
 62
     7
100
AcDbCircle
 10
-2761.776681595147
 20
79.2818448976926
 30
0.0
 40
3557.205824130651
100
AcDbArc
 50
1.151251480943501
 51
2.456659152030888
  0
LINE
  5
13D
330
1F
100
AcDbEntity
  8
0
  6
CONTINUOUS
 62
     7
100
AcDbLine
 10
845.4996144366768
 20
238.5484466606959
 30
0.0
 11
841.999614436686
 21
238.5484386002274
 31
0.0
  0
LINE
  5
13E
330
1F
100
AcDbEntity
  8
0
  6
CONTINUOUS
 62
     7
100
AcDbLine
 10
786.9996629100926
 20
111.549407742916
 30
0.0
 11
790.4996629100832
 21
111.5493996823623
 31
0.0
  0
LINE
  5
13F
330
1F
100
AcDbEntity
  8
0
  6
CONTINUOUS
 62
     7
100
AcDbLine
 10
850.7244818862813
 20
112.1811063336504
 30
0.0
 11
851.0573084542732
 21
114.0493323452932
 31
0.0
  0
LINE
  5
140
330
1F
100
AcDbEntity
  8
0
  6
CONTINUOUS
 62
     7
100
AcDbLine
 10
800.724431481628
 20
112.1815745365384
 30
0.0
 11
801.057187216713
 21
114.0493324364757
 31
0.0
  0
LINE
  5
141
330
1F
100
AcDbEntity
  8
0
  6
CONTINUOUS
 62
     7
100
AcDbLine
 10
745.4998264522145
 20
238.5482337427029
 30
0.0
 11
741.9998264522238
 21
238.5482256822613
 31
0.0
  0
LINE
  5
142
330
1F
100
AcDbEntity
  8
0
  6
CONTINUOUS
 62
     7
100
AcDbLine
 10
692.4999998075346
 20
114.0492583560068
 30
0.0
 11
692.4999998075346
 21
236.0410610839144
 31
0.0
  0
ARC
  5
143
330
1F
100
AcDbEntity
  8
0
  6
CONTINUOUS
 62
     7
100
AcDbCircle
 10
702.669200827198
 20
237.9534084021186
 30
0.0
 40
0.8953089255817419
100
AcDbArc
 50
138.3711154326408
 51
182.4739428631634
  0
LINE
  5
144
330
1F
100
AcDbEntity
  8
0
  6
CONTINUOUS
 62
     7
100
AcDbLine
 10
871.4999998075346
 20
235.5864370150754
 30
0.0
 11
871.4999998075346
 21
236.0410610839144
 31
0.0
  0
LINE
  5
145
330
1F
100
AcDbEntity
  8
0
  6
CONTINUOUS
 62
     7
100
AcDbLine
 10
866.0588200715735
 20
236.0410610839144
 30
0.0
 11
871.4999998075344
 21
236.0410610839144
 31
0.0
  0
LINE
  5
146
330
1F
100
AcDbEntity
  8
0
  6
CONTINUOUS
 62
     7
100
AcDbLine
 10
872.4999998075344
 20
182.5492583560068
 30
0.0
 11
872.4999998075344
 21
235.5864370150753
 31
0.0
  0
LINE
  5
147
330
1F
100
AcDbEntity
  8
0
  6
CONTINUOUS
 62
     7
100
AcDbLine
 10
872.4999998075346
 20
114.5120796969382
 30
0.0
 11
872.4999998075346
 21
167.5492583560068
 31
0.0
  0
LINE
  5
148
330
1F
100
AcDbEntity
  8
0
  6
CONTINUOUS
 62
     7
100
AcDbLine
 10
817.0002398472951
 20
111.5495386389319
 30
0.0
 11
820.5002398472858
 21
111.5495305783949
 31
0.0
  0
LINE
  5
149
330
1F
100
AcDbEntity
  8
0
  6
CONTINUOUS
 62
     7
100
AcDbLine
 10
796.9994307979521
 20
111.5493341781611
 30
0.0
 11
800.4994307979428
 21
111.5493261175981
 31
0.0
  0
LINE
  5
14A
330
1F
100
AcDbEntity
  8
0
  6
CONTINUOUS
 62
     7
100
AcDbLine
 10
746.9996841902182
 20
111.5502076658835
 30
0.0
 11
750.499684190209
 21
111.5501996054313
 31
0.0
  0
LINE
  5
14B
330
1F
100
AcDbEntity
  8
0
  6
CONTINUOUS
 62
     7
100
AcDbLine
 10
726.999914232686
 20
111.5504484986395
 30
0.0
 11
730.4999142326768
 21
111.550440438218
 31
0.0
  0
LINE
  5
14C
330
1F
100
AcDbEntity
  8
0
  6
CONTINUOUS
 62
     7
100
AcDbLine
 10
806.9999761620816
 20
111.5493851736127
 30
0.0
 11
810.4999761620724
 21
111.5493771130561
 31
0.0
  0
LINE
  5
14D
330
1F
100
AcDbEntity
  8
0
  6
CONTINUOUS
 62
     7
100
AcDbLine
 10
866.9998902795783
 20
111.5504370216122
 30
0.0
 11
870.499890279569
 21
111.5504289611892
 31
0.0
  0
LINE
  5
14E
330
1F
100
AcDbEntity
  8
0
  6
CONTINUOUS
 62
     7
100
AcDbLine
 10
871.4999998075344
 20
114.0492583560068
 30
0.0
 11
871.4999998075344
 21
114.5120796969382
 31
0.0
  0
LINE
  5
14F
330
1F
100
AcDbEntity
  8
0
  6
CONTINUOUS
 62
     7
100
AcDbLine
 10
697.0000547646721
 20
111.5502809766469
 30
0.0
 11
700.5000547646628
 21
111.5502729162041
 31
0.0
  0
LINE
  5
150
330
1F
100
AcDbEntity
  8
0
  6
CONTINUOUS
 62
     7
100
AcDbLine
 10
715.4997636590034
 20
238.5480796212715
 30
0.0
 11
711.9997636590127
 21
238.5480715608496
 31
0.0
  0
LINE
  5
151
330
1F
100
AcDbEntity
  8
0
  6
CONTINUOUS
 62
     7
100
AcDbLine
 10
725.4998184033137
 20
238.548059006062
 30
0.0
 11
721.999818403323
 21
238.5480509456426
 31
0.0
  0
ARC
  5
152
330
1F
100
AcDbEntity
  8
0
  6
CONTINUOUS
 62
     7
100
AcDbCircle
 10
712.6669423047879
 20
237.9549847271831
 30
0.0
 40
0.8926809889628201
100
AcDbArc
 50
138.3645829783077
 51
182.4467010108665
  0
LINE
  5
153
330
1F
100
AcDbEntity
  8
0
  6
CONTINUOUS
 62
     7
100
AcDbLine
 10
871.4999998075344
 20
182.5492583560068
 30
0.0
 11
872.4999998075344
 21
182.5492583560068
 31
0.0
  0
LINE
  5
154
330
1F
100
AcDbEntity
  8
0
  6
CONTINUOUS
 62
     7
100
AcDbLine
 10
871.4999998075344
 20
167.5492583560068
 30
0.0
 11
871.4999998075344
 21
182.5492583560068
 31
0.0
  0
LINE
  5
155
330
1F
100
AcDbEntity
  8
0
  6
CONTINUOUS
 62
     7
100
AcDbLine
 10
696.0587680847658
 20
236.0410610839144
 30
0.0
 11
701.5852947481525
 21
236.0410610839144
 31
0.0
  0
LINE
  5
156
330
1F
100
AcDbEntity
  8
0
  6
CONTINUOUS
 62
     7
100
AcDbLine
 10
871.4999998075346
 20
235.5864370150755
 30
0.0
 11
872.4999998075346
 21
235.5864370150755
 31
0.0
  0
LINE
  5
157
330
1F
100
AcDbEntity
  8
0
  6
CONTINUOUS
 62
     7
100
AcDbLine
 10
706.0588091337568
 20
236.0410610839144
 30
0.0
 11
711.5853206608616
 21
236.0410610839144
 31
0.0
  0
LINE
  5
158
330
1F
100
AcDbEntity
  8
0
  6
CONTINUOUS
 62
     7
100
AcDbLine
 10
716.999730640501
 20
111.5504648806932
 30
0.0
 11
720.4997306404916
 21
111.5504568202737
 31
0.0
  0
LINE
  5
159
330
1F
100
AcDbEntity
  8
0
  6
CONTINUOUS
 62
     7
100
AcDbLine
 10
756.9996054447661
 20
111.5500089851254
 30
0.0
 11
760.4996054447568
 21
111.5500009246481
 31
0.0
  0
ARC
  5
15A
330
1F
100
AcDbEntity
  8
0
  6
CONTINUOUS
 62
     7
100
AcDbCircle
 10
697.6682284828204
 20
112.1445315507723
 30
0.0
 40
0.8941978936092654
100
AcDbArc
 50
177.5285533392599
 51
221.6487863252513
  0
LINE
  5
15B
330
1F
100
AcDbEntity
  8
0
  6
CONTINUOUS
 62
     7
100
AcDbLine
 10
856.0587878759699
 20
236.0410610839144
 30
0.0
 11
861.5853055514303
 21
236.0410610839144
 31
0.0
  0
LINE
  5
15C
330
1F
100
AcDbEntity
  8
0
  6
CONTINUOUS
 62
     7
100
AcDbLine
 10
692.4999998075346
 20
236.0410610839144
 30
0.0
 11
694.4999998075346
 21
236.0410610839144
 31
0.0
  0
LINE
  5
15D
330
1F
100
AcDbEntity
  8
0
  6
CONTINUOUS
 62
     7
100
AcDbLine
 10
695.5000367564901
 20
238.5483283823296
 30
0.0
 11
694.4999997781641
 21
238.5483260792577
 31
0.0
  0
LINE
  5
15E
330
1F
100
AcDbEntity
  8
0
  6
CONTINUOUS
 62
     7
100
AcDbLine
 10
872.4999998075344
 20
167.5492583560068
 30
0.0
 11
871.4999998075344
 21
167.5492583560068
 31
0.0
  0
LINE
  5
15F
330
1F
100
AcDbEntity
  8
0
  6
CONTINUOUS
 62
     7
100
AcDbLine
 10
705.4999902800872
 20
238.5481729718929
 30
0.0
 11
701.9999902800965
 21
238.5481649114591
 31
0.0
  0
LINE
  5
160
330
1F
100
AcDbEntity
  8
0
  6
CONTINUOUS
 62
     7
100
AcDbLine
 10
735.4999868944285
 20
238.5481113915883
 30
0.0
 11
731.9999868944378
 21
238.5481033311623
 31
0.0
  0
LINE
  5
161
330
1F
100
AcDbEntity
  8
0
  6
CONTINUOUS
 62
     7
100
AcDbLine
 10
775.5002431228025
 20
238.5488411948567
 30
0.0
 11
772.0002431228119
 21
238.5488331343381
 31
0.0
  0
LINE
  5
162
330
1F
100
AcDbEntity
  8
0
  6
CONTINUOUS
 62
     7
100
AcDbLine
 10
785.4999242446642
 20
238.5490409744925
 30
0.0
 11
781.9999242446736
 21
238.5490329139485
 31
0.0
  0
LINE
  5
163
330
1F
100
AcDbEntity
  8
0
  6
CONTINUOUS
 62
     7
100
AcDbLine
 10
857.0000211077321
 20
111.5503354934638
 30
0.0
 11
860.5000211077228
 21
111.5503274330279
 31
0.0
  0
LINE
  5
164
330
1F
100
AcDbEntity
  8
0
  6
CONTINUOUS
 62
     7
100
AcDbLine
 10
815.5000955161391
 20
238.5490724696175
 30
0.0
 11
812.0000955161485
 21
238.5490644090695
 31
0.0
  0
LINE
  5
165
330
1F
100
AcDbEntity
  8
0
  6
CONTINUOUS
 62
     7
100
AcDbLine
 10
825.5001262637828
 20
238.5488867637094
 30
0.0
 11
822.0001262637921
 21
238.548878703185
 31
0.0
  0
LINE
  5
166
330
1F
100
AcDbEntity
  8
0
  6
CONTINUOUS
 62
     7
100
AcDbLine
 10
830.7241716540735
 20
112.1797907464514
 30
0.0
 11
831.0572360273205
 21
114.0493325056894
 31
0.0
  0
LINE
  5
167
330
1F
100
AcDbEntity
  8
0
  6
CONTINUOUS
 62
     7
100
AcDbLine
 10
810.7209244670444
 20
112.1619954187017
 30
0.0
 11
811.0571676078961
 21
114.0493320444929
 31
0.0
  0
LINE
  5
168
330
1F
100
AcDbEntity
  8
0
  6
CONTINUOUS
 62
     7
100
AcDbLine
 10
790.7247032208455
 20
112.1830697780435
 30
0.0
 11
791.057195261613
 21
114.0493323135024
 31
0.0
  0
LINE
  5
169
330
1F
100
AcDbEntity
  8
0
  6
CONTINUOUS
 62
     7
100
AcDbLine
 10
706.9998750180953
 20
111.5504070092008
 30
0.0
 11
710.499875018086
 21
111.5503989487739
 31
0.0
  0
LINE
  5
16A
330
1F
100
AcDbEntity
  8
0
  6
CONTINUOUS
 62
     7
100
AcDbLine
 10
855.5000113601737
 20
238.5482636945871
 30
0.0
 11
852.0000113601827
 21
238.5482556341418
 31
0.0
  0
LINE
  5
16B
330
1F
100
AcDbEntity
  8
0
  6
CONTINUOUS
 62
     7
100
AcDbLine
 10
820.7245048077386
 20
112.1818306224858
 30
0.0
 11
821.0571964036055
 21
114.0492635629292
 31
0.0
  0
ARC
  5
16C
330
1F
100
AcDbEntity
  8
0
  6
CONTINUOUS
 62
     7
100
AcDbCircle
 10
707.6431694231669
 20
112.1304684409283
 30
0.0
 40
0.8661979890154637
100
AcDbArc
 50
177.591783751073
 51
222.0411215692974
  0
LINE
  5
16D
330
1F
100
AcDbEntity
  8
0
  6
CONTINUOUS
 62
     7
100
AcDbLine
 10
835.4997189256268
 20
238.5486649106818
 30
0.0
 11
831.9997189256361
 21
238.5486568501855
 31
0.0
  0
LINE
  5
16E
330
1F
100
AcDbEntity
  8
0
  6
CONTINUOUS
 62
     7
100
AcDbLine
 10
765.4997587565086
 20
238.5486249042693
 30
0.0
 11
761.999758756518
 21
238.5486168437781
 31
0.0
  0
LINE
  5
16F
330
1F
100
AcDbEntity
  8
0
  6
CONTINUOUS
 62
     7
100
AcDbLine
 10
795.4994754537128
 20
238.5491683499937
 30
0.0
 11
791.9994754537221
 21
238.5491602894335
 31
0.0
  0
LINE
  5
170
330
1F
100
AcDbEntity
  8
0
  6
CONTINUOUS
 62
     7
100
AcDbLine
 10
805.499734312087
 20
238.5491813041839
 30
0.0
 11
801.9997343120962
 21
238.5491732436221
 31
0.0
  0
LINE
  5
171
330
1F
100
AcDbEntity
  8
0
  6
CONTINUOUS
 62
     7
100
AcDbLine
 10
860.7241052745743
 20
112.1787936177696
 30
0.0
 11
861.057344236421
 21
114.0493322666791
 31
0.0
  0
LINE
  5
172
330
1F
100
AcDbEntity
  8
0
  6
CONTINUOUS
 62
     7
100
AcDbLine
 10
780.7206508972897
 20
112.1604248775217
 30
0.0
 11
781.0571820826946
 21
114.0493317726057
 31
0.0
  0
LINE
  5
173
330
1F
100
AcDbEntity
  8
0
  6
CONTINUOUS
 62
     7
100
AcDbLine
 10
836.9995533696147
 20
111.5499727979767
 30
0.0
 11
840.4995533696052
 21
111.5499647374947
 31
0.0
  0
LINE
  5
174
330
1F
100
AcDbEntity
  8
0
  6
CONTINUOUS
 62
     7
100
AcDbLine
 10
871.4999998075346
 20
114.5120796969381
 30
0.0
 11
872.4999998075346
 21
114.5120796969381
 31
0.0
  0
LINE
  5
175
330
1F
100
AcDbEntity
  8
0
  6
CONTINUOUS
 62
     7
100
AcDbLine
 10
736.9999487057098
 20
111.5503604168989
 30
0.0
 11
740.4999487057006
 21
111.5503523564661
 31
0.0
  0
LINE
  5
176
330
1F
100
AcDbEntity
  8
0
  6
CONTINUOUS
 62
     7
100
AcDbLine
 10
767.0000433991534
 20
111.5497906000051
 30
0.0
 11
770.5000433991441
 21
111.5497825395
 31
0.0
  0
LINE
  5
177
330
1F
100
AcDbEntity
  8
0
  6
CONTINUOUS
 62
     7
100
AcDbLine
 10
755.4996148599314
 20
238.5484119689893
 30
0.0
 11
751.9996148599407
 21
238.5484039085251
 31
0.0
  0
LINE
  5
178
330
1F
100
AcDbEntity
  8
0
  6
CONTINUOUS
 62
     7
100
AcDbLine
 10
846.9998414879423
 20
111.5501741719774
 30
0.0
 11
850.4998414879328
 21
111.550166111521
 31
0.0
  0
LINE
  5
179
330
1F
100
AcDbEntity
  8
0
  6
CONTINUOUS
 62
     7
100
AcDbLine
 10
826.9999310692142
 20
111.5497465399663
 30
0.0
 11
830.4999310692049
 21
111.5497384794556
 31
0.0
  0
LINE
  5
17A
330
1F
100
AcDbEntity
  8
0
  6
CONTINUOUS
 62
     7
100
AcDbLine
 10
777.0001746646848
 20
111.5495788196629
 30
0.0
 11
780.5001746646756
 21
111.5495707591309
 31
0.0
  0
LINE
  5
17B
330
1F
100
AcDbEntity
  8
0
  6
CONTINUOUS
 62
     7
100
AcDbLine
 10
865.4999855557776
 20
238.5481301114794
 30
0.0
 11
861.9999855557869
 21
238.548122051051
 31
0.0
  0
LINE
  5
17C
330
1F
100
AcDbEntity
  8
0
  6
CONTINUOUS
 62
     7
100
AcDbLine
 10
840.7208729429781
 20
112.1612054433636
 30
0.0
 11
841.0572486694302
 21
114.049332027791
 31
0.0
  0
LINE
  5
17D
330
1F
100
AcDbEntity
  8
0
  6
CONTINUOUS
 62
     7
100
AcDbLine
 10
856.1763553835774
 20
235.381332693873
 30
0.0
 11
855.7244466787797
 21
237.9177123616513
 31
0.0
  0
LINE
  5
17E
330
1F
100
AcDbEntity
  8
0
  6
CONTINUOUS
 62
     7
100
AcDbLine
 10
776.3240094933888
 20
114.7141953121967
 30
0.0
 11
776.7753087529481
 21
112.1812129674944
 31
0.0
  0
LINE
  5
17F
330
1F
100
AcDbEntity
  8
0
  6
CONTINUOUS
 62
     7
100
AcDbLine
 10
771.7753409271866
 20
237.9175678238232
 30
0.0
 11
771.4424908403863
 21
236.0491842203101
 31
0.0
  0
LINE
  5
180
330
1F
100
AcDbEntity
  8
0
  6
CONTINUOUS
 62
     7
100
AcDbLine
 10
851.7748412788197
 20
237.9152813101085
 30
0.0
 11
851.4423862048452
 21
236.0491847170217
 31
0.0
  0
LINE
  5
181
330
1F
100
AcDbEntity
  8
0
  6
CONTINUOUS
 62
     7
100
AcDbLine
 10
760.72482871352
 20
112.183307946955
 30
0.0
 11
761.0572815339257
 21
114.0493320568644
 31
0.0
  0
LINE
  5
182
330
1F
100
AcDbEntity
  8
0
  6
CONTINUOUS
 62
     7
100
AcDbLine
 10
701.7747502843315
 20
237.9148967206319
 30
0.0
 11
701.4409045249292
 21
236.0409867543166
 31
0.0
  0
LINE
  5
183
330
1F
100
AcDbEntity
  8
0
  6
CONTINUOUS
 62
     7
100
AcDbLine
 10
866.1751106959858
 20
235.3884983946166
 30
0.0
 11
865.7244933651535
 21
237.9176238195336
 31
0.0
  0
LINE
  5
184
330
1F
100
AcDbEntity
  8
0
  6
CONTINUOUS
 62
     7
100
AcDbLine
 10
861.7751870952752
 20
237.9174153213034
 30
0.0
 11
861.4408939022546
 21
236.0409868366545
 31
0.0
  0
LINE
  5
185
330
1F
100
AcDbEntity
  8
0
  6
CONTINUOUS
 62
     7
100
AcDbLine
 10
731.7750053785971
 20
237.9164695992863
 30
0.0
 11
731.4423536485962
 21
236.0491845372953
 31
0.0
  0
LINE
  5
186
330
1F
100
AcDbEntity
  8
0
  6
CONTINUOUS
 62
     7
100
AcDbLine
 10
811.7750401667721
 20
237.9156668321593
 30
0.0
 11
811.4425170074917
 21
236.0491843842818
 31
0.0
  0
LINE
  5
187
330
1F
100
AcDbEntity
  8
0
  6
CONTINUOUS
 62
     7
100
AcDbLine
 10
696.1733033593109
 20
235.3983450394877
 30
0.0
 11
695.7222981186021
 21
237.9296498515848
 31
0.0
  0
LINE
  5
188
330
1F
100
AcDbEntity
  8
0
  6
CONTINUOUS
 62
     7
100
AcDbLine
 10
766.1770673942497
 20
235.3770163311078
 30
0.0
 11
765.7248467585351
 21
237.9150015565625
 31
0.0
  0
LINE
  5
189
330
1F
100
AcDbEntity
  8
0
  6
CONTINUOUS
 62
     7
100
AcDbLine
 10
836.1764871465404
 20
235.3801813631804
 30
0.0
 11
835.7244507774875
 21
237.9172590755108
 31
0.0
  0
LINE
  5
18A
330
1F
100
AcDbEntity
  8
0
  6
CONTINUOUS
 62
     7
100
AcDbLine
 10
870.4999998075342
 20
114.0492583560068
 30
0.0
 11
871.4999998075344
 21
114.0492583560068
 31
0.0
  0
LINE
  5
18B
330
1F
100
AcDbEntity
  8
0
  6
CONTINUOUS
 62
     7
100
AcDbLine
 10
860.9405078917932
 20
114.0492583560068
 30
0.0
 11
866.4423437289533
 21
114.0492583560068
 31
0.0
  0
LINE
  5
18C
330
1F
100
AcDbEntity
  8
0
  6
CONTINUOUS
 62
     7
100
AcDbLine
 10
740.7241453911311
 20
112.1790497985989
 30
0.0
 11
741.0573532733282
 21
114.0493319101098
 31
0.0
  0
LINE
  5
18D
330
1F
100
AcDbEntity
  8
0
  6
CONTINUOUS
 62
     7
100
AcDbLine
 10
850.9405427823278
 20
114.0492583560068
 30
0.0
 11
856.4423972813511
 21
114.0492583560068
 31
0.0
  0
LINE
  5
18E
330
1F
100
AcDbEntity
  8
0
  6
CONTINUOUS
 62
     7
100
AcDbLine
 10
716.3226566305586
 20
114.7208404258186
 30
0.0
 11
716.7748725969944
 21
112.182734057282
 31
0.0
  0
LINE
  5
18F
330
1F
100
AcDbEntity
  8
0
  6
CONTINUOUS
 62
     7
100
AcDbLine
 10
700.7246739883263
 20
112.1820573708928
 30
0.0
 11
701.0573310837071
 21
114.0493323176626
 31
0.0
  0
LINE
  5
190
330
1F
100
AcDbEntity
  8
0
  6
CONTINUOUS
 62
     7
100
AcDbLine
 10
746.3231356771232
 20
114.7185353557325
 30
0.0
 11
746.7753438763996
 21
112.1804079316362
 31
0.0
  0
LINE
  5
191
330
1F
100
AcDbEntity
  8
0
  6
CONTINUOUS
 62
     7
100
AcDbLine
 10
706.3251631498143
 20
114.7069305009378
 30
0.0
 11
706.7777754643782
 21
112.166648839767
 31
0.0
  0
LINE
  5
192
330
1F
100
AcDbEntity
  8
0
  6
CONTINUOUS
 62
     7
100
AcDbLine
 10
750.7202975504947
 20
112.1579055898
 30
0.0
 11
751.0572780477055
 21
114.0493314170321
 31
0.0
  0
LINE
  5
193
330
1F
100
AcDbEntity
  8
0
  6
CONTINUOUS
 62
     7
100
AcDbLine
 10
776.176923244064
 20
235.3776353069183
 30
0.0
 11
775.724735020183
 21
237.9154434826562
 31
0.0
  0
LINE
  5
194
330
1F
100
AcDbEntity
  8
0
  6
CONTINUOUS
 62
     7
100
AcDbLine
 10
846.1760243785089
 20
235.3829806070248
 30
0.0
 11
845.7239145428964
 21
237.920485581242
 31
0.0
  0
LINE
  5
195
330
1F
100
AcDbEntity
  8
0
  6
CONTINUOUS
 62
     7
100
AcDbLine
 10
770.7245141381838
 20
112.1817469036649
 30
0.0
 11
771.0572451168093
 21
114.0493322072103
 31
0.0
  0
LINE
  5
196
330
1F
100
AcDbEntity
  8
0
  6
CONTINUOUS
 62
     7
100
AcDbLine
 10
710.7238566262779
 20
112.1773043923148
 30
0.0
 11
711.0573621905196
 21
114.0493321077407
 31
0.0
  0
LINE
  5
197
330
1F
100
AcDbEntity
  8
0
  6
CONTINUOUS
 62
     7
100
AcDbLine
 10
736.176624207497
 20
235.3800752608344
 30
0.0
 11
735.7247831284423
 21
237.9159770420352
 31
0.0
  0
LINE
  5
198
330
1F
100
AcDbEntity
  8
0
  6
CONTINUOUS
 62
     7
100
AcDbLine
 10
756.1762036078788
 20
235.382069118554
 30
0.0
 11
755.7241153660984
 21
237.9193171507946
 31
0.0
  0
LINE
  5
199
330
1F
100
AcDbEntity
  8
0
  6
CONTINUOUS
 62
     7
100
AcDbLine
 10
806.1765876535494
 20
235.3792727800836
 30
0.0
 11
805.7245653672963
 21
237.916203206889
 31
0.0
  0
LINE
  5
19A
330
1F
100
AcDbEntity
  8
0
  6
CONTINUOUS
 62
     7
100
AcDbLine
 10
826.1764159884533
 20
235.3804097441322
 30
0.0
 11
825.7243594608585
 21
237.9175809370846
 31
0.0
  0
LINE
  5
19B
330
1F
100
AcDbEntity
  8
0
  6
CONTINUOUS
 62
     7
100
AcDbLine
 10
856.3278946011274
 20
114.691779445742
 30
0.0
 11
856.7787259472897
 21
112.1615068150686
 31
0.0
  0
LINE
  5
19C
330
1F
100
AcDbEntity
  8
0
  6
CONTINUOUS
 62
     7
100
AcDbLine
 10
756.3236056199044
 20
114.7161087660184
 30
0.0
 11
756.7754045108938
 21
112.1802854097076
 31
0.0
  0
LINE
  5
19D
330
1F
100
AcDbEntity
  8
0
  6
CONTINUOUS
 62
     7
100
AcDbLine
 10
736.3255972646436
 20
114.7045972091374
 30
0.0
 11
736.7780272242559
 21
112.1652401245403
 31
0.0
  0
LINE
  5
19E
330
1F
100
AcDbEntity
  8
0
  6
CONTINUOUS
 62
     7
100
AcDbLine
 10
726.322995798993
 20
114.7189830709863
 30
0.0
 11
726.7753506945605
 21
112.1800576590864
 31
0.0
  0
LINE
  5
19F
330
1F
100
AcDbEntity
  8
0
  6
CONTINUOUS
 62
     7
100
AcDbLine
 10
696.3231144051373
 20
114.7185095053498
 30
0.0
 11
696.7749199679503
 21
112.1827672135613
 31
0.0
  0
LINE
  5
1A0
330
1F
100
AcDbEntity
  8
0
  6
CONTINUOUS
 62
     7
100
AcDbLine
 10
726.1755755893313
 20
235.3860190166458
 30
0.0
 11
725.7236327943143
 21
237.9225291953101
 31
0.0
  0
LINE
  5
1A1
330
1F
100
AcDbEntity
  8
0
  6
CONTINUOUS
 62
     7
100
AcDbLine
 10
796.1767280045227
 20
235.3785010214594
 30
0.0
 11
795.7246137142726
 21
237.9159251654795
 31
0.0
  0
LINE
  5
1A2
330
1F
100
AcDbEntity
  8
0
  6
CONTINUOUS
 62
     7
100
AcDbLine
 10
806.3250689784173
 20
114.7083470264645
 30
0.0
 11
806.7750521201606
 21
112.1828183171746
 31
0.0
  0
LINE
  5
1A3
330
1F
100
AcDbEntity
  8
0
  6
CONTINUOUS
 62
     7
100
AcDbLine
 10
846.3239258097192
 20
114.7140831494267
 30
0.0
 11
846.7750276921784
 21
112.1822983777284
 31
0.0
  0
LINE
  5
1A4
330
1F
100
AcDbEntity
  8
0
  6
CONTINUOUS
 62
     7
100
AcDbLine
 10
706.1760350228217
 20
235.3832499334253
 30
0.0
 11
705.7243280386883
 21
237.9184944015873
 31
0.0
  0
LINE
  5
1A5
330
1F
100
AcDbEntity
  8
0
  6
CONTINUOUS
 62
     7
100
AcDbLine
 10
741.7754249780384
 20
237.9186651539655
 30
0.0
 11
741.4423836361044
 21
236.0491844319344
 31
0.0
  0
LINE
  5
1A6
330
1F
100
AcDbEntity
  8
0
  6
CONTINUOUS
 62
     7
100
AcDbLine
 10
796.3272337149256
 20
114.6963156079925
 30
0.0
 11
796.7779130171548
 21
112.1668654660222
 31
0.0
  0
LINE
  5
1A7
330
1F
100
AcDbEntity
  8
0
  6
CONTINUOUS
 62
     7
100
AcDbLine
 10
730.7248573590866
 20
112.1828909521996
 30
0.0
 11
731.0573765538716
 21
114.0493318245017
 31
0.0
  0
LINE
  5
1A8
330
1F
100
AcDbEntity
  8
0
  6
CONTINUOUS
 62
     7
100
AcDbLine
 10
716.1759166970061
 20
235.3840587694402
 30
0.0
 11
715.7247560028185
 21
237.9162179117482
 31
0.0
  0
LINE
  5
1A9
330
1F
100
AcDbEntity
  8
0
  6
CONTINUOUS
 62
     7
100
AcDbLine
 10
746.1767703414098
 20
235.3790973980383
 30
0.0
 11
745.7247803601932
 21
237.9158087129464
 31
0.0
  0
LINE
  5
1AA
330
1F
100
AcDbEntity
  8
0
  6
CONTINUOUS
 62
     7
100
AcDbLine
 10
786.1765981499227
 20
235.3793127894488
 30
0.0
 11
785.724258824099
 21
237.9179816822192
 31
0.0
  0
LINE
  5
1AB
330
1F
100
AcDbEntity
  8
0
  6
CONTINUOUS
 62
     7
100
AcDbLine
 10
816.1761129415049
 20
235.3819900674092
 30
0.0
 11
815.7240766087392
 21
237.9190248349355
 31
0.0
  0
LINE
  5
1AC
330
1F
100
AcDbEntity
  8
0
  6
CONTINUOUS
 62
     7
100
AcDbLine
 10
866.3235823909257
 20
114.7156808326099
 30
0.0
 11
866.7750469755364
 21
112.1818135633335
 31
0.0
  0
LINE
  5
1AD
330
1F
100
AcDbEntity
  8
0
  6
CONTINUOUS
 62
     7
100
AcDbLine
 10
836.324513970345
 20
114.7109957642318
 30
0.0
 11
836.7748404509226
 21
112.1835695102484
 31
0.0
  0
LINE
  5
1AE
330
1F
100
AcDbEntity
  8
0
  6
CONTINUOUS
 62
     7
100
AcDbLine
 10
721.7759192206523
 20
237.9216649510596
 30
0.0
 11
721.442337645989
 21
236.049184879295
 31
0.0
  0
LINE
  5
1AF
330
1F
100
AcDbEntity
  8
0
  6
CONTINUOUS
 62
     7
100
AcDbLine
 10
816.3250989509002
 20
114.7080741975356
 30
0.0
 11
816.7750033241297
 21
112.1830039895079
 31
0.0
  0
LINE
  5
1B0
330
1F
100
AcDbEntity
  8
0
  6
CONTINUOUS
 62
     7
100
AcDbLine
 10
766.3262531075114
 20
114.7015146662815
 30
0.0
 11
766.7779600270062
 21
112.1662295657086
 31
0.0
  0
LINE
  5
1B1
330
1F
100
AcDbEntity
  8
0
  6
CONTINUOUS
 62
     7
100
AcDbLine
 10
761.775346420604
 20
237.9177965521258
 30
0.0
 11
761.4424580806682
 21
236.049184237805
 31
0.0
  0
LINE
  5
1B2
330
1F
100
AcDbEntity
  8
0
  6
CONTINUOUS
 62
     7
100
AcDbLine
 10
791.7751709383178
 20
237.9163684689441
 30
0.0
 11
791.4425283248603
 21
236.0491842386772
 31
0.0
  0
LINE
  5
1B3
330
1F
100
AcDbEntity
  8
0
  6
CONTINUOUS
 62
     7
100
AcDbLine
 10
786.3244748041224
 20
114.711684947946
 30
0.0
 11
786.7752354200575
 21
112.1817488210462
 31
0.0
  0
LINE
  5
1B4
330
1F
100
AcDbEntity
  8
0
  6
CONTINUOUS
 62
     7
100
AcDbLine
 10
711.7751301154842
 20
237.9171848111407
 30
0.0
 11
711.4408806744785
 21
236.0409868499326
 31
0.0
  0
LINE
  5
1B5
330
1F
100
AcDbEntity
  8
0
  6
CONTINUOUS
 62
     7
100
AcDbLine
 10
751.7752062109219
 20
237.9172274606093
 30
0.0
 11
751.4424333939075
 21
236.0492553562467
 31
0.0
  0
LINE
  5
1B6
330
1F
100
AcDbEntity
  8
0
  6
CONTINUOUS
 62
     7
100
AcDbLine
 10
720.7203698318548
 20
112.1578636768235
 30
0.0
 11
721.0573456219448
 21
114.0493312982537
 31
0.0
  0
LINE
  5
1B7
330
1F
100
AcDbEntity
  8
0
  6
CONTINUOUS
 62
     7
100
AcDbLine
 10
826.327941381408
 20
114.6920769380719
 30
0.0
 11
826.7781637266507
 21
112.1652408022227
 31
0.0
  0
LINE
  5
1B8
330
1F
100
AcDbEntity
  8
0
  6
CONTINUOUS
 62
     7
100
AcDbLine
 10
781.7752258520028
 20
237.9167684086861
 30
0.0
 11
781.4425151682682
 21
236.0491842150599
 31
0.0
  0
LINE
  5
1B9
330
1F
100
AcDbEntity
  8
0
  6
CONTINUOUS
 62
     7
100
AcDbLine
 10
801.7751070964298
 20
237.9159895855645
 30
0.0
 11
801.4425289702128
 21
236.0491842998849
 31
0.0
  0
LINE
  5
1BA
330
1F
100
AcDbEntity
  8
0
  6
CONTINUOUS
 62
     7
100
AcDbLine
 10
821.7749135570476
 20
237.9150773262859
 30
0.0
 11
821.442493645513
 21
236.0491844403977
 31
0.0
  0
LINE
  5
1BB
330
1F
100
AcDbEntity
  8
0
  6
CONTINUOUS
 62
     7
100
AcDbLine
 10
831.7749669831817
 20
237.9155541541267
 30
0.0
 11
831.442461288468
 21
236.049184538267
 31
0.0
  0
LINE
  5
1BC
330
1F
100
AcDbEntity
  8
0
  6
CONTINUOUS
 62
     7
100
AcDbLine
 10
841.7749082317681
 20
237.915436809319
 30
0.0
 11
841.4424237957505
 21
236.049184661835
 31
0.0
  0
LINE
  5
1BD
330
1F
100
AcDbEntity
  8
0
  6
CONTINUOUS
 62
     7
100
AcDbLine
 10
790.9406498513183
 20
114.0492583560068
 30
0.0
 11
796.4425437845047
 21
114.0492583560068
 31
0.0
  0
LINE
  5
1BE
330
1F
100
AcDbEntity
  8
0
  6
CONTINUOUS
 62
     7
100
AcDbLine
 10
820.9406290020954
 20
114.0492583560068
 30
0.0
 11
826.4424981161767
 21
114.0492583560068
 31
0.0
  0
LINE
  5
1BF
330
1F
100
AcDbEntity
  8
0
  6
CONTINUOUS
 62
     7
100
AcDbLine
 10
840.940552698854
 20
114.0492583560068
 30
0.0
 11
846.442404651868
 21
114.0492583560068
 31
0.0
  0
LINE
  5
1C0
330
1F
100
AcDbEntity
  8
0
  6
CONTINUOUS
 62
     7
100
AcDbLine
 10
810.9406213936292
 20
114.0492583560068
 30
0.0
 11
816.4425066205408
 21
114.0492583560068
 31
0.0
  0
LINE
  5
1C1
330
1F
100
AcDbEntity
  8
0
  6
CONTINUOUS
 62
     7
100
AcDbLine
 10
800.9406191189688
 20
114.0492583560068
 30
0.0
 11
806.4425245307177
 21
114.0492583560068
 31
0.0
  0
LINE
  5
1C2
330
1F
100
AcDbEntity
  8
0
  6
CONTINUOUS
 62
     7
100
AcDbLine
 10
830.9405767057407
 20
114.0492583560068
 30
0.0
 11
836.4424429210226
 21
114.0492583560068
 31
0.0
  0
ARC
  5
1C3
330
1F
100
AcDbEntity
  8
0
  6
CONTINUOUS
 62
     7
100
AcDbCircle
 10
849.5787013555549
 20
112.2336048187982
 30
0.0
 40
1.146990675673494
100
AcDbArc
 50
323.4264812979145
 51
357.3796735904148
  0
ARC
  5
1C4
330
1F
100
AcDbEntity
  8
0
  6
CONTINUOUS
 62
     7
100
AcDbCircle
 10
774.8192655940474
 20
237.9509008010048
 30
0.0
 40
0.9062356808629656
100
AcDbArc
 50
357.7366296656038
 51
41.28513397121583
  0
ARC
  5
1C5
330
1F
100
AcDbEntity
  8
0
  6
CONTINUOUS
 62
     7
100
AcDbCircle
 10
734.8295187504359
 20
237.9535553869228
 30
0.0
 40
0.8961162788571644
100
AcDbArc
 50
357.5781226436636
 51
41.56588684757849
  0
LINE
  5
1C6
330
1F
100
AcDbEntity
  8
0
  6
CONTINUOUS
 62
     7
100
AcDbLine
 10
790.5721741489875
 20
111.6154294329099
 30
0.0
 11
790.7247326863076
 21
112.1832352552383
 31
0.0
  0
ARC
  5
1C7
330
1F
100
AcDbEntity
  8
0
  6
CONTINUOUS
 62
     7
100
AcDbCircle
 10
844.7105781647633
 20
237.912472519281
 30
0.0
 40
1.013430478353667
100
AcDbArc
 50
0.432352227420381
 51
38.86929465436782
  0
LINE
  5
1C8
330
1F
100
AcDbEntity
  8
0
  6
CONTINUOUS
 62
     7
100
AcDbLine
 10
790.4996629022509
 20
111.5493996823653
 30
0.0
 11
790.5721741489875
 21
111.6154294329099
 31
0.0
  0
ARC
  5
1C9
330
1F
100
AcDbEntity
  8
0
  6
CONTINUOUS
 62
     7
100
AcDbCircle
 10
769.8245726261313
 20
112.145625608646
 30
0.0
 40
0.9007162423179714
100
AcDbArc
 50
318.583993185291
 51
2.312947615704843
  0
ARC
  5
1CA
330
1F
100
AcDbEntity
  8
0
  6
CONTINUOUS
 62
     7
100
AcDbCircle
 10
713.9538091027598
 20
237.6415914910426
 30
0.0
 40
1.792120593100154
100
AcDbArc
 50
8.80535711857317
 51
30.38571538527527
  0
ARC
  5
1CB
330
1F
100
AcDbEntity
  8
0
  6
CONTINUOUS
 62
     7
100
AcDbCircle
 10
694.558641950093
 20
237.860852382041
 30
0.0
 40
1.165696108650406
100
AcDbArc
 50
3.38019729165012
 51
36.13967845823164
  0
ARC
  5
1CC
330
1F
100
AcDbEntity
  8
0
  6
CONTINUOUS
 62
     7
100
AcDbCircle
 10
744.8295890629959
 20
237.9535392824107
 30
0.0
 40
0.8960355291298132
100
AcDbArc
 50
357.5722853523458
 51
41.58230073138418
  0
ARC
  5
1CD
330
1F
100
AcDbEntity
  8
0
  6
CONTINUOUS
 62
     7
100
AcDbCircle
 10
728.5767370609032
 20
119.5158817746307
 30
0.0
 40
28.26038655390716
100
AcDbArc
 50
182.4407276933742
 51
190.7356194945704
  0
ARC
  5
1CE
330
1F
100
AcDbEntity
  8
0
  6
CONTINUOUS
 62
     7
100
AcDbCircle
 10
311.4373446765733
 20
195.5096175248474
 30
0.0
 40
496.3418963713358
100
AcDbArc
 50
0.5854586677483553
 51
4.608835968697235
  0
ARC
  5
1CF
330
1F
100
AcDbEntity
  8
0
  6
CONTINUOUS
 62
     7
100
AcDbCircle
 10
318.6133416559837
 20
195.3166394104824
 30
0.0
 40
499.1720834677595
100
AcDbArc
 50
0.5771828203580753
 51
4.605109127580193
  0
ARC
  5
1D0
330
1F
100
AcDbEntity
  8
0
  6
CONTINUOUS
 62
     7
100
AcDbCircle
 10
4438.528011138494
 20
274.7827451756988
 30
0.0
 40
3651.529862699569
100
AcDbArc
 50
181.1621528544293
 51
182.4612676110899
  0
ARC
  5
1D1
330
1F
100
AcDbEntity
  8
0
  6
CONTINUOUS
 62
     7
100
AcDbCircle
 10
864.1514262192059
 20
237.7127112774975
 30
0.0
 40
1.586359641577781
100
AcDbArc
 50
7.419900358331971
 51
31.777794958195
  0
ARC
  5
1D2
330
1F
100
AcDbEntity
  8
0
  6
CONTINUOUS
 62
     7
100
AcDbCircle
 10
830.0410706991174
 20
112.0680346320498
 30
0.0
 40
0.6922309882045741
100
AcDbArc
 50
311.5192586648811
 51
9.30278651146699
  0
ARC
  5
1D3
330
1F
100
AcDbEntity
  8
0
  6
CONTINUOUS
 62
     7
100
AcDbCircle
 10
754.836414794747
 20
237.9571178941941
 30
0.0
 40
0.888517315378713
100
AcDbArc
 50
357.5581101208382
 51
41.71946879892067
  0
ARC
  5
1D4
330
1F
100
AcDbEntity
  8
0
  6
CONTINUOUS
 62
     7
100
AcDbCircle
 10
799.8330241729941
 20
112.142746936768
 30
0.0
 40
0.8923262062594144
100
AcDbArc
 50
318.3156204714237
 51
2.515244331262011
  0
ARC
  5
1D5
330
1F
100
AcDbEntity
  8
0
  6
CONTINUOUS
 62
     7
100
AcDbCircle
 10
859.3033567719841
 20
112.3312358125926
 30
0.0
 40
1.428923871207135
100
AcDbArc
 50
326.872700850416
 51
353.8875292106808
  0
ARC
  5
1D6
330
1F
100
AcDbEntity
  8
0
  6
CONTINUOUS
 62
     7
100
AcDbCircle
 10
784.8271362512867
 20
237.9543673152586
 30
0.0
 40
0.897931202832212
100
AcDbArc
 50
357.6569222032112
 51
41.47329138669858
  0
LINE
  5
1D7
330
1F
100
AcDbEntity
  8
0
  6
CONTINUOUS
 62
     1
100
AcDbLine
 10
990.2132985237891
 20
109.5504286399831
 30
0.0
 11
990.2132985237891
 21
240.5489981977427
 31
0.0
  0
ARC
  5
1D8
330
1F
100
AcDbEntity
  8
0
  6
CONTINUOUS
 62
     7
100
AcDbCircle
 10
709.1199903092775
 20
112.3969026950865
 30
0.0
 40
1.618842296359129
100
AcDbArc
 50
328.4725591369993
 51
352.2143416378099
  0
ARC
  5
1D9
330
1F
100
AcDbEntity
  8
0
  6
CONTINUOUS
 62
     7
100
AcDbCircle
 10
699.4054337649899
 20
112.295330977211
 30
0.0
 40
1.324124854404282
100
AcDbArc
 50
325.7586858285466
 51
355.1070508348002
  0
LINE
  5
1DA
330
1F
100
AcDbEntity
  8
0
  6
CONTINUOUS
 62
     1
100
AcDbLine
 10
444.2868309101127
 20
175.0485602925259
 30
0.0
 11
575.2857556527102
 21
175.0485602925259
 31
0.0
  0
ARC
  5
1DB
330
1F
100
AcDbEntity
  8
0
  6
CONTINUOUS
 62
     7
100
AcDbCircle
 10
168.2520564783506
 20
193.6576447052486
 30
0.0
 40
529.5683255420782
100
AcDbArc
 50
0.6075128922494173
 51
4.521292500879326
  0
ARC
  5
1DC
330
1F
100
AcDbEntity
  8
0
  6
CONTINUOUS
 62
     7
100
AcDbCircle
 10
4251.921874905938
 20
270.7569250736399
 30
0.0
 40
3554.850071311087
100
AcDbArc
 50
181.1522359066946
 51
182.4577992489982
  0
LINE
  5
1DD
330
1F
100
AcDbEntity
  8
0
  6
CONTINUOUS
 62
     1
100
AcDbLine
 10
509.7862932814114
 20
109.5490979212271
 30
0.0
 11
509.7862932814114
 21
240.5480226638247
 31
0.0
  0
ARC
  5
1DE
330
1F
100
AcDbEntity
  8
0
  6
CONTINUOUS
 62
     7
100
AcDbCircle
 10
759.8289297681379
 20
112.1452979594688
 30
0.0
 40
0.8967633095578985
100
AcDbArc
 50
318.4074869111687
 51
2.446192744564712
  0
ARC
  5
1DF
330
1F
100
AcDbEntity
  8
0
  6
CONTINUOUS
 62
     7
100
AcDbCircle
 10
337.8154249646158
 20
195.3003083529151
 30
0.0
 40
499.9689179776228
100
AcDbArc
 50
0.5852038964894177
 51
4.599479723438321
  0
ARC
  5
1E0
330
1F
100
AcDbEntity
  8
0
  6
CONTINUOUS
 62
     7
100
AcDbCircle
 10
870.9961197703934
 20
118.6008945210304
 30
0.0
 40
20.6335397309452
100
AcDbArc
 50
182.122497599831
 51
192.4480838447541
  0
ARC
  5
1E1
330
1F
100
AcDbEntity
  8
0
  6
CONTINUOUS
 62
     7
100
AcDbCircle
 10
4413.020607466035
 20
272.4742565083105
 30
0.0
 40
3575.988610484692
100
AcDbArc
 50
181.1547694516488
 51
182.4786165780244
  0
LINE
  5
1E2
330
1F
100
AcDbEntity
  8
0
  6
CONTINUOUS
 62
     1
100
AcDbLine
 10
924.7140137449094
 20
175.0497134188629
 30
0.0
 11
1055.712583302669
 21
175.0497134188629
 31
0.0
  0
ARC
  5
1E3
330
1F
100
AcDbEntity
  8
0
  6
CONTINUOUS
 62
     7
100
AcDbCircle
 10
839.8450767800261
 20
112.1326606540061
 30
0.0
 40
0.8762842788879242
100
AcDbArc
 50
318.3205749269628
 51
1.873799779812828
  0
ARC
  5
1E4
330
1F
100
AcDbEntity
  8
0
  6
CONTINUOUS
 62
     7
100
AcDbCircle
 10
794.830374225121
 20
237.9545716018048
 30
0.0
 40
0.8951210738081179
100
AcDbArc
 50
357.5119346357521
 51
41.62588992504908
  0
ARC
  5
1E5
330
1F
100
AcDbEntity
  8
0
  6
CONTINUOUS
 62
     7
100
AcDbCircle
 10
764.8259097064702
 20
237.9523662763816
 30
0.0
 40
0.8997760299511948
100
AcDbArc
 50
357.6017953752883
 51
41.50416549629477
  0
ARC
  5
1E6
330
1F
100
AcDbEntity
  8
0
  6
CONTINUOUS
 62
     7
100
AcDbCircle
 10
739.8346389276081
 20
112.1420163340865
 30
0.0
 40
0.890338909403016
100
AcDbArc
 50
318.3531134486971
 51
2.4019861205241
  0
ARC
  5
1E7
330
1F
100
AcDbEntity
  8
0
  6
CONTINUOUS
 62
     7
100
AcDbCircle
 10
854.4425449633004
 20
237.8166021018299
 30
0.0
 40
1.285909736433254
100
AcDbArc
 50
4.49773787527613
 51
34.67938171880485
  0
ARC
  5
1E8
330
1F
100
AcDbEntity
  8
0
  6
CONTINUOUS
 62
     7
100
AcDbCircle
 10
779.8560889691881
 20
112.1273177743932
 30
0.0
 40
0.8652386935267938
100
AcDbArc
 50
318.1077888645333
 51
2.205881642606698
  0
ARC
  5
1E9
330
1F
100
AcDbEntity
  8
0
  6
CONTINUOUS
 62
     7
100
AcDbCircle
 10
860.9645733895645
 20
118.5967819429331
 30
0.0
 40
20.60144859026498
100
AcDbArc
 50
182.1464912697592
 51
192.4624500714697
  0
ARC
  5
1EA
330
1F
100
AcDbEntity
  8
0
  6
CONTINUOUS
 62
     7
100
AcDbCircle
 10
4430.00399011106
 20
273.1929608719611
 30
0.0
 40
3602.980744826433
100
AcDbArc
 50
181.1580232431857
 51
182.4700381373684
  0
ARC
  5
1EB
330
1F
100
AcDbEntity
  8
0
  6
CONTINUOUS
 62
     7
100
AcDbCircle
 10
851.8988956274084
 20
118.7163359812687
 30
0.0
 40
21.54299337189559
100
AcDbArc
 50
182.1304106411046
 51
192.1918765480316
  0
ARC
  5
1EC
330
1F
100
AcDbEntity
  8
0
  6
CONTINUOUS
 62
     7
100
AcDbCircle
 10
328.2598825454432
 20
195.3118827636641
 30
0.0
 40
499.5249215450089
100
AcDbArc
 50
0.5809733443624054
 51
4.602259311180604
  0
ARC
  5
1ED
330
1F
100
AcDbEntity
  8
0
  6
CONTINUOUS
 62
     7
100
AcDbCircle
 10
4417.718252982336
 20
273.1247014088617
 30
0.0
 40
3600.693765848961
100
AcDbArc
 50
181.1581792707462
 51
182.4707133594056
  0
ARC
  5
1EE
330
1F
100
AcDbEntity
  8
0
  6
CONTINUOUS
 62
     7
100
AcDbCircle
 10
4421.119904715189
 20
273.6540686751551
 30
0.0
 40
3614.105372771541
100
AcDbArc
 50
181.1585301237873
 51
182.4701191221762
  0
ARC
  5
1EF
330
1F
100
AcDbEntity
  8
0
  6
CONTINUOUS
 62
     7
100
AcDbCircle
 10
831.800381829606
 20
118.7033400054655
 30
0.0
 40
21.44309884950122
100
AcDbArc
 50
182.168248126307
 51
192.2250659556027
  0
ARC
  5
1F0
330
1F
100
AcDbEntity
  8
0
  6
CONTINUOUS
 62
     7
100
AcDbCircle
 10
724.8437528716848
 20
237.9604162064797
 30
0.0
 40
0.8807644702015532
100
AcDbArc
 50
357.5142872500005
 51
41.85104128758974
  0
ARC
  5
1F1
330
1F
100
AcDbEntity
  8
0
  6
CONTINUOUS
 62
     7
100
AcDbCircle
 10
841.8386203886324
 20
118.7086526220893
 30
0.0
 40
21.48197935485371
100
AcDbArc
 50
182.1482306669043
 51
192.2111741985092
  0
ARC
  5
1F2
330
1F
100
AcDbEntity
  8
0
  6
CONTINUOUS
 62
     7
100
AcDbCircle
 10
4409.614601897511
 20
273.6127395987194
 30
0.0
 40
3612.599329347303
100
AcDbArc
 50
181.1588323980425
 51
182.4706779518049
  0
ARC
  5
1F3
330
1F
100
AcDbEntity
  8
0
  6
CONTINUOUS
 62
     7
100
AcDbCircle
 10
749.8693602278433
 20
112.1230147865007
 30
0.0
 40
0.8517191667744733
100
AcDbArc
 50
317.7365952804391
 51
2.367988267807903
  0
ARC
  5
1F4
330
1F
100
AcDbEntity
  8
0
  6
CONTINUOUS
 62
     7
100
AcDbCircle
 10
821.7315145829596
 20
118.6947799564609
 30
0.0
 40
21.37353819554859
100
AcDbArc
 50
182.1835262742896
 51
192.248383151561
  0
ARC
  5
1F5
330
1F
100
AcDbEntity
  8
0
  6
CONTINUOUS
 62
     7
100
AcDbCircle
 10
295.396191735989
 20
195.725453751795
 30
0.0
 40
492.3784366544098
100
AcDbArc
 50
0.5814819582172391
 51
4.620937288030119
  0
ARC
  5
1F6
330
1F
100
AcDbEntity
  8
0
  6
CONTINUOUS
 62
     7
100
AcDbCircle
 10
812.6701060394408
 20
118.8132935130984
 30
0.0
 40
22.31923357348331
100
AcDbArc
 50
182.1617437218526
 51
191.9896268857291
  0
ARC
  5
1F7
330
1F
100
AcDbEntity
  8
0
  6
CONTINUOUS
 62
     7
100
AcDbCircle
 10
729.8309231256386
 20
112.1446738871124
 30
0.0
 40
0.894797470925822
100
AcDbArc
 50
318.3868160448144
 51
2.461426645819643
  0
ARC
  5
1F8
330
1F
100
AcDbEntity
  8
0
  6
CONTINUOUS
 62
     7
100
AcDbCircle
 10
704.2653731558355
 20
237.7534787378461
 30
0.0
 40
1.468270536762472
100
AcDbArc
 50
6.444943240482814
 51
32.76843850869238
  0
ARC
  5
1F9
330
1F
100
AcDbEntity
  8
0
  6
CONTINUOUS
 62
     7
100
AcDbCircle
 10
344.4971865175373
 20
195.102850430598
 30
0.0
 40
503.292134611244
100
AcDbArc
 50
0.5843016381812163
 51
4.591842441709048
  0
ARC
  5
1FA
330
1F
100
AcDbEntity
  8
0
  6
CONTINUOUS
 62
     7
100
AcDbCircle
 10
4413.68260677453
 20
272.1012702694894
 30
0.0
 40
3566.643559812524
100
AcDbArc
 50
181.15455715495
 51
182.4789318861266
  0
ARC
  5
1FB
330
1F
100
AcDbEntity
  8
0
  6
CONTINUOUS
 62
     7
100
AcDbCircle
 10
301.6771934585808
 20
195.5139604997579
 30
0.0
 40
496.102528988589
100
AcDbArc
 50
0.5817822748055049
 51
4.610499587238451
  0
ARC
  5
1FC
330
1F
100
AcDbEntity
  8
0
  6
CONTINUOUS
 62
     7
100
AcDbCircle
 10
284.9289333572958
 20
195.7169225751497
 30
0.0
 40
492.8450841235847
100
AcDbArc
 50
0.5860004129429512
 51
4.617314880311653
  0
ARC
  5
1FD
330
1F
100
AcDbEntity
  8
0
  6
CONTINUOUS
 62
     7
100
AcDbCircle
 10
834.9372957048447
 20
237.9926675135903
 30
0.0
 40
0.7908558502926195
100
AcDbArc
 50
354.5026212495543
 51
44.67081429004879
  0
ARC
  5
1FE
330
1F
100
AcDbEntity
  8
0
  6
CONTINUOUS
 62
     7
100
AcDbCircle
 10
691.2947150447562
 20
231.4844501819221
 30
0.0
 40
20.84663961594937
100
AcDbArc
 50
1.865382845912684
 51
12.26398804068606
  0
ARC
  5
1FF
330
1F
100
AcDbEntity
  8
0
  6
CONTINUOUS
 62
     7
100
AcDbCircle
 10
273.0685415370426
 20
196.1394932992319
 30
0.0
 40
484.6977288789697
100
AcDbArc
 50
0.5701898799019887
 51
4.645317957844668
  0
ARC
  5
200
330
1F
100
AcDbEntity
  8
0
  6
CONTINUOUS
 62
     7
100
AcDbCircle
 10
880.1994759729417
 20
118.4930891804897
 30
0.0
 40
19.83095485138116
100
AcDbArc
 50
182.0852731362871
 51
192.6599158885209
  0
ARC
  5
201
330
1F
100
AcDbEntity
  8
0
  6
CONTINUOUS
 62
     7
100
AcDbCircle
 10
332.8247124428343
 20
193.3942795227573
 30
0.0
 40
535.0006527561967
100
AcDbArc
 50
0.6144490526434083
 51
4.502461800595995
  0
ARC
  5
202
330
1F
100
AcDbEntity
  8
0
  6
CONTINUOUS
 62
     7
100
AcDbCircle
 10
4517.297141455711
 20
279.0944855746036
 30
0.0
 40
3790.362294051707
100
AcDbArc
 50
181.177501445997
 51
182.4334125435583
  0
LINE
  5
203
330
1F
100
AcDbEntity
  8
0
  6
CONTINUOUS
 62
     7
100
AcDbLine
 10
861.6653654205925
 20
235.9133282550388
 30
0.0
 11
861.5853055514303
 21
236.0410610839144
 31
0.0
  0
LINE
  5
204
330
1F
100
AcDbEntity
  8
0
  6
CONTINUOUS
 62
     7
100
AcDbLine
 10
711.6656192692604
 20
235.9126150787331
 30
0.0
 11
711.5853206608616
 21
236.0410610839144
 31
0.0
  0
ARC
  5
205
330
1F
100
AcDbEntity
  8
0
  6
CONTINUOUS
 62
     7
100
AcDbCircle
 10
699.856918977916
 20
231.2946079391021
 30
0.0
 40
22.29081222597274
100
AcDbArc
 50
2.195279592271747
 51
11.97797709732892
  0
ARC
  5
206
330
1F
100
AcDbEntity
  8
0
  6
CONTINUOUS
 62
     7
100
AcDbCircle
 10
1221.232552655302
 20
154.0909621292881
 30
0.0
 40
486.5026618455739
100
AcDbArc
 50
180.5685491971534
 51
184.6451524690582
  0
ARC
  5
207
330
1F
100
AcDbEntity
  8
0
  6
CONTINUOUS
 62
     7
100
AcDbCircle
 10
279.1091303124034
 20
195.9184739417032
 30
0.0
 40
488.6623547407887
100
AcDbArc
 50
0.5714696304922313
 51
4.633124779893478
  0
ARC
  5
208
330
1F
100
AcDbEntity
  8
0
  6
CONTINUOUS
 62
     7
100
AcDbCircle
 10
4448.871146439674
 20
275.7350180441913
 30
0.0
 40
3681.886754336401
100
AcDbArc
 50
181.1663032800061
 51
182.4553510689042
  0
ARC
  5
209
330
1F
100
AcDbEntity
  8
0
  6
CONTINUOUS
 62
     7
100
AcDbCircle
 10
784.0866382647554
 20
118.9878351378092
 30
0.0
 40
23.74380533565339
100
AcDbArc
 50
182.2869365696366
 51
191.6591868681609
  0
ARC
  5
20A
330
1F
100
AcDbEntity
  8
0
  6
CONTINUOUS
 62
     7
100
AcDbCircle
 10
1206.78769484904
 20
154.3749321855452
 30
0.0
 40
492.0642040292215
100
AcDbArc
 50
180.5712348468601
 51
184.6238122959451
  0
ARC
  5
20B
330
1F
100
AcDbEntity
  8
0
  6
CONTINUOUS
 62
     7
100
AcDbCircle
 10
-2978.940041484729
 20
73.05399071594404
 30
0.0
 40
3724.475081930743
100
AcDbArc
 50
1.169829944208413
 51
2.446149032095865
  0
ARC
  5
20C
330
1F
100
AcDbEntity
  8
0
  6
CONTINUOUS
 62
     7
100
AcDbCircle
 10
718.0856271054861
 20
231.0704491135532
 30
0.0
 40
24.07416373271885
100
AcDbArc
 50
2.251021494493345
 51
11.57441592359626
  0
ARC
  5
20D
330
1F
100
AcDbEntity
  8
0
  6
CONTINUOUS
 62
     7
100
AcDbCircle
 10
737.8383181023825
 20
119.4354632158074
 30
0.0
 40
27.5188112194645
100
AcDbArc
 50
182.3688829306847
 51
190.8779191951223
  0
ARC
  5
20E
330
1F
100
AcDbEntity
  8
0
  6
CONTINUOUS
 62
     7
100
AcDbCircle
 10
775.1241404864794
 20
119.1138858866388
 30
0.0
 40
24.78856746396868
100
AcDbArc
 50
182.2674740847133
 51
191.4151417483531
  0
ARC
  5
20F
330
1F
100
AcDbEntity
  8
0
  6
CONTINUOUS
 62
     7
100
AcDbCircle
 10
1216.5406624348
 20
154.358264426752
 30
0.0
 40
491.8163700678346
100
AcDbArc
 50
180.5736474803361
 51
184.6245050610487
  0
ARC
  5
210
330
1F
100
AcDbEntity
  8
0
  6
CONTINUOUS
 62
     7
100
AcDbCircle
 10
1380.182423804907
 20
155.6340197496582
 30
0.0
 40
515.4846013442747
100
AcDbArc
 50
180.6007889133657
 51
184.553766463674
  0
ARC
  5
211
330
1F
100
AcDbEntity
  8
0
  6
CONTINUOUS
 62
     7
100
AcDbCircle
 10
262.9877846941322
 20
196.1328517986796
 30
0.0
 40
484.7790712072267
100
AcDbArc
 50
0.5673669667585841
 51
4.64498578606981
  0
ARC
  5
212
330
1F
100
AcDbEntity
  8
0
  6
CONTINUOUS
 62
     7
100
AcDbCircle
 10
-2923.299388195938
 20
75.38677651844552
 30
0.0
 40
3648.799754886336
100
AcDbArc
 50
1.16282065262968
 51
2.462329887353291
  0
ARC
  5
213
330
1F
100
AcDbEntity
  8
0
  6
CONTINUOUS
 62
     7
100
AcDbCircle
 10
4203.827376615965
 20
268.6713559695639
 30
0.0
 40
3486.725728766042
100
AcDbArc
 50
181.1439337754565
 51
182.4733389778135
  0
ARC
  5
214
330
1F
100
AcDbEntity
  8
0
  6
CONTINUOUS
 62
     7
100
AcDbCircle
 10
178.2109755786429
 20
193.1730348666202
 30
0.0
 40
539.6177198467951
100
AcDbArc
 50
0.6253010227258073
 51
4.487243797901783
  0
ARC
  5
215
330
1F
100
AcDbEntity
  8
0
  6
CONTINUOUS
 62
     7
100
AcDbCircle
 10
-2835.138543299266
 20
74.86401749187696
 30
0.0
 40
3700.632201910062
100
AcDbArc
 50
1.166932240230524
 51
2.426103125674707
  0
ARC
  5
216
330
1F
100
AcDbEntity
  8
0
  6
CONTINUOUS
 62
     7
100
AcDbCircle
 10
833.6786308414783
 20
230.4315357923395
 30
0.0
 40
28.51854416000042
100
AcDbArc
 50
2.177018061006818
 51
11.08228311046136
  0
ARC
  5
217
330
1F
100
AcDbEntity
  8
0
  6
CONTINUOUS
 62
     7
100
AcDbCircle
 10
-2930.019516643997
 20
75.4839872030551
 30
0.0
 40
3645.518298454218
100
AcDbArc
 50
1.162888052819033
 51
2.463247597764642
  0
ARC
  5
218
330
1F
100
AcDbEntity
  8
0
  6
CONTINUOUS
 62
     7
100
AcDbCircle
 10
709.1191994001508
 20
231.1977676395962
 30
0.0
 40
23.03320137590797
100
AcDbArc
 50
2.265431137527745
 51
11.82668325774747
  0
ARC
  5
219
330
1F
100
AcDbEntity
  8
0
  6
CONTINUOUS
 62
     7
100
AcDbCircle
 10
256.1074773923194
 20
196.3385529118707
 30
0.0
 40
481.6530120047602
100
AcDbArc
 50
0.5745558499239678
 51
4.650630922251083
  0
ARC
  5
21A
330
1F
100
AcDbEntity
  8
0
  6
CONTINUOUS
 62
     7
100
AcDbCircle
 10
1229.308427335279
 20
153.939040210585
 30
0.0
 40
484.5739049510195
100
AcDbArc
 50
180.5730329706261
 51
184.6439730565703
  0
ARC
  5
21B
330
1F
100
AcDbEntity
  8
0
  6
CONTINUOUS
 62
     7
100
AcDbCircle
 10
746.7036098793875
 20
119.3019806649164
 30
0.0
 40
26.37665103265438
100
AcDbArc
 50
182.3869571721153
 51
191.1044150880388
  0
ARC
  5
21C
330
1F
100
AcDbEntity
  8
0
  6
CONTINUOUS
 62
     7
100
AcDbCircle
 10
1234.786643316387
 20
153.7257766903577
 30
0.0
 40
480.0495923692781
100
AcDbArc
 50
180.5571568351311
 51
184.6624165405217
  0
ARC
  5
21D
330
1F
100
AcDbEntity
  8
0
  6
CONTINUOUS
 62
     7
100
AcDbCircle
 10
-2996.269605909938
 20
72.19774614363281
 30
0.0
 40
3751.816715944163
100
AcDbArc
 50
1.173847707631155
 51
2.441185520604807
  0
ARC
  5
21E
330
1F
100
AcDbEntity
  8
0
  6
CONTINUOUS
 62
     7
100
AcDbCircle
 10
727.4219921306744
 20
230.9953922746772
 30
0.0
 40
24.74072107653599
100
AcDbArc
 50
2.331816805400992
 51
11.41612402835485
  0
ARC
  5
21F
330
1F
100
AcDbEntity
  8
0
  6
CONTINUOUS
 62
     7
100
AcDbCircle
 10
4455.31954898239
 20
275.6280313833158
 30
0.0
 40
3678.333362687706
100
AcDbArc
 50
181.1663062390573
 51
182.4562848300663
  0
ARC
  5
220
330
1F
100
AcDbEntity
  8
0
  6
CONTINUOUS
 62
     7
100
AcDbCircle
 10
4394.761669701134
 20
271.2623288708838
 30
0.0
 40
3537.711340944405
100
AcDbArc
 50
181.1509778714772
 51
182.4866748966444
  0
LINE
  5
221
330
1F
100
AcDbEntity
  8
0
  6
CONTINUOUS
 62
     7
100
AcDbLine
 10
870.4999998075342
 20
116.3706438090282
 30
0.0
 11
870.4999998075344
 21
111.5504289631805
 31
0.0
  0
ARC
  5
222
330
1F
100
AcDbEntity
  8
0
  6
CONTINUOUS
 62
     7
100
AcDbCircle
 10
4494.101164586111
 20
277.6692539893837
 30
0.0
 40
3747.143879237368
100
AcDbArc
 50
181.1734152970045
 51
182.4401277991079
  0
ARC
  5
223
330
1F
100
AcDbEntity
  8
0
  6
CONTINUOUS
 62
     7
100
AcDbCircle
 10
803.3000917393572
 20
118.8857294143015
 30
0.0
 40
22.95196600254541
100
AcDbArc
 50
182.2485239415522
 51
191.8194229061085
  0
ARC
  5
224
330
1F
100
AcDbEntity
  8
0
  6
CONTINUOUS
 62
     7
100
AcDbCircle
 10
-2949.59298128111
 20
74.23302696683639
 30
0.0
 40
3685.110728950896
100
AcDbArc
 50
1.16664704981144
 51
2.455381583428956
  0
ARC
  5
225
330
1F
100
AcDbEntity
  8
0
  6
CONTINUOUS
 62
     7
100
AcDbCircle
 10
755.9051967861958
 20
119.2021833924286
 30
0.0
 40
25.57350869143384
100
AcDbArc
 50
182.3307268925195
 51
191.2358243497219
  0
ARC
  5
226
330
1F
100
AcDbEntity
  8
0
  6
CONTINUOUS
 62
     7
100
AcDbCircle
 10
237.8210280178826
 20
196.9705662961095
 30
0.0
 40
469.9266375068932
100
AcDbArc
 50
0.5575192497906301
 51
4.689920289986048
  0
ARC
  5
227
330
1F
100
AcDbEntity
  8
0
  6
CONTINUOUS
 62
     7
100
AcDbCircle
 10
793.3722986578085
 20
118.8948312321397
 30
0.0
 40
23.0250009284156
100
AcDbArc
 50
182.2275766482821
 51
191.7980296327248
  0
ARC
  5
228
330
1F
100
AcDbEntity
  8
0
  6
CONTINUOUS
 62
     7
100
AcDbCircle
 10
4497.404314230812
 20
278.1944844469854
 30
0.0
 40
3760.456993070052
100
AcDbArc
 50
181.1736807943402
 51
182.4396830610057
  0
ARC
  5
229
330
1F
100
AcDbEntity
  8
0
  6
CONTINUOUS
 62
     7
100
AcDbCircle
 10
354.3046216827523
 20
195.0893290002784
 30
0.0
 40
503.4854325165902
100
AcDbArc
 50
0.5816311661342297
 51
4.591348648140752
  0
ARC
  5
22A
330
1F
100
AcDbEntity
  8
0
  6
CONTINUOUS
 62
     7
100
AcDbCircle
 10
4476.076491805386
 20
276.9202209016709
 30
0.0
 40
3719.109959822609
100
AcDbArc
 50
181.1702617658563
 51
182.4484128030048
  0
ARC
  5
22B
330
1F
100
AcDbEntity
  8
0
  6
CONTINUOUS
 62
     7
100
AcDbCircle
 10
251.077128911968
 20
196.5670500603766
 30
0.0
 40
476.6806752782172
100
AcDbArc
 50
0.5572598907092469
 51
4.672400879104543
  0
ARC
  5
22C
330
1F
100
AcDbEntity
  8
0
  6
CONTINUOUS
 62
     7
100
AcDbCircle
 10
765.0923119592554
 20
119.1101611518294
 30
0.0
 40
24.75624572810038
100
AcDbArc
 50
182.2905712574079
 51
191.4266473807157
  0
ARC
  5
22D
330
1F
100
AcDbEntity
  8
0
  6
CONTINUOUS
 62
     7
100
AcDbCircle
 10
4624.01216712026
 20
276.9511553632641
 30
0.0
 40
3757.023594219531
100
AcDbArc
 50
181.1868572992898
 51
182.4185277862112
  0
ARC
  5
22E
330
1F
100
AcDbEntity
  8
0
  6
CONTINUOUS
 62
     7
100
AcDbCircle
 10
4576.376987814519
 20
281.5274448678854
 30
0.0
 40
3869.47831805672
100
AcDbArc
 50
181.1844205582697
 51
182.4176728444052
  0
ENDSEC
  0
SECTION
  2
OBJECTS
  0
DICTIONARY
  5
C
330
0
100
AcDbDictionary
  3
ACAD_GROUP
350
D
  3
ACAD_LAYOUT
350
1A
  3
ACAD_MATERIAL
350
43
  3
ACAD_MLEADERSTYLE
350
6B
  3
ACAD_MLINESTYLE
350
17
  3
ACAD_PLOTSETTINGS
350
19
  3
ACAD_SCALELIST
350
47
  3
ACAD_VISUALSTYLE
350
2A
  3
ACDBHEADERROUNDTRIPXREC
350
22F
  3
ACDBVARIABLEDICTIONARY
350
250
  0
DICTIONARY
  5
257
330
8
100
AcDbDictionary
280
     1
  3
ACAD_XREC_ROUNDTRIP
360
258
  0
DICTIONARY
  5
D
102
{ACAD_REACTORS
330
C
102
}
330
C
100
AcDbDictionary
  0
DICTIONARY
  5
1A
102
{ACAD_REACTORS
330
C
102
}
330
C
100
AcDbDictionary
  0
DICTIONARY
  5
43
102
{ACAD_REACTORS
330
C
102
}
330
C
100
AcDbDictionary
  3
BYBLOCK
350
45
  3
BYLAYER
350
44
  3
GLOBAL
350
46
  0
DICTIONARY
  5
6B
102
{ACAD_REACTORS
330
C
102
}
330
C
100
AcDbDictionary
  3
STANDARD
350
6C
  0
DICTIONARY
  5
17
102
{ACAD_REACTORS
330
C
102
}
330
C
100
AcDbDictionary
  3
STANDARD
350
18
  0
DICTIONARY
  5
19
102
{ACAD_REACTORS
330
C
102
}
330
C
100
AcDbDictionary
  0
DICTIONARY
  5
47
102
{ACAD_REACTORS
330
C
102
}
330
C
100
AcDbDictionary
  3
A0
350
48
  3
A1
350
49
  3
A2
350
4A
  3
A3
350
4B
  3
A4
350
4C
  3
A5
350
4D
  3
A6
350
4E
  3
A7
350
4F
  3
A8
350
50
  3
A9
350
51
  3
B0
350
52
  3
B1
350
53
  3
B2
350
54
  3
B3
350
55
  3
B4
350
56
  3
B5
350
57
  3
B6
350
58
  3
B7
350
59
  3
B8
350
5A
  3
B9
350
5B
  3
C0
350
5C
  3
C1
350
5D
  3
C2
350
5E
  3
C3
350
5F
  3
C4
350
60
  3
C5
350
61
  3
C6
350
62
  3
C7
350
63
  3
C8
350
64
  3
C9
350
65
  3
D0
350
66
  3
D1
350
67
  3
D2
350
68
  0
DICTIONARY
  5
2A
102
{ACAD_REACTORS
330
C
102
}
330
C
100
AcDbDictionary
  3
2DWIREFRAME
350
2F
  3
BASIC
350
32
  3
BRIGHTEN
350
36
  3
COLORCHANGE
350
3A
  3
CONCEPTUAL
350
34
  3
DIM
350
35
  3
EDGECOLOROFF
350
3D
  3
FACEPATTERN
350
39
  3
FLAT
350
2B
  3
FLATWITHEDGES
350
2C
  3
GOURAUD
350
2D
  3
GOURAUDWITHEDGES
350
2E
  3
HIDDEN
350
31
  3
JITTEROFF
350
3B
  3
LINEPATTERN
350
38
  3
OVERHANGOFF
350
3C
  3
REALISTIC
350
33
  3
SHADED
350
42
  3
SHADED_WITH_EDGES
350
41
  3
SHADES_OF_GRAY
350
3E
  3
SKETCHY
350
3F
  3
THICKEN
350
37
  3
WIREFRAME
350
30
  3
X-RAY
350
40
  0
DICTIONARY
  5
22F
102
{ACAD_REACTORS
330
C
102
}
330
C
100
AcDbDictionary
  3
CEPSNID
350
239
  3
CEPSNTYPE
350
238
  3
DIMSTYLEDATA
350
24F
  3
FINGERPRINTGUID
350
23A
  3
HYPERLINKBASE
350
232
  3
INSUNITS
350
237
  3
LAYOUTDICT
350
234
  3
LWETCUNION
350
236
  3
PLOTSETDICT
350
235
  3
PSVPSCALE
350
23C
  3
PUCSBASE
350
23F
  3
PUCSORGBACK
350
245
  3
PUCSORGBOTTOM
350
241
  3
PUCSORGFRONT
350
244
  3
PUCSORGLEFT
350
242
  3
PUCSORGRIGHT
350
243
  3
PUCSORGTOP
350
240
  3
PUCSORTHOREF
350
23D
  3
PUCSORTHOVIEW
350
23E
  3
STYLESHEET
350
233
  3
TSTACKALIGN
350
230
  3
TSTACKSIZE
350
231
  3
UCSBASE
350
248
  3
UCSORGBACK
350
24E
  3
UCSORGBOTTOM
350
24A
  3
UCSORGFRONT
350
24D
  3
UCSORGLEFT
350
24B
  3
UCSORGRIGHT
350
24C
  3
UCSORGTOP
350
249
  3
UCSORTHOREF
350
246
  3
UCSORTHOVIEW
350
247
  3
VERSIONGUID
350
23B
  0
DICTIONARY
  5
250
102
{ACAD_REACTORS
330
C
102
}
330
C
100
AcDbDictionary
  3
CANNOSCALE
350
259
  3
CMLEADERSTYLE
350
252
  3
CTABLESTYLE
350
251
  3
DIMASSOC
350
255
  3
HIDETEXT
350
256
  3
MSLTSCALE
350
25A
  0
XRECORD
  5
258
102
{ACAD_REACTORS
330
257
102
}
330
257
100
AcDbXrecord
102
VTR_0.000_0.000_1.000_1.000_VISUALSTYLE
340
2F
102
VTR_0.000_0.000_1.000_1.000_GRIDDISPLAY
 70
     3
102
VTR_0.000_0.000_1.000_1.000_GRIDMAJOR
 70
     5
102
VTR_0.000_0.000_1.000_1.000_DEFAULTLIGHTING
280
     1
102
VTR_0.000_0.000_1.000_1.000_DEFAULTLIGHTINGTYPE
 70
     1
102
VTR_0.000_0.000_1.000_1.000_BRIGHTNESS
141
0.0
102
VTR_0.000_0.000_1.000_1.000_CONTRAST
142
0.0
  0
MATERIAL
  5
45
102
{ACAD_REACTORS
330
43
102
}
102
{ACAD_XDICTIONARY
360
25D
102
}
330
43
100
AcDbMaterial
  1
BYBLOCK
  0
MATERIAL
  5
44
102
{ACAD_REACTORS
330
43
102
}
102
{ACAD_XDICTIONARY
360
25B
102
}
330
43
100
AcDbMaterial
  1
BYLAYER
  0
MATERIAL
  5
46
102
{ACAD_REACTORS
330
43
102
}
102
{ACAD_XDICTIONARY
360
25F
102
}
330
43
100
AcDbMaterial
  1
GLOBAL
  0
ACAD_PROXY_OBJECT
  5
6C
102
{ACAD_REACTORS
330
6B
102
}
330
6B
100
AcDbProxyObject
 90
      499
 91
      505
 93
      610
310
40901902A4063FBFFFFFE056BD1B81E855B9FC0AD7A3703D0AD73F4214DD185B99185C9900AD7A3703D0AC73F90141901A02B5E8DC0F42B1CFC02B5E8DC0F42B1CFE5764000000000000300FC0
340
14
340
0
340
11
340
0
 94
        0
1001
ACAD_MLEADERVER
1070
     2
  0
MLINESTYLE
  5
18
102
{ACAD_REACTORS
330
17
102
}
330
17
100
AcDbMlineStyle
  2
Standard
 70
     0
  3

 62
   256
 51
90.0
 52
90.0
 71
     2
 49
0.5
 62
   256
  6
BYLAYER
 49
-0.5
 62
   256
  6
BYLAYER
  0
ACAD_PROXY_OBJECT
  5
48
102
{ACAD_REACTORS
330
47
102
}
330
47
100
AcDbProxyObject
 90
      499
 91
      503
 93
       41
310
903313A31580
  0
ACAD_PROXY_OBJECT
  5
49
102
{ACAD_REACTORS
330
47
102
}
330
47
100
AcDbProxyObject
 90
      499
 91
      503
 93
      105
310
903313A324000000000000004000
  0
ACAD_PROXY_OBJECT
  5
4A
102
{ACAD_REACTORS
330
47
102
}
330
47
100
AcDbProxyObject
 90
      499
 91
      503
 93
      105
310
903313A344000000000000104000
  0
ACAD_PROXY_OBJECT
  5
4B
102
{ACAD_REACTORS
330
47
102
}
330
47
100
AcDbProxyObject
 90
      499
 91
      503
 93
      105
310
903313A354000000000000144000
  0
ACAD_PROXY_OBJECT
  5
4C
102
{ACAD_REACTORS
330
47
102
}
330
47
100
AcDbProxyObject
 90
      499
 91
      503
 93
      105
310
903313A384000000000000204000
  0
ACAD_PROXY_OBJECT
  5
4D
102
{ACAD_REACTORS
330
47
102
}
330
47
100
AcDbProxyObject
 90
      499
 91
      503
 93
      113
310
904313A31304000000000000244000
  0
ACAD_PROXY_OBJECT
  5
4E
102
{ACAD_REACTORS
330
47
102
}
330
47
100
AcDbProxyObject
 90
      499
 91
      503
 93
      113
310
904313A31364000000000000304000
  0
ACAD_PROXY_OBJECT
  5
4F
102
{ACAD_REACTORS
330
47
102
}
330
47
100
AcDbProxyObject
 90
      499
 91
      503
 93
      113
310
904313A32304000000000000344000
  0
ACAD_PROXY_OBJECT
  5
50
102
{ACAD_REACTORS
330
47
102
}
330
47
100
AcDbProxyObject
 90
      499
 91
      503
 93
      113
310
904313A333040000000000003E4000
  0
ACAD_PROXY_OBJECT
  5
51
102
{ACAD_REACTORS
330
47
102
}
330
47
100
AcDbProxyObject
 90
      499
 91
      503
 93
      113
310
904313A34304000000000000444000
  0
ACAD_PROXY_OBJECT
  5
52
102
{ACAD_REACTORS
330
47
102
}
330
47
100
AcDbProxyObject
 90
      499
 91
      503
 93
      113
310
904313A35304000000000000494000
  0
ACAD_PROXY_OBJECT
  5
53
102
{ACAD_REACTORS
330
47
102
}
330
47
100
AcDbProxyObject
 90
      499
 91
      503
 93
      121
310
905313A3130304000000000000594000
  0
ACAD_PROXY_OBJECT
  5
54
102
{ACAD_REACTORS
330
47
102
}
330
47
100
AcDbProxyObject
 90
      499
 91
      503
 93
      105
310
903323A310000000000000010100
  0
ACAD_PROXY_OBJECT
  5
55
102
{ACAD_REACTORS
330
47
102
}
330
47
100
AcDbProxyObject
 90
      499
 91
      503
 93
      105
310
903343A310000000000000410100
  0
ACAD_PROXY_OBJECT
  5
56
102
{ACAD_REACTORS
330
47
102
}
330
47
100
AcDbProxyObject
 90
      499
 91
      503
 93
      105
310
903383A310000000000000810100
  0
ACAD_PROXY_OBJECT
  5
57
102
{ACAD_REACTORS
330
47
102
}
330
47
100
AcDbProxyObject
 90
      499
 91
      503
 93
      113
310
90431303A310000000000000910100
  0
ACAD_PROXY_OBJECT
  5
58
102
{ACAD_REACTORS
330
47
102
}
330
47
100
AcDbProxyObject
 90
      499
 91
      503
 93
      121
310
9053130303A310000000000001650100
  0
ACAD_PROXY_OBJECT
  5
59
102
{ACAD_REACTORS
330
47
102
}
330
47
100
AcDbProxyObject
 90
      499
 91
      503
 93
      257
310
90E312F31323822203D2031272D3022000000000000200FC000000000000284000
  0
ACAD_PROXY_OBJECT
  5
5A
102
{ACAD_REACTORS
330
47
102
}
330
47
100
AcDbProxyObject
 90
      499
 91
      503
 93
      249
310
90D312F363422203D2031272D3022000000000000240FC000000000000284000
  0
ACAD_PROXY_OBJECT
  5
5B
102
{ACAD_REACTORS
330
47
102
}
330
47
100
AcDbProxyObject
 90
      499
 91
      503
 93
      249
310
90D312F333222203D2031272D3022000000000000280FC000000000000284000
  0
ACAD_PROXY_OBJECT
  5
5C
102
{ACAD_REACTORS
330
47
102
}
330
47
100
AcDbProxyObject
 90
      499
 91
      503
 93
      249
310
90D312F313622203D2031272D30220000000000002C0FC000000000000284000
  0
ACAD_PROXY_OBJECT
  5
5D
102
{ACAD_REACTORS
330
47
102
}
330
47
100
AcDbProxyObject
 90
      499
 91
      503
 93
      249
310
90D332F333222203D2031272D30220000000000002E0FC000000000000284000
  0
ACAD_PROXY_OBJECT
  5
5E
102
{ACAD_REACTORS
330
47
102
}
330
47
100
AcDbProxyObject
 90
      499
 91
      503
 93
      241
310
90C312F3822203D2031272D3022000000000000300FC000000000000284000
  0
ACAD_PROXY_OBJECT
  5
5F
102
{ACAD_REACTORS
330
47
102
}
330
47
100
AcDbProxyObject
 90
      499
 91
      503
 93
      249
310
90D332F313622203D2031272D3022000000000000320FC000000000000284000
  0
ACAD_PROXY_OBJECT
  5
60
102
{ACAD_REACTORS
330
47
102
}
330
47
100
AcDbProxyObject
 90
      499
 91
      503
 93
      241
310
90C312F3422203D2031272D3022000000000000340FC000000000000284000
  0
ACAD_PROXY_OBJECT
  5
61
102
{ACAD_REACTORS
330
47
102
}
330
47
100
AcDbProxyObject
 90
      499
 91
      503
 93
      241
310
90C332F3822203D2031272D3022000000000000360FC000000000000284000
  0
ACAD_PROXY_OBJECT
  5
62
102
{ACAD_REACTORS
330
47
102
}
330
47
100
AcDbProxyObject
 90
      499
 91
      503
 93
      241
310
90C312F3222203D2031272D3022000000000000380FC000000000000284000
  0
ACAD_PROXY_OBJECT
  5
63
102
{ACAD_REACTORS
330
47
102
}
330
47
100
AcDbProxyObject
 90
      499
 91
      503
 93
      241
310
90C332F3422203D2031272D30220000000000003A0FC000000000000284000
  0
ACAD_PROXY_OBJECT
  5
64
102
{ACAD_REACTORS
330
47
102
}
330
47
100
AcDbProxyObject
 90
      499
 91
      503
 93
      161
310
90A3122203D2031272D30224000000000000284000
  0
ACAD_PROXY_OBJECT
  5
65
102
{ACAD_REACTORS
330
47
102
}
330
47
100
AcDbProxyObject
 90
      499
 91
      503
 93
      257
310
90E312D312F3222203D2031272D30220000000000003E0FC000000000000284000
  0
ACAD_PROXY_OBJECT
  5
66
102
{ACAD_REACTORS
330
47
102
}
330
47
100
AcDbProxyObject
 90
      499
 91
      503
 93
      225
310
90A3322203D2031272D302200000000000002100000000000000284000
  0
ACAD_PROXY_OBJECT
  5
67
102
{ACAD_REACTORS
330
47
102
}
330
47
100
AcDbProxyObject
 90
      499
 91
      503
 93
      225
310
90A3622203D2031272D302200000000000006100000000000000284000
  0
ACAD_PROXY_OBJECT
  5
68
102
{ACAD_REACTORS
330
47
102
}
330
47
100
AcDbProxyObject
 90
      499
 91
      503
 93
      249
310
90D31272D3022203D2031272D30220000000000000A100000000000000284000
  0
ACAD_PROXY_OBJECT
  5
2F
102
{ACAD_REACTORS
330
2A
102
}
330
2A
100
AcDbProxyObject
 90
      499
 91
      501
 93
      436
310
42CC9915DA5C99599C985B595049028333333333333E33F0000000000000F90107901411070040501600405405064090741402480A0340
1001
ACAD
1000
AcDbSavedByObjectVersion
1070
     0
  0
ACAD_PROXY_OBJECT
  5
32
102
{ACAD_REACTORS
330
2A
102
}
330
2A
100
AcDbProxyObject
 90
      499
 91
      501
 93
      388
310
4150985CDA58D07406404333333333333E33F0000000000000F90107A41107004050150841D405064090741402480A0350
1001
ACAD
1000
AcDbSavedByObjectVersion
1070
     0
  0
ACAD_PROXY_OBJECT
  5
36
102
{ACAD_REACTORS
330
2A
102
}
330
2A
100
AcDbProxyObject
 90
      499
 91
      501
 93
      428
310
42109C9A59DA1D195B90C409028333333333333E33F0000000000000F9010790141107004050150841D405064090741402480A029950
1001
ACAD
1000
AcDbSavedByObjectVersion
1070
     0
  0
ACAD_PROXY_OBJECT
  5
3A
102
{ACAD_REACTORS
330
2A
102
}
330
2A
100
AcDbProxyObject
 90
      499
 91
      501
 93
      452
310
42D0DBDB1BDC90DA185B99D95104090240C333333333333E33F0000000000000F90108901411070040501508421405064090741402480A0350
1001
ACAD
1000
AcDbSavedByObjectVersion
1070
     0
  0
ACAD_PROXY_OBJECT
  5
34
102
{ACAD_REACTORS
330
2A
102
}
330
2A
100
AcDbProxyObject
 90
      499
 91
      501
 93
      500
310
4290DBDB98D95C1D1D585B10940D028333333333333E33F0000000000000F90107902409070040501000000000018199010841D405064090740C02480A0340
1001
ACAD
1000
AcDbSavedByObjectVersion
1070
     0
  0
ACAD_PROXY_OBJECT
  5
35
102
{ACAD_REACTORS
330
2A
102
}
330
2A
100
AcDbProxyObject
 90
      499
 91
      501
 93
      412
310
40D11A5B50B409028333333333333E33F0000000000000F9010790141107004050150841D405064090741402480A02677FFFFFD0
1001
ACAD
1000
AcDbSavedByObjectVersion
1070
     0
  0
ACAD_PROXY_OBJECT
  5
3D
102
{ACAD_REACTORS
330
2A
102
}
330
2A
100
AcDbProxyObject
 90
      499
 91
      501
 93
      452
310
43115919D950DBDB1BDC93D999916409028333333333333E33F0000000000000F9010790141107004050150841D405064090741402480A0350
1001
ACAD
1000
AcDbSavedByObjectVersion
1070
     0
  0
ACAD_PROXY_OBJECT
  5
39
102
{ACAD_REACTORS
330
2A
102
}
330
2A
100
AcDbProxyObject
 90
      499
 91
      501
 93
      444
310
42D19858D95C185D1D195C9B90F409028333333333333E33F0000000000000F9010790141107004050150841D405064090741402480A0350
1001
ACAD
1000
AcDbSavedByObjectVersion
1070
     0
  0
ACAD_PROXY_OBJECT
  5
2B
102
{ACAD_REACTORS
330
2A
102
}
330
2A
100
AcDbProxyObject
 90
      499
 91
      501
 93
      380
310
41119B185D240901404333333333333E33F0000000000000F9010740A907004050150841D405064090741402480A1B50
1001
ACAD
1000
AcDbSavedByObjectVersion
1070
     0
  0
ACAD_PROXY_OBJECT
  5
2C
102
{ACAD_REACTORS
330
2A
102
}
330
2A
100
AcDbProxyObject
 90
      499
 91
      501
 93
      468
310
43519B185D15DA5D1A115919D95CD0140901404333333333333E33F0000000000000F90107409019070040501600405405064090741402480A1B50
1001
ACAD
1000
AcDbSavedByObjectVersion
1070
     0
  0
ACAD_PROXY_OBJECT
  5
2D
102
{ACAD_REACTORS
330
2A
102
}
330
2A
100
AcDbProxyObject
 90
      499
 91
      501
 93
      404
310
41D1DBDD5C985D5910240902404333333333333E33F0000000000000F9010740A9070040501641D405064090741402480A1B50
1001
ACAD
1000
AcDbSavedByObjectVersion
1070
     0
  0
ACAD_PROXY_OBJECT
  5
2E
102
{ACAD_REACTORS
330
2A
102
}
330
2A
100
AcDbProxyObject
 90
      499
 91
      501
 93
      492
310
4411DBDD5C985D5915DA5D1A115919D95CD0340902404333333333333E33F0000000000000F90107409019070040501600405405064090741402480A1B50
1001
ACAD
1000
AcDbSavedByObjectVersion
1070
     0
  0
ACAD_PROXY_OBJECT
  5
31
102
{ACAD_REACTORS
330
2A
102
}
330
2A
100
AcDbProxyObject
 90
      499
 91
      501
 93
      476
310
41921A5919195B90640502408333333333333E33F0000000000000F901079024090700405020000000000001110200405405064090740C02480A0340
1001
ACAD
1000
AcDbSavedByObjectVersion
1070
     0
  0
ACAD_PROXY_OBJECT
  5
3B
102
{ACAD_REACTORS
330
2A
102
}
330
2A
100
AcDbProxyObject
 90
      499
 91
      501
 93
      428
310
42529A5D1D195C93D999914409028333333333333E33F0000000000000F9010790141107004050150A41D405064090741402480A0350
1001
ACAD
1000
AcDbSavedByObjectVersion
1070
     0
  0
ACAD_PROXY_OBJECT
  5
38
102
{ACAD_REACTORS
330
2A
102
}
330
2A
100
AcDbProxyObject
 90
      499
 91
      501
 93
      444
310
42D31A5B995C185D1D195C9B90E409028333333333333E33F0000000000000F9010790141107004050750841D405064090741402483A0350
1001
ACAD
1000
AcDbSavedByObjectVersion
1070
     0
  0
ACAD_PROXY_OBJECT
  5
3C
102
{ACAD_REACTORS
330
2A
102
}
330
2A
100
AcDbProxyObject
 90
      499
 91
      501
 93
      444
310
42D3DD995C9A185B99D3D999915409028333333333333E33F0000000000000F9010790141107004050150941D405064090741402480A0350
1001
ACAD
1000
AcDbSavedByObjectVersion
1070
     0
  0
ACAD_PROXY_OBJECT
  5
33
102
{ACAD_REACTORS
330
2A
102
}
330
2A
100
AcDbProxyObject
 90
      499
 91
      501
 93
      428
310
425499585B1A5CDD1A58D08409038333333333333E33F0000000000000F9010740A907004050150800405405064090740C02480A1B40
1001
ACAD
1000
AcDbSavedByObjectVersion
1070
     0
  0
ACAD_PROXY_OBJECT
  5
42
102
{ACAD_REACTORS
330
2A
102
}
330
2A
100
AcDbProxyObject
 90
      499
 91
      501
 93
      420
310
4194DA1859195911B40902404333333333333E33F0000000000000F9010740A41107004050150800405405064090840C02480A0B40
1001
ACAD
1000
AcDbSavedByObjectVersion
1070
     0
  0
ACAD_PROXY_OBJECT
  5
41
102
{ACAD_REACTORS
330
2A
102
}
330
2A
100
AcDbProxyObject
 90
      499
 91
      501
 93
      516
310
4454DA18591959081DDA5D1A08195919D95CD1A40902404333333333333E33F0000000000000F901074090142907004050250800405405064090740C02480A0B40
1001
ACAD
1000
AcDbSavedByObjectVersion
1070
     0
  0
ACAD_PROXY_OBJECT
  5
3E
102
{ACAD_REACTORS
330
2A
102
}
330
2A
100
AcDbProxyObject
 90
      499
 91
      501
 93
      532
310
4394DA1859195CC81BD98811DC985E5174090240C333333333333E33F0000000000000F901079024090741D01000000000000111010841D405064090740C02480A0340
1001
ACAD
1000
AcDbSavedByObjectVersion
1070
     0
  0
ACAD_PROXY_OBJECT
  5
3F
102
{ACAD_REACTORS
330
2A
102
}
330
2A
100
AcDbProxyObject
 90
      499
 91
      501
 93
      476
310
41D4DAD95D18DA1E51840502408333333333333E33F0000000000000F901079024090741D01000000000000111010B41D405064090741802480A0340
1001
ACAD
1000
AcDbSavedByObjectVersion
1070
     0
  0
ACAD_PROXY_OBJECT
  5
37
102
{ACAD_REACTORS
330
2A
102
}
330
2A
100
AcDbProxyObject
 90
      499
 91
      501
 93
      412
310
41D51A1A58DAD95B90D409028333333333333E33F0000000000000F9010790141107004050150C41D405064090741402480A0350
1001
ACAD
1000
AcDbSavedByObjectVersion
1070
     0
  0
ACAD_PROXY_OBJECT
  5
30
102
{ACAD_REACTORS
330
2A
102
}
330
2A
100
AcDbProxyObject
 90
      499
 91
      501
 93
      420
310
4255DA5C99599C985B595059028333333333333E33F0000000000000F90107901411070040501600405405064090740C02480A0340
1001
ACAD
1000
AcDbSavedByObjectVersion
1070
     0
  0
ACAD_PROXY_OBJECT
  5
40
102
{ACAD_REACTORS
330
2A
102
}
330
2A
100
AcDbProxyObject
 90
      499
 91
      501
 93
      404
310
41560B54985E51940902404000000000000E03F0000000000000F9010740501907004050150841D405064090740C02480A1B40
1001
ACAD
1000
AcDbSavedByObjectVersion
1070
     0
  0
XRECORD
  5
239
102
{ACAD_REACTORS
330
22F
102
}
330
22F
100
AcDbXrecord
340
0
  0
XRECORD
  5
238
102
{ACAD_REACTORS
330
22F
102
}
330
22F
100
AcDbXrecord
 90
        0
  0
XRECORD
  5
24F
102
{ACAD_REACTORS
330
22F
102
}
330
22F
100
AcDbXrecord
1000
DSTYLE
1002
{
1070
   179
 70
     2
1070
   171
 70
     2
1070
   143
 40
25.4
1070
   274
 70
     2
1070
    41
 40
3.0
1070
   141
 40
0.09
1070
    43
 40
0.38
1070
   278
 70
    46
1070
    44
 40
1.5
1070
    42
 40
0.0625
1070
   147
 40
1.5
1070
   272
 70
     4
1070
    73
 70
     1
1070
   172
 70
     0
1070
    74
 70
     1
1070
   283
 70
     1
1070
   340
340
6E
1070
   140
 40
3.0
1070
   284
 70
     0
1070
    78
 70
     0
1002
}
  0
XRECORD
  5
23A
102
{ACAD_REACTORS
330
22F
102
}
330
22F
100
AcDbXrecord
  1
{71B657DC-C9DD-418D-8C9D-FD20FE61ED1F}
  0
XRECORD
  5
232
102
{ACAD_REACTORS
330
22F
102
}
330
22F
100
AcDbXrecord
  1

  0
XRECORD
  5
237
102
{ACAD_REACTORS
330
22F
102
}
330
22F
100
AcDbXrecord
 90
        4
  0
XRECORD
  5
234
102
{ACAD_REACTORS
330
22F
102
}
330
22F
100
AcDbXrecord
340
1A
  0
XRECORD
  5
236
102
{ACAD_REACTORS
330
22F
102
}
330
22F
100
AcDbXrecord
 90
    10269
  0
XRECORD
  5
235
102
{ACAD_REACTORS
330
22F
102
}
330
22F
100
AcDbXrecord
340
19
  0
XRECORD
  5
23C
102
{ACAD_REACTORS
330
22F
102
}
330
22F
100
AcDbXrecord
 40
0.0
  0
XRECORD
  5
23F
102
{ACAD_REACTORS
330
22F
102
}
330
22F
100
AcDbXrecord
340
0
  0
XRECORD
  5
245
102
{ACAD_REACTORS
330
22F
102
}
330
22F
100
AcDbXrecord
 10
0.0
 20
0.0
 30
0.0
  0
XRECORD
  5
241
102
{ACAD_REACTORS
330
22F
102
}
330
22F
100
AcDbXrecord
 10
0.0
 20
0.0
 30
0.0
  0
XRECORD
  5
244
102
{ACAD_REACTORS
330
22F
102
}
330
22F
100
AcDbXrecord
 10
0.0
 20
0.0
 30
0.0
  0
XRECORD
  5
242
102
{ACAD_REACTORS
330
22F
102
}
330
22F
100
AcDbXrecord
 10
0.0
 20
0.0
 30
0.0
  0
XRECORD
  5
243
102
{ACAD_REACTORS
330
22F
102
}
330
22F
100
AcDbXrecord
 10
0.0
 20
0.0
 30
0.0
  0
XRECORD
  5
240
102
{ACAD_REACTORS
330
22F
102
}
330
22F
100
AcDbXrecord
 10
0.0
 20
0.0
 30
0.0
  0
XRECORD
  5
23D
102
{ACAD_REACTORS
330
22F
102
}
330
22F
100
AcDbXrecord
340
0
  0
XRECORD
  5
23E
102
{ACAD_REACTORS
330
22F
102
}
330
22F
100
AcDbXrecord
 70
     0
  0
XRECORD
  5
233
102
{ACAD_REACTORS
330
22F
102
}
330
22F
100
AcDbXrecord
  1

  0
XRECORD
  5
230
102
{ACAD_REACTORS
330
22F
102
}
330
22F
100
AcDbXrecord
 90
        1
  0
XRECORD
  5
231
102
{ACAD_REACTORS
330
22F
102
}
330
22F
100
AcDbXrecord
 90
       70
  0
XRECORD
  5
248
102
{ACAD_REACTORS
330
22F
102
}
330
22F
100
AcDbXrecord
340
0
  0
XRECORD
  5
24E
102
{ACAD_REACTORS
330
22F
102
}
330
22F
100
AcDbXrecord
 10
0.0
 20
0.0
 30
0.0
  0
XRECORD
  5
24A
102
{ACAD_REACTORS
330
22F
102
}
330
22F
100
AcDbXrecord
 10
0.0
 20
0.0
 30
0.0
  0
XRECORD
  5
24D
102
{ACAD_REACTORS
330
22F
102
}
330
22F
100
AcDbXrecord
 10
0.0
 20
0.0
 30
0.0
  0
XRECORD
  5
24B
102
{ACAD_REACTORS
330
22F
102
}
330
22F
100
AcDbXrecord
 10
0.0
 20
0.0
 30
0.0
  0
XRECORD
  5
24C
102
{ACAD_REACTORS
330
22F
102
}
330
22F
100
AcDbXrecord
 10
0.0
 20
0.0
 30
0.0
  0
XRECORD
  5
249
102
{ACAD_REACTORS
330
22F
102
}
330
22F
100
AcDbXrecord
 10
0.0
 20
0.0
 30
0.0
  0
XRECORD
  5
246
102
{ACAD_REACTORS
330
22F
102
}
330
22F
100
AcDbXrecord
340
0
  0
XRECORD
  5
247
102
{ACAD_REACTORS
330
22F
102
}
330
22F
100
AcDbXrecord
 70
     0
  0
XRECORD
  5
23B
102
{ACAD_REACTORS
330
22F
102
}
330
22F
100
AcDbXrecord
  1
{FAEB1C32-E019-11D5-929B-00C0DF256EC4}
  0
DICTIONARYVAR
  5
259
102
{ACAD_REACTORS
330
250
102
}
330
250
100
DictionaryVariables
280
     0
  1
1:1
  0
DICTIONARYVAR
  5
252
102
{ACAD_REACTORS
330
250
102
}
330
250
100
DictionaryVariables
280
     0
  1
Standard
  0
DICTIONARYVAR
  5
251
102
{ACAD_REACTORS
330
250
102
}
330
250
100
DictionaryVariables
280
     0
  1
Standard
  0
DICTIONARYVAR
  5
255
102
{ACAD_REACTORS
330
250
102
}
330
250
100
DictionaryVariables
280
     0
  1
2
  0
DICTIONARYVAR
  5
256
102
{ACAD_REACTORS
330
250
102
}
330
250
100
DictionaryVariables
280
     0
  1
1
  0
DICTIONARYVAR
  5
25A
102
{ACAD_REACTORS
330
250
102
}
330
250
100
DictionaryVariables
280
     0
  1
1
  0
DICTIONARY
  5
25D
330
45
100
AcDbDictionary
280
     1
  3
ACAD_XREC_ROUNDTRIP
360
25E
  0
DICTIONARY
  5
25B
330
44
100
AcDbDictionary
280
     1
  3
ACAD_XREC_ROUNDTRIP
360
25C
  0
DICTIONARY
  5
25F
330
46
100
AcDbDictionary
280
     1
  3
ACAD_XREC_ROUNDTRIP
360
260
  0
XRECORD
  5
25E
102
{ACAD_REACTORS
330
25D
102
}
330
25D
100
AcDbXrecord
102
MATERIAL
148
0.0
149
0.0
149
0.0
 93
        0
 94
      127
282
     0
 72
     1
 77
     1
171
     1
175
     1
179
     1
273
     0
  0
XRECORD
  5
25C
102
{ACAD_REACTORS
330
25B
102
}
330
25B
100
AcDbXrecord
102
MATERIAL
148
0.0
149
0.0
149
0.0
 93
        0
 94
      127
282
     0
 72
     1
 77
     1
171
     1
175
     1
179
     1
273
     0
  0
XRECORD
  5
260
102
{ACAD_REACTORS
330
25F
102
}
330
25F
100
AcDbXrecord
102
MATERIAL
148
0.0
149
0.0
149
0.0
 93
        0
 94
      127
282
     0
 72
     1
 77
     1
171
     1
175
     1
179
     1
273
     0
  0
ENDSEC
  0
EOF
