  0
SECTION
  2
HEADER
  9
$ACADVER
  1
AC1014
  9
$ACADMAINTVER
 70
     9
  9
$DWGCODEPAGE
  3
ANSI_932
  9
$INSBASE
 10
0.0
 20
0.0
 30
0.0
  9
$EXTMIN
 10
-33.82018771514352
 20
254.7125109416031
 30
0.0
  9
$EXTMAX
 10
403.6638842439258
 20
461.4858238558953
 30
0.0
  9
$LIMMIN
 10
0.0
 20
0.0
  9
$LIMMAX
 10
12.0
 20
9.0
  9
$ORTHOMODE
 70
     0
  9
$REGENMODE
 70
     1
  9
$FILLMODE
 70
     1
  9
$QTEXTMODE
 70
     0
  9
$MIRRTEXT
 70
     1
  9
$DRAGMODE
 70
     2
  9
$LTSCALE
 40
1.0
  9
$OSMODE
 70
    37
  9
$ATTMODE
 70
     1
  9
$TEXTSIZE
 40
0.2
  9
$TRACEWID
 40
0.05
  9
$TEXTSTYLE
  7
STANDARD
  9
$CLAYER
  8
0
  9
$CELTYPE
  6
BYLAYER
  9
$CECOLOR
 62
   256
  9
$CELTSCALE
 40
1.0
  9
$DELOBJ
 70
     1
  9
$DISPSILH
 70
     0
  9
$DIMSCALE
 40
1.0
  9
$DIMASZ
 40
3.0
  9
$DIMEXO
 40
0.0625
  9
$DIMDLI
 40
0.38
  9
$DIMRND
 40
0.0
  9
$DIMDLE
 40
0.0
  9
$DIMEXE
 40
1.5
  9
$DIMTP
 40
0.0
  9
$DIMTM
 40
0.0
  9
$DIMTXT
 40
3.0
  9
$DIMCEN
 40
0.09
  9
$DIMTSZ
 40
0.0
  9
$DIMTOL
 70
     0
  9
$DIMLIM
 70
     0
  9
$DIMTIH
 70
     1
  9
$DIMTOH
 70
     1
  9
$DIMSE1
 70
     0
  9
$DIMSE2
 70
     0
  9
$DIMTAD
 70
     1
  9
$DIMZIN
 70
     0
  9
$DIMBLK
  1

  9
$DIMASO
 70
     1
  9
$DIMSHO
 70
     1
  9
$DIMPOST
  1

  9
$DIMAPOST
  1

  9
$DIMALT
 70
     0
  9
$DIMALTD
 70
     2
  9
$DIMALTF
 40
25.4
  9
$DIMLFAC
 40
1.0
  9
$DIMTOFL
 70
     0
  9
$DIMTVP
 40
0.0
  9
$DIMTIX
 70
     0
  9
$DIMSOXD
 70
     0
  9
$DIMSAH
 70
     0
  9
$DIMBLK1
  1

  9
$DIMBLK2
  1

  9
$DIMSTYLE
  2
STANDARD
  9
$DIMCLRD
 70
     0
  9
$DIMCLRE
 70
     0
  9
$DIMCLRT
 70
     0
  9
$DIMTFAC
 40
1.0
  9
$DIMGAP
 40
1.5
  9
$DIMJUST
 70
     0
  9
$DIMSD1
 70
     0
  9
$DIMSD2
 70
     0
  9
$DIMTOLJ
 70
     1
  9
$DIMTZIN
 70
     0
  9
$DIMALTZ
 70
     0
  9
$DIMALTTZ
 70
     0
  9
$DIMFIT
 70
     3
  9
$DIMUPT
 70
     0
  9
$DIMUNIT
 70
     2
  9
$DIMDEC
 70
     2
  9
$DIMTDEC
 70
     4
  9
$DIMALTU
 70
     2
  9
$DIMALTTD
 70
     2
  9
$DIMTXSTY
  7
ＭＳ_ゴシック
  9
$DIMAUNIT
 70
     0
  9
$LUNITS
 70
     2
  9
$LUPREC
 70
     4
  9
$SKETCHINC
 40
0.1
  9
$FILLETRAD
 40
0.5
  9
$AUNITS
 70
     0
  9
$AUPREC
 70
     0
  9
$MENU
  1
.
  9
$ELEVATION
 40
0.0
  9
$PELEVATION
 40
0.0
  9
$THICKNESS
 40
0.0
  9
$LIMCHECK
 70
     0
  9
$CHAMFERA
 40
0.0
  9
$CHAMFERB
 40
0.0
  9
$CHAMFERC
 40
0.0
  9
$CHAMFERD
 40
0.0
  9
$SKPOLY
 70
     0
  9
$TDCREATE
 40
2460202.627000509
  9
$TDUPDATE
 40
2460202.627000798
  9
$TDINDWG
 40
0.0000000116
  9
$TDUSRTIMER
 40
0.0000000116
  9
$USRTIMER
 70
     1
  9
$ANGBASE
 50
0.0
  9
$ANGDIR
 70
     0
  9
$PDMODE
 70
     0
  9
$PDSIZE
 40
0.0
  9
$PLINEWID
 40
0.0
  9
$COORDS
 70
     1
  9
$SPLFRAME
 70
     0
  9
$SPLINETYPE
 70
     6
  9
$SPLINESEGS
 70
     8
  9
$ATTDIA
 70
     0
  9
$ATTREQ
 70
     1
  9
$HANDLING
 70
     1
  9
$HANDSEED
  5
28C
  9
$SURFTAB1
 70
     6
  9
$SURFTAB2
 70
     6
  9
$SURFTYPE
 70
     6
  9
$SURFU
 70
     6
  9
$SURFV
 70
     6
  9
$UCSNAME
  2

  9
$UCSORG
 10
0.0
 20
0.0
 30
0.0
  9
$UCSXDIR
 10
1.0
 20
0.0
 30
0.0
  9
$UCSYDIR
 10
0.0
 20
1.0
 30
0.0
  9
$PUCSNAME
  2

  9
$PUCSORG
 10
0.0
 20
0.0
 30
0.0
  9
$PUCSXDIR
 10
1.0
 20
0.0
 30
0.0
  9
$PUCSYDIR
 10
0.0
 20
1.0
 30
0.0
  9
$USERI1
 70
     0
  9
$USERI2
 70
     0
  9
$USERI3
 70
     0
  9
$USERI4
 70
     0
  9
$USERI5
 70
     0
  9
$USERR1
 40
0.0
  9
$USERR2
 40
0.0
  9
$USERR3
 40
0.0
  9
$USERR4
 40
0.0
  9
$USERR5
 40
0.0
  9
$WORLDVIEW
 70
     1
  9
$SHADEDGE
 70
     3
  9
$SHADEDIF
 70
    70
  9
$TILEMODE
 70
     1
  9
$MAXACTVP
 70
    64
  9
$PINSBASE
 10
0.0
 20
0.0
 30
0.0
  9
$PLIMCHECK
 70
     0
  9
$PEXTMIN
 10
1.000000000000000E+20
 20
1.000000000000000E+20
 30
1.000000000000000E+20
  9
$PEXTMAX
 10
-1.000000000000000E+20
 20
-1.000000000000000E+20
 30
-1.000000000000000E+20
  9
$PLIMMIN
 10
0.0
 20
0.0
  9
$PLIMMAX
 10
12.0
 20
9.0
  9
$UNITMODE
 70
     0
  9
$VISRETAIN
 70
     1
  9
$PLINEGEN
 70
     0
  9
$PSLTSCALE
 70
     1
  9
$TREEDEPTH
 70
  3020
  9
$PICKSTYLE
 70
     1
  9
$CMLSTYLE
  2
STANDARD
  9
$CMLJUST
 70
     0
  9
$CMLSCALE
 40
1.0
  9
$PROXYGRAPHICS
 70
     1
  9
$MEASUREMENT
 70
     1
  0
ENDSEC
  0
SECTION
  2
CLASSES
  0
CLASS
  1
ACDBDICTIONARYWDFLT
  2
AcDbDictionaryWithDefault
  3
ObjectDBX Classes
 90
        0
280
     0
281
     0
  0
CLASS
  1
VISUALSTYLE
  2
AcDbVisualStyle
  3
ObjectDBX Classes
 90
     4095
280
     0
281
     0
  0
CLASS
  1
MATERIAL
  2
AcDbMaterial
  3
ObjectDBX Classes
 90
     1153
280
     0
281
     0
  0
CLASS
  1
SCALE
  2
AcDbScale
  3
ObjectDBX Classes
 90
     1153
280
     0
281
     0
  0
CLASS
  1
TABLESTYLE
  2
AcDbTableStyle
  3
ObjectDBX Classes
 90
     4095
280
     0
281
     0
  0
CLASS
  1
MLEADERSTYLE
  2
AcDbMLeaderStyle
  3
ACDB_MLEADERSTYLE_CLASS
 90
     4095
280
     0
281
     0
  0
CLASS
  1
SUN
  2
AcDbSun
  3
SCENEOE
 90
     1153
280
     0
281
     0
  0
CLASS
  1
DICTIONARYVAR
  2
AcDbDictionaryVar
  3
ObjectDBX Classes
 90
        0
280
     0
281
     0
  0
CLASS
  1
XRECORD
  2
AcDbXrecord
  3
ObjectDBX Classes
 90
        0
280
     0
281
     0
  0
CLASS
  1
LWPOLYLINE
  2
AcDbPolyline
  3
ObjectDBX Classes
 90
        0
280
     0
281
     1
  0
CLASS
  1
HATCH
  2
AcDbHatch
  3
ObjectDBX Classes
 90
        0
280
     0
281
     1
  0
CLASS
  1
ACDBPLACEHOLDER
  2
AcDbPlaceHolder
  3
ObjectDBX Classes
 90
        0
280
     0
281
     0
  0
CLASS
  1
LAYOUT
  2
AcDbLayout
  3
ObjectDBX Classes
 90
        0
280
     0
281
     0
  0
ENDSEC
  0
SECTION
  2
TABLES
  0
TABLE
  2
VPORT
  5
8
102
{ACAD_XDICTIONARY
360
281
102
}
330
0
100
AcDbSymbolTable
 70
     1
  0
VPORT
  5
29
330
8
100
AcDbSymbolTableRecord
100
AcDbViewportTableRecord
  2
*ACTIVE
 70
     0
 10
0.0
 20
0.0
 11
1.0
 21
1.0
 12
184.9218482643911
 22
358.0991673987492
 13
0.0
 23
0.0
 14
0.5
 24
0.5
 15
0.5
 25
0.5
 16
0.0
 26
0.0
 36
1.0
 17
0.0
 27
0.0
 37
0.0
 40
206.7733129142922
 41
1.6
 42
50.0
 43
0.0
 44
0.0
 50
0.0
 51
0.0
 71
     0
 72
   100
 73
     1
 74
     3
 75
     0
 76
     0
 77
     0
 78
     0
  0
ENDTAB
  0
TABLE
  2
LTYPE
  5
5
330
0
100
AcDbSymbolTable
 70
     2
  0
LTYPE
  5
14
330
5
100
AcDbSymbolTableRecord
100
AcDbLinetypeTableRecord
  2
BYBLOCK
 70
     0
  3

 72
    65
 73
     0
 40
0.0
  0
LTYPE
  5
15
330
5
100
AcDbSymbolTableRecord
100
AcDbLinetypeTableRecord
  2
BYLAYER
 70
     0
  3

 72
    65
 73
     0
 40
0.0
  0
LTYPE
  5
16
330
5
100
AcDbSymbolTableRecord
100
AcDbLinetypeTableRecord
  2
CONTINUOUS
 70
     0
  3
Solid line
 72
    65
 73
     0
 40
0.0
  0
LTYPE
  5
102
330
5
100
AcDbSymbolTableRecord
100
AcDbLinetypeTableRecord
  2
CENTER
 70
     0
  3

 72
    65
 73
     0
 40
0.0
  0
ENDTAB
  0
TABLE
  2
LAYER
  5
2
330
0
100
AcDbSymbolTable
 70
     1
  0
LAYER
  5
10
330
2
100
AcDbSymbolTableRecord
100
AcDbLayerTableRecord
  2
0
 70
     0
 62
     7
  6
CONTINUOUS
  0
ENDTAB
  0
TABLE
  2
STYLE
  5
3
330
0
100
AcDbSymbolTable
 70
     2
  0
STYLE
  5
11
330
3
100
AcDbSymbolTableRecord
100
AcDbTextStyleTableRecord
  2
STANDARD
 70
     0
 40
0.0
 41
1.0
 50
0.0
 71
     0
 42
0.2
  3
txt
  4

  0
STYLE
  5
6E
330
3
100
AcDbSymbolTableRecord
100
AcDbTextStyleTableRecord
  2
ＭＳ_ゴシック
 70
     0
 40
0.0
 41
1.0
 50
0.0
 71
     0
 42
0.2
  3
ＭＳ ゴシック.shx
  4

  0
ENDTAB
  0
TABLE
  2
VIEW
  5
6
330
0
100
AcDbSymbolTable
 70
     0
  0
ENDTAB
  0
TABLE
  2
UCS
  5
7
330
0
100
AcDbSymbolTable
 70
     0
  0
ENDTAB
  0
TABLE
  2
APPID
  5
9
330
0
100
AcDbSymbolTable
 70
     2
  0
APPID
  5
12
330
9
100
AcDbSymbolTableRecord
100
AcDbRegAppTableRecord
  2
ACAD
 70
     0
  0
APPID
  5
28B
330
9
100
AcDbSymbolTableRecord
100
AcDbRegAppTableRecord
  2
ACAD_MLEADERVER
 70
     0
  0
ENDTAB
  0
TABLE
  2
DIMSTYLE
  5
A
330
0
100
AcDbSymbolTable
 70
     1
  0
DIMSTYLE
105
27
330
A
100
AcDbSymbolTableRecord
100
AcDbDimStyleTableRecord
  2
STANDARD
 70
     0
  3

  4

  5

  6

  7

 40
1.0
 41
0.18
 42
0.0625
 43
0.38
 44
0.18
 45
0.0
 46
0.0
 47
0.0
 48
0.0
140
0.18
141
0.09
142
0.0
143
25.4
144
1.0
145
0.0
146
1.0
147
0.09
 71
     0
 72
     0
 73
     1
 74
     1
 75
     0
 76
     0
 77
     0
 78
     0
170
     0
171
     2
172
     0
173
     0
174
     0
175
     0
176
     0
177
     0
178
     0
270
     2
271
     4
272
     4
273
     2
274
     2
340
11
275
     0
280
     0
281
     0
282
     0
283
     1
284
     0
285
     0
286
     0
287
     3
288
     0
  0
ENDTAB
  0
TABLE
  2
BLOCK_RECORD
  5
1
330
0
100
AcDbSymbolTable
 70
     0
  0
BLOCK_RECORD
  5
1F
330
1
100
AcDbSymbolTableRecord
100
AcDbBlockTableRecord
  2
*MODEL_SPACE
  0
BLOCK_RECORD
  5
1B
330
1
100
AcDbSymbolTableRecord
100
AcDbBlockTableRecord
  2
*PAPER_SPACE
  0
ENDTAB
  0
ENDSEC
  0
SECTION
  2
BLOCKS
  0
BLOCK
  5
20
330
1F
100
AcDbEntity
  8
0
100
AcDbBlockBegin
  2
*MODEL_SPACE
 70
     0
 10
0.0
 20
0.0
 30
0.0
  3
*MODEL_SPACE
  1

  0
ENDBLK
  5
21
330
1F
100
AcDbEntity
  8
0
100
AcDbBlockEnd
  0
BLOCK
  5
1C
330
1B
100
AcDbEntity
 67
     1
  8
0
100
AcDbBlockBegin
  2
*PAPER_SPACE
 70
     0
 10
0.0
 20
0.0
 30
0.0
  3
*PAPER_SPACE
  1

  0
ENDBLK
  5
1D
330
1B
100
AcDbEntity
 67
     1
  8
0
100
AcDbBlockEnd
  0
ENDSEC
  0
SECTION
  2
ENTITIES
  0
MTEXT
  5
6F
330
1F
100
AcDbEntity
  8
0
 62
     7
100
AcDbMText
 10
162.7263505064399
 20
257.371601850694
 30
0.0
 40
3.0
 41
0.0
 71
     1
 72
     1
  1
{\fＭＳ ゴシック;BML-150}
  0
LINE
  5
70
330
1F
100
AcDbEntity
  8
0
  6
CONTINUOUS
 62
     7
100
AcDbLine
 10
196.6638842439258
 20
367.4860595645046
 30
0.0
 11
197.1638842439258
 21
367.4860595645046
 31
0.0
  0
LINE
  5
71
330
1F
100
AcDbEntity
  8
0
  6
CONTINUOUS
 62
     7
100
AcDbLine
 10
293.5374879720207
 20
283.4860595645121
 30
0.0
 11
293.4392648782973
 21
283.6509609166695
 31
0.0
  0
LINE
  5
72
330
1F
100
AcDbEntity
  8
0
  6
CONTINUOUS
 62
     7
100
AcDbLine
 10
196.6638842439258
 20
289.1471555450881
 30
0.0
 11
197.1638842439258
 21
289.1471555450881
 31
0.0
  0
LINE
  5
73
330
1F
100
AcDbEntity
  8
0
  6
CONTINUOUS
 62
     7
100
AcDbLine
 10
196.9138842439258
 20
283.4860595645046
 30
0.0
 11
197.1638842439258
 21
283.5221942796354
 31
0.0
  0
LINE
  5
74
330
1F
100
AcDbEntity
  8
0
  6
CONTINUOUS
 62
     7
100
AcDbLine
 10
196.6638842439258
 20
284.6958474012968
 30
0.0
 11
197.1638842439258
 21
284.6958474012968
 31
0.0
  0
LINE
  5
75
330
1F
100
AcDbEntity
  8
0
  6
CONTINUOUS
 62
     7
100
AcDbLine
 10
196.6638842439258
 20
307.0791071410072
 30
0.0
 11
197.1638842439258
 21
307.0791071410072
 31
0.0
  0
ARC
  5
76
330
1F
100
AcDbEntity
  8
0
  6
CONTINUOUS
 62
     7
100
AcDbCircle
 10
532.4153441943981
 20
306.3399533213668
 30
0.0
 40
240.0507380985023
100
AcDbArc
 50
180.1031291891102
 51
185.4235488648767
  0
ARC
  5
77
330
1F
100
AcDbEntity
  8
0
  6
CONTINUOUS
 62
     7
100
AcDbCircle
 10
551.0944759559519
 20
312.7098379101687
 30
0.0
 40
348.8810326740115
100
AcDbArc
 50
180.1725199412357
 51
184.7659625696489
  0
LINE
  5
78
330
1F
100
AcDbEntity
  8
0
  6
CONTINUOUS
 62
     7
100
AcDbLine
 10
196.6638842439258
 20
319.870635749658
 30
0.0
 11
197.1638842439258
 21
319.870635749658
 31
0.0
  0
LINE
  5
79
330
1F
100
AcDbEntity
  8
0
  6
CONTINUOUS
 62
     7
100
AcDbLine
 10
196.6638842439258
 20
440.4892105285453
 30
0.0
 11
197.1638842439258
 21
440.4892105285453
 31
0.0
  0
LINE
  5
7A
330
1F
100
AcDbEntity
  8
0
  6
CONTINUOUS
 62
     7
100
AcDbLine
 10
197.1638842439258
 20
454.3008201176317
 30
0.0
 11
197.1638842439258
 21
450.8249635839211
 31
0.0
  0
LINE
  5
7B
330
1F
100
AcDbEntity
  8
0
  6
CONTINUOUS
 62
     7
100
AcDbLine
 10
197.1638842439258
 20
289.1471555450882
 30
0.0
 11
197.1638842439258
 21
285.6712990113774
 31
0.0
  0
ARC
  5
7C
330
1F
100
AcDbEntity
  8
0
  6
CONTINUOUS
 62
     7
100
AcDbCircle
 10
-151.7864166113988
 20
426.4533388305915
 30
0.0
 40
366.80273011973
100
AcDbArc
 50
0.2158847790127539
 51
4.652863126271143
  0
LINE
  5
7D
330
1F
100
AcDbEntity
  8
0
  6
CONTINUOUS
 62
     7
100
AcDbLine
 10
197.1638842439258
 20
456.4499248493738
 30
0.0
 11
197.1638842439258
 21
455.2762717277125
 31
0.0
  0
LINE
  5
7E
330
1F
100
AcDbEntity
  8
0
  6
CONTINUOUS
 62
     7
100
AcDbLine
 10
196.6638842439258
 20
289.147155545088
 30
0.0
 11
197.1638842439257
 21
291.0605727069132
 31
0.0
  0
LINE
  5
7F
330
1F
100
AcDbEntity
  8
0
  6
CONTINUOUS
 62
     7
100
AcDbLine
 10
296.1982293748902
 20
368.9860595645046
 30
0.0
 11
291.0556739324696
 21
368.9860595645046
 31
0.0
  0
LINE
  5
80
330
1F
100
AcDbEntity
  8
0
  6
CONTINUOUS
 62
     7
100
AcDbLine
 10
196.6638842439258
 20
350.6658330423122
 30
0.0
 11
197.1638842439258
 21
350.6658330423122
 31
0.0
  0
LINE
  5
81
330
1F
100
AcDbEntity
  8
0
  6
CONTINUOUS
 62
     7
100
AcDbLine
 10
196.6638842439258
 20
355.5697594443283
 30
0.0
 11
196.8815607497356
 21
353.4278886056059
 31
0.0
  0
LINE
  5
82
330
1F
100
AcDbEntity
  8
0
  6
CONTINUOUS
 62
     7
100
AcDbLine
 10
197.1638842439258
 20
450.8249635839211
 30
0.0
 11
196.6638842439258
 21
448.9115464220956
 31
0.0
  0
LINE
  5
83
330
1F
100
AcDbEntity
  8
0
  6
CONTINUOUS
 62
     7
100
AcDbLine
 10
196.6638842439258
 20
284.6958474012966
 30
0.0
 11
197.1638842439257
 21
285.6712990113772
 31
0.0
  0
ARC
  5
84
330
1F
100
AcDbEntity
  8
0
  6
CONTINUOUS
 62
     7
100
AcDbCircle
 10
805.4730784441144
 20
320.5931991965306
 30
0.0
 40
503.4225878888499
100
AcDbArc
 50
180.2555585616936
 51
184.1871442495406
  0
LINE
  5
85
330
1F
100
AcDbEntity
  8
0
  6
CONTINUOUS
 62
     7
100
AcDbLine
 10
197.1638842439258
 20
443.2670616936433
 30
0.0
 11
196.6638842439258
 21
440.4892105285452
 31
0.0
  0
LINE
  5
86
330
1F
100
AcDbEntity
  8
0
  6
CONTINUOUS
 62
     7
100
AcDbLine
 10
196.6638842439258
 20
429.3574780820693
 30
0.0
 11
197.1638842439258
 21
429.3574780820693
 31
0.0
  0
LINE
  5
87
330
1F
100
AcDbEntity
  8
0
  6
CONTINUOUS
 62
     7
100
AcDbLine
 10
196.6638842439258
 20
405.3840471385493
 30
0.0
 11
197.1638842439258
 21
405.3840471385493
 31
0.0
  0
LINE
  5
88
330
1F
100
AcDbEntity
  8
0
  6
CONTINUOUS
 62
     7
100
AcDbLine
 10
197.1638842439258
 20
448.9115464220956
 30
0.0
 11
197.1638842439258
 21
443.2670616936433
 31
0.0
  0
LINE
  5
89
330
1F
100
AcDbEntity
  8
0
  6
CONTINUOUS
 62
     7
100
AcDbLine
 10
197.1638842439258
 20
307.0791071410072
 30
0.0
 11
197.1638842439258
 21
299.4829086004642
 31
0.0
  0
LINE
  5
8A
330
1F
100
AcDbEntity
  8
0
  6
CONTINUOUS
 62
     7
100
AcDbLine
 10
196.6638842439258
 20
339.2074696530165
 30
0.0
 11
196.846572422408
 21
337.5068250724736
 31
0.0
  0
LINE
  5
8B
330
1F
100
AcDbEntity
  8
0
  6
CONTINUOUS
 62
     7
100
AcDbLine
 10
196.6638842439258
 20
389.3062860866969
 30
0.0
 11
197.1638842439258
 21
389.3062860866969
 31
0.0
  0
LINE
  5
8C
330
1F
100
AcDbEntity
  8
0
  6
CONTINUOUS
 62
     7
100
AcDbLine
 10
196.6638842439258
 20
450.8249635839211
 30
0.0
 11
197.1638842439258
 21
450.8249635839211
 31
0.0
  0
LINE
  5
8D
330
1F
100
AcDbEntity
  8
0
  6
CONTINUOUS
 62
     7
100
AcDbLine
 10
196.6638842439258
 20
307.079107141007
 30
0.0
 11
197.1638842439257
 21
310.6146410469395
 31
0.0
  0
LINE
  5
8E
330
1F
100
AcDbEntity
  8
0
  6
CONTINUOUS
 62
     7
100
AcDbLine
 10
196.8138842439258
 20
368.9860595645046
 30
0.0
 11
199.1638842439258
 21
368.9860595645046
 31
0.0
  0
ARC
  5
8F
330
1F
100
AcDbEntity
  8
0
  6
CONTINUOUS
 62
     7
100
AcDbCircle
 10
133.7210492051753
 20
439.1399038943375
 30
0.0
 40
170.9479568070103
100
AcDbArc
 50
0.443523585578248
 51
5.708670972345033
  0
LINE
  5
90
330
1F
100
AcDbEntity
  8
0
  6
CONTINUOUS
 62
     7
100
AcDbLine
 10
197.1638842439258
 20
420.1014833793511
 30
0.0
 11
196.6638842439258
 21
415.9441353178385
 31
0.0
  0
LINE
  5
91
330
1F
100
AcDbEntity
  8
0
  6
CONTINUOUS
 62
     7
100
AcDbLine
 10
196.6638842439258
 20
443.2670616936433
 30
0.0
 11
197.1638842439258
 21
443.2670616936433
 31
0.0
  0
ARC
  5
92
330
1F
100
AcDbEntity
  8
0
  6
CONTINUOUS
 62
     7
100
AcDbCircle
 10
-9356.014966238532
 20
206.1734144330901
 30
0.0
 40
9573.595142765453
100
AcDbArc
 50
0.9864147516852881
 51
1.326714963316874
  0
LINE
  5
93
330
1F
100
AcDbEntity
  8
0
  6
CONTINUOUS
 62
     7
100
AcDbLine
 10
196.6638842439258
 20
454.3008201176318
 30
0.0
 11
197.1638842439258
 21
454.3008201176318
 31
0.0
  0
LINE
  5
94
330
1F
100
AcDbEntity
  8
0
  6
CONTINUOUS
 62
     7
100
AcDbLine
 10
197.1638842439258
 20
284.6958474012968
 30
0.0
 11
197.1638842439258
 21
283.5221942796355
 31
0.0
  0
ARC
  5
95
330
1F
100
AcDbEntity
  8
0
  6
CONTINUOUS
 62
     7
100
AcDbCircle
 10
11963.54301142227
 20
573.9364270383098
 30
0.0
 40
11664.28808718063
100
AcDbArc
 50
181.0067820076392
 51
181.2555694152766
  0
LINE
  5
96
330
1F
100
AcDbEntity
  8
0
  6
CONTINUOUS
 62
     7
100
AcDbLine
 10
203.5372783633776
 20
283.4860595646559
 30
0.0
 11
203.4197366062103
 21
283.7227618628343
 31
0.0
  0
LINE
  5
97
330
1F
100
AcDbEntity
  8
0
  6
CONTINUOUS
 62
     7
100
AcDbLine
 10
196.6638842439258
 20
324.0279838111709
 30
0.0
 11
196.805296324645
 21
322.8358967652628
 31
0.0
  0
LINE
  5
98
330
1F
100
AcDbEntity
  8
0
  6
CONTINUOUS
 62
     7
100
AcDbLine
 10
213.6796193298718
 20
456.4860595644531
 30
0.0
 11
213.8075003754243
 21
456.2078458088529
 31
0.0
  0
LINE
  5
99
330
1F
100
AcDbEntity
  8
0
  6
CONTINUOUS
 62
     7
100
AcDbLine
 10
197.1638842439258
 20
429.3574780820693
 30
0.0
 11
197.1638842439258
 21
420.1014833793514
 31
0.0
  0
LINE
  5
9A
330
1F
100
AcDbEntity
  8
0
  6
CONTINUOUS
 62
     7
100
AcDbLine
 10
196.6638842439258
 20
310.61464104694
 30
0.0
 11
196.7513544307215
 21
309.9813803221157
 31
0.0
  0
LINE
  5
9B
330
1F
100
AcDbEntity
  8
0
  6
CONTINUOUS
 62
     7
100
AcDbLine
 10
197.1638842439258
 20
296.705057435366
 30
0.0
 11
197.1638842439258
 21
291.0605727069137
 31
0.0
  0
LINE
  5
9C
330
1F
100
AcDbEntity
  8
0
  6
CONTINUOUS
 62
     7
100
AcDbLine
 10
196.6638842439258
 20
432.8930119880021
 30
0.0
 11
197.1638842439258
 21
432.8930119880021
 31
0.0
  0
LINE
  5
9D
330
1F
100
AcDbEntity
  8
0
  6
CONTINUOUS
 62
     7
100
AcDbLine
 10
196.6638842439258
 20
334.5880719904598
 30
0.0
 11
197.1638842439258
 21
339.2074696530161
 31
0.0
  0
LINE
  5
9E
330
1F
100
AcDbEntity
  8
0
  6
CONTINUOUS
 62
     7
100
AcDbLine
 10
197.1638842439258
 20
367.4860595645046
 30
0.0
 11
197.1638842439258
 21
355.5697594443286
 31
0.0
  0
LINE
  5
9F
330
1F
100
AcDbEntity
  8
0
  6
CONTINUOUS
 62
     7
100
AcDbLine
 10
196.6638842439258
 20
448.9115464220957
 30
0.0
 11
197.1638842439258
 21
448.9115464220957
 31
0.0
  0
ARC
  5
A0
330
1F
100
AcDbEntity
  8
0
  6
CONTINUOUS
 62
     7
100
AcDbCircle
 10
9583.050610634502
 20
530.0131127309786
 30
0.0
 40
9383.376506150475
100
AcDbArc
 50
180.9832945990072
 51
181.3334090068879
  0
LINE
  5
A1
330
1F
100
AcDbEntity
  8
0
  6
CONTINUOUS
 62
     7
100
AcDbLine
 10
196.6638842439258
 20
420.1014833793512
 30
0.0
 11
197.1638842439258
 21
420.1014833793512
 31
0.0
  0
LINE
  5
A2
330
1F
100
AcDbEntity
  8
0
  6
CONTINUOUS
 62
     7
100
AcDbLine
 10
197.1638842439258
 20
432.893011988002
 30
0.0
 11
196.6638842439258
 21
429.3574780820693
 31
0.0
  0
LINE
  5
A3
330
1F
100
AcDbEntity
  8
0
  6
CONTINUOUS
 62
     7
100
AcDbLine
 10
197.1638842439258
 20
350.6658330423122
 30
0.0
 11
197.1638842439258
 21
339.2074696530166
 31
0.0
  0
LINE
  5
A4
330
1F
100
AcDbEntity
  8
0
  6
CONTINUOUS
 62
     7
100
AcDbLine
 10
196.6638842439258
 20
299.482908600464
 30
0.0
 11
196.6705857897356
 21
299.4440873025775
 31
0.0
  0
LINE
  5
A5
330
1F
100
AcDbEntity
  8
0
  6
CONTINUOUS
 62
     7
100
AcDbLine
 10
196.6638842439258
 20
296.7050574353659
 30
0.0
 11
197.1638842439258
 21
296.7050574353659
 31
0.0
  0
LINE
  5
A6
330
1F
100
AcDbEntity
  8
0
  6
CONTINUOUS
 62
     7
100
AcDbLine
 10
197.1638842439258
 20
319.870635749658
 30
0.0
 11
197.1638842439258
 21
310.6146410469401
 31
0.0
  0
ARC
  5
A7
330
1F
100
AcDbEntity
  8
0
  6
CONTINUOUS
 62
     7
100
AcDbCircle
 10
8011.402447269848
 20
497.6854929084625
 30
0.0
 40
7721.419419039736
100
AcDbArc
 50
180.9550414804597
 51
181.4232069920073
  0
LINE
  5
A8
330
1F
100
AcDbEntity
  8
0
  6
CONTINUOUS
 62
     7
100
AcDbLine
 10
196.6638842439258
 20
319.8706357496579
 30
0.0
 11
197.1638842439258
 21
324.0279838111707
 31
0.0
  0
LINE
  5
A9
330
1F
100
AcDbEntity
  8
0
  6
CONTINUOUS
 62
     7
100
AcDbLine
 10
306.6638842439258
 20
368.9860595645046
 30
0.0
 11
301.0556297520901
 21
368.9860595645046
 31
0.0
  0
LINE
  5
AA
330
1F
100
AcDbEntity
  8
0
  6
CONTINUOUS
 62
     7
100
AcDbLine
 10
306.6638842439258
 20
370.9860595645046
 30
0.0
 11
301.0188439178249
 21
370.9860595645046
 31
0.0
  0
LINE
  5
AB
330
1F
100
AcDbEntity
  8
0
  6
CONTINUOUS
 62
     7
100
AcDbLine
 10
201.1971214049736
 20
368.9860595645047
 30
0.0
 11
201.1599264131633
 21
370.9860595645045
 31
0.0
  0
ARC
  5
AC
330
1F
100
AcDbEntity
  8
0
  6
CONTINUOUS
 62
     7
100
AcDbCircle
 10
237.6469126581515
 20
459.1051268135901
 30
0.0
 40
0.524989580529227
100
AcDbArc
 50
352.7046798981431
 51
46.453133889725
  0
ARC
  5
AD
330
1F
100
AcDbEntity
  8
0
  6
CONTINUOUS
 62
     7
100
AcDbCircle
 10
292.5224747895784
 20
280.912396319036
 30
0.0
 40
0.6465308967291515
100
AcDbArc
 50
318.7608411190552
 51
2.361904727891499
  0
ARC
  5
AE
330
1F
100
AcDbEntity
  8
0
  6
CONTINUOUS
 62
     7
100
AcDbCircle
 10
-3929.771080230753
 20
313.342736360019
 30
0.0
 40
4131.192292221511
100
AcDbArc
 50
0.7994850108873743
 51
1.894161531530461
  0
ARC
  5
AF
330
1F
100
AcDbEntity
  8
0
  6
CONTINUOUS
 62
     7
100
AcDbCircle
 10
-2719.713742002845
 20
336.8595563350865
 30
0.0
 40
3010.925985883426
100
AcDbArc
 50
0.6494169835921497
 51
2.22292384166299
  0
LINE
  5
B0
330
1F
100
AcDbEntity
  8
0
  6
CONTINUOUS
 62
     7
100
AcDbLine
 10
301.1597343786269
 20
370.9860595645046
 30
0.0
 11
301.1968637396701
 21
368.9860595645046
 31
0.0
  0
LINE
  5
B1
330
1F
100
AcDbEntity
  8
0
  6
CONTINUOUS
 62
     7
100
AcDbLine
 10
197.1638842439258
 20
400.7646494759928
 30
0.0
 11
197.1638842439258
 21
389.3062860866966
 31
0.0
  0
ARC
  5
B2
330
1F
100
AcDbEntity
  8
0
  6
CONTINUOUS
 62
     7
100
AcDbCircle
 10
263.1625352690173
 20
452.1964716203156
 30
0.0
 40
25.82464190273406
100
AcDbArc
 50
3.218066006760231
 51
8.51116847143352
  0
ARC
  5
B3
330
1F
100
AcDbEntity
  8
0
  6
CONTINUOUS
 62
     7
100
AcDbCircle
 10
259.685896539766
 20
280.9112928357088
 30
0.0
 40
0.6381754167090142
100
AcDbArc
 50
177.4680252094903
 51
221.5867207797188
  0
LINE
  5
B4
330
1F
100
AcDbEntity
  8
0
  6
CONTINUOUS
 62
     7
100
AcDbLine
 10
196.6638842439258
 20
350.6658330423121
 30
0.0
 11
197.1638842439258
 21
355.5697594443283
 31
0.0
  0
ARC
  5
B5
330
1F
100
AcDbEntity
  8
0
  6
CONTINUOUS
 62
     7
100
AcDbCircle
 10
269.6668387723257
 20
280.9021205065632
 30
0.0
 40
0.6178138939929938
100
AcDbArc
 50
177.2893053272786
 51
222.1588397085238
  0
LINE
  5
B6
330
1F
100
AcDbEntity
  8
0
  6
CONTINUOUS
 62
     7
100
AcDbLine
 10
196.6638842439258
 20
334.5880719904599
 30
0.0
 11
197.1638842439258
 21
334.5880719904599
 31
0.0
  0
LINE
  5
B7
330
1F
100
AcDbEntity
  8
0
  6
CONTINUOUS
 62
     7
100
AcDbLine
 10
274.2082618149666
 20
459.4849618434115
 30
0.0
 11
274.049573683258
 21
459.0399048077582
 31
0.0
  0
LINE
  5
B8
330
1F
100
AcDbEntity
  8
0
  6
CONTINUOUS
 62
     7
100
AcDbLine
 10
196.6638842439258
 20
384.4023596846808
 30
0.0
 11
197.1638842439258
 21
384.4023596846808
 31
0.0
  0
ARC
  5
B9
330
1F
100
AcDbEntity
  8
0
  6
CONTINUOUS
 62
     7
100
AcDbCircle
 10
304.6938601646262
 20
459.0594228848245
 30
0.0
 40
0.6458883568550674
100
AcDbArc
 50
138.7066819272005
 51
182.3877935861735
  0
ARC
  5
BA
330
1F
100
AcDbEntity
  8
0
  6
CONTINUOUS
 62
     7
100
AcDbCircle
 10
-2868.743556124562
 20
333.4138803134515
 30
0.0
 40
3169.985069582528
100
AcDbArc
 50
0.6791128844754468
 51
2.165651377213674
  0
LINE
  5
BB
330
1F
100
AcDbEntity
  8
0
  6
CONTINUOUS
 62
     7
100
AcDbLine
 10
211.1970155289399
 20
368.9860595645047
 30
0.0
 11
211.1598061389041
 21
370.9860595645047
 31
0.0
  0
ARC
  5
BC
330
1F
100
AcDbEntity
  8
0
  6
CONTINUOUS
 62
     7
100
AcDbCircle
 10
257.5323995496767
 20
459.0613005084103
 30
0.0
 40
0.6370116162244727
100
AcDbArc
 50
357.4268880950705
 51
41.62945642380913
  0
LINE
  5
BD
330
1F
100
AcDbEntity
  8
0
  6
CONTINUOUS
 62
     7
100
AcDbLine
 10
196.6638842439258
 20
400.7646494759929
 30
0.0
 11
197.1638842439258
 21
400.7646494759929
 31
0.0
  0
LINE
  5
BE
330
1F
100
AcDbEntity
  8
0
  6
CONTINUOUS
 62
     7
100
AcDbLine
 10
196.6638842439257
 20
283.5221942796354
 30
0.0
 11
196.9138842439258
 21
283.4860595645046
 31
0.0
  0
LINE
  5
BF
330
1F
100
AcDbEntity
  8
0
  6
CONTINUOUS
 62
     7
100
AcDbLine
 10
196.6638842439258
 20
456.4499248493738
 30
0.0
 11
197.1638842439258
 21
456.4499248493738
 31
0.0
  0
ARC
  5
C0
330
1F
100
AcDbEntity
  8
0
  6
CONTINUOUS
 62
     7
100
AcDbCircle
 10
224.691621956672
 20
459.0610174851182
 30
0.0
 40
0.6434995081912119
100
AcDbArc
 50
138.6628386303979
 51
182.4284917880566
  0
ARC
  5
C1
330
1F
100
AcDbEntity
  8
0
  6
CONTINUOUS
 62
     7
100
AcDbCircle
 10
212.5216171571261
 20
280.9135967749139
 30
0.0
 40
0.6475458955596718
100
AcDbArc
 50
318.771473797779
 51
2.33889957468017
  0
LINE
  5
C2
330
1F
100
AcDbEntity
  8
0
  6
CONTINUOUS
 62
     7
100
AcDbLine
 10
196.9138842439258
 20
456.4860595645046
 30
0.0
 11
196.6638842439258
 21
456.4499248493737
 31
0.0
  0
LINE
  5
C3
330
1F
100
AcDbEntity
  8
0
  6
CONTINUOUS
 62
     7
100
AcDbLine
 10
291.1597292444957
 20
370.9860595645046
 30
0.0
 11
291.1969077105057
 21
368.9860595645046
 31
0.0
  0
ARC
  5
C4
330
1F
100
AcDbEntity
  8
0
  6
CONTINUOUS
 62
     7
100
AcDbCircle
 10
267.5288626972228
 20
459.060079975846
 30
0.0
 40
0.6404469592575908
100
AcDbArc
 50
357.5221151596784
 51
41.50253064480773
  0
LINE
  5
C5
330
1F
100
AcDbEntity
  8
0
  6
CONTINUOUS
 62
     7
100
AcDbLine
 10
197.1638842439258
 20
405.3840471385492
 30
0.0
 11
196.6638842439258
 21
400.7646494759928
 31
0.0
  0
ARC
  5
C6
330
1F
100
AcDbEntity
  8
0
  6
CONTINUOUS
 62
     7
100
AcDbCircle
 10
207.5282880597914
 20
459.0602418737225
 30
0.0
 40
0.6409066976755327
100
AcDbArc
 50
357.5144162598059
 51
41.50399425147675
  0
ARC
  5
C7
330
1F
100
AcDbEntity
  8
0
  6
CONTINUOUS
 62
     7
100
AcDbCircle
 10
279.828417285771
 20
280.959565897445
 30
0.0
 40
0.779527498844204
100
AcDbArc
 50
181.8836752904231
 51
217.3339994687803
  0
ARC
  5
C8
330
1F
100
AcDbEntity
  8
0
  6
CONTINUOUS
 62
     7
100
AcDbCircle
 10
284.5710745966863
 20
459.1039075921446
 30
0.0
 40
0.5264457579319581
100
AcDbArc
 50
133.5197143721345
 51
187.3962149571818
  0
ARC
  5
C9
330
1F
100
AcDbEntity
  8
0
  6
CONTINUOUS
 62
     7
100
AcDbCircle
 10
217.5227770807917
 20
459.0593492032735
 30
0.0
 40
0.6462968135593439
100
AcDbArc
 50
357.6303775640577
 51
41.26911901668223
  0
LINE
  5
CA
330
1F
100
AcDbEntity
  8
0
  6
CONTINUOUS
 62
     7
100
AcDbLine
 10
197.1638842439258
 20
440.4892105285452
 30
0.0
 11
197.1638842439258
 21
432.8930119880022
 31
0.0
  0
ARC
  5
CB
330
1F
100
AcDbEntity
  8
0
  6
CONTINUOUS
 62
     7
100
AcDbCircle
 10
254.6897238523914
 20
459.0593550011528
 30
0.0
 40
0.642085251624111
100
AcDbArc
 50
138.5393795855309
 51
182.4710812977226
  0
ARC
  5
CC
330
1F
100
AcDbEntity
  8
0
  6
CONTINUOUS
 62
     7
100
AcDbCircle
 10
209.8282223572378
 20
280.9595404122849
 30
0.0
 40
0.7793380478837567
100
AcDbArc
 50
181.8791048284652
 51
217.3422371847024
  0
ARC
  5
CD
330
1F
100
AcDbEntity
  8
0
  6
CONTINUOUS
 62
     7
100
AcDbCircle
 10
214.5712631961796
 20
459.1038182852798
 30
0.0
 40
0.5266510781336577
100
AcDbArc
 50
133.5291011002045
 51
187.3942451944028
  0
LINE
  5
CE
330
1F
100
AcDbEntity
  8
0
  6
CONTINUOUS
 62
     7
100
AcDbLine
 10
203.1686293366058
 20
280.9396087977418
 30
0.0
 11
203.0088565346784
 21
280.4874598464801
 31
0.0
  0
LINE
  5
CF
330
1F
100
AcDbEntity
  8
0
  6
CONTINUOUS
 62
     7
100
AcDbLine
 10
206.0201015293256
 20
370.9860595645047
 30
0.0
 11
206.0571783620304
 21
368.9860595645047
 31
0.0
  0
LINE
  5
D0
330
1F
100
AcDbEntity
  8
0
  6
CONTINUOUS
 62
     7
100
AcDbLine
 10
201.019038209103
 20
370.9860595645046
 30
0.0
 11
206.1613382589549
 21
370.9860595645046
 31
0.0
  0
ARC
  5
D1
330
1F
100
AcDbEntity
  8
0
  6
CONTINUOUS
 62
     7
100
AcDbCircle
 10
262.529659560055
 20
280.9118932658592
 30
0.0
 40
0.6397560182557972
100
AcDbArc
 50
318.4680457497587
 51
2.508594715384561
  0
LINE
  5
D2
330
1F
100
AcDbEntity
  8
0
  6
CONTINUOUS
 62
     7
100
AcDbLine
 10
197.0138842439258
 20
370.9860595645046
 30
0.0
 11
199.1638842439258
 21
370.9860595645046
 31
0.0
  0
ARC
  5
D3
330
1F
100
AcDbEntity
  8
0
  6
CONTINUOUS
 62
     7
100
AcDbCircle
 10
294.6916134762091
 20
459.0611025560661
 30
0.0
 40
0.6434536106416797
100
AcDbArc
 50
138.6693404200396
 51
182.4195735321394
  0
ARC
  5
D4
330
1F
100
AcDbEntity
  8
0
  6
CONTINUOUS
 62
     7
100
AcDbCircle
 10
252.5345857224592
 20
280.9093955813774
 30
0.0
 40
0.6346162942757623
100
AcDbArc
 50
318.3272860434409
 51
2.589209129555513
  0
ARC
  5
D5
330
1F
100
AcDbEntity
  8
0
  6
CONTINUOUS
 62
     7
100
AcDbCircle
 10
267.7253137664453
 20
451.5759939935653
 30
0.0
 40
31.29439503907395
100
AcDbArc
 50
2.981354243460006
 51
8.163889297350394
  0
LINE
  5
D6
330
1F
100
AcDbEntity
  8
0
  6
CONTINUOUS
 62
     7
100
AcDbLine
 10
216.0201813363086
 20
370.9860595645047
 30
0.0
 11
216.0572872497457
 21
368.9860595645046
 31
0.0
  0
LINE
  5
D7
330
1F
100
AcDbEntity
  8
0
  6
CONTINUOUS
 62
     7
100
AcDbLine
 10
196.6638842439258
 20
296.7050574353656
 30
0.0
 11
197.1638842439258
 21
299.4829086004638
 31
0.0
  0
ARC
  5
D8
330
1F
100
AcDbEntity
  8
0
  6
CONTINUOUS
 62
     7
100
AcDbCircle
 10
249.6908517721715
 20
280.9130141957303
 30
0.0
 40
0.6431639086218873
100
AcDbArc
 50
177.5461296591657
 51
221.4280208807038
  0
LINE
  5
D9
330
1F
100
AcDbEntity
  8
0
  6
CONTINUOUS
 62
     7
100
AcDbLine
 10
243.1674556031794
 20
280.9322146089257
 30
0.0
 11
243.0088344725098
 21
280.4868198117265
 31
0.0
  0
LINE
  5
DA
330
1F
100
AcDbEntity
  8
0
  6
CONTINUOUS
 62
     7
100
AcDbLine
 10
229.2083905302798
 20
280.4861924372833
 30
0.0
 11
229.0486863433034
 21
280.9386529276198
 31
0.0
  0
ARC
  5
DB
330
1F
100
AcDbEntity
  8
0
  6
CONTINUOUS
 62
     7
100
AcDbCircle
 10
234.6932230115622
 20
459.0596807294826
 30
0.0
 40
0.6452206908326716
100
AcDbArc
 50
138.6850465567067
 51
182.3961857057013
  0
ARC
  5
DC
330
1F
100
AcDbEntity
  8
0
  6
CONTINUOUS
 62
     7
100
AcDbCircle
 10
299.6948267975162
 20
280.9123671371707
 30
0.0
 40
0.6467171714733423
100
AcDbArc
 50
177.6533690092667
 51
221.2222509069038
  0
ARC
  5
DD
330
1F
100
AcDbEntity
  8
0
  6
CONTINUOUS
 62
     7
100
AcDbCircle
 10
247.0849295345715
 20
458.9033181748667
 30
0.0
 40
1.091132980178224
100
AcDbArc
 50
7.211984595435222
 51
32.21162663142001
  0
LINE
  5
DE
330
1F
100
AcDbEntity
  8
0
  6
CONTINUOUS
 62
     7
100
AcDbLine
 10
199.2088565291319
 20
280.4874509675411
 30
0.0
 11
199.1638842480066
 21
280.5222633664168
 31
0.0
  0
LINE
  5
DF
330
1F
100
AcDbEntity
  8
0
  6
CONTINUOUS
 62
     7
100
AcDbLine
 10
197.1638842439258
 20
455.2762717277124
 30
0.0
 11
196.6638842439258
 21
454.3008201176318
 31
0.0
  0
LINE
  5
E0
330
1F
100
AcDbEntity
  8
0
  6
CONTINUOUS
 62
     7
100
AcDbLine
 10
204.2082691908683
 20
459.4849618414916
 30
0.0
 11
204.0495665980976
 21
459.0398650389067
 31
0.0
  0
ARC
  5
E1
330
1F
100
AcDbEntity
  8
0
  6
CONTINUOUS
 62
     7
100
AcDbCircle
 10
3090.566246788419
 20
400.0863421482453
 30
0.0
 40
2874.53631098421
100
AcDbArc
 50
180.6199085719176
 51
182.2744284746756
  0
ARC
  5
E2
330
1F
100
AcDbEntity
  8
0
  6
CONTINUOUS
 62
     7
100
AcDbCircle
 10
240.0374368128921
 20
287.294712542649
 30
0.0
 40
21.7810029316638
100
AcDbArc
 50
183.3868465204764
 51
188.827252318939
  0
ARC
  5
E3
330
1F
100
AcDbEntity
  8
0
  6
CONTINUOUS
 62
     7
100
AcDbCircle
 10
222.5224178955123
 20
280.9123790204797
 30
0.0
 40
0.6465722823405435
100
AcDbArc
 50
318.7661108120263
 51
2.356713055368516
  0
LINE
  5
E4
330
1F
100
AcDbEntity
  8
0
  6
CONTINUOUS
 62
     7
100
AcDbLine
 10
296.0573350570975
 20
368.9860595645046
 30
0.0
 11
296.0201804598343
 21
370.9860595645046
 31
0.0
  0
ARC
  5
E5
330
1F
100
AcDbEntity
  8
0
  6
CONTINUOUS
 62
     7
100
AcDbCircle
 10
2959.950513679334
 20
395.3759744082177
 30
0.0
 40
2663.883004139371
100
AcDbArc
 50
180.5676133196386
 51
182.3634084151522
  0
LINE
  5
E6
330
1F
100
AcDbEntity
  8
0
  6
CONTINUOUS
 62
     7
100
AcDbLine
 10
197.1638842439258
 20
334.58807199046
 30
0.0
 11
197.1638842439258
 21
324.0279838111709
 31
0.0
  0
ARC
  5
E7
330
1F
100
AcDbEntity
  8
0
  6
CONTINUOUS
 62
     7
100
AcDbCircle
 10
239.690048689557
 20
280.9120148994431
 30
0.0
 40
0.6421569403167354
100
AcDbArc
 50
177.5213887557394
 51
221.4640209466271
  0
LINE
  5
E8
330
1F
100
AcDbEntity
  8
0
  6
CONTINUOUS
 62
     7
100
AcDbLine
 10
244.2081207994149
 20
459.4849532817292
 30
0.0
 11
244.0484038101766
 21
459.0320043802797
 31
0.0
  0
ARC
  5
E9
330
1F
100
AcDbEntity
  8
0
  6
CONTINUOUS
 62
     7
100
AcDbCircle
 10
264.6837120074314
 20
459.0619399056524
 30
0.0
 40
0.6358925188149013
100
AcDbArc
 50
138.3569199682408
 51
182.5596115262876
  0
ARC
  5
EA
330
1F
100
AcDbEntity
  8
0
  6
CONTINUOUS
 62
     7
100
AcDbCircle
 10
3126.774062425236
 20
401.3217925099775
 30
0.0
 40
2920.754991116091
100
AcDbArc
 50
180.6343356015033
 51
182.2635903181176
  0
LINE
  5
EB
330
1F
100
AcDbEntity
  8
0
  6
CONTINUOUS
 62
     7
100
AcDbLine
 10
91.83342781385595
 20
294.064485048678
 30
0.0
 11
93.07768904599473
 21
291.0605727069135
 31
0.0
  0
LINE
  5
EC
330
1F
100
AcDbEntity
  8
0
  6
CONTINUOUS
 62
     7
100
AcDbLine
 10
203.6797384900858
 20
456.486059564486
 30
0.0
 11
203.7843045158425
 21
456.2997569845296
 31
0.0
  0
LINE
  5
ED
330
1F
100
AcDbEntity
  8
0
  6
CONTINUOUS
 62
     7
100
AcDbLine
 10
119.0950463880586
 20
435.0888636829117
 30
0.0
 11
116.9999945238709
 21
437.0027466461367
 31
0.0
  0
LINE
  5
EE
330
1F
100
AcDbEntity
  8
0
  6
CONTINUOUS
 62
     7
100
AcDbLine
 10
318.6638842439258
 20
451.7360595645046
 30
0.0
 11
309.2619604552791
 21
451.7360595645046
 31
0.0
  0
LINE
  5
EF
330
1F
100
AcDbEntity
  8
0
  6
CONTINUOUS
 62
     7
100
AcDbLine
 10
213.5374026992582
 20
283.4860595645046
 30
0.0
 11
218.597063650747
 21
283.4860595645046
 31
0.0
  0
LINE
  5
F0
330
1F
100
AcDbEntity
  8
0
  6
CONTINUOUS
 62
     7
100
AcDbLine
 10
273.6797372893453
 20
456.4860595645046
 30
0.0
 11
268.6200568266552
 21
456.4860595645046
 31
0.0
  0
LINE
  5
F1
330
1F
100
AcDbEntity
  8
0
  6
CONTINUOUS
 62
     7
100
AcDbLine
 10
140.8921554677313
 20
367.4860595645046
 30
0.0
 11
144.1435667568192
 21
367.4860595645046
 31
0.0
  0
LINE
  5
F2
330
1F
100
AcDbEntity
  8
0
  6
CONTINUOUS
 62
     7
100
AcDbLine
 10
203.1685866490614
 20
280.9393681841815
 30
0.0
 11
203.6199973139309
 21
283.4861093112065
 31
0.0
  0
LINE
  5
F3
330
1F
100
AcDbEntity
  8
0
  6
CONTINUOUS
 62
     7
100
AcDbLine
 10
213.6796209829976
 20
456.4860595645046
 30
0.0
 11
208.6199478712321
 21
456.4860595645046
 31
0.0
  0
LINE
  5
F4
330
1F
100
AcDbEntity
  8
0
  6
CONTINUOUS
 62
     7
100
AcDbLine
 10
60.02458386268732
 20
280.5344961721952
 30
0.0
 11
60.19055983197502
 21
280.5222633893819
 31
0.0
  0
LINE
  5
F5
330
1F
100
AcDbEntity
  8
0
  6
CONTINUOUS
 62
     7
100
AcDbLine
 10
304.6638842439274
 20
459.4856526336729
 30
0.0
 11
304.6638842439258
 21
440.4631897311795
 31
0.0
  0
LINE
  5
F6
330
1F
100
AcDbEntity
  8
0
  6
CONTINUOUS
 62
     7
100
AcDbLine
 10
303.5374782753696
 20
283.4860595645046
 30
0.0
 11
306.6638842439257
 21
283.4860595645046
 31
0.0
  0
LINE
  5
F7
330
1F
100
AcDbEntity
  8
0
  6
CONTINUOUS
 62
     7
100
AcDbLine
 10
306.6638842439258
 20
456.4860595645046
 30
0.0
 11
304.6638842439257
 21
456.4860595645046
 31
0.0
  0
LINE
  5
F8
330
1F
100
AcDbEntity
  8
0
  6
CONTINUOUS
 62
     7
100
AcDbLine
 10
140.8921554677313
 20
372.4860595645046
 30
0.0
 11
144.1435667568192
 21
372.4860595645046
 31
0.0
  0
LINE
  5
F9
330
1F
100
AcDbEntity
  8
0
  6
CONTINUOUS
 62
     7
100
AcDbLine
 10
309.2619604552791
 20
288.2360595645046
 30
0.0
 11
318.6638842439258
 21
288.2360595645046
 31
0.0
  0
LINE
  5
FA
330
1F
100
AcDbEntity
  8
0
  6
CONTINUOUS
 62
     7
100
AcDbLine
 10
283.1686004751879
 20
280.9398927695249
 30
0.0
 11
283.6199155199637
 21
283.4861094815857
 31
0.0
  0
LINE
  5
FB
330
1F
100
AcDbEntity
  8
0
  6
CONTINUOUS
 62
     7
100
AcDbLine
 10
71.46168271673118
 20
287.8847837341711
 30
0.0
 11
72.09600159212621
 21
284.6958474012967
 31
0.0
  0
LINE
  5
FC
330
1F
100
AcDbEntity
  8
0
  6
CONTINUOUS
 62
     7
100
AcDbLine
 10
243.6797041382882
 20
456.4860595645046
 30
0.0
 11
238.6200567150246
 21
456.4860595645046
 31
0.0
  0
ARC
  5
FD
330
1F
100
AcDbEntity
  8
0
  6
CONTINUOUS
 62
     7
100
AcDbCircle
 10
66.41275361993516
 20
367.7169729964395
 30
0.0
 40
87.41620546590501
100
AcDbArc
 50
246.6563546176485
 51
265.8092241176764
  0
LINE
  5
FE
330
1F
100
AcDbEntity
  8
0
  6
CONTINUOUS
 62
     7
100
AcDbLine
 10
233.167890280174
 20
280.9353441859317
 30
0.0
 11
233.6199980718336
 21
283.4861094272156
 31
0.0
  0
LINE
  5
FF
330
1F
100
AcDbEntity
  8
0
  6
CONTINUOUS
 62
     7
100
AcDbLine
 10
82.93797345852505
 20
455.8475361534121
 30
0.0
 11
79.22705804514747
 21
456.8523687157549
 31
0.0
  0
ARC
  5
100
330
1F
100
AcDbEntity
  8
0
  6
CONTINUOUS
 62
     7
100
AcDbCircle
 10
57.67970147195003
 20
369.9860595645046
 30
0.0
 40
85.70000000000002
100
AcDbArc
 50
359.3314226395392
 51
0.6685773604607447
  0
LINE
  5
101
330
1F
100
AcDbEntity
  8
0
  6
CENTER
 62
     1
100
AcDbLine
 10
193.6638842439258
 20
370.0
 30
0.0
 11
403.6638842439258
 21
370.0
 31
0.0
  0
ARC
  5
103
330
1F
100
AcDbEntity
  8
0
  6
CONTINUOUS
 62
     7
100
AcDbCircle
 10
-2694.76090098749
 20
339.2236152449977
 30
0.0
 40
2905.953406768764
100
AcDbArc
 50
0.6262627060255168
 51
2.260902376174363
  0
LINE
  5
104
330
1F
100
AcDbEntity
  8
0
  6
CONTINUOUS
 62
     7
100
AcDbLine
 10
196.6638842439258
 20
445.9076340803311
 30
0.0
 11
196.6638842439258
 21
450.8249635839211
 31
0.0
  0
LINE
  5
105
330
1F
100
AcDbEntity
  8
0
  6
CONTINUOUS
 62
     7
100
AcDbLine
 10
196.6638842439258
 20
451.1118837847575
 30
0.0
 11
196.6638842439258
 21
456.4499248493738
 31
0.0
  0
CIRCLE
  5
106
330
1F
100
AcDbEntity
  8
0
  6
CONTINUOUS
 62
     7
100
AcDbCircle
 10
57.67970147195003
 20
369.9860595645046
 30
0.0
 40
83.25000000000001
  0
LINE
  5
107
330
1F
100
AcDbEntity
  8
0
  6
CONTINUOUS
 62
     7
100
AcDbLine
 10
283.5373606054969
 20
283.4860595645046
 30
0.0
 11
288.5970636468746
 21
283.4860595645046
 31
0.0
  0
LINE
  5
108
330
1F
100
AcDbEntity
  8
0
  6
CENTER
 62
     1
100
AcDbLine
 10
-33.82018771514352
 20
369.9864230893398
 30
0.0
 11
149.1786138179676
 21
369.9864230893398
 31
0.0
  0
LINE
  5
109
330
1F
100
AcDbEntity
  8
0
  6
CONTINUOUS
 62
     7
100
AcDbLine
 10
196.6638842439258
 20
294.064485048678
 30
0.0
 11
196.6638842439258
 21
289.1471555450881
 31
0.0
  0
ARC
  5
10A
330
1F
100
AcDbEntity
  8
0
  6
CONTINUOUS
 62
     7
100
AcDbCircle
 10
-43.51878139759391
 20
433.2203023713894
 30
0.0
 40
248.3776912839567
100
AcDbArc
 50
0.1417122663015675
 51
5.33166122112624
  0
LINE
  5
10B
330
1F
100
AcDbEntity
  8
0
  6
CONTINUOUS
 62
     7
100
AcDbLine
 10
273.1685936052273
 20
280.9394074175504
 30
0.0
 11
273.0088613877706
 21
280.4874599684483
 31
0.0
  0
LINE
  5
10C
330
1F
100
AcDbEntity
  8
0
  6
CONTINUOUS
 62
     7
100
AcDbLine
 10
197.1638842439258
 20
384.4023596846808
 30
0.0
 11
197.1638842439258
 21
372.4860595645045
 31
0.0
  0
LINE
  5
10D
330
1F
100
AcDbEntity
  8
0
  6
CONTINUOUS
 62
     7
100
AcDbLine
 10
197.1638842439258
 20
389.3062860866969
 30
0.0
 11
196.6638842439258
 21
384.4023596846807
 31
0.0
  0
LINE
  5
10E
330
1F
100
AcDbEntity
  8
0
  6
CONTINUOUS
 62
     7
100
AcDbLine
 10
306.6638842439258
 20
283.4860595645047
 30
0.0
 11
306.6638842439258
 21
456.4860595645046
 31
0.0
  0
LINE
  5
10F
330
1F
100
AcDbEntity
  8
0
  6
CONTINUOUS
 62
     7
100
AcDbLine
 10
199.1638843181078
 20
280.5222633664168
 30
0.0
 11
199.1638842439258
 21
449.8924139462349
 31
0.0
  0
CIRCLE
  5
110
330
1F
100
AcDbEntity
  8
0
  6
CONTINUOUS
 62
     7
100
AcDbCircle
 10
57.67970147195004
 20
369.9860595645046
 30
0.0
 40
78.99999999999999
  0
ARC
  5
111
330
1F
100
AcDbEntity
  8
0
  6
CONTINUOUS
 62
     7
100
AcDbCircle
 10
-7558.513914449452
 20
241.4204617487543
 30
0.0
 40
7765.75617851602
100
AcDbArc
 50
0.9559798434603978
 51
1.419777750189269
  0
ARC
  5
112
330
1F
100
AcDbEntity
  8
0
  6
CONTINUOUS
 62
     7
100
AcDbCircle
 10
282.5217985847942
 20
280.9135826715006
 30
0.0
 40
0.6473825782270177
100
AcDbArc
 50
318.7604282130368
 51
2.347804041377969
  0
LINE
  5
113
330
1F
100
AcDbEntity
  8
0
  6
CONTINUOUS
 62
     7
100
AcDbLine
 10
196.6638842439258
 20
367.4860595645046
 30
0.0
 11
197.1638842439258
 21
372.4860595645046
 31
0.0
  0
ARC
  5
114
330
1F
100
AcDbEntity
  8
0
  6
CONTINUOUS
 62
     7
100
AcDbCircle
 10
57.67970147195003
 20
369.9860595645046
 30
0.0
 40
86.49999999999996
100
AcDbArc
 50
0.6623937092430195
 51
359.3376062907528
  0
LINE
  5
115
330
1F
100
AcDbEntity
  8
0
  6
CONTINUOUS
 62
     7
100
AcDbLine
 10
293.6795754402577
 20
456.4860595645046
 30
0.0
 11
288.6199044480048
 21
456.4860595645046
 31
0.0
  0
LINE
  5
116
330
1F
100
AcDbEntity
  8
0
  6
CONTINUOUS
 62
     7
100
AcDbLine
 10
253.5372911138626
 20
283.4860595645046
 30
0.0
 11
258.5969520737674
 21
283.4860595645046
 31
0.0
  0
LINE
  5
117
330
1F
100
AcDbEntity
  8
0
  6
CONTINUOUS
 62
     7
100
AcDbLine
 10
196.9138842439258
 20
283.4860595645046
 30
0.0
 11
199.1638842439258
 21
283.4860595645046
 31
0.0
  0
LINE
  5
118
330
1F
100
AcDbEntity
  8
0
  6
CONTINUOUS
 62
     7
100
AcDbLine
 10
400.6638842439258
 20
287.2360595645047
 30
0.0
 11
400.6638842439258
 21
452.7360595645046
 31
0.0
  0
CIRCLE
  5
119
330
1F
100
AcDbEntity
  8
0
  6
CONTINUOUS
 62
     7
100
AcDbCircle
 10
57.67970147195004
 20
369.9860595645046
 30
0.0
 40
74.99999999999999
  0
LINE
  5
11A
330
1F
100
AcDbEntity
  8
0
  6
CENTER
 62
     1
100
AcDbLine
 10
57.67921305141204
 20
278.4870223227842
 30
0.0
 11
57.67921305141204
 21
461.4858238558953
 31
0.0
  0
ARC
  5
11B
330
1F
100
AcDbEntity
  8
0
  6
CONTINUOUS
 62
     7
100
AcDbCircle
 10
57.67893274807818
 20
369.9869557583136
 30
0.0
 40
89.49994109147163
100
AcDbArc
 50
48.48537696570065
 51
48.40572888269639
  0
ARC
  5
11C
330
1F
100
AcDbEntity
  8
0
  6
CONTINUOUS
 62
     7
100
AcDbCircle
 10
186.1427484669578
 20
452.5471968522761
 30
0.0
 40
22.82558741983277
100
AcDbArc
 50
3.305542383978404
 51
8.746814300144406
  0
LINE
  5
11D
330
1F
100
AcDbEntity
  8
0
  6
CONTINUOUS
 62
     7
100
AcDbLine
 10
101.8313898977627
 20
299.40850711934
 30
0.0
 11
103.6377772252839
 21
296.7050574353659
 31
0.0
  0
ARC
  5
11E
330
1F
100
AcDbEntity
  8
0
  6
CONTINUOUS
 62
     7
100
AcDbCircle
 10
65.61425650097397
 20
365.7141663253621
 30
0.0
 40
87.86640221750156
100
AcDbArc
 50
54.13467833391431
 51
73.34050991575181
  0
ARC
  5
11F
330
1F
100
AcDbEntity
  8
0
  6
CONTINUOUS
 62
     7
100
AcDbCircle
 10
277.5285112603272
 20
459.0603381752292
 30
0.0
 40
0.6406702068000564
100
AcDbArc
 50
357.5120522740112
 51
41.51120927037055
  0
ARC
  5
120
330
1F
100
AcDbEntity
  8
0
  6
CONTINUOUS
 62
     7
100
AcDbCircle
 10
287.5223817797611
 20
459.0591881538112
 30
0.0
 40
0.6467116031110262
100
AcDbArc
 50
357.6354251766069
 51
41.25583558441662
  0
LINE
  5
121
330
1F
100
AcDbEntity
  8
0
  6
CONTINUOUS
 62
     7
100
AcDbLine
 10
143.3738669676243
 20
370.9860595645046
 30
0.0
 11
144.173920931981
 21
370.9860595645046
 31
0.0
  0
LINE
  5
122
330
1F
100
AcDbEntity
  8
0
  6
CONTINUOUS
 62
     7
100
AcDbLine
 10
263.1687611669876
 20
280.9396618142217
 30
0.0
 11
263.6201164436414
 21
283.4861092418263
 31
0.0
  0
LINE
  5
123
330
1F
100
AcDbEntity
  8
0
  6
CONTINUOUS
 62
     7
100
AcDbLine
 10
283.6796487129922
 20
456.4860595645046
 30
0.0
 11
278.6199478712657
 21
456.4860595645046
 31
0.0
  0
LINE
  5
124
330
1F
100
AcDbEntity
  8
0
  6
CONTINUOUS
 62
     7
100
AcDbLine
 10
144.173920931981
 20
368.9860595645046
 30
0.0
 11
143.3738669676243
 21
368.9860595645046
 31
0.0
  0
LINE
  5
125
330
1F
100
AcDbEntity
  8
0
  6
CONTINUOUS
 62
     7
100
AcDbLine
 10
196.6638842439258
 20
288.8602353442517
 30
0.0
 11
196.6638842439258
 21
283.5221942796355
 31
0.0
  0
LINE
  5
126
330
1F
100
AcDbEntity
  8
0
  6
CONTINUOUS
 62
     7
100
AcDbLine
 10
105.9887379592755
 20
302.186358284438
 30
0.0
 11
107.7951252867966
 21
299.4829086004639
 31
0.0
  0
CIRCLE
  5
127
330
1F
100
AcDbEntity
  8
0
  6
CONTINUOUS
 62
     7
100
AcDbCircle
 10
57.67970147195004
 20
369.9860595645046
 30
0.0
 40
81.99999999999999
  0
LINE
  5
128
330
1F
100
AcDbEntity
  8
0
  6
CONTINUOUS
 62
     7
100
AcDbLine
 10
196.6638842439258
 20
415.9441353178385
 30
0.0
 11
197.1638842439258
 21
415.9441353178385
 31
0.0
  0
LINE
  5
129
330
1F
100
AcDbEntity
  8
0
  6
CONTINUOUS
 62
     7
100
AcDbLine
 10
87.21403015129953
 20
292.1510678868526
 30
0.0
 11
88.45829138343831
 21
289.1471555450881
 31
0.0
  0
LINE
  5
12A
330
1F
100
AcDbEntity
  8
0
  6
CONTINUOUS
 62
     7
100
AcDbLine
 10
223.1684172415408
 20
280.9388195344973
 30
0.0
 11
223.6199160030409
 21
283.4861095499207
 31
0.0
  0
LINE
  5
12B
330
1F
100
AcDbEntity
  8
0
  6
CONTINUOUS
 62
     7
100
AcDbLine
 10
197.1638842439258
 20
415.9441353178385
 30
0.0
 11
197.1638842439258
 21
405.3840471385495
 31
0.0
  0
LINE
  5
12C
330
1F
100
AcDbEntity
  8
0
  6
CONTINUOUS
 62
     7
100
AcDbLine
 10
233.5374593664852
 20
283.4860595645046
 30
0.0
 11
238.5971463268116
 21
283.4860595645046
 31
0.0
  0
LINE
  5
12D
330
1F
100
AcDbEntity
  8
0
  6
CONTINUOUS
 62
     7
100
AcDbLine
 10
-18.24187304387656
 20
335.8323332225987
 30
0.0
 11
-21.24578538564105
 21
334.5880719904599
 31
0.0
  0
LINE
  5
12E
330
1F
100
AcDbEntity
  8
0
  6
CONTINUOUS
 62
     7
100
AcDbLine
 10
139.7809773022835
 20
356.2040783197234
 30
0.0
 11
142.9699136351579
 21
355.5697594443283
 31
0.0
  0
LINE
  5
12F
330
1F
100
AcDbEntity
  8
0
  6
CONTINUOUS
 62
     7
100
AcDbLine
 10
223.679573605907
 20
456.4860595645046
 30
0.0
 11
218.6198970431205
 21
456.4860595645046
 31
0.0
  0
LINE
  5
130
330
1F
100
AcDbEntity
  8
0
  6
CONTINUOUS
 62
     7
100
AcDbLine
 10
203.6797327131268
 20
456.4860595645046
 30
0.0
 11
196.9138842439258
 21
456.4860595645046
 31
0.0
  0
LINE
  5
131
330
1F
100
AcDbEntity
  8
0
  6
CONTINUOUS
 62
     7
100
AcDbLine
 10
243.1674447120245
 20
280.9321534563618
 30
0.0
 11
243.6201150433967
 21
283.4861091057324
 31
0.0
  0
LINE
  5
132
330
1F
100
AcDbEntity
  8
0
  6
CONTINUOUS
 62
     7
100
AcDbLine
 10
43.89772022716885
 20
287.8847837341711
 30
0.0
 11
43.26340135177381
 21
284.6958474012967
 31
0.0
  0
LINE
  5
133
330
1F
100
AcDbEntity
  8
0
  6
CONTINUOUS
 62
     7
100
AcDbLine
 10
-23.44612274830284
 20
351.3001519177073
 30
0.0
 11
-26.63505908117718
 21
350.6658330423122
 31
0.0
  0
LINE
  5
134
330
1F
100
AcDbEntity
  8
0
  6
CONTINUOUS
 62
     7
100
AcDbLine
 10
273.5373122945317
 20
283.4860595645046
 30
0.0
 11
278.5969457670314
 21
283.4860595645046
 31
0.0
  0
LINE
  5
135
330
1F
100
AcDbEntity
  8
0
  6
CONTINUOUS
 62
     7
100
AcDbLine
 10
118.2875589245069
 20
427.0583831111287
 30
0.0
 11
120.5866538954475
 21
429.3574780820693
 31
0.0
  0
LINE
  5
136
330
1F
100
AcDbEntity
  8
0
  6
CONTINUOUS
 62
     7
100
AcDbLine
 10
135.5146931496021
 20
340.4517308851551
 30
0.0
 11
138.5186054913666
 21
339.2074696530163
 31
0.0
  0
LINE
  5
137
330
1F
100
AcDbEntity
  8
0
  6
CONTINUOUS
 62
     7
100
AcDbLine
 10
43.8977202271689
 20
452.0873353948381
 30
0.0
 11
43.26340135177386
 21
455.2762717277125
 31
0.0
  0
LINE
  5
138
330
1F
100
AcDbEntity
  8
0
  6
CONTINUOUS
 62
     7
100
AcDbLine
 10
38.99379382515271
 20
288.8602353442517
 30
0.0
 11
38.35947494975767
 21
285.6712990113774
 31
0.0
  0
LINE
  5
139
330
1F
100
AcDbEntity
  8
0
  6
CONTINUOUS
 62
     7
100
AcDbLine
 10
-24.42157435838348
 20
383.7680408092857
 30
0.0
 11
-27.61051069125782
 21
384.4023596846808
 31
0.0
  0
LINE
  5
13A
330
1F
100
AcDbEntity
  8
0
  6
CONTINUOUS
 62
     7
100
AcDbLine
 10
105.9887379592755
 20
437.7857608445711
 30
0.0
 11
107.7951252867967
 21
440.4892105285452
 31
0.0
  0
LINE
  5
13B
330
1F
100
AcDbEntity
  8
0
  6
CONTINUOUS
 62
     7
100
AcDbLine
 10
118.2875589245069
 20
312.9137360178804
 30
0.0
 11
120.5866538954475
 21
310.6146410469398
 31
0.0
  0
LINE
  5
13C
330
1F
100
AcDbEntity
  8
0
  6
CONTINUOUS
 62
     7
100
AcDbLine
 10
91.83342781385595
 20
445.9076340803311
 30
0.0
 11
93.07768904599473
 21
448.9115464220956
 31
0.0
  0
LINE
  5
13D
330
1F
100
AcDbEntity
  8
0
  6
CONTINUOUS
 62
     7
100
AcDbLine
 10
135.5146931496021
 20
399.520388243854
 30
0.0
 11
138.5186054913666
 21
400.7646494759928
 31
0.0
  0
LINE
  5
13E
330
1F
100
AcDbEntity
  8
0
  6
CONTINUOUS
 62
     7
100
AcDbLine
 10
138.8055256922029
 20
351.3001519177072
 30
0.0
 11
141.9944620250773
 21
350.6658330423122
 31
0.0
  0
LINE
  5
13F
330
1F
100
AcDbEntity
  8
0
  6
CONTINUOUS
 62
     7
100
AcDbLine
 10
-10.11999980811655
 20
321.6770230771791
 30
0.0
 11
-12.82344949209062
 21
319.8706357496579
 31
0.0
  0
LINE
  5
140
330
1F
100
AcDbEntity
  8
0
  6
CONTINUOUS
 62
     7
100
AcDbLine
 10
293.5374825265098
 20
283.4860595645046
 30
0.0
 11
298.5971458317391
 21
283.4860595645046
 31
0.0
  0
LINE
  5
141
330
1F
100
AcDbEntity
  8
0
  6
CONTINUOUS
 62
     7
100
AcDbLine
 10
133.6012759877766
 20
404.1397859064105
 30
0.0
 11
136.6051883295411
 21
405.3840471385492
 31
0.0
  0
LINE
  5
142
330
1F
100
AcDbEntity
  8
0
  6
CONTINUOUS
 62
     7
100
AcDbLine
 10
-12.89785097321457
 20
325.8343711386918
 30
0.0
 11
-15.60130065718863
 21
324.0279838111707
 31
0.0
  0
LINE
  5
143
330
1F
100
AcDbEntity
  8
0
  6
CONTINUOUS
 62
     7
100
AcDbLine
 10
223.5374510154043
 20
283.4860595645046
 30
0.0
 11
228.5971458313707
 21
283.4860595645046
 31
0.0
  0
LINE
  5
144
330
1F
100
AcDbEntity
  8
0
  6
CONTINUOUS
 62
     7
100
AcDbLine
 10
309.2619604552791
 20
451.7360595645046
 30
0.0
 11
306.6638842439257
 21
453.2360595645046
 31
0.0
  0
LINE
  5
145
330
1F
100
AcDbEntity
  8
0
  6
CONTINUOUS
 62
     7
100
AcDbLine
 10
273.1685927157844
 20
280.9394024045602
 30
0.0
 11
273.6199973145542
 21
283.4861093141585
 31
0.0
  0
LINE
  5
146
330
1F
100
AcDbEntity
  8
0
  6
CONTINUOUS
 62
     7
100
AcDbLine
 10
55.17970147195002
 20
286.7736055687234
 30
0.0
 11
55.17970147195002
 21
283.5221942796354
 31
0.0
  0
LINE
  5
147
330
1F
100
AcDbEntity
  8
0
  6
CONTINUOUS
 62
     7
100
AcDbLine
 10
-2.928155980606875
 20
312.9137360178805
 30
0.0
 11
-5.227250951547441
 21
310.6146410469399
 31
0.0
  0
LINE
  5
148
330
1F
100
AcDbEntity
  8
0
  6
CONTINUOUS
 62
     7
100
AcDbLine
 10
128.2572539171146
 20
325.8343711386918
 30
0.0
 11
130.9607036010887
 21
324.0279838111707
 31
0.0
  0
LINE
  5
149
330
1F
100
AcDbEntity
  8
0
  6
CONTINUOUS
 62
     7
100
AcDbLine
 10
253.1685218623052
 20
280.9378821715417
 30
0.0
 11
253.6201827841814
 21
283.4861090655552
 31
0.0
  0
LINE
  5
14A
330
1F
100
AcDbEntity
  8
0
  6
CONTINUOUS
 62
     7
100
AcDbLine
 10
-24.42157435838348
 20
356.2040783197235
 30
0.0
 11
-27.61051069125782
 21
355.5697594443284
 31
0.0
  0
LINE
  5
14B
330
1F
100
AcDbEntity
  8
0
  6
CONTINUOUS
 62
     7
100
AcDbLine
 10
0.6073779253258638
 20
309.3782021119477
 30
0.0
 11
-1.691717045614716
 21
307.0791071410071
 31
0.0
  0
LINE
  5
14C
330
1F
100
AcDbEntity
  8
0
  6
CONTINUOUS
 62
     7
100
AcDbLine
 10
-25.53275252383118
 20
372.4860595645046
 30
0.0
 11
-28.78416381291912
 21
372.4860595645046
 31
0.0
  0
LINE
  5
14D
330
1F
100
AcDbEntity
  8
0
  6
CONTINUOUS
 62
     7
100
AcDbLine
 10
-10.11999980811655
 20
418.2950960518301
 30
0.0
 11
-12.82344949209062
 21
420.1014833793512
 31
0.0
  0
LINE
  5
14E
330
1F
100
AcDbEntity
  8
0
  6
CONTINUOUS
 62
     7
100
AcDbLine
 10
-2.92815598060684
 20
427.0583831111288
 30
0.0
 11
-5.227250951547427
 21
429.3574780820693
 31
0.0
  0
LINE
  5
14F
330
1F
100
AcDbEntity
  8
0
  6
CONTINUOUS
 62
     7
100
AcDbLine
 10
55.17970147195005
 20
453.1985135602858
 30
0.0
 11
55.17970147195005
 21
456.4499248493738
 31
0.0
  0
LINE
  5
150
330
1F
100
AcDbEntity
  8
0
  6
CONTINUOUS
 62
     7
100
AcDbLine
 10
125.4794027520166
 20
418.29509605183
 30
0.0
 11
128.1828524359907
 21
420.1014833793512
 31
0.0
  0
LINE
  5
151
330
1F
100
AcDbEntity
  8
0
  6
CONTINUOUS
 62
     7
100
AcDbLine
 10
-20.155290205702
 20
340.4517308851551
 30
0.0
 11
-23.15920254746649
 21
339.2074696530163
 31
0.0
  0
LINE
  5
152
330
1F
100
AcDbEntity
  8
0
  6
CONTINUOUS
 62
     7
100
AcDbLine
 10
263.5372426584333
 20
283.4860595645046
 30
0.0
 11
268.5968828097701
 21
283.4860595645046
 31
0.0
  0
LINE
  5
153
330
1F
100
AcDbEntity
  8
0
  6
CONTINUOUS
 62
     7
100
AcDbLine
 10
303.6796516266576
 20
456.4860595645046
 30
0.0
 11
298.6199487323304
 21
456.4860595645046
 31
0.0
  0
LINE
  5
154
330
1F
100
AcDbEntity
  8
0
  6
CONTINUOUS
 62
     7
100
AcDbLine
 10
28.14537279260059
 20
292.1510678868525
 30
0.0
 11
26.90111156046181
 21
289.1471555450881
 31
0.0
  0
LINE
  5
155
330
1F
100
AcDbEntity
  8
0
  6
CONTINUOUS
 62
     7
100
AcDbLine
 10
23.52597513004415
 20
294.064485048678
 30
0.0
 11
22.28171389790537
 21
291.0605727069135
 31
0.0
  0
LINE
  5
156
330
1F
100
AcDbEntity
  8
0
  6
CONTINUOUS
 62
     7
100
AcDbLine
 10
128.2572539171146
 20
414.1377479903173
 30
0.0
 11
130.9607036010887
 21
415.9441353178385
 31
0.0
  0
LINE
  5
157
330
1F
100
AcDbEntity
  8
0
  6
CONTINUOUS
 62
     7
100
AcDbLine
 10
114.7520250185742
 20
309.3782021119476
 30
0.0
 11
117.0511199895147
 21
307.0791071410071
 31
0.0
  0
LINE
  5
158
330
1F
100
AcDbEntity
  8
0
  6
CONTINUOUS
 62
     7
100
AcDbLine
 10
306.6638842439257
 20
286.7360595645046
 30
0.0
 11
309.2619604552791
 21
288.2360595645046
 31
0.0
  0
LINE
  5
159
330
1F
100
AcDbEntity
  8
0
  6
CONTINUOUS
 62
     7
100
AcDbLine
 10
71.46168271673119
 20
452.0873353948381
 30
0.0
 11
72.09600159212623
 21
455.2762717277125
 31
0.0
  0
CIRCLE
  5
15A
330
1F
100
AcDbEntity
  8
0
  6
CONTINUOUS
 62
     7
100
AcDbCircle
 10
57.67970147195004
 20
369.9860595645046
 30
0.0
 40
82.49999999999999
  0
LINE
  5
15B
330
1F
100
AcDbEntity
  8
0
  6
CONTINUOUS
 62
     7
100
AcDbLine
 10
114.7520250185742
 20
430.5939170170615
 30
0.0
 11
117.0511199895148
 21
432.8930119880021
 31
0.0
  0
LINE
  5
15C
330
1F
100
AcDbEntity
  8
0
  6
CONTINUOUS
 62
     7
100
AcDbLine
 10
28.14537279260057
 20
447.8210512421566
 30
0.0
 11
26.9011115604618
 21
450.8249635839211
 31
0.0
  0
LINE
  5
15D
330
1F
100
AcDbEntity
  8
0
  6
CONTINUOUS
 62
     7
100
AcDbLine
 10
243.5373815493361
 20
283.4860595645046
 30
0.0
 11
248.5970645040429
 21
283.4860595645046
 31
0.0
  0
LINE
  5
15E
330
1F
100
AcDbEntity
  8
0
  6
CONTINUOUS
 62
     7
100
AcDbLine
 10
60.17970147195001
 20
286.7736055687234
 30
0.0
 11
60.17970147195001
 21
283.5221942796354
 31
0.0
  0
LINE
  5
15F
330
1F
100
AcDbEntity
  8
0
  6
CONTINUOUS
 62
     7
100
AcDbLine
 10
203.5372972538202
 20
283.4860595645046
 30
0.0
 11
208.5969457060028
 21
283.4860595645046
 31
0.0
  0
LINE
  5
160
330
1F
100
AcDbEntity
  8
0
  6
CONTINUOUS
 62
     7
100
AcDbLine
 10
125.4794027520166
 20
321.6770230771791
 30
0.0
 11
128.1828524359907
 21
319.8706357496579
 31
0.0
  0
LINE
  5
161
330
1F
100
AcDbEntity
  8
0
  6
CONTINUOUS
 62
     7
100
AcDbLine
 10
9.37066498462457
 20
302.186358284438
 30
0.0
 11
7.564277657103414
 21
299.4829086004639
 31
0.0
  0
LINE
  5
162
330
1F
100
AcDbEntity
  8
0
  6
CONTINUOUS
 62
     7
100
AcDbLine
 10
233.6796505478858
 20
456.4860595645046
 30
0.0
 11
228.6199487358229
 21
456.4860595645046
 31
0.0
  0
LINE
  5
163
330
1F
100
AcDbEntity
  8
0
  6
CONTINUOUS
 62
     7
100
AcDbLine
 10
138.8055256922029
 20
388.6719672113019
 30
0.0
 11
141.9944620250772
 21
389.3062860866969
 31
0.0
  0
LINE
  5
164
330
1F
100
AcDbEntity
  8
0
  6
CONTINUOUS
 62
     7
100
AcDbLine
 10
133.6012759877766
 20
335.8323332225987
 30
0.0
 11
136.6051883295411
 21
334.5880719904599
 31
0.0
  0
LINE
  5
165
330
1F
100
AcDbEntity
  8
0
  6
CONTINUOUS
 62
     7
100
AcDbLine
 10
139.7809773022836
 20
383.7680408092857
 30
0.0
 11
142.9699136351579
 21
384.4023596846808
 31
0.0
  0
LINE
  5
166
330
1F
100
AcDbEntity
  8
0
  6
CONTINUOUS
 62
     7
100
AcDbLine
 10
213.1685999336901
 20
280.9398897141136
 30
0.0
 11
213.6199155201357
 21
283.4861094814605
 31
0.0
  0
LINE
  5
167
330
1F
100
AcDbEntity
  8
0
  6
CONTINUOUS
 62
     7
100
AcDbLine
 10
13.5280130461373
 20
299.40850711934
 30
0.0
 11
11.72162571861615
 21
296.7050574353659
 31
0.0
  0
LINE
  5
168
330
1F
100
AcDbEntity
  8
0
  6
CONTINUOUS
 62
     7
100
AcDbLine
 10
76.36560911874732
 20
288.8602353442517
 30
0.0
 11
76.99992799414235
 21
285.6712990113774
 31
0.0
  0
LINE
  5
169
330
1F
100
AcDbEntity
  8
0
  6
CONTINUOUS
 62
     7
100
AcDbLine
 10
293.1684193998729
 20
280.9388317161116
 30
0.0
 11
293.6199160022512
 21
283.4861095496538
 31
0.0
  0
LINE
  5
16A
330
1F
100
AcDbEntity
  8
0
  6
CONTINUOUS
 62
     7
100
AcDbLine
 10
263.6797978699934
 20
456.4860595645046
 30
0.0
 11
258.6201635254654
 21
456.4860595645046
 31
0.0
  0
LINE
  5
16B
330
1F
100
AcDbEntity
  8
0
  6
CONTINUOUS
 62
     7
100
AcDbLine
 10
253.6797942591894
 20
456.4860595645046
 30
0.0
 11
248.6201609935385
 21
456.4860595645046
 31
0.0
  0
ARC
  5
16C
330
1F
100
AcDbEntity
  8
0
  6
CONTINUOUS
 62
     7
100
AcDbCircle
 10
-279.9552345387133
 20
418.9099665315687
 30
0.0
 40
515.1294008899918
100
AcDbArc
 50
0.2675710141865011
 51
4.140205819282642
  0
LINE
  5
16D
330
1F
100
AcDbEntity
  8
0
  6
CONTINUOUS
 62
     7
100
AcDbLine
 10
23.52597513004414
 20
445.9076340803311
 30
0.0
 11
22.28171389790537
 21
448.9115464220956
 31
0.0
  0
ARC
  5
16E
330
1F
100
AcDbEntity
  8
0
  6
CONTINUOUS
 62
     7
100
AcDbCircle
 10
12549.77002613083
 20
623.6291252760601
 30
0.0
 40
12316.26324397872
100
AcDbArc
 50
180.9412133956926
 51
181.5443090667986
  0
ARC
  5
16F
330
1F
100
AcDbEntity
  8
0
  6
CONTINUOUS
 62
     7
100
AcDbCircle
 10
344.6417928063399
 20
296.3442931173199
 30
0.0
 40
116.7866452998039
100
AcDbArc
 50
180.9504538556252
 51
186.0906910615629
  0
ARC
  5
170
330
1F
100
AcDbEntity
  8
0
  6
CONTINUOUS
 62
     7
100
AcDbCircle
 10
-12261.0079796241
 20
112.7293785054401
 30
0.0
 40
12484.75611741482
100
AcDbArc
 50
0.94420499495546
 51
1.539579169696447
  0
LINE
  5
171
330
1F
100
AcDbEntity
  8
0
  6
CONTINUOUS
 62
     7
100
AcDbLine
 10
296.1614183012862
 20
370.9860595645041
 30
0.0
 11
291.0188389889333
 21
370.9860595645046
 31
0.0
  0
LINE
  5
172
330
1F
100
AcDbEntity
  8
0
  6
CONTINUOUS
 62
     7
100
AcDbLine
 10
-12.89785097321457
 20
414.1377479903173
 30
0.0
 11
-15.60130065718863
 21
415.9441353178385
 31
0.0
  0
LINE
  5
173
330
1F
100
AcDbEntity
  8
0
  6
CONTINUOUS
 62
     7
100
AcDbLine
 10
283.6796202479715
 20
456.4860595644931
 30
0.0
 11
283.7849026231672
 21
456.2971069531302
 31
0.0
  0
ARC
  5
174
330
1F
100
AcDbEntity
  8
0
  6
CONTINUOUS
 62
     7
100
AcDbCircle
 10
173.5881580675353
 20
445.4531851787576
 30
0.0
 40
95.69984064878102
100
AcDbArc
 50
1.324164046248787
 51
6.337817765365943
  0
ARC
  5
175
330
1F
100
AcDbEntity
  8
0
  6
CONTINUOUS
 62
     7
100
AcDbCircle
 10
36.28725424898249
 20
433.2262556273304
 30
0.0
 40
248.5706139744775
100
AcDbArc
 50
0.1509130923384987
 51
5.325519529470796
  0
ARC
  5
176
330
1F
100
AcDbEntity
  8
0
  6
CONTINUOUS
 62
     7
100
AcDbCircle
 10
192.2840174697218
 20
446.1420356436344
 30
0.0
 40
86.98135694824904
100
AcDbArc
 50
1.312554181281206
 51
6.519762828712766
  0
ARC
  5
177
330
1F
100
AcDbEntity
  8
0
  6
CONTINUOUS
 62
     7
100
AcDbCircle
 10
758.1082444717149
 20
320.7060753491134
 30
0.0
 40
506.0614676980073
100
AcDbArc
 50
180.2475792410106
 51
184.1759039089521
  0
ARC
  5
178
330
1F
100
AcDbEntity
  8
0
  6
CONTINUOUS
 62
     7
100
AcDbCircle
 10
29364.29571799504
 20
992.4113313257495
 30
0.0
 40
29084.80207887449
100
AcDbArc
 50
181.1003478522807
 51
181.3750569236085
  0
LINE
  5
179
330
1F
100
AcDbEntity
  8
0
  6
CONTINUOUS
 62
     7
100
AcDbLine
 10
273.6797381340172
 20
456.4860595644711
 30
0.0
 11
273.8087474411102
 21
456.2023928457395
 31
0.0
  0
ARC
  5
17A
330
1F
100
AcDbEntity
  8
0
  6
CONTINUOUS
 62
     7
100
AcDbCircle
 10
-93.89960560026033
 20
426.3647803540166
 30
0.0
 40
368.9169500248036
100
AcDbArc
 50
0.2235109124906671
 51
4.639089108292807
  0
ARC
  5
17B
330
1F
100
AcDbEntity
  8
0
  6
CONTINUOUS
 62
     7
100
AcDbCircle
 10
16136.87032620251
 20
704.4989499501753
 30
0.0
 40
15864.26894640814
100
AcDbArc
 50
180.9993691635822
 51
181.4893912281732
  0
LINE
  5
17C
330
1F
100
AcDbEntity
  8
0
  6
CONTINUOUS
 62
     7
100
AcDbLine
 10
347.1638842439257
 20
287.2360595645046
 30
0.0
 11
347.1638842439257
 21
288.2360595645046
 31
0.0
  0
ARC
  5
17D
330
1F
100
AcDbEntity
  8
0
  6
CONTINUOUS
 62
     7
100
AcDbCircle
 10
322.616904926958
 20
293.641396379833
 30
0.0
 40
84.65877267659788
100
AcDbArc
 50
181.3101966097414
 51
186.5709064221188
  0
LINE
  5
17E
330
1F
100
AcDbEntity
  8
0
  6
CONTINUOUS
 62
     7
100
AcDbLine
 10
-18.24187304387655
 20
404.1397859064105
 30
0.0
 11
-21.24578538564104
 21
405.3840471385492
 31
0.0
  0
LINE
  5
17F
330
1F
100
AcDbEntity
  8
0
  6
CONTINUOUS
 62
     7
100
AcDbLine
 10
327.1638842439257
 20
287.2360595645046
 30
0.0
 11
318.6638842439258
 21
287.2360595645046
 31
0.0
  0
ARC
  5
180
330
1F
100
AcDbEntity
  8
0
  6
CONTINUOUS
 62
     7
100
AcDbCircle
 10
404.7519240544168
 20
296.3632013143826
 30
0.0
 40
116.8981970224797
100
AcDbArc
 50
180.9307590873796
 51
186.0944912493821
  0
ARC
  5
181
330
1F
100
AcDbEntity
  8
0
  6
CONTINUOUS
 62
     7
100
AcDbCircle
 10
370.7333977845716
 20
294.2938165101059
 30
0.0
 40
92.79695017084127
100
AcDbArc
 50
181.3193322325041
 51
186.4002835193349
  0
ARC
  5
182
330
1F
100
AcDbEntity
  8
0
  6
CONTINUOUS
 62
     7
100
AcDbCircle
 10
631.8127129777467
 20
313.1720351881892
 30
0.0
 40
359.6065929607256
100
AcDbArc
 50
180.1975085243727
 51
184.6915926686231
  0
LINE
  5
183
330
1F
100
AcDbEntity
  8
0
  6
CONTINUOUS
 62
     7
100
AcDbLine
 10
211.0557826620152
 20
368.9860595645047
 30
0.0
 11
216.1981813538744
 21
368.9860595645047
 31
0.0
  0
ARC
  5
184
330
1F
100
AcDbEntity
  8
0
  6
CONTINUOUS
 62
     7
100
AcDbCircle
 10
132.9534398652012
 20
446.194925449151
 30
0.0
 40
86.31019997023695
100
AcDbArc
 50
1.306899928173539
 51
6.53553203998996
  0
LINE
  5
185
330
1F
100
AcDbEntity
  8
0
  6
CONTINUOUS
 62
     7
100
AcDbLine
 10
309.2619604552791
 20
451.7360595645046
 30
0.0
 11
309.2619604552791
 21
288.2360595645046
 31
0.0
  0
LINE
  5
186
330
1F
100
AcDbEntity
  8
0
  6
CONTINUOUS
 62
     7
100
AcDbLine
 10
-25.53275252383118
 20
367.4860595645046
 30
0.0
 11
-28.78416381291912
 21
367.4860595645046
 31
0.0
  0
LINE
  5
187
330
1F
100
AcDbEntity
  8
0
  6
CONTINUOUS
 62
     7
100
AcDbLine
 10
38.99379382515275
 20
451.1118837847575
 30
0.0
 11
38.35947494975771
 21
454.3008201176318
 31
0.0
  0
ARC
  5
188
330
1F
100
AcDbEntity
  8
0
  6
CONTINUOUS
 62
     7
100
AcDbCircle
 10
-12157.87578274304
 20
114.3157776905989
 30
0.0
 40
12411.60724060351
100
AcDbArc
 50
0.9427087681162972
 51
1.541469038211952
  0
LINE
  5
189
330
1F
100
AcDbEntity
  8
0
  6
CONTINUOUS
 62
     7
100
AcDbLine
 10
380.6638842439258
 20
370.9860595645046
 30
0.0
 11
380.6638842439258
 21
368.9860595645046
 31
0.0
  0
ARC
  5
18A
330
1F
100
AcDbEntity
  8
0
  6
CONTINUOUS
 62
     7
100
AcDbCircle
 10
-15862.62495413537
 20
29.6543085542873
 30
0.0
 40
16137.3022425081
100
AcDbArc
 50
1.002284556771195
 51
1.484319410081002
  0
ARC
  5
18B
330
1F
100
AcDbEntity
  8
0
  6
CONTINUOUS
 62
     7
100
AcDbCircle
 10
12461.69106215229
 20
621.0780971828449
 30
0.0
 40
12198.15750475549
100
AcDbArc
 50
180.9388675323887
 51
181.5475549657181
  0
ARC
  5
18C
330
1F
100
AcDbEntity
  8
0
  6
CONTINUOUS
 62
     7
100
AcDbCircle
 10
28987.97117050173
 20
985.7829680717379
 30
0.0
 40
28768.408889766
100
AcDbArc
 50
181.0991563882478
 51
181.3770916498997
  0
ARC
  5
18D
330
1F
100
AcDbEntity
  8
0
  6
CONTINUOUS
 62
     7
100
AcDbCircle
 10
601.3259466334592
 20
313.1741147290145
 30
0.0
 40
359.1197946206577
100
AcDbArc
 50
180.1971096928669
 51
184.7004977638296
  0
LINE
  5
18E
330
1F
100
AcDbEntity
  8
0
  6
CONTINUOUS
 62
     7
100
AcDbLine
 10
243.679732164399
 20
456.4860595644038
 30
0.0
 11
243.8040120225318
 21
456.2217122306376
 31
0.0
  0
ARC
  5
18F
330
1F
100
AcDbEntity
  8
0
  6
CONTINUOUS
 62
     7
100
AcDbCircle
 10
-118.7623193405728
 20
426.5433763404308
 30
0.0
 40
363.7789827069624
100
AcDbArc
 50
0.1995270665440785
 51
4.679586947679753
  0
ARC
  5
190
330
1F
100
AcDbEntity
  8
0
  6
CONTINUOUS
 62
     7
100
AcDbCircle
 10
352.5121266118002
 20
293.6232437146296
 30
0.0
 40
84.55244404337891
100
AcDbArc
 50
181.3394438593022
 51
186.5714804472527
  0
LINE
  5
191
330
1F
100
AcDbEntity
  8
0
  6
CONTINUOUS
 62
     7
100
AcDbLine
 10
101.8313898977628
 20
440.5636120096692
 30
0.0
 11
103.6377772252839
 21
443.2670616936433
 31
0.0
  0
ARC
  5
192
330
1F
100
AcDbEntity
  8
0
  6
CONTINUOUS
 62
     7
100
AcDbCircle
 10
10232.40403816795
 20
542.8742213264859
 30
0.0
 40
10022.85677593632
100
AcDbArc
 50
180.9940836100074
 51
181.3200112841855
  0
LINE
  5
193
330
1F
100
AcDbEntity
  8
0
  6
CONTINUOUS
 62
     7
100
AcDbLine
 10
-23.44612274830284
 20
388.6719672113019
 30
0.0
 11
-26.63505908117718
 21
389.3062860866969
 31
0.0
  0
ARC
  5
194
330
1F
100
AcDbEntity
  8
0
  6
CONTINUOUS
 62
     7
100
AcDbCircle
 10
144.3009024103613
 20
445.5015741163637
 30
0.0
 40
94.98573266692918
100
AcDbArc
 50
1.313874542132427
 51
6.359814117696163
  0
LINE
  5
195
330
1F
100
AcDbEntity
  8
0
  6
CONTINUOUS
 62
     7
100
AcDbLine
 10
196.6638842439258
 20
351.3001519177071
 30
0.0
 11
197.1638842439258
 21
356.2040783197234
 31
0.0
  0
LINE
  5
196
330
1F
100
AcDbEntity
  8
0
  6
CONTINUOUS
 62
     7
100
AcDbLine
 10
76.36560911874733
 20
451.1118837847575
 30
0.0
 11
76.99992799414237
 21
454.3008201176318
 31
0.0
  0
LINE
  5
197
330
1F
100
AcDbEntity
  8
0
  6
CONTINUOUS
 62
     7
100
AcDbLine
 10
196.6638842439258
 20
351.3001519177073
 30
0.0
 11
196.6638842439258
 21
350.6658330423122
 31
0.0
  0
ARC
  5
198
330
1F
100
AcDbEntity
  8
0
  6
CONTINUOUS
 62
     7
100
AcDbCircle
 10
-22.02281167740627
 20
433.3086606156041
 30
0.0
 40
246.8794062562859
100
AcDbArc
 50
0.1434110415367514
 51
5.343934854359419
  0
LINE
  5
199
330
1F
100
AcDbEntity
  8
0
  6
CONTINUOUS
 62
     7
100
AcDbLine
 10
400.6638842439258
 20
368.9860595645046
 30
0.0
 11
380.6638842439258
 21
368.9860595645046
 31
0.0
  0
ARC
  5
19A
330
1F
100
AcDbEntity
  8
0
  6
CONTINUOUS
 62
     7
100
AcDbCircle
 10
727.8454519974205
 20
320.6912383408277
 30
0.0
 40
505.797450710667
100
AcDbArc
 50
180.2524760577987
 51
184.1771451144778
  0
LINE
  5
19B
330
1F
100
AcDbEntity
  8
0
  6
CONTINUOUS
 62
     7
100
AcDbLine
 10
0.6073779253258984
 20
430.5939170170615
 30
0.0
 11
-1.691717045614682
 21
432.8930119880021
 31
0.0
  0
LINE
  5
19C
330
1F
100
AcDbEntity
  8
0
  6
CONTINUOUS
 62
     7
100
AcDbLine
 10
9.37066498462457
 20
437.7857608445711
 30
0.0
 11
7.564277657103414
 21
440.4892105285452
 31
0.0
  0
ARC
  5
19D
330
1F
100
AcDbEntity
  8
0
  6
CONTINUOUS
 62
     7
100
AcDbCircle
 10
-15950.92678848755
 20
28.32621257767942
 30
0.0
 40
16195.61852100711
100
AcDbArc
 50
1.003396527352299
 51
1.48372607934775
  0
ARC
  5
19E
330
1F
100
AcDbEntity
  8
0
  6
CONTINUOUS
 62
     7
100
AcDbCircle
 10
-12247.7299641872
 20
111.7310647101097
 30
0.0
 40
12531.4886451041
100
AcDbArc
 50
0.9449999442816751
 51
1.538269817117746
  0
ARC
  5
19F
330
1F
100
AcDbEntity
  8
0
  6
CONTINUOUS
 62
     7
100
AcDbCircle
 10
784.915044225156
 20
320.5747638527494
 30
0.0
 40
502.8654688873606
100
AcDbArc
 50
180.2468726963666
 51
184.1889416170775
  0
LINE
  5
1A0
330
1F
100
AcDbEntity
  8
0
  6
CONTINUOUS
 62
     7
100
AcDbLine
 10
-20.15529020570199
 20
399.520388243854
 30
0.0
 11
-23.15920254746648
 21
400.7646494759928
 31
0.0
  0
LINE
  5
1A1
330
1F
100
AcDbEntity
  8
0
  6
CONTINUOUS
 62
     7
100
AcDbLine
 10
60.17970147195004
 20
453.1985135602858
 30
0.0
 11
60.17970147195004
 21
456.4499248493738
 31
0.0
  0
ARC
  5
1A2
330
1F
100
AcDbEntity
  8
0
  6
CONTINUOUS
 62
     7
100
AcDbCircle
 10
-252.7813010552543
 20
418.7932935129892
 30
0.0
 40
517.9581065251598
100
AcDbArc
 50
0.2666711528249834
 51
4.129031793928505
  0
LINE
  5
1A3
330
1F
100
AcDbEntity
  8
0
  6
CONTINUOUS
 62
     7
100
AcDbLine
 10
213.5373868873874
 20
283.4860595646412
 30
0.0
 11
213.4174791977678
 21
283.7318867353302
 31
0.0
  0
LINE
  5
1A4
330
1F
100
AcDbEntity
  8
0
  6
CONTINUOUS
 62
     7
100
AcDbLine
 10
243.5373815270976
 20
283.4860595646145
 30
0.0
 11
243.4139886211874
 21
283.74526493489
 31
0.0
  0
LINE
  5
1A5
330
1F
100
AcDbEntity
  8
0
  6
CONTINUOUS
 62
     7
100
AcDbLine
 10
273.5372782570236
 20
283.486059564646
 30
0.0
 11
273.4110180882354
 21
283.7589972433159
 31
0.0
  0
ARC
  5
1A6
330
1F
100
AcDbEntity
  8
0
  6
CONTINUOUS
 62
     7
100
AcDbCircle
 10
568.4017117525134
 20
313.0924030604914
 30
0.0
 40
356.1963577598201
100
AcDbArc
 50
180.1785122117255
 51
184.7281350038626
  0
LINE
  5
1A7
330
1F
100
AcDbEntity
  8
0
  6
CONTINUOUS
 62
     7
100
AcDbLine
 10
318.6638842439258
 20
452.7360595645046
 30
0.0
 11
400.6638842439257
 21
452.7360595645046
 31
0.0
  0
LINE
  5
1A8
330
1F
100
AcDbEntity
  8
0
  6
CONTINUOUS
 62
     7
100
AcDbLine
 10
223.6795522155776
 20
456.4860595644992
 30
0.0
 11
223.7835517452643
 21
456.3015493940561
 31
0.0
  0
LINE
  5
1A9
330
1F
100
AcDbEntity
  8
0
  6
CONTINUOUS
 62
     7
100
AcDbLine
 10
13.5280130461373
 20
440.5636120096692
 30
0.0
 11
11.72162571861615
 21
443.2670616936433
 31
0.0
  0
ARC
  5
1AA
330
1F
100
AcDbEntity
  8
0
  6
CONTINUOUS
 62
     7
100
AcDbCircle
 10
162.5647966351893
 20
446.1731289305758
 30
0.0
 40
86.69866226674351
100
AcDbArc
 50
1.33549022818381
 51
6.524785799448218
  0
LINE
  5
1AB
330
1F
100
AcDbEntity
  8
0
  6
CONTINUOUS
 62
     7
100
AcDbLine
 10
87.21403015129951
 20
447.8210512421566
 30
0.0
 11
88.4582913834383
 21
450.8249635839211
 31
0.0
  0
LINE
  5
1AC
330
1F
100
AcDbEntity
  8
0
  6
CONTINUOUS
 62
     7
100
AcDbLine
 10
196.8354849370045
 20
430.5939170170615
 30
0.0
 11
196.6638842439258
 21
430.5939170170615
 31
0.0
  0
LINE
  5
1AD
330
1F
100
AcDbEntity
  8
0
  6
CONTINUOUS
 62
     7
100
AcDbLine
 10
196.6638842439258
 20
383.7680408092857
 30
0.0
 11
196.6638842439258
 21
384.4023596846808
 31
0.0
  0
ARC
  5
1AE
330
1F
100
AcDbEntity
  8
0
  6
CONTINUOUS
 62
     7
100
AcDbCircle
 10
-29658.91974293005
 20
-270.1429556663664
 30
0.0
 40
29896.83514425054
100
AcDbArc
 50
1.103993455566253
 51
1.37152380134799
  0
LINE
  5
1AF
330
1F
100
AcDbEntity
  8
0
  6
CONTINUOUS
 62
     7
100
AcDbLine
 10
196.6638842439258
 20
325.8343711386919
 30
0.0
 11
196.9138842439258
 21
323.7348376656227
 31
0.0
  0
ARC
  5
1B0
330
1F
100
AcDbEntity
  8
0
  6
CONTINUOUS
 62
     7
100
AcDbCircle
 10
-75.67232818003544
 20
428.0847501815697
 30
0.0
 40
330.6637873156193
100
AcDbArc
 50
0.1176125463038033
 51
4.893635804050859
  0
LINE
  5
1B1
330
1F
100
AcDbEntity
  8
0
  6
CONTINUOUS
 62
     7
100
AcDbLine
 10
347.1638842439257
 20
288.2360595645046
 30
0.0
 11
327.1638842439257
 21
288.2360595645046
 31
0.0
  0
ARC
  5
1B2
330
1F
100
AcDbEntity
  8
0
  6
CONTINUOUS
 62
     7
100
AcDbCircle
 10
16041.06472327709
 20
703.0245048892807
 30
0.0
 40
15798.44761078721
100
AcDbArc
 50
180.9981623648975
 51
181.4901953538658
  0
LINE
  5
1B3
330
1F
100
AcDbEntity
  8
0
  6
CONTINUOUS
 62
     7
100
AcDbLine
 10
327.1638842439257
 20
288.2360595645046
 30
0.0
 11
327.1638842439257
 21
287.2360595645046
 31
0.0
  0
LINE
  5
1B4
330
1F
100
AcDbEntity
  8
0
  6
CONTINUOUS
 62
     7
100
AcDbLine
 10
196.7513544307215
 20
429.9907388068935
 30
0.0
 11
196.6638842439258
 21
430.5939170170615
 31
0.0
  0
LINE
  5
1B5
330
1F
100
AcDbEntity
  8
0
  6
CONTINUOUS
 62
     7
100
AcDbLine
 10
196.6638842439258
 20
325.8343711386919
 30
0.0
 11
196.6638842439258
 21
324.0279838111708
 31
0.0
  0
LINE
  5
1B6
330
1F
100
AcDbEntity
  8
0
  6
CONTINUOUS
 62
     7
100
AcDbLine
 10
233.5374858403431
 20
283.4860595645074
 30
0.0
 11
233.4378986582222
 21
283.6551626211389
 31
0.0
  0
LINE
  5
1B7
330
1F
100
AcDbEntity
  8
0
  6
CONTINUOUS
 62
     7
100
AcDbLine
 10
196.6638842439258
 20
414.1377479903173
 30
0.0
 11
196.6638842439258
 21
415.9441353178385
 31
0.0
  0
LINE
  5
1B8
330
1F
100
AcDbEntity
  8
0
  6
CONTINUOUS
 62
     7
100
AcDbLine
 10
196.6638842439257
 20
287.8847837341709
 30
0.0
 11
197.1638842439258
 21
288.8602353442516
 31
0.0
  0
LINE
  5
1B9
330
1F
100
AcDbEntity
  8
0
  6
CONTINUOUS
 62
     7
100
AcDbLine
 10
196.6638842439258
 20
309.3782021119475
 30
0.0
 11
197.1638842439258
 21
312.9137360178802
 31
0.0
  0
LINE
  5
1BA
330
1F
100
AcDbEntity
  8
0
  6
CONTINUOUS
 62
     7
100
AcDbLine
 10
197.1638842439258
 20
383.7680408092857
 30
0.0
 11
196.6638842439258
 21
383.7680408092857
 31
0.0
  0
LINE
  5
1BB
330
1F
100
AcDbEntity
  8
0
  6
CONTINUOUS
 62
     7
100
AcDbLine
 10
400.6638842439258
 20
287.2360595645046
 30
0.0
 11
347.1638842439257
 21
287.2360595645046
 31
0.0
  0
LINE
  5
1BC
330
1F
100
AcDbEntity
  8
0
  6
CONTINUOUS
 62
     7
100
AcDbLine
 10
196.6638842439258
 20
288.8602353442516
 30
0.0
 11
196.9138842439257
 21
288.3356849709357
 31
0.0
  0
LINE
  5
1BD
330
1F
100
AcDbEntity
  8
0
  6
CONTINUOUS
 62
     7
100
AcDbLine
 10
196.6638842439258
 20
437.7857608445712
 30
0.0
 11
196.6638842439258
 21
440.4892105285453
 31
0.0
  0
LINE
  5
1BE
330
1F
100
AcDbEntity
  8
0
  6
CONTINUOUS
 62
     7
100
AcDbLine
 10
196.6638842439258
 20
292.1510678868524
 30
0.0
 11
197.1638842439258
 21
294.0644850486779
 31
0.0
  0
LINE
  5
1BF
330
1F
100
AcDbEntity
  8
0
  6
CONTINUOUS
 62
     7
100
AcDbLine
 10
196.6705857897356
 20
440.5280318264317
 30
0.0
 11
196.6638842439258
 21
440.5636120096693
 31
0.0
  0
LINE
  5
1C0
330
1F
100
AcDbEntity
  8
0
  6
CONTINUOUS
 62
     7
100
AcDbLine
 10
197.1638842439258
 20
325.8343711386919
 30
0.0
 11
196.6638842439258
 21
325.8343711386919
 31
0.0
  0
LINE
  5
1C1
330
1F
100
AcDbEntity
  8
0
  6
CONTINUOUS
 62
     7
100
AcDbLine
 10
196.6767343995899
 20
440.5636120096692
 30
0.0
 11
196.6638842439258
 21
440.5636120096692
 31
0.0
  0
ARC
  5
1C2
330
1F
100
AcDbEntity
  8
0
  6
CONTINUOUS
 62
     7
100
AcDbCircle
 10
505.8205567270564
 20
306.5049242287459
 30
0.0
 40
243.4582138777988
100
AcDbArc
 50
180.1203658651665
 51
185.3843755705038
  0
LINE
  5
1C3
330
1F
100
AcDbEntity
  8
0
  6
CONTINUOUS
 62
     7
100
AcDbLine
 10
196.6638842439258
 20
294.064485048678
 30
0.0
 11
196.9138842439257
 21
293.07308848294
 31
0.0
  0
ARC
  5
1C4
330
1F
100
AcDbEntity
  8
0
  6
CONTINUOUS
 62
     7
100
AcDbCircle
 10
361.7934261289941
 20
295.1625432060965
 30
0.0
 40
103.885898256227
100
AcDbArc
 50
181.3080634730702
 51
186.1935657016243
  0
LINE
  5
1C5
330
1F
100
AcDbEntity
  8
0
  6
CONTINUOUS
 62
     7
100
AcDbLine
 10
400.6638842439258
 20
370.9860595645046
 30
0.0
 11
380.6638842439258
 21
370.9860595645046
 31
0.0
  0
LINE
  5
1C6
330
1F
100
AcDbEntity
  8
0
  6
CONTINUOUS
 62
     7
100
AcDbLine
 10
197.0280215563306
 20
404.1397859064105
 30
0.0
 11
196.6638842439258
 21
404.1397859064105
 31
0.0
  0
ARC
  5
1C7
330
1F
100
AcDbEntity
  8
0
  6
CONTINUOUS
 62
     7
100
AcDbCircle
 10
-7701.219562984863
 20
236.3140366120939
 30
0.0
 40
7998.51480673778
100
AcDbArc
 50
0.9647419977208076
 51
1.421058707775273
  0
LINE
  5
1C8
330
1F
100
AcDbEntity
  8
0
  6
CONTINUOUS
 62
     7
100
AcDbLine
 10
196.6638842439258
 20
299.40850711934
 30
0.0
 11
196.6638842439258
 21
296.7050574353659
 31
0.0
  0
LINE
  5
1C9
330
1F
100
AcDbEntity
  8
0
  6
CONTINUOUS
 62
     7
100
AcDbLine
 10
196.6638842439257
 20
321.6770230771787
 30
0.0
 11
197.1638842439258
 21
325.8343711386917
 31
0.0
  0
LINE
  5
1CA
330
1F
100
AcDbEntity
  8
0
  6
CONTINUOUS
 62
     7
100
AcDbLine
 10
211.0189167966859
 20
370.9860595645046
 30
0.0
 11
216.1614189722557
 21
370.9860595645046
 31
0.0
  0
LINE
  5
1CB
330
1F
100
AcDbEntity
  8
0
  6
CONTINUOUS
 62
     7
100
AcDbLine
 10
318.6638842439258
 20
452.7360595645046
 30
0.0
 11
318.6638842439258
 21
287.2360595645046
 31
0.0
  0
LINE
  5
1CC
330
1F
100
AcDbEntity
  8
0
  6
CONTINUOUS
 62
     7
100
AcDbLine
 10
197.1638842439258
 20
302.186358284438
 30
0.0
 11
196.6638842439258
 21
302.186358284438
 31
0.0
  0
ARC
  5
1CD
330
1F
100
AcDbEntity
  8
0
  6
CONTINUOUS
 62
     7
100
AcDbCircle
 10
110.4905160695451
 20
443.4723636000218
 30
0.0
 40
118.8761240466838
100
AcDbArc
 50
0.9519518780798757
 51
6.058924910166639
  0
LINE
  5
1CE
330
1F
100
AcDbEntity
  8
0
  6
CONTINUOUS
 62
     7
100
AcDbLine
 10
201.055889663636
 20
368.9860595645045
 30
0.0
 11
206.1980715452808
 21
368.9860595645047
 31
0.0
  0
LINE
  5
1CF
330
1F
100
AcDbEntity
  8
0
  6
CONTINUOUS
 62
     7
100
AcDbLine
 10
196.6638842439258
 20
335.8323332225987
 30
0.0
 11
196.6638842439258
 21
334.5880719904599
 31
0.0
  0
LINE
  5
1D0
330
1F
100
AcDbEntity
  8
0
  6
CONTINUOUS
 62
     7
100
AcDbLine
 10
196.6638842439258
 20
430.5939170170615
 30
0.0
 11
196.6638842439258
 21
432.8930119880021
 31
0.0
  0
LINE
  5
1D1
330
1F
100
AcDbEntity
  8
0
  6
CONTINUOUS
 62
     7
100
AcDbLine
 10
196.6638842439258
 20
312.9137360178805
 30
0.0
 11
196.6638842439258
 21
310.6146410469399
 31
0.0
  0
LINE
  5
1D2
330
1F
100
AcDbEntity
  8
0
  6
CONTINUOUS
 62
     7
100
AcDbLine
 10
196.6638842439258
 20
312.9137360178806
 30
0.0
 11
196.9138842439258
 21
311.1194200307246
 31
0.0
  0
LINE
  5
1D3
330
1F
100
AcDbEntity
  8
0
  6
CONTINUOUS
 62
     7
100
AcDbLine
 10
253.6798160042915
 20
456.4860595644724
 30
0.0
 11
253.7861161670641
 21
456.2924386777626
 31
0.0
  0
LINE
  5
1D4
330
1F
100
AcDbEntity
  8
0
  6
CONTINUOUS
 62
     7
100
AcDbLine
 10
196.6638842439257
 20
302.1863582844383
 30
0.0
 11
196.9138842439257
 21
300.7662143403179
 31
0.0
  0
LINE
  5
1D5
330
1F
100
AcDbEntity
  8
0
  6
CONTINUOUS
 62
     7
100
AcDbLine
 10
197.1638842439258
 20
437.7857608445712
 30
0.0
 11
196.6638842439258
 21
437.7857608445712
 31
0.0
  0
LINE
  5
1D6
330
1F
100
AcDbEntity
  8
0
  6
CONTINUOUS
 62
     7
100
AcDbLine
 10
196.805296324645
 20
417.1362223637465
 30
0.0
 11
196.6638842439258
 21
418.2950960518303
 31
0.0
  0
LINE
  5
1D7
330
1F
100
AcDbEntity
  8
0
  6
CONTINUOUS
 62
     7
100
AcDbLine
 10
196.846572422408
 20
402.4652940565356
 30
0.0
 11
196.6638842439258
 21
404.1397859064106
 31
0.0
  0
ARC
  5
1D8
330
1F
100
AcDbEntity
  8
0
  6
CONTINUOUS
 62
     7
100
AcDbCircle
 10
140.7611135734935
 20
443.492894947793
 30
0.0
 40
118.6052519619619
100
AcDbArc
 50
0.9418447576739586
 51
6.061698640692974
  0
LINE
  5
1D9
330
1F
100
AcDbEntity
  8
0
  6
CONTINUOUS
 62
     7
100
AcDbLine
 10
196.6638842439258
 20
404.1397859064105
 30
0.0
 11
196.6638842439258
 21
405.3840471385493
 31
0.0
  0
LINE
  5
1DA
330
1F
100
AcDbEntity
  8
0
  6
CONTINUOUS
 62
     7
100
AcDbLine
 10
197.1638842439258
 20
294.064485048678
 30
0.0
 11
196.6638842439258
 21
294.064485048678
 31
0.0
  0
LINE
  5
1DB
330
1F
100
AcDbEntity
  8
0
  6
CONTINUOUS
 62
     7
100
AcDbLine
 10
196.6638842439258
 20
440.5636120096692
 30
0.0
 11
196.6638842439258
 21
443.2670616936433
 31
0.0
  0
LINE
  5
1DC
330
1F
100
AcDbEntity
  8
0
  6
CONTINUOUS
 62
     7
100
AcDbLine
 10
293.6795552590552
 20
456.4860595643993
 30
0.0
 11
293.7644303949165
 21
456.3633795765704
 31
0.0
  0
ARC
  5
1DD
330
1F
100
AcDbEntity
  8
0
  6
CONTINUOUS
 62
     7
100
AcDbCircle
 10
473.4476283383281
 20
306.3722131141022
 30
0.0
 40
241.0824230926373
100
AcDbArc
 50
180.1162174191996
 51
185.4069683446246
  0
ARC
  5
1DE
330
1F
100
AcDbEntity
  8
0
  6
CONTINUOUS
 62
     7
100
AcDbCircle
 10
341.2072389311808
 20
294.3274671085325
 30
0.0
 40
93.27184177194019
100
AcDbArc
 50
181.3242438715638
 51
186.3848873482036
  0
LINE
  5
1DF
330
1F
100
AcDbEntity
  8
0
  6
CONTINUOUS
 62
     7
100
AcDbLine
 10
196.6638842439258
 20
321.6770230771792
 30
0.0
 11
196.6638842439258
 21
319.870635749658
 31
0.0
  0
LINE
  5
1E0
330
1F
100
AcDbEntity
  8
0
  6
CONTINUOUS
 62
     7
100
AcDbLine
 10
197.1638842439258
 20
414.1377479903173
 30
0.0
 11
196.6638842439258
 21
414.1377479903173
 31
0.0
  0
ARC
  5
1E1
330
1F
100
AcDbEntity
  8
0
  6
CONTINUOUS
 62
     7
100
AcDbCircle
 10
74.18325309896056
 20
434.6514897302861
 30
0.0
 40
220.6519874901996
100
AcDbArc
 50
0.0058682374601062
 51
5.646973465922655
  0
LINE
  5
1E2
330
1F
100
AcDbEntity
  8
0
  6
CONTINUOUS
 62
     7
100
AcDbLine
 10
197.1638842439258
 20
445.9076340803311
 30
0.0
 11
196.6638842439258
 21
445.9076340803311
 31
0.0
  0
ARC
  5
1E3
330
1F
100
AcDbEntity
  8
0
  6
CONTINUOUS
 62
     7
100
AcDbCircle
 10
17639.52420667151
 20
737.1247991381218
 30
0.0
 40
17387.26803599959
100
AcDbArc
 50
181.0161876254677
 51
181.4643600867228
  0
ARC
  5
1E4
330
1F
100
AcDbEntity
  8
0
  6
CONTINUOUS
 62
     7
100
AcDbCircle
 10
-29363.38970388706
 20
-264.2592884712719
 30
0.0
 40
29631.24034489983
100
AcDbArc
 50
1.10272446428674
 51
1.372430044945097
  0
LINE
  5
1E5
330
1F
100
AcDbEntity
  8
0
  6
CONTINUOUS
 62
     7
100
AcDbLine
 10
196.6638842439258
 20
335.8323332225985
 30
0.0
 11
197.1638842439258
 21
340.4517308851549
 31
0.0
  0
LINE
  5
1E6
330
1F
100
AcDbEntity
  8
0
  6
CONTINUOUS
 62
     7
100
AcDbLine
 10
263.5372302575281
 20
283.4860595645062
 30
0.0
 11
263.4365801339083
 21
283.6595790691671
 31
0.0
  0
LINE
  5
1E7
330
1F
100
AcDbEntity
  8
0
  6
CONTINUOUS
 62
     7
100
AcDbLine
 10
196.6638842439258
 20
302.186358284438
 30
0.0
 11
196.6638842439258
 21
299.4829086004639
 31
0.0
  0
LINE
  5
1E8
330
1F
100
AcDbEntity
  8
0
  6
CONTINUOUS
 62
     7
100
AcDbLine
 10
196.6638842439258
 20
399.520388243854
 30
0.0
 11
196.6638842439258
 21
400.7646494759928
 31
0.0
  0
LINE
  5
1E9
330
1F
100
AcDbEntity
  8
0
  6
CONTINUOUS
 62
     7
100
AcDbLine
 10
197.1638842439258
 20
288.8602353442517
 30
0.0
 11
196.6638842439258
 21
288.8602353442517
 31
0.0
  0
LINE
  5
1EA
330
1F
100
AcDbEntity
  8
0
  6
CONTINUOUS
 62
     7
100
AcDbLine
 10
196.9442530636045
 20
418.2950960518301
 30
0.0
 11
196.6638842439258
 21
418.2950960518301
 31
0.0
  0
LINE
  5
1EB
330
1F
100
AcDbEntity
  8
0
  6
CONTINUOUS
 62
     7
100
AcDbLine
 10
196.6638842439258
 20
340.4517308851551
 30
0.0
 11
196.9138842439258
 21
338.1276638201109
 31
0.0
  0
LINE
  5
1EC
330
1F
100
AcDbEntity
  8
0
  6
CONTINUOUS
 62
     7
100
AcDbLine
 10
196.6638842439258
 20
356.2040783197235
 30
0.0
 11
196.6638842439258
 21
355.5697594443284
 31
0.0
  0
LINE
  5
1ED
330
1F
100
AcDbEntity
  8
0
  6
CONTINUOUS
 62
     7
100
AcDbLine
 10
197.1638842439258
 20
427.0583831111288
 30
0.0
 11
196.6638842439258
 21
427.0583831111288
 31
0.0
  0
LINE
  5
1EE
330
1F
100
AcDbEntity
  8
0
  6
CONTINUOUS
 62
     7
100
AcDbLine
 10
238.5135933554318
 20
283.9573985529298
 30
0.0
 11
239.0485374471212
 21
280.9395325069751
 31
0.0
  0
LINE
  5
1EF
330
1F
100
AcDbEntity
  8
0
  6
CONTINUOUS
 62
     7
100
AcDbLine
 10
289.2086431065028
 20
280.4861919807335
 30
0.0
 11
293.0086431064925
 21
280.4862008598033
 31
0.0
  0
LINE
  5
1F0
330
1F
100
AcDbEntity
  8
0
  6
CONTINUOUS
 62
     7
100
AcDbLine
 10
254.0482753365126
 20
459.0318952453206
 30
0.0
 11
253.5970050264517
 21
456.4860098301139
 31
0.0
  0
LINE
  5
1F1
330
1F
100
AcDbEntity
  8
0
  6
CONTINUOUS
 62
     7
100
AcDbLine
 10
197.1638842439258
 20
356.2040783197235
 30
0.0
 11
196.6638842439258
 21
356.2040783197235
 31
0.0
  0
LINE
  5
1F2
330
1F
100
AcDbEntity
  8
0
  6
CONTINUOUS
 62
     7
100
AcDbLine
 10
264.0484599876201
 20
459.0335759363495
 30
0.0
 11
263.5968983110974
 21
456.4860100000338
 31
0.0
  0
LINE
  5
1F3
330
1F
100
AcDbEntity
  8
0
  6
CONTINUOUS
 62
     7
100
AcDbLine
 10
288.5111115582441
 20
283.9709453211909
 30
0.0
 11
289.0488093368347
 21
280.9374551641608
 31
0.0
  0
LINE
  5
1F4
330
1F
100
AcDbEntity
  8
0
  6
CONTINUOUS
 62
     7
100
AcDbLine
 10
197.0988844469936
 20
388.6719672113019
 30
0.0
 11
196.6638842439258
 21
388.6719672113019
 31
0.0
  0
LINE
  5
1F5
330
1F
100
AcDbEntity
  8
0
  6
CONTINUOUS
 62
     7
100
AcDbLine
 10
197.1638842439258
 20
372.4860595645046
 30
0.0
 11
196.6638842439258
 21
372.4860595645046
 31
0.0
  0
LINE
  5
1F6
330
1F
100
AcDbEntity
  8
0
  6
CONTINUOUS
 62
     7
100
AcDbLine
 10
218.5117253250463
 20
283.9674833268848
 30
0.0
 11
219.0488026086538
 21
280.9374931403776
 31
0.0
  0
LINE
  5
1F7
330
1F
100
AcDbEntity
  8
0
  6
CONTINUOUS
 62
     7
100
AcDbLine
 10
244.0484376326198
 20
459.0321951690326
 30
0.0
 11
243.5971139568971
 21
456.4860097126439
 31
0.0
  0
LINE
  5
1F8
330
1F
100
AcDbEntity
  8
0
  6
CONTINUOUS
 62
     7
100
AcDbLine
 10
304.6638842531794
 20
459.485652622244
 30
0.0
 11
304.2085776968084
 21
459.4856536861313
 31
0.0
  0
LINE
  5
1F9
330
1F
100
AcDbEntity
  8
0
  6
CONTINUOUS
 62
     7
100
AcDbLine
 10
208.7061130308062
 20
455.9999756206984
 30
0.0
 11
208.1685610957471
 21
459.0326199690419
 31
0.0
  0
LINE
  5
1FA
330
1F
100
AcDbEntity
  8
0
  6
CONTINUOUS
 62
     7
100
AcDbLine
 10
288.0085618748365
 20
459.4856442626323
 30
0.0
 11
284.2085618748469
 21
459.485653141675
 31
0.0
  0
LINE
  5
1FB
330
1F
100
AcDbEntity
  8
0
  6
CONTINUOUS
 62
     7
100
AcDbLine
 10
268.0085103670104
 20
459.4844741564015
 30
0.0
 11
264.2085103670207
 21
459.484483035328
 31
0.0
  0
LINE
  5
1FC
330
1F
100
AcDbEntity
  8
0
  6
CONTINUOUS
 62
     7
100
AcDbLine
 10
199.2088565291341
 20
280.4874509675412
 30
0.0
 11
203.0088565291479
 21
280.4874598463771
 31
0.0
  0
LINE
  5
1FD
330
1F
100
AcDbEntity
  8
0
  6
CONTINUOUS
 62
     7
100
AcDbLine
 10
284.0490455599071
 20
459.0363440471779
 30
0.0
 11
283.597004406962
 21
456.4860096873687
 31
0.0
  0
LINE
  5
1FE
330
1F
100
AcDbEntity
  8
0
  6
CONTINUOUS
 62
     7
100
AcDbLine
 10
197.1638842439258
 20
399.520388243854
 30
0.0
 11
196.6638842439258
 21
399.520388243854
 31
0.0
  0
LINE
  5
1FF
330
1F
100
AcDbEntity
  8
0
  6
CONTINUOUS
 62
     7
100
AcDbLine
 10
228.5111240148791
 20
283.9713309106129
 30
0.0
 11
229.0486928104723
 21
280.9386164342635
 31
0.0
  0
LINE
  5
200
330
1F
100
AcDbEntity
  8
0
  6
CONTINUOUS
 62
     7
100
AcDbLine
 10
196.8815607497356
 20
386.5442305234035
 30
0.0
 11
196.6638842439258
 21
388.6719672113018
 31
0.0
  0
LINE
  5
201
330
1F
100
AcDbEntity
  8
0
  6
CONTINUOUS
 62
     7
100
AcDbLine
 10
229.2083905247228
 20
280.4861924373478
 30
0.0
 11
233.0083905247124
 21
280.4862013164176
 31
0.0
  0
LINE
  5
202
330
1F
100
AcDbEntity
  8
0
  6
CONTINUOUS
 62
     7
100
AcDbLine
 10
208.5140836019937
 20
283.9535193095455
 30
0.0
 11
209.0493362599147
 21
280.9338005548801
 31
0.0
  0
LINE
  5
203
330
1F
100
AcDbEntity
  8
0
  6
CONTINUOUS
 62
     7
100
AcDbLine
 10
224.0487421826006
 20
459.0339867522097
 30
0.0
 11
223.5971218824104
 21
456.4860589940537
 31
0.0
  0
LINE
  5
204
330
1F
100
AcDbEntity
  8
0
  6
CONTINUOUS
 62
     7
100
AcDbLine
 10
218.7030646281494
 20
456.0169203743984
 30
0.0
 11
218.1684956713453
 21
459.0327717579181
 31
0.0
  0
LINE
  5
205
330
1F
100
AcDbEntity
  8
0
  6
CONTINUOUS
 62
     7
100
AcDbLine
 10
228.705587315223
 20
456.0029327409648
 30
0.0
 11
228.1682153707301
 21
459.0346441273055
 31
0.0
  0
LINE
  5
206
330
1F
100
AcDbEntity
  8
0
  6
CONTINUOUS
 62
     7
100
AcDbLine
 10
294.0487382077348
 20
459.0339643164584
 30
0.0
 11
293.5971131453369
 21
456.4860095880948
 31
0.0
  0
LINE
  5
207
330
1F
100
AcDbEntity
  8
0
  6
CONTINUOUS
 62
     7
100
AcDbLine
 10
218.008546526579
 20
459.485644422671
 30
0.0
 11
214.2085465265893
 21
459.4856533017137
 31
0.0
  0
LINE
  5
208
330
1F
100
AcDbEntity
  8
0
  6
CONTINUOUS
 62
     7
100
AcDbLine
 10
259.208572000496
 20
280.4877020645703
 30
0.0
 11
263.0085720004856
 21
280.4877109434904
 31
0.0
  0
LINE
  5
209
330
1F
100
AcDbEntity
  8
0
  6
CONTINUOUS
 62
     7
100
AcDbLine
 10
196.6638842439258
 20
427.0583831111288
 30
0.0
 11
196.6638842439258
 21
429.3574780820693
 31
0.0
  0
LINE
  5
20A
330
1F
100
AcDbEntity
  8
0
  6
CONTINUOUS
 62
     7
100
AcDbLine
 10
238.7052329448305
 20
456.0055345024782
 30
0.0
 11
238.167619566793
 21
459.0386460979278
 31
0.0
  0
LINE
  5
20B
330
1F
100
AcDbEntity
  8
0
  6
CONTINUOUS
 62
     7
100
AcDbLine
 10
208.0082691908578
 20
459.4849529625176
 30
0.0
 11
204.2082691908682
 21
459.4849618414916
 31
0.0
  0
LINE
  5
20C
330
1F
100
AcDbEntity
  8
0
  6
CONTINUOUS
 62
     7
100
AcDbLine
 10
248.7021672240965
 20
456.0234164986926
 30
0.0
 11
248.1674060699468
 21
459.040433942587
 31
0.0
  0
LINE
  5
20D
330
1F
100
AcDbEntity
  8
0
  6
CONTINUOUS
 62
     7
100
AcDbLine
 10
298.0084371771704
 20
459.4860327468585
 30
0.0
 11
294.2084371771808
 21
459.4860416259397
 31
0.0
  0
LINE
  5
20E
330
1F
100
AcDbEntity
  8
0
  6
CONTINUOUS
 62
     7
100
AcDbLine
 10
279.2086042563004
 20
280.4868133935353
 30
0.0
 11
283.00860425629
 21
280.4868222725435
 31
0.0
  0
LINE
  5
20F
330
1F
100
AcDbEntity
  8
0
  6
CONTINUOUS
 62
     7
100
AcDbLine
 10
304.0485741118527
 20
459.0327475719405
 30
0.0
 11
303.5971661748958
 21
456.4860590914963
 31
0.0
  0
LINE
  5
210
330
1F
100
AcDbEntity
  8
0
  6
CONTINUOUS
 62
     7
100
AcDbLine
 10
258.0085381244239
 20
459.4844740624551
 30
0.0
 11
254.2085381244342
 21
459.4844829413817
 31
0.0
  0
LINE
  5
211
330
1F
100
AcDbEntity
  8
0
  6
CONTINUOUS
 62
     7
100
AcDbLine
 10
238.0086030107836
 20
459.4856450765745
 30
0.0
 11
234.208603010794
 21
459.4856539556173
 31
0.0
  0
LINE
  5
212
330
1F
100
AcDbEntity
  8
0
  6
CONTINUOUS
 62
     7
100
AcDbLine
 10
249.2086154765864
 20
280.4874463798565
 30
0.0
 11
253.008615476576
 21
280.4874552588018
 31
0.0
  0
LINE
  5
213
330
1F
100
AcDbEntity
  8
0
  6
CONTINUOUS
 62
     7
100
AcDbLine
 10
258.510937236566
 20
283.9712479146004
 30
0.0
 11
259.0483546258913
 21
280.9394264187429
 31
0.0
  0
LINE
  5
214
330
1F
100
AcDbEntity
  8
0
  6
CONTINUOUS
 62
     7
100
AcDbLine
 10
274.0496117546213
 20
459.0401184711548
 30
0.0
 11
273.5969003414124
 21
456.4860101619107
 31
0.0
  0
LINE
  5
215
330
1F
100
AcDbEntity
  8
0
  6
CONTINUOUS
 62
     7
100
AcDbLine
 10
299.2083926220274
 20
280.4861924130602
 30
0.0
 11
303.008392622017
 21
280.48620129213
 31
0.0
  0
LINE
  5
216
330
1F
100
AcDbEntity
  8
0
  6
CONTINUOUS
 62
     7
100
AcDbLine
 10
196.6638842439258
 20
309.3782021119477
 30
0.0
 11
196.6638842439258
 21
307.0791071410072
 31
0.0
  0
LINE
  5
217
330
1F
100
AcDbEntity
  8
0
  6
CONTINUOUS
 62
     7
100
AcDbLine
 10
196.6638842439258
 20
418.2950960518301
 30
0.0
 11
196.6638842439258
 21
420.1014833793512
 31
0.0
  0
LINE
  5
218
330
1F
100
AcDbEntity
  8
0
  6
CONTINUOUS
 62
     7
100
AcDbLine
 10
196.9138842439258
 20
369.9860595645046
 30
0.0
 11
196.6638842439258
 21
372.4860595645046
 31
0.0
  0
LINE
  5
219
330
1F
100
AcDbEntity
  8
0
  6
CONTINUOUS
 62
     7
100
AcDbLine
 10
248.0081207994045
 20
459.4849444027561
 30
0.0
 11
244.2081207994149
 21
459.4849532817292
 31
0.0
  0
LINE
  5
21A
330
1F
100
AcDbEntity
  8
0
  6
CONTINUOUS
 62
     7
100
AcDbLine
 10
209.2086279228323
 20
280.486813715627
 30
0.0
 11
213.008627922822
 21
280.4868225946352
 31
0.0
  0
LINE
  5
21B
330
1F
100
AcDbEntity
  8
0
  6
CONTINUOUS
 62
     7
100
AcDbLine
 10
248.5114779460002
 20
283.9688661221067
 30
0.0
 11
249.04832503761
 21
280.9402838035529
 31
0.0
  0
LINE
  5
21C
330
1F
100
AcDbEntity
  8
0
  6
CONTINUOUS
 62
     7
100
AcDbLine
 10
196.6638842439258
 20
388.6719672113019
 30
0.0
 11
196.6638842439258
 21
389.306286086697
 31
0.0
  0
LINE
  5
21D
330
1F
100
AcDbEntity
  8
0
  6
CONTINUOUS
 62
     7
100
AcDbLine
 10
278.0082618149562
 20
459.4849529644375
 30
0.0
 11
274.2082618149666
 21
459.4849618434115
 31
0.0
  0
LINE
  5
21E
330
1F
100
AcDbEntity
  8
0
  6
CONTINUOUS
 62
     7
100
AcDbLine
 10
269.2088613850049
 20
280.4874510894512
 30
0.0
 11
273.0088613849945
 21
280.4874599683961
 31
0.0
  0
LINE
  5
21F
330
1F
100
AcDbEntity
  8
0
  6
CONTINUOUS
 62
     7
100
AcDbLine
 10
196.6638842439257
 20
299.4085071193397
 30
0.0
 11
197.1638842439258
 21
302.1863582844379
 31
0.0
  0
LINE
  5
220
330
1F
100
AcDbEntity
  8
0
  6
CONTINUOUS
 62
     7
100
AcDbLine
 10
268.5144171234514
 20
283.9512766914156
 30
0.0
 11
269.0497575963927
 21
280.9311067270971
 31
0.0
  0
LINE
  5
221
330
1F
100
AcDbEntity
  8
0
  6
CONTINUOUS
 62
     7
100
AcDbLine
 10
228.0084594230755
 20
459.4860328177037
 30
0.0
 11
224.2084594230858
 21
459.4860416967849
 31
0.0
  0
LINE
  5
222
330
1F
100
AcDbEntity
  8
0
  6
CONTINUOUS
 62
     7
100
AcDbLine
 10
196.6638842439258
 20
340.4517308851552
 30
0.0
 11
196.6638842439258
 21
339.2074696530164
 31
0.0
  0
LINE
  5
223
330
1F
100
AcDbEntity
  8
0
  6
CONTINUOUS
 62
     7
100
AcDbLine
 10
239.2088344724749
 20
280.486810932718
 30
0.0
 11
243.0088344724645
 21
280.4868198117265
 31
0.0
  0
LINE
  5
224
330
1F
100
AcDbEntity
  8
0
  6
CONTINUOUS
 62
     7
100
AcDbLine
 10
219.2086565333961
 20
280.486192119913
 30
0.0
 11
223.0086565333858
 21
280.4862009989828
 31
0.0
  0
LINE
  5
225
330
1F
100
AcDbEntity
  8
0
  6
CONTINUOUS
 62
     7
100
AcDbLine
 10
214.0490174775309
 20
459.0361857431238
 30
0.0
 11
213.5970043991263
 21
456.4860096769082
 31
0.0
  0
LINE
  5
226
330
1F
100
AcDbEntity
  8
0
  6
CONTINUOUS
 62
     7
100
AcDbLine
 10
197.1638842439258
 20
340.4517308851552
 30
0.0
 11
196.6638842439258
 21
340.4517308851552
 31
0.0
  0
LINE
  5
227
330
1F
100
AcDbEntity
  8
0
  6
CONTINUOUS
 62
     7
100
AcDbLine
 10
196.6638842439258
 20
356.2040783197235
 30
0.0
 11
196.9138842439258
 21
353.7447902566619
 31
0.0
  0
LINE
  5
228
330
1F
100
AcDbEntity
  8
0
  6
CONTINUOUS
 62
     7
100
AcDbLine
 10
204.0495946309717
 20
459.0400223764638
 30
0.0
 11
203.5969002554645
 21
456.4860101544828
 31
0.0
  0
LINE
  5
229
330
1F
100
AcDbEntity
  8
0
  6
CONTINUOUS
 62
     7
100
AcDbLine
 10
197.1638842439258
 20
312.9137360178805
 30
0.0
 11
196.6638842439258
 21
312.9137360178805
 31
0.0
  0
LINE
  5
22A
330
1F
100
AcDbEntity
  8
0
  6
CONTINUOUS
 62
     7
100
AcDbLine
 10
278.5119814692761
 20
283.9653770509429
 30
0.0
 11
279.049360709184
 21
280.9336630364731
 31
0.0
  0
LINE
  5
22B
330
1F
100
AcDbEntity
  8
0
  6
CONTINUOUS
 62
     7
100
AcDbLine
 10
197.1638842439258
 20
451.1118837847575
 30
0.0
 11
196.6638842439258
 21
451.1118837847575
 31
0.0
  0
LINE
  5
22C
330
1F
100
AcDbEntity
  8
0
  6
CONTINUOUS
 62
     7
100
AcDbLine
 10
298.7029899206104
 20
456.0175838870782
 30
0.0
 11
298.1682340529903
 21
459.0345387496133
 31
0.0
  0
LINE
  5
22D
330
1F
100
AcDbEntity
  8
0
  6
CONTINUOUS
 62
     7
100
AcDbLine
 10
288.7055837443724
 20
456.0027109747086
 30
0.0
 11
288.1684930085899
 21
459.0327867832374
 31
0.0
  0
LINE
  5
22E
330
1F
100
AcDbEntity
  8
0
  6
CONTINUOUS
 62
     7
100
AcDbLine
 10
298.5117986447684
 20
283.9675256554215
 30
0.0
 11
299.0486916537878
 21
280.9386229611701
 31
0.0
  0
LINE
  5
22F
330
1F
100
AcDbEntity
  8
0
  6
CONTINUOUS
 62
     7
100
AcDbLine
 10
268.7060182871425
 20
456.0011243271157
 30
0.0
 11
268.1686728485695
 21
459.0326051814989
 31
0.0
  0
LINE
  5
230
330
1F
100
AcDbEntity
  8
0
  6
CONTINUOUS
 62
     7
100
AcDbLine
 10
278.7033938470005
 20
456.0153133488866
 30
0.0
 11
278.1685594398989
 21
459.0326293040096
 31
0.0
  0
LINE
  5
231
330
1F
100
AcDbEntity
  8
0
  6
CONTINUOUS
 62
     7
100
AcDbLine
 10
303.1679066191826
 20
280.9354361960941
 30
0.0
 11
303.619998095077
 21
283.4861094336337
 31
0.0
  0
LINE
  5
232
330
1F
100
AcDbEntity
  8
0
  6
CONTINUOUS
 62
     7
100
AcDbLine
 10
234.0485819320185
 20
459.032791737756
 30
0.0
 11
233.5971574045577
 21
456.4860096259329
 31
0.0
  0
LINE
  5
233
330
1F
100
AcDbEntity
  8
0
  6
CONTINUOUS
 62
     7
100
AcDbLine
 10
258.705785766203
 20
456.0030305972263
 30
0.0
 11
258.1687181990495
 21
459.0329885376771
 31
0.0
  0
LWPOLYLINE
  5
234
330
1F
100
AcDbEntity
  8
0
  6
CONTINUOUS
 62
     7
100
AcDbPolyline
 90
       33
 70
     0
 43
0.0
 10
-289.2086431037244
 20
280.4861919807053
 10
-289.203647815949
 20
280.4865841113979
 10
-289.1986525281736
 20
280.4878619099244
 10
-289.1936572403983
 20
280.4900257175145
 10
-289.188661952623
 20
280.4930758753979
 10
-289.1836666648475
 20
280.4970127248041
 10
-289.1786713770721
 20
280.501836606963
 10
-289.1736760892967
 20
280.5075478520568
 10
-289.1686808015214
 20
280.514146441287
 10
-289.163685513746
 20
280.5216319442548
 10
-289.1586902259706
 20
280.5300039068825
 10
-289.1536949381952
 20
280.5392618750929
 10
-289.1486996504198
 20
280.5494053948088
 10
-289.1437043626444
 20
280.5604340119527
 10
-289.138709074869
 20
280.5723472724474
 10
-289.1337137870937
 20
280.5851447222154
 10
-289.1287184993183
 20
280.5988259071795
 10
-289.1237232115429
 20
280.6133903732622
 10
-289.1187279237676
 20
280.6288376663863
 10
-289.1137326359922
 20
280.6451673324746
 10
-289.1087373482168
 20
280.6623789174494
 10
-289.1037420604414
 20
280.6804719672336
 10
-289.0987467726661
 20
280.6994460277499
 10
-289.0937514848906
 20
280.7193006449207
 10
-289.0887561971152
 20
280.7400353646689
 10
-289.0837609093399
 20
280.7616497329172
 10
-289.0787656215645
 20
280.7841432955881
 10
-289.0737703337891
 20
280.8075155986043
 10
-289.0687750460137
 20
280.8317661878884
 10
-289.0637797582384
 20
280.8568946093632
 10
-289.058784470463
 20
280.8829004089514
 10
-289.0537891826876
 20
280.9097831325755
 10
-289.0487938949123
 20
280.9375423261579
210
0.0
220
0.0
230
-1.0
  0
LWPOLYLINE
  5
235
330
1F
100
AcDbEntity
  8
0
  6
CONTINUOUS
 62
     7
100
AcDbPolyline
 90
      113
 70
     0
 43
0.0
 10
239.0484925286243
 20
280.9397858980965
 10
239.0052792293083
 20
281.2162819959054
 10
238.9620659299923
 20
281.5580602002436
 10
238.9188526306764
 20
281.9649730297746
 10
238.8756393313604
 20
282.4368730031614
 10
238.8324260320445
 20
282.9736078674918
 10
238.7892127327285
 20
283.5748222438007
 10
238.7459994334125
 20
284.2398862065829
 10
238.7027861340966
 20
284.9681503669402
 10
238.6595728347806
 20
285.758965335975
 10
238.6163595354646
 20
286.6116817247889
 10
238.5731462361487
 20
287.5256501444842
 10
238.5299329368328
 20
288.5002212061629
 10
238.4867196375168
 20
289.5347455209268
 10
238.4435063382008
 20
290.628573699878
 10
238.4002930388849
 20
291.7810563541184
 10
238.3570797395689
 20
292.9915061642827
 10
238.313866440253
 20
294.2589532620393
 10
238.270653140937
 20
295.5823002661885
 10
238.227439841621
 20
296.9604491750951
 10
238.1842265423051
 20
298.3923019871232
 10
238.1410132429891
 20
299.8767607006376
 10
238.0977999436731
 20
301.4127273140026
 10
238.0545866443572
 20
302.9991038255828
 10
238.0113733450412
 20
304.6347922337425
 10
237.9681600457252
 20
306.3186945368463
 10
237.9249467464092
 20
308.0497121787285
 10
237.8817334470933
 20
309.8266429310855
 10
237.8385201477774
 20
311.6480597340378
 10
237.7953068484614
 20
313.5125060853217
 10
237.7520935491455
 20
315.4185254826741
 10
237.7088802498295
 20
317.3646614238319
 10
237.6656669505135
 20
319.3494574065319
 10
237.6224536511975
 20
321.3714569285106
 10
237.5792403518816
 20
323.429203487505
 10
237.5360270525656
 20
325.5212405812519
 10
237.4928137532496
 20
327.6461117074879
 10
237.4496004539337
 20
329.8023507448648
 10
237.4063871546177
 20
331.9883598547019
 10
237.3631738553017
 20
334.2024457063488
 10
237.3199605559857
 20
336.4429128308819
 10
237.2767472566698
 20
338.7080657593779
 10
237.2335339573537
 20
340.9962090229134
 10
237.1903206580378
 20
343.3056471525651
 10
237.1471073587218
 20
345.6346846794098
 10
237.1038940594058
 20
347.9816261345238
 10
237.0606807600899
 20
350.344776048984
 10
237.0174674607739
 20
352.7224389531316
 10
236.974254161458
 20
355.1129009156497
 10
236.9310408621419
 20
357.5143815805383
 10
236.887827562826
 20
359.9250856579829
 10
236.84461426351
 20
362.3432178581691
 10
236.8014009641941
 20
364.766982891282
 10
236.7581876648781
 20
367.194585467507
 10
236.7149743655622
 20
369.6242302970298
 10
236.6717610662463
 20
372.0541220900357
 10
236.6285477669304
 20
374.4824655567098
 10
236.5853344676144
 20
376.9074654072378
 10
236.5421211682984
 20
379.3273270636999
 10
236.4989078689825
 20
381.7402771424644
 10
236.4556945696665
 20
384.1445665384877
 10
236.4124812703506
 20
386.538447479053
 10
236.3692679710346
 20
388.9201721914437
 10
236.3260546717187
 20
391.2879929029428
 10
236.2828413724027
 20
393.6401618408336
 10
236.2396280730867
 20
395.9749312323992
 10
236.1964147737708
 20
398.2905533049228
 10
236.1532014744548
 20
400.5852802856875
 10
236.1099881751389
 20
402.8573644019767
 10
236.0667748758229
 20
405.1050781639239
 10
236.0235615765069
 20
407.3268179314285
 10
235.9803482771909
 20
409.5210268008902
 10
235.937134977875
 20
411.6861479549888
 10
235.893921678559
 20
413.8206245764045
 10
235.850708379243
 20
415.9228998478175
 10
235.807495079927
 20
417.9914169519077
 10
235.7642817806111
 20
420.0246190713552
 10
235.7210684812951
 20
422.02094938884
 10
235.6778551819791
 20
423.9788510870424
 10
235.6346418826631
 20
425.8967684314305
 10
235.5914285833472
 20
427.7732509830972
 10
235.5482152840312
 20
429.6070402498912
 10
235.5050019847152
 20
431.3968981366331
 10
235.4617886853992
 20
433.1415865481433
 10
235.4185753860833
 20
434.8398673892422
 10
235.3753620867673
 20
436.4905025647501
 10
235.3321487874513
 20
438.0922539794875
 10
235.2889354881353
 20
439.6438835382749
 10
235.2457221888194
 20
441.1441531459326
 10
235.2025088895034
 20
442.591824707281
 10
235.1592955901875
 20
443.985682720255
 10
235.1160822908715
 20
445.3247569209599
 10
235.0728689915555
 20
446.6082273722082
 10
235.0296556922396
 20
447.8352763104352
 10
234.9864423929237
 20
449.0050859720756
 10
234.9432290936078
 20
450.1168385935644
 10
234.9000157942918
 20
451.1697164113363
 10
234.8568024949759
 20
452.1629016618266
 10
234.8135891956599
 20
453.0955765814697
 10
234.7703758963439
 20
453.9669234067011
 10
234.727162597028
 20
454.7761244512955
 10
234.6839492977121
 20
455.5224693721577
 10
234.6407359983961
 20
456.2055683042697
 10
234.5975226990801
 20
456.8250909288781
 10
234.5543093997642
 20
457.3807069272295
 10
234.5110961004482
 20
457.8720859805703
 10
234.4678828011322
 20
458.2988977701468
 10
234.4246695018163
 20
458.6608119772059
 10
234.3814562025003
 20
458.9574982829939
 10
234.3382429031843
 20
459.1886263687574
 10
234.2950296038683
 20
459.3538659157427
 10
234.2518163045523
 20
459.4528980466895
 10
234.2086030052369
 20
459.4856539555754
  0
LWPOLYLINE
  5
236
330
1F
100
AcDbEntity
  8
0
  6
CONTINUOUS
 62
     7
100
AcDbPolyline
 90
      113
 70
     0
 43
0.0
 10
-273.0088613877706
 20
280.4874599684483
 10
-272.9656457577725
 20
280.5195665129188
 10
-272.9224301277745
 20
280.6175609262865
 10
-272.8792144977764
 20
280.7815170233788
 10
-272.8359988677784
 20
281.01150781109
 10
-272.7927832377803
 20
281.3074576842112
 10
-272.7495676077824
 20
281.6689699606958
 10
-272.7063519777843
 20
282.0956060962359
 10
-272.6631363477863
 20
282.5869275465244
 10
-272.6199207177883
 20
283.1424957672534
 10
-272.5767050877902
 20
283.7618722141154
 10
-272.5334894577923
 20
284.4446183428029
 10
-272.4902738277943
 20
285.1902956090085
 10
-272.4470581977963
 20
285.9984654684244
 10
-272.4038425677982
 20
286.8686893767432
 10
-272.3606269378002
 20
287.800509436152
 10
-272.3174113078021
 20
288.7932046816167
 10
-272.2741956778041
 20
289.8458643983047
 10
-272.230980047806
 20
290.9575736737514
 10
-272.187764417808
 20
292.1274175954923
 10
-272.1445487878099
 20
293.3544812510632
 10
-272.1013331578118
 20
294.6378497279999
 10
-272.0581175278137
 20
295.9766081138376
 10
-272.0149018978157
 20
297.3698414961122
 10
-271.9716862678176
 20
298.8166349623591
 10
-271.9284706378195
 20
300.3160735964869
 10
-271.8852550078215
 20
301.8671677307824
 10
-271.8420393778235
 20
303.4686607402492
 10
-271.7988237478254
 20
305.1192364303953
 10
-271.7556081178274
 20
306.8175786067284
 10
-271.7123924878293
 20
308.5623710747562
 10
-271.6691768578314
 20
310.3522976399867
 10
-271.6259612278333
 20
312.1860421079274
 10
-271.5827455978352
 20
314.0622882840862
 10
-271.5395299678372
 20
315.979719973971
 10
-271.4963143378391
 20
317.9370209830894
 10
-271.4530987078411
 20
319.9328706324685
 10
-271.4098830778431
 20
321.9658168562205
 10
-271.366667447845
 20
324.03425828334
 10
-271.3234518178469
 20
326.1365854563286
 10
-271.280236187849
 20
328.2711889176885
 10
-271.2370205578509
 20
330.436459209921
 10
-271.1938049278529
 20
332.6307868755282
 10
-271.1505892978548
 20
334.8525624570117
 10
-271.1073736678568
 20
337.1001764968736
 10
-271.0641580378588
 20
339.3720195376151
 10
-271.0209424078607
 20
341.6664821217385
 10
-270.9777267778627
 20
343.981937453964
 10
-270.9345111478646
 20
346.3166540587581
 10
-270.8912955178666
 20
348.66886136977
 10
-270.8480798878686
 20
351.0367887533761
 10
-270.8048642578705
 20
353.4186655759526
 10
-270.7616486278725
 20
355.8127212038758
 10
-270.7184329978744
 20
358.217185003522
 10
-270.6752173678764
 20
360.6302863412674
 10
-270.6320017378783
 20
363.0502545834883
 10
-270.5887861078802
 20
365.475319096561
 10
-270.5455704778822
 20
367.903709190446
 10
-270.5023548478841
 20
370.3336488907547
 10
-270.4591392178861
 20
372.7633526997654
 10
-270.4159235878881
 20
375.1910341222043
 10
-270.37270795789
 20
377.6149066627974
 10
-270.3294923278919
 20
380.0331838262708
 10
-270.2862766978939
 20
382.4440791173506
 10
-270.2430610678958
 20
384.8458060407629
 10
-270.1998454378978
 20
387.2365781012338
 10
-270.1566298078998
 20
389.6146088034894
 10
-270.1134141779017
 20
391.9781116522556
 10
-270.0701985479037
 20
394.3253073283873
 10
-270.0269829179056
 20
396.6544930987693
 10
-269.9837672879076
 20
398.9640125769342
 10
-269.9405516579096
 20
401.2522100221859
 10
-269.8973360279115
 20
403.5174296938286
 10
-269.8541203979136
 20
405.7580158511664
 10
-269.8109047679155
 20
407.9723127535032
 10
-269.7676891379174
 20
410.1586646601431
 10
-269.7244735079194
 20
412.3154158303902
 10
-269.6812578779214
 20
414.4409105235486
 10
-269.6380422479234
 20
416.5334930485141
 10
-269.5948266179253
 20
418.5915672681962
 10
-269.5516109879273
 20
420.6137120855171
 10
-269.5083953579292
 20
422.5985383996639
 10
-269.4651797279312
 20
424.5446571098241
 10
-269.4219640979331
 20
426.4506791151849
 10
-269.3787484679351
 20
428.3152153149333
 10
-269.335532837937
 20
430.1368766082572
 10
-269.2923172079389
 20
431.9142738943433
 10
-269.249101577941
 20
433.6460180723794
 10
-269.2058859479429
 20
435.3307200415524
 10
-269.1626703179448
 20
436.9669994626007
 10
-269.1194546879468
 20
438.5536623793803
 10
-269.0762390579487
 20
440.0896931804565
 10
-269.0330234279507
 20
441.5740834072846
 10
-268.9898077979527
 20
443.0058246013201
 10
-268.9465921679546
 20
444.3839083040181
 10
-268.9033765379565
 20
445.707326056834
 10
-268.8601609079585
 20
446.9750694012233
 10
-268.8169452779604
 20
448.1861298786414
 10
-268.7737296479623
 20
449.3394990305434
 10
-268.7305140179643
 20
450.4341683983848
 10
-268.6872983879662
 20
451.4691916621056
 10
-268.6440827579682
 20
452.4439292519939
 10
-268.6008671279701
 20
453.3578360887445
 10
-268.5576514979721
 20
454.2103671194612
 10
-268.514435867974
 20
455.0009772912479
 10
-268.471220237976
 20
455.7291215512086
 10
-268.4280046079779
 20
456.3942548464468
 10
-268.3847889779799
 20
456.9958321240669
 10
-268.3415733479818
 20
457.5333083311724
 10
-268.2983577179838
 20
458.0061384148672
 10
-268.2551420879857
 20
458.4137807471747
 10
-268.2119264579877
 20
458.7558852573515
 10
-268.16871082799
 20
459.0323910398603
210
0.0
220
0.0
230
-1.0
  0
LWPOLYLINE
  5
237
330
1F
100
AcDbEntity
  8
0
  6
CONTINUOUS
 62
     7
100
AcDbPolyline
 90
        4
 70
     0
 43
0.0
 10
208.2981484965001
 20
285.9612362206491
 10
208.3753953961356
 20
285.0637218308447
 10
208.4524966002525
 20
284.3662160021585
 10
208.5148146768347
 20
283.9493957183278
  0
LWPOLYLINE
  5
238
330
1F
100
AcDbEntity
  8
0
  6
CONTINUOUS
 62
     7
100
AcDbPolyline
 90
       33
 70
     0
 43
0.0
 10
304.6638842439271
 20
455.8475361534121
 10
304.6496559193123
 20
456.0697627592612
 10
304.6354275940449
 20
456.2851043867724
 10
304.6211992681581
 20
456.4935492454669
 10
304.6069709416851
 20
456.6950855448663
 10
304.5927426146592
 20
456.889701494492
 10
304.5785142871138
 20
457.0773853038653
 10
304.5642859590819
 20
457.2581251825077
 10
304.5500576305971
 20
457.4319093399404
 10
304.5358293016924
 20
457.598725985685
 10
304.5216009724011
 20
457.7585633292628
 10
304.5073726427565
 20
457.9114095801953
 10
304.493144312792
 20
458.0572529480036
 10
304.4789159825406
 20
458.1960816422094
 10
304.4646876520358
 20
458.327883872334
 10
304.4504593213107
 20
458.4526478478988
 10
304.4362309903987
 20
458.5703617784254
 10
304.422002659333
 20
458.6810138734348
 10
304.4077743281468
 20
458.7845923424485
 10
304.3935459968735
 20
458.8810853949881
 10
304.3793176655462
 20
458.9704812405748
 10
304.3650893341983
 20
459.0527680887302
 10
304.350861002863
 20
459.1279341489754
 10
304.3366326715736
 20
459.1959676308322
 10
304.3224043403634
 20
459.2568567438217
 10
304.3081760092655
 20
459.3105896974652
 10
304.2939476783135
 20
459.3571547012845
 10
304.2797193475402
 20
459.3965399648005
 10
304.2654910169778
 20
459.4287343288246
 10
304.2512626866354
 20
459.4537364325848
 10
304.2370343565048
 20
459.4715526425769
 10
304.2228060265767
 20
459.4821895350193
 10
304.2085776968427
 20
459.4856536861316
  0
LWPOLYLINE
  5
239
330
1F
100
AcDbEntity
  8
0
  6
CONTINUOUS
 62
     7
100
AcDbPolyline
 90
      105
 70
     0
 43
0.0
 10
-253.0086154737998
 20
280.4874552588148
 10
-252.9620656132483
 20
280.5258382653041
 10
-252.9155157526967
 20
280.640491185523
 10
-252.8689658921451
 20
280.8313217673812
 10
-252.8224160315935
 20
281.0982377587883
 10
-252.775866171042
 20
281.4411469076541
 10
-252.7293163104904
 20
281.859956961888
 10
-252.6827664499388
 20
282.3545425097968
 10
-252.6362165893872
 20
282.9244107262525
 10
-252.5896667288356
 20
283.5688400513044
 10
-252.5431168682841
 20
284.2871054691373
 10
-252.4965670077325
 20
285.0784819639359
 10
-252.4500171471809
 20
285.9422445198848
 10
-252.4034672866293
 20
286.8776681211688
 10
-252.3569174260778
 20
287.8840277519728
 10
-252.3103675655262
 20
288.9605983964815
 10
-252.2638177049745
 20
290.1066550388796
 10
-252.217267844423
 20
291.3214136818483
 10
-252.1707179838714
 20
292.6037198602799
 10
-252.1241681233198
 20
293.9522756091473
 10
-252.0776182627682
 20
295.3657826503741
 10
-252.0310684022166
 20
296.8429427058842
 10
-251.9845185416651
 20
298.3824574976016
 10
-251.9379686811135
 20
299.9830287474503
 10
-251.8914188205619
 20
301.6433581773538
 10
-251.8448689600103
 20
303.3621475092361
 10
-251.7983190994587
 20
305.1380984640809
 10
-251.7517692389071
 20
306.9698295012807
 10
-251.7052193783555
 20
308.8556481808417
 10
-251.658669517804
 20
310.7937895110625
 10
-251.6121196572524
 20
312.7824885002423
 10
-251.5655697967008
 20
314.8199801566799
 10
-251.5190199361492
 20
316.9044994886745
 10
-251.4724700755976
 20
319.0342815045249
 10
-251.4259202150461
 20
321.2075612125302
 10
-251.3793703544945
 20
323.4225736209892
 10
-251.3328204939429
 20
325.6775533439222
 10
-251.2862706333913
 20
327.9706451611484
 10
-251.2397207728397
 20
330.2997902621329
 10
-251.1931709122881
 20
332.6629017929971
 10
-251.1466210517365
 20
335.0578928998622
 10
-251.1000711911849
 20
337.4826767288494
 10
-251.0535213306333
 20
339.9351664260805
 10
-251.0069714700817
 20
342.4132751376764
 10
-250.9604216095301
 20
344.9149160097585
 10
-250.9138717489785
 20
347.4380021884482
 10
-250.8673218884269
 20
349.9804455902392
 10
-250.8207720278754
 20
352.5400990877176
 10
-250.7742221673238
 20
355.1147316303662
 10
-250.7276723067723
 20
357.7021057685456
 10
-250.6811224462207
 20
360.2999840526161
 10
-250.6345725856692
 20
362.906129032939
 10
-250.5880227251176
 20
365.5183032598742
 10
-250.5414728645661
 20
368.1342692837827
 10
-250.4949230040145
 20
370.751789655025
 10
-250.448373143463
 20
373.3686269239618
 10
-250.4018232829114
 20
375.9825444952573
 10
-250.3552734223599
 20
378.5913223597734
 10
-250.3087235618082
 20
381.1927555527741
 10
-250.2621737012567
 20
383.7846396545498
 10
-250.2156238407051
 20
386.3647702453896
 10
-250.1690739801535
 20
388.9309429055832
 10
-250.1225241196019
 20
391.4809532154202
 10
-250.0759742590504
 20
394.0125967551904
 10
-250.0294243984987
 20
396.5236691051831
 10
-249.9828745379471
 20
399.011965845688
 10
-249.9363246773955
 20
401.4752952579576
 10
-249.8897748168438
 20
403.9115927587435
 10
-249.8432249562923
 20
406.3188669932908
 10
-249.7966750957407
 20
408.6951274867678
 10
-249.750125235189
 20
411.0383837643433
 10
-249.7035753746375
 20
413.3466453511858
 10
-249.6570255140858
 20
415.6179217724639
 10
-249.6104756535343
 20
417.8502225533464
 10
-249.5639257929826
 20
420.0415572190018
 10
-249.5173759324311
 20
422.1899352945986
 10
-249.4708260718795
 20
424.2934092084393
 10
-249.4242762113279
 20
426.3502778440377
 10
-249.3777263507764
 20
428.3589279203667
 10
-249.3311764902248
 20
430.3177462641399
 10
-249.2846266296733
 20
432.2251197020712
 10
-249.2380767691216
 20
434.0794350608742
 10
-249.1915269085702
 20
435.879079167263
 10
-249.1449770480186
 20
437.6224388479509
 10
-249.0984271874671
 20
439.3079009296522
 10
-249.0518773269155
 20
440.9338522509
 10
-249.0053274663639
 20
442.4987784536037
 10
-248.9587776058123
 20
444.0015036421359
 10
-248.9122277452607
 20
445.4409243365878
 10
-248.8656778847091
 20
446.8159370570503
 10
-248.8191280241575
 20
448.1254383236149
 10
-248.7725781636059
 20
449.3683246563726
 10
-248.7260283030543
 20
450.5434925754147
 10
-248.6794784425027
 20
451.6498386008323
 10
-248.6329285819511
 20
452.6862592527165
 10
-248.5863787213995
 20
453.651652165007
 10
-248.539828860848
 20
454.5450936544811
 10
-248.4932790002963
 20
455.3660336201991
 10
-248.4467291397448
 20
456.1139688373372
 10
-248.4001792791931
 20
456.7883960810711
 10
-248.3536294186415
 20
457.3888121265767
 10
-248.30707955809
 20
457.9147137490299
 10
-248.2605296975385
 20
458.3655977236068
 10
-248.2139798369869
 20
458.7409608254827
 10
-248.1674299764348
 20
459.040299829837
210
0.0
220
0.0
230
-1.0
  0
LWPOLYLINE
  5
23A
330
1F
100
AcDbEntity
  8
0
  6
CONTINUOUS
 62
     7
100
AcDbPolyline
 90
        3
 70
     0
 43
0.0
 10
-233.6796194917565
 20
456.4860595643873
 10
-233.7636167663263
 20
456.3651332124398
 10
-233.8298670954862
 20
456.1009466210634
210
0.0
220
0.0
230
-1.0
  0
LWPOLYLINE
  5
23B
330
1F
100
AcDbEntity
  8
0
  6
CONTINUOUS
 62
     7
100
AcDbPolyline
 90
      113
 70
     0
 43
0.0
 10
229.0486863433034
 20
280.9386529276198
 10
229.0054700314909
 20
281.2152084182104
 10
228.9622537196784
 20
281.5569902346808
 10
228.9190374078659
 20
281.9637774197333
 10
228.8758210960534
 20
282.4353490160701
 10
228.832604784241
 20
282.9714840663933
 10
228.7893884724285
 20
283.5719616134052
 10
228.746172160616
 20
284.236506470177
 10
228.7029558488035
 20
284.964520252791
 10
228.6597395369911
 20
285.755285339341
 10
228.6165232251785
 20
286.6080839191897
 10
228.5733069133661
 20
287.5221981817002
 10
228.5300906015536
 20
288.4969103162354
 10
228.4868742897412
 20
289.5315025121581
 10
228.4436579779287
 20
290.6252569588313
 10
228.4004416661163
 20
291.7774558456179
 10
228.3572253543038
 20
292.9873813618807
 10
228.3140090424913
 20
294.2543140646105
 10
228.2707927306789
 20
295.5773873423923
 10
228.2275764188664
 20
296.9554724877476
 10
228.184360107054
 20
298.387413746841
 10
228.1411437952416
 20
299.8720553658368
 10
228.0979274834292
 20
301.4082415908994
 10
228.0547111716167
 20
302.9948166681932
 10
228.0114948598042
 20
304.6306248438826
 10
227.9682785479918
 20
306.314510364132
 10
227.9250622361794
 20
308.0453174751059
 10
227.8818459243669
 20
309.8218904229686
 10
227.8386296125545
 20
311.6430542509119
 10
227.795413300742
 20
313.5074323100125
 10
227.7521969889295
 20
315.4135273761002
 10
227.708980677117
 20
317.3598406039274
 10
227.6657643653045
 20
319.3448731482462
 10
227.622548053492
 20
321.3671261638088
 10
227.5793317416795
 20
323.4251008053678
 10
227.536115429867
 20
325.5172982276752
 10
227.4928991180545
 20
327.6422195854832
 10
227.4496828062421
 20
329.7983660335443
 10
227.4064664944296
 20
331.9842386798572
 10
227.3632501826171
 20
334.1982888675165
 10
227.3200338708046
 20
336.4388236650146
 10
227.2768175589921
 20
338.7041241447139
 10
227.2336012471797
 20
340.9924713789768
 10
227.1903849353673
 20
343.3021464401655
 10
227.1471686235547
 20
345.6314304006422
 10
227.1039523117423
 20
347.9786043327696
 10
227.0607359999299
 20
350.3419493089098
 10
227.0175196881175
 20
352.7197464014251
 10
226.974303376305
 20
355.1102766826778
 10
226.9310870644925
 20
357.5118193544992
 10
226.8878707526801
 20
359.9226146940283
 10
226.8446544408676
 20
362.3408662025697
 10
226.8014381290551
 20
364.7647759411023
 10
226.7582218172427
 20
367.1925459706054
 10
226.7150055054302
 20
369.6223783520578
 10
226.6717891936177
 20
372.0524751464388
 10
226.6285728818052
 20
374.4810384147273
 10
226.5853565699927
 20
376.9062702179025
 10
226.5421402581802
 20
379.3263726169436
 10
226.4989239463678
 20
381.7395476728293
 10
226.4557076345553
 20
384.1440067877327
 10
226.4124913227428
 20
386.5380067805625
 10
226.3692750109304
 20
388.9198182532
 10
226.3260586991179
 20
391.2877118106484
 10
226.2828423873054
 20
393.6399580579106
 10
226.239626075493
 20
395.97482759999
 10
226.1964097636805
 20
398.2905910418893
 10
226.153193451868
 20
400.5855189886117
 10
226.1099771400556
 20
402.8578820451604
 10
226.0667608282431
 20
405.1059508165384
 10
226.0235445164306
 20
407.3279973918483
 10
225.9803282046182
 20
409.5223739340857
 10
225.9371118928058
 20
411.6875518196079
 10
225.8938955809934
 20
413.8220121274961
 10
225.8506792691809
 20
415.924235936832
 10
225.8074629573684
 20
417.9927043266971
 10
225.764246645556
 20
420.0258983761728
 10
225.7210303337436
 20
422.0222991643407
 10
225.6778140219311
 20
423.9803877702822
 10
225.6345977101186
 20
425.8986452730789
 10
225.5913813983062
 20
427.7755527518124
 10
225.5481650864937
 20
429.6096159782583
 10
225.5049487746811
 20
431.3995473929564
 10
225.4617324628686
 20
433.1441624506882
 10
225.4185161510562
 20
434.8422773612302
 10
225.3752998392437
 20
436.4927083343584
 10
225.3320835274312
 20
438.0942715798491
 10
225.2888672156187
 20
439.6457833074788
 10
225.2456509038062
 20
441.1460597270236
 10
225.2024345919937
 20
442.5939170482598
 10
225.1592182801812
 20
443.9881714809634
 10
225.1160019683687
 20
445.3276396219086
 10
225.0727856565562
 20
446.611253436541
 10
225.0295693447437
 20
447.8382209816954
 10
224.9863530329312
 20
449.0077907505527
 10
224.9431367211187
 20
450.1192112362941
 10
224.8999204093063
 20
451.171730932101
 10
224.8567040974938
 20
452.1645983311543
 10
224.8134877856814
 20
453.0970619266354
 10
224.770271473869
 20
453.9683702117255
 10
224.7270551620565
 20
454.7777716796056
 10
224.6838388502441
 20
455.524514823457
 10
224.6406225384316
 20
456.2078649136179
 10
224.5974062266191
 20
456.8273500851041
 10
224.5541899148066
 20
457.3827070523869
 10
224.5109736029942
 20
457.8736782676118
 10
224.4677572911817
 20
458.3000061829241
 10
224.4245409793693
 20
458.6614332504694
 10
224.3813246675569
 20
458.9577019223927
 10
224.3381083557444
 20
459.1885546508398
 10
224.2948920439319
 20
459.3537338879559
 10
224.2516757321195
 20
459.4529820858863
 10
224.2084594203077
 20
459.4860416967772
  0
LWPOLYLINE
  5
23C
330
1F
100
AcDbEntity
  8
0
  6
CONTINUOUS
 62
     7
100
AcDbPolyline
 90
      105
 70
     0
 43
0.0
 10
289.0487938949123
 20
280.9375423261579
 10
289.0022532024383
 20
281.2382141445033
 10
288.9557125099645
 20
281.6145612691814
 10
288.9091718174907
 20
282.0662164628692
 10
288.8626311250167
 20
282.5928124882439
 10
288.8160904325428
 20
283.1939821079828
 10
288.7695497400689
 20
283.8693580847631
 10
288.723009047595
 20
284.6185731812619
 10
288.6764683551211
 20
285.44118574282
 10
288.6299276626472
 20
286.3363512581493
 10
288.5833869701733
 20
287.3030895233225
 10
288.5368462776993
 20
288.340420231359
 10
288.4903055852254
 20
289.4473630752788
 10
288.4437648927515
 20
290.6229377481014
 10
288.3972242002775
 20
291.8661639428464
 10
288.3506835078036
 20
293.1760613525337
 10
288.3041428153297
 20
294.5516496701827
 10
288.2576021228558
 20
295.9919485593246
 10
288.2110614303818
 20
297.4958692814147
 10
288.164520737908
 20
299.0619704863931
 10
288.117980045434
 20
300.688739250626
 10
288.0714393529601
 20
302.37466265048
 10
288.0248986604863
 20
304.1182277623217
 10
287.9783579680123
 20
305.9179216625172
 10
287.9318172755385
 20
307.7722314274332
 10
287.8852765830645
 20
309.6796441334359
 10
287.8387358905907
 20
311.638646856892
 10
287.7921951981168
 20
313.6477257471544
 10
287.7456545056428
 20
315.7052412443508
 10
287.699113813169
 20
317.8093019980009
 10
287.6525731206951
 20
319.9579866322421
 10
287.6060324282212
 20
322.1493737712115
 10
287.5594917357473
 20
324.3815420390462
 10
287.5129510432733
 20
326.6525700598835
 10
287.4664103507994
 20
328.9605364578605
 10
287.4198696583255
 20
331.3035198571145
 10
287.3733289658516
 20
333.6795988817825
 10
287.3267882733776
 20
336.0868493103283
 10
287.2802475809037
 20
338.5232415581636
 10
287.2337068884298
 20
340.9866121393007
 10
287.1871661959559
 20
343.4747889114171
 10
287.1406255034819
 20
345.9855997321903
 10
287.094084811008
 20
348.5168724592975
 10
287.0475441185341
 20
351.0664349504162
 10
287.0010034260602
 20
353.6321150632236
 10
286.9544627335862
 20
356.2117406553974
 10
286.9079220411123
 20
358.8031395846147
 10
286.8613813486384
 20
361.404137376668
 10
286.8148406561644
 20
364.0125214155454
 10
286.7682999636905
 20
366.6260479672835
 10
286.7217592712166
 20
369.2424723890707
 10
286.6752185787427
 20
371.8595500380953
 10
286.6286778862687
 20
374.4750362715459
 10
286.5821371937948
 20
377.0866864466109
 10
286.535596501321
 20
379.6922559204787
 10
286.489055808847
 20
382.2895000503375
 10
286.4425151163731
 20
384.876174193376
 10
286.3959744238992
 20
387.4500414811088
 10
286.3494337314252
 20
390.0089332952426
 10
286.3028930389514
 20
392.550716408491
 10
286.2563523464774
 20
395.0732578935811
 10
286.2098116540036
 20
397.5744248232396
 10
286.1632709615296
 20
400.0520842701936
 10
286.1167302690557
 20
402.5041033071702
 10
286.0701895765818
 20
404.9283490068963
 10
286.0236488841079
 20
407.322688442099
 10
285.977108191634
 20
409.684988685505
 10
285.93056749916
 20
412.0131536592679
 10
285.8840268066862
 20
414.3052765659021
 10
285.8374861142122
 20
416.5595112139344
 10
285.7909454217384
 20
418.7740114392537
 10
285.7444047292645
 20
420.9469310777485
 10
285.6978640367906
 20
423.076423965308
 10
285.6513233443166
 20
425.1606439378209
 10
285.6047826518428
 20
427.1977448311762
 10
285.5582419593689
 20
429.1858804812626
 10
285.5117012668949
 20
431.1232047712566
 10
285.465160574421
 20
433.007965085398
 10
285.4186198819471
 20
434.838697854217
 10
285.3720791894733
 20
436.6139951899663
 10
285.3255384969993
 20
438.332449204898
 10
285.2789978045254
 20
439.9926520112642
 10
285.2324571120514
 20
441.5931957213174
 10
285.1859164195776
 20
443.13267244731
 10
285.1393757271036
 20
444.609674301494
 10
285.0928350346297
 20
446.0227933961218
 10
285.0462943421558
 20
447.3706233929207
 10
284.9997536496818
 20
448.6519346655564
 10
284.9532129572079
 20
449.8658351408981
 10
284.9066722647339
 20
451.0114707517748
 10
284.8601315722601
 20
452.087987431016
 10
284.8135908797861
 20
453.0945311114506
 10
284.7670501873122
 20
454.0302477259078
 10
284.7205094948383
 20
454.8942832072167
 10
284.6739688023645
 20
455.6857834882068
 10
284.6274281098905
 20
456.4038945017068
 10
284.5808874174167
 20
457.0477701963587
 10
284.5343467249428
 20
457.616833728292
 10
284.4878060324689
 20
458.1108352356972
 10
284.441265339995
 20
458.5295445645851
 10
284.3947246475211
 20
458.8727315609667
 10
284.3481839550472
 20
459.1401660708527
 10
284.3016432625732
 20
459.3316179402539
 10
284.2551025700993
 20
459.4468570151811
 10
284.2085618776253
 20
459.4856531416453
  0
LWPOLYLINE
  5
23D
330
1F
100
AcDbEntity
  8
0
  6
CONTINUOUS
 62
     7
100
AcDbPolyline
 90
        4
 70
     0
 43
0.0
 10
298.3334884389662
 20
285.5239344034163
 10
298.4000004645789
 20
284.8189962251925
 10
298.466463047208
 20
284.2621953707778
 10
298.5143917355023
 20
283.9528993023084
  0
LWPOLYLINE
  5
23E
330
1F
100
AcDbEntity
  8
0
  6
CONTINUOUS
 62
     7
100
AcDbPolyline
 90
      105
 70
     0
 43
0.0
 10
209.0493034055392
 20
280.9339853821716
 10
209.0027549996289
 20
281.2339703586697
 10
208.9562065937186
 20
281.6098357102766
 10
208.9096581878083
 20
282.0611233250975
 10
208.863109781898
 20
282.5873750912376
 10
208.8165613759877
 20
283.1881328968017
 10
208.7700129700775
 20
283.862938629895
 10
208.7234645641672
 20
284.6113341786225
 10
208.6769161582568
 20
285.4328614310894
 10
208.6303677523466
 20
286.327050715856
 10
208.5838193464363
 20
287.2931479263001
 10
208.537270940526
 20
288.3301038072771
 10
208.4907225346157
 20
289.4368554005119
 10
208.4441741287054
 20
290.6123397477294
 10
208.3976257227952
 20
291.8554938906542
 10
208.3510773168849
 20
293.1652548710113
 10
208.3045289109746
 20
294.5405597305254
 10
208.2579805050643
 20
295.9803455109214
 10
208.211432099154
 20
297.4835492539241
 10
208.1648836932437
 20
299.0490835363026
 10
208.1183352873334
 20
300.6755663143714
 10
208.0717868814231
 20
302.3614205008951
 10
208.0252384755128
 20
304.1050655273476
 10
207.9786900696025
 20
305.9049208252031
 10
207.9321416636921
 20
307.7594058259358
 10
207.8855932577818
 20
309.6669399610196
 10
207.8390448518715
 20
311.6259426619285
 10
207.7924964459612
 20
313.6348333601367
 10
207.7459480400509
 20
315.6920314871179
 10
207.6993996341406
 20
317.7959197529707
 10
207.6528512282302
 20
319.944632740562
 10
207.6063028223199
 20
322.1362023150961
 10
207.5597544164096
 20
324.368660013782
 10
207.5132060104993
 20
326.6400373738289
 10
207.466657604589
 20
328.9483659324456
 10
207.4201091986787
 20
331.2916772268414
 10
207.3735607927683
 20
333.6680027942254
 10
207.327012386858
 20
336.0753741718068
 10
207.2804639809477
 20
338.5118228967945
 10
207.2339155750374
 20
340.9753428570725
 10
207.1873671691271
 20
343.4637770445505
 10
207.1408187632167
 20
345.9749306523286
 10
207.0942703573065
 20
348.5066088735065
 10
207.0477219513962
 20
351.056616901184
 10
207.0011735454858
 20
353.6227599284611
 10
206.9546251395755
 20
356.2028431484377
 10
206.9080767336653
 20
358.7946717542135
 10
206.861528327755
 20
361.3960509388883
 10
206.8149799218447
 20
364.0047858573757
 10
206.7684315159344
 20
366.6186694639439
 10
206.7218831100242
 20
369.2354651299839
 10
206.675334704114
 20
371.8529318305203
 10
206.6287862982037
 20
374.4688285405784
 10
206.5822378922934
 20
377.0809142351833
 10
206.5356894863833
 20
379.68694788936
 10
206.489141080473
 20
382.2846884781334
 10
206.4425926745627
 20
384.8718949765287
 10
206.3960442686525
 20
387.446326359571
 10
206.3494958627422
 20
390.0057425177629
 10
206.302947456832
 20
392.5479551082549
 10
206.2563990509216
 20
395.0708542593098
 10
206.2098506450114
 20
397.5723366469928
 10
206.163302239101
 20
400.0502989473685
 10
206.1167538331907
 20
402.5026378365018
 10
206.0702054272804
 20
404.9272499904577
 10
206.0236570213701
 20
407.3220320853009
 10
205.9771086154598
 20
409.6848807970963
 10
205.9305602095494
 20
412.013692801909
 10
205.8840118036391
 20
414.3063717522134
 10
205.8374633977288
 20
416.5609724744547
 10
205.7909149918184
 20
418.7756959846581
 10
205.7443665859081
 20
420.9487492780296
 10
205.6978181799977
 20
423.0783393497751
 10
205.6512697740874
 20
425.1626731951006
 10
205.6047213681771
 20
427.1999578092119
 10
205.5581729622667
 20
429.1884001873147
 10
205.5116245563564
 20
431.1262073246151
 10
205.4650761504461
 20
433.011586216319
 10
205.4185277445358
 20
434.8427682593976
 10
205.3719793386256
 20
436.6182513719415
 10
205.3254309327153
 20
438.3366976133894
 10
205.278882526805
 20
439.9967714485474
 10
205.2323341208947
 20
441.5971373422217
 10
205.1857857149845
 20
443.1364597592182
 10
205.1392373090742
 20
444.6134031643434
 10
205.0926889031639
 20
446.0266320224031
 10
205.0461404972537
 20
447.3748107982037
 10
204.9995920913434
 20
448.6566039565511
 10
204.9530436854331
 20
449.8707350750884
 10
204.9064952795228
 20
451.0162947519058
 10
204.8599468736125
 20
452.0925142407206
 10
204.8133984677021
 20
453.0986250822365
 10
204.7668500617918
 20
454.0338588171579
 10
204.7203016558815
 20
454.8974469861887
 10
204.6737532499711
 20
455.6886211300327
 10
204.6272048440609
 20
456.4066127893943
 10
204.5806564381505
 20
457.050653504977
 10
204.5341080322402
 20
457.6199748194095
 10
204.4875596263298
 20
458.1139218186237
 10
204.4410112204195
 20
458.5322592515179
 10
204.3944628145092
 20
458.8748488015291
 10
204.3479144085989
 20
459.1415521520947
 10
204.3013660026885
 20
459.332230986652
 10
204.2548175967782
 20
459.4467469886387
 10
204.2082691908683
 20
459.4849618414916
  0
LWPOLYLINE
  5
23F
330
1F
100
AcDbEntity
  8
0
  6
CONTINUOUS
 62
     7
100
AcDbPolyline
 90
        3
 70
     0
 43
0.0
 10
-303.6796194864041
 20
456.4860595643883
 10
-303.7550047912212
 20
456.3886763379585
 10
-303.821194374776
 20
456.1441548267431
210
0.0
220
0.0
230
-1.0
  0
LWPOLYLINE
  5
240
330
1F
100
AcDbEntity
  8
0
  6
CONTINUOUS
 62
     7
100
AcDbPolyline
 90
       97
 70
     0
 43
0.0
 10
-203.0088565346784
 20
280.4874598464801
 10
-202.9688050910701
 20
280.5149878546678
 10
-202.928753647147
 20
280.5991038910958
 10
-202.8887022028559
 20
280.7398667154638
 10
-202.8486507581437
 20
280.9373350874715
 10
-202.8085993129892
 20
281.1915161487034
 10
-202.7685478675369
 20
281.502148133234
 10
-202.7284964219854
 20
281.8688819884043
 10
-202.6884449765333
 20
282.291368615738
 10
-202.6483935313791
 20
282.7692589167586
 10
-202.6083420867214
 20
283.3022037929897
 10
-202.5682906427588
 20
283.8898541459549
 10
-202.5282391996898
 20
284.5318608771778
 10
-202.488187757713
 20
285.227874888182
 10
-202.448136317027
 20
285.9775470804911
 10
-202.4080848778302
 20
286.7805283556286
 10
-202.368033440303
 20
287.6364622204666
 10
-202.3279820041814
 20
288.5448130769763
 10
-202.2879305687442
 20
289.5048610583405
 10
-202.2478791332497
 20
290.5158778700518
 10
-202.2078276969556
 20
291.5771352176027
 10
-202.1677762591202
 20
292.6879048064858
 10
-202.1277248190016
 20
293.8474583421936
 10
-202.0876733758575
 20
295.0550675302185
 10
-202.0476219289464
 20
296.3100040760532
 10
-202.0075704775261
 20
297.6115396851901
 10
-201.9675190208547
 20
298.9589460631219
 10
-201.9274675581904
 20
300.3514949001115
 10
-201.8874160895
 20
301.7883934691806
 10
-201.8473646170787
 20
303.2686374045609
 10
-201.8073131436987
 20
304.7911789417983
 10
-201.7672616721325
 20
306.3549703164385
 10
-201.7272102051527
 20
307.9589637640275
 10
-201.6871587455315
 20
309.6021115201111
 10
-201.6471072960414
 20
311.2833658202352
 10
-201.6070558594549
 20
313.0016788999455
 10
-201.5670044385444
 20
314.756002994788
 10
-201.5269530360822
 20
316.5452903403085
 10
-201.4869016548409
 20
318.3684931720529
 10
-201.4468502970119
 20
320.2245534037679
 10
-201.4067989574096
 20
322.1122818741109
 10
-201.366747625775
 20
324.0303992779085
 10
-201.3266962917492
 20
325.9776245358006
 10
-201.2866449449732
 20
327.9526765684262
 10
-201.2465935750881
 20
329.9542742964247
 10
-201.2065421717352
 20
331.9811366404357
 10
-201.1664907245553
 20
334.0319825210983
 10
-201.1264392231896
 20
336.1055308590521
 10
-201.0863876572793
 20
338.2005005749366
 10
-201.0463360164654
 20
340.3156105893909
 10
-201.0062842904753
 20
342.4495795961856
 10
-200.9662324835179
 20
344.6010882699471
 10
-200.9261806304033
 20
346.7687369433357
 10
-200.8861287698301
 20
348.9511157408093
 10
-200.8460769404965
 20
351.1468147868252
 10
-200.8060251811012
 20
353.354424205841
 10
-200.7659735303425
 20
355.5725341223145
 10
-200.725922026919
 20
357.7997346607033
 10
-200.6858707095291
 20
360.0346159454646
 10
-200.6458196168712
 20
362.2757681010565
 10
-200.6057687876439
 20
364.5217812519363
 10
-200.5657182605455
 20
366.7712455225616
 10
-200.5256680588586
 20
369.0227501300784
 10
-200.4856180905445
 20
371.274877504381
 10
-200.4455682113295
 20
373.5262070010516
 10
-200.4055182766814
 20
375.7753179604662
 10
-200.365468142068
 20
378.0207897230004
 10
-200.3254176629574
 20
380.2612016290307
 10
-200.2853666948173
 20
382.4951330189325
 10
-200.2453150931155
 20
384.721163233082
 10
-200.20526271332
 20
386.937871611855
 10
-200.1652094108987
 20
389.1438374956276
 10
-200.1251550413193
 20
391.3376402247757
 10
-200.0850994659681
 20
393.5178599806918
 10
-200.0450428177058
 20
395.6831155221385
 10
-200.0049856080625
 20
397.8320794180011
 10
-199.964928376673
 20
399.9634282308987
 10
-199.9248716631719
 20
402.0758385234502
 10
-199.8848160071938
 20
404.1679868582746
 10
-199.8447619483735
 20
406.2385497979907
 10
-199.8047100263456
 20
408.2862039052178
 10
-199.7646607807447
 20
410.3096257425747
 10
-199.7246147512056
 20
412.3074918726804
 10
-199.6845724773628
 20
414.278478858154
 10
-199.6445344988511
 20
416.2212632616142
 10
-199.604500990614
 20
418.1345556075294
 10
-199.5644704313674
 20
420.0172243814663
 10
-199.5244408070484
 20
421.868183959047
 10
-199.4844101035397
 20
423.6863487209077
 10
-199.4443763067242
 20
425.4706330476846
 10
-199.4043374024851
 20
427.2199513200135
 10
-199.3642913767049
 20
428.9332179185309
 10
-199.3242362152669
 20
430.6093472238728
 10
-199.2841699040538
 20
432.2472536166752
 10
-199.2440904289487
 20
433.8458514775745
 10
-199.2039957758343
 20
435.4040551872063
 10
-199.1638842496072
 20
436.9207818863234
210
0.0
220
0.0
230
-1.0
  0
LWPOLYLINE
  5
241
330
1F
100
AcDbEntity
  8
0
  6
CONTINUOUS
 62
     7
100
AcDbPolyline
 90
      113
 70
     0
 43
0.0
 10
-213.0086279228219
 20
280.4868225946352
 10
-212.9654133143152
 20
280.5192307197948
 10
-212.9221987058084
 20
280.6177658247413
 10
-212.8789840973016
 20
280.782542176496
 10
-212.8357694887949
 20
281.0133639174658
 10
-212.7925548802881
 20
281.3098661848246
 10
-212.7493402717814
 20
281.6716824153954
 10
-212.7061256632747
 20
282.0984460460013
 10
-212.662911054768
 20
282.5897905134653
 10
-212.6196964462612
 20
283.1453492546104
 10
-212.5764818377545
 20
283.7647557062597
 10
-212.5332672292478
 20
284.4476433052361
 10
-212.490052620741
 20
285.1936454883626
 10
-212.4468380122344
 20
286.002395460624
 10
-212.4036234037276
 20
286.8734071626304
 10
-212.3604087952209
 20
287.8058809734985
 10
-212.3171941867142
 20
288.7989663556919
 10
-212.2739795782075
 20
289.8518127716748
 10
-212.2307649697008
 20
290.9635696839111
 10
-212.1875503611941
 20
292.133386554865
 10
-212.1443357526873
 20
293.3604128470001
 10
-212.1011211441806
 20
294.6437980227806
 10
-212.0579065356739
 20
295.9826915446704
 10
-212.0146919271671
 20
297.3762428751336
 10
-211.9714773186604
 20
298.8235896693003
 10
-211.9282627101537
 20
300.3236572101577
 10
-211.8850481016469
 20
301.8751868673549
 10
-211.8418334931401
 20
303.4769139319272
 10
-211.7986188846334
 20
305.1275736949102
 10
-211.7554042761267
 20
306.8259014473393
 10
-211.7121896676199
 20
308.5706324802498
 10
-211.6689750591131
 20
310.3605020846771
 10
-211.6257604506064
 20
312.1942455516569
 10
-211.5825458420996
 20
314.0705981722243
 10
-211.5393312335929
 20
315.988295237415
 10
-211.4961166250862
 20
317.9460251133795
 10
-211.4529020165795
 20
319.9422695599443
 10
-211.4096874080726
 20
321.975453492053
 10
-211.3664727995659
 20
324.0440018229586
 10
-211.3232581910592
 20
326.146339465914
 10
-211.2800435825524
 20
328.2808913341721
 10
-211.2368289740457
 20
330.4460823409858
 10
-211.1936143655389
 20
332.640337399608
 10
-211.1503997570322
 20
334.8620814232918
 10
-211.1071851485254
 20
337.10973932529
 10
-211.0639705400187
 20
339.3817343500466
 10
-211.020755931512
 20
341.6764169238318
 10
-210.9775413230052
 20
343.9920380091199
 10
-210.9343267144984
 20
346.3268414074823
 10
-210.8911121059917
 20
348.6790709204898
 10
-210.8478974974849
 20
351.0469703497136
 10
-210.8046828889782
 20
353.4287834967247
 10
-210.7614682804715
 20
355.8227541630943
 10
-210.7182536719647
 20
358.2271261503933
 10
-210.675039063458
 20
360.6401432601928
 10
-210.6318244549513
 20
363.0600492940638
 10
-210.5886098464446
 20
365.4850849697056
 10
-210.5453952379379
 20
367.913467759536
 10
-210.5021806294312
 20
370.3434045372136
 10
-210.4589660209245
 20
372.773102122418
 10
-210.4157514124178
 20
375.2007673348288
 10
-210.3725368039111
 20
377.6246069941258
 10
-210.3293221954045
 20
380.0428279199888
 10
-210.2861075868978
 20
382.4536369320972
 10
-210.2428929783911
 20
384.8552408501311
 10
-210.1996783698844
 20
387.2458464937697
 10
-210.1564637613777
 20
389.623660845105
 10
-210.113249152871
 20
391.9869225118268
 10
-210.0700345443643
 20
394.3339393320476
 10
-210.0268199358576
 20
396.66302830842
 10
-209.9836053273508
 20
398.9725064435969
 10
-209.9403907188441
 20
401.2606907402313
 10
-209.8971761103373
 20
403.5258982009759
 10
-209.8539615018306
 20
405.7664458284835
 10
-209.8107468933239
 20
407.9806506254071
 10
-209.7675322848171
 20
410.1668295943996
 10
-209.7243176763103
 20
412.3232997381137
 10
-209.6811030678036
 20
414.4483879090741
 10
-209.6378884592968
 20
416.5405574166595
 10
-209.59467385079
 20
418.5983712929564
 10
-209.5514592422832
 20
420.6203948458272
 10
-209.5082446337764
 20
422.6051933831346
 10
-209.4650300252697
 20
424.5513322127414
 10
-209.4218154167629
 20
426.4573766425103
 10
-209.3786008082561
 20
428.321891980304
 10
-209.3353861997494
 20
430.1434435339851
 10
-209.2921715912427
 20
431.9205966114167
 10
-209.2489569827359
 20
433.6519165225841
 10
-209.2057423742292
 20
435.3360357499008
 10
-209.1625277657225
 20
436.9718304247907
 10
-209.1193131572157
 20
438.5582319043546
 10
-209.076098548709
 20
440.0941715456932
 10
-209.0328839402023
 20
441.5785807059071
 10
-208.9896693316957
 20
443.0103907420969
 10
-208.9464547231889
 20
444.3885330113634
 10
-208.9032401146822
 20
445.7119388708073
 10
-208.8600255061756
 20
446.979539677529
 10
-208.8168108976688
 20
448.1902667886293
 10
-208.7735962891621
 20
449.3430582511605
 10
-208.7303816806553
 20
450.4370538001959
 10
-208.6871670721486
 20
451.4716256562775
 10
-208.6439524636419
 20
452.4461589284057
 10
-208.6007378551351
 20
453.360038725581
 10
-208.5575232466283
 20
454.2126501568043
 10
-208.5143086381215
 20
455.003378331076
 10
-208.4710940296148
 20
455.7316083573968
 10
-208.4278794211081
 20
456.3967253447671
 10
-208.3846648126013
 20
456.9981144021876
 10
-208.3414502040945
 20
457.535160638659
 10
-208.2982355955878
 20
458.0073023349406
 10
-208.255020987081
 20
458.414304533789
 10
-208.2118063785742
 20
458.7560563216113
 10
-208.168591770068
 20
459.0324470229145
210
0.0
220
0.0
230
-1.0
  0
LWPOLYLINE
  5
242
330
1F
100
AcDbEntity
  8
0
  6
CONTINUOUS
 62
     7
100
AcDbPolyline
 90
      105
 70
     0
 43
0.0
 10
279.04931102648
 20
280.933942506021
 10
279.0027624763694
 20
281.2339160688613
 10
278.9562139262587
 20
281.6097705505284
 10
278.909665376148
 20
282.0610478348698
 10
278.8631168260373
 20
282.5872898057332
 10
278.8165682759266
 20
283.188038346966
 10
278.770019725816
 20
283.8628353424159
 10
278.7234711757052
 20
284.6112226759303
 10
278.6769226255946
 20
285.4327422313569
 10
278.6303740754838
 20
286.3269243426922
 10
278.583825525373
 20
287.2930149585935
 10
278.5372769752624
 20
288.329964825149
 10
278.4907284251517
 20
289.4367109742051
 10
278.444179875041
 20
290.6121904376076
 10
278.3976313249303
 20
291.8553402472026
 10
278.3510827748196
 20
293.1650974348364
 10
278.3045342247088
 20
294.5403990323549
 10
278.2579856745982
 20
295.9801820716045
 10
278.2114371244874
 20
297.483383584431
 10
278.1648885743767
 20
299.0489161494373
 10
278.1183400242659
 20
300.6753977502291
 10
278.0717914741552
 20
302.3612512881704
 10
278.0252429240445
 20
304.1048961800459
 10
277.9786943739338
 20
305.9047518426403
 10
277.9321458238231
 20
307.7592376927388
 10
277.8855972737123
 20
309.6667731471259
 10
277.8390487236016
 20
311.6257776225868
 10
277.7925001734909
 20
313.6346705359061
 10
277.7459516233802
 20
315.6918713038689
 10
277.6994030732694
 20
317.7957626317111
 10
277.6528545231587
 20
319.9444791040114
 10
277.606305973048
 20
322.1360525681205
 10
277.5597574229374
 20
324.3685145429537
 10
277.5132088728267
 20
326.6398965474257
 10
277.4666603227159
 20
328.9482301004516
 10
277.4201117726053
 20
331.2915467209464
 10
277.3735632224946
 20
333.6678779278249
 10
277.3270146723839
 20
336.0752552400023
 10
277.2804661222733
 20
338.5117101763935
 10
277.2339175721625
 20
340.9752366114373
 10
277.1873690220518
 20
343.46367752221
 10
277.1408204719411
 20
345.974838081414
 10
277.0942719218305
 20
348.5065234617514
 10
277.0477233717198
 20
351.0565388359245
 10
277.0011748216091
 20
353.6226893766352
 10
276.9546262714984
 20
356.202780256586
 10
276.9080777213877
 20
358.794616648479
 10
276.8615291712769
 20
361.3960037250162
 10
276.8149806211662
 20
364.0047466207235
 10
276.7684320710555
 20
366.6186382698191
 10
276.7218835209447
 20
369.2354420231545
 10
276.675334970834
 20
371.8529168349276
 10
276.6287864207233
 20
374.468821659336
 10
276.5822378706125
 20
377.0809154505776
 10
276.5356893205018
 20
379.6869571628506
 10
276.4891407703911
 20
382.2847057503525
 10
276.4425922202803
 20
384.8719201672813
 10
276.3960436701697
 20
387.4463593678349
 10
276.349495120059
 20
390.0057832218168
 10
276.3029465699483
 20
392.5480033675273
 10
276.2563980198377
 20
395.0709099140651
 10
276.2098494697269
 20
397.5723995179478
 10
276.1633009196162
 20
400.0503688356928
 10
276.1167523695056
 20
402.5027145238174
 10
276.0702038193949
 20
404.9273332388393
 10
276.0236552692842
 20
407.3221216372755
 10
275.9771067191735
 20
409.6849763756438
 10
275.9305581690628
 20
412.0137941104616
 10
275.8840096189522
 20
414.3064784765712
 10
275.8374610688414
 20
416.5610842928916
 10
275.7909125187307
 20
418.7758125603985
 10
275.7443639686201
 20
420.9488702576344
 10
275.6978154185094
 20
423.0784643631416
 10
275.6512668683986
 20
425.1628018554626
 10
275.604718318288
 20
427.2000897131398
 10
275.5581697681772
 20
429.1885349147157
 10
275.5116212180665
 20
431.1263444387325
 10
275.4650726679558
 20
433.0117252637327
 10
275.418524117845
 20
434.8429087783633
 10
275.3719755677343
 20
436.6183929115858
 10
275.3254270176236
 20
438.3368397121346
 10
275.2788784675129
 20
439.996913632404
 10
275.2323299174021
 20
441.5972791247884
 10
275.1857813672913
 20
443.1366006416819
 10
275.1392328171806
 20
444.6135426354788
 10
275.0926842670698
 20
446.026769558573
 10
275.0461357169592
 20
447.374945863359
 10
274.9995871668484
 20
448.6567360022307
 10
274.9530386167377
 20
449.8708635630028
 10
274.9064900666269
 20
451.0164191728958
 10
274.8599415165162
 20
452.092634079114
 10
274.8133929664056
 20
453.0987398152195
 10
274.7668444162948
 20
454.0339679147746
 10
274.7202958661841
 20
454.8975499113414
 10
274.6737473160734
 20
455.6887173384824
 10
274.6271987659627
 20
456.4067017297597
 10
274.5806502158521
 20
457.0507346187356
 10
274.5341016657414
 20
457.6200475409268
 10
274.4875531156307
 20
458.1139856214625
 10
274.44100456552
 20
458.5323136478754
 10
274.3944560154093
 20
458.8748933023172
 10
274.3479074652986
 20
459.1415862669397
 10
274.301358915188
 20
459.3322542238951
 10
274.2548103650773
 20
459.4467588553351
 10
274.2082618149666
 20
459.4849618434115
  0
LWPOLYLINE
  5
243
330
1F
100
AcDbEntity
  8
0
  6
CONTINUOUS
 62
     7
100
AcDbPolyline
 90
        3
 70
     0
 43
0.0
 10
-263.6798224703047
 20
456.4860595643547
 10
-263.7643752632723
 20
456.3632781443021
 10
-263.8324074480341
 20
456.0877475458349
210
0.0
220
0.0
230
-1.0
  0
LWPOLYLINE
  5
244
330
1F
100
AcDbEntity
  8
0
  6
CONTINUOUS
 62
     7
100
AcDbPolyline
 90
      113
 70
     0
 43
0.0
 10
-223.0086565306073
 20
280.4862009989534
 10
-222.9654410369461
 20
280.518909097866
 10
-222.922225543285
 20
280.6179379444156
 10
-222.8790100496238
 20
280.783031045442
 10
-222.8357945559626
 20
281.0138943878443
 10
-222.7925790623014
 20
281.3102339585217
 10
-222.7493635686403
 20
281.6717557443733
 10
-222.7061480749792
 20
282.0981657322985
 10
-222.662932581318
 20
282.5891699091962
 10
-222.6197170876569
 20
283.1444742619658
 10
-222.5765015939957
 20
283.7637847775064
 10
-222.5332861003346
 20
284.4468074427172
 10
-222.4900706066734
 20
285.1932253416508
 10
-222.4468551130123
 20
286.0024428862593
 10
-222.4036396193511
 20
286.8736786179575
 10
-222.36042412569
 20
287.8061476952353
 10
-222.3172086320288
 20
288.7990652765824
 10
-222.2739931383676
 20
289.8516465204888
 10
-222.2307776447065
 20
290.9631065854439
 10
-222.1875621510453
 20
292.1326606299379
 10
-222.1443466573841
 20
293.3595238124606
 10
-222.101131163723
 20
294.6429112915016
 10
-222.0579156700618
 20
295.9820382038577
 10
-222.0147001764006
 20
297.3760333598639
 10
-221.9714846827394
 20
298.8237431598342
 10
-221.9282691890783
 20
300.3239563451597
 10
-221.8850536954171
 20
301.8754616572314
 10
-221.8418382017559
 20
303.4770478374401
 10
-221.7986227080948
 20
305.1275036271771
 10
-221.7554072144336
 20
306.8256177678333
 10
-221.7121917207725
 20
308.5701790007996
 10
-221.6689762271113
 20
310.3599760674672
 10
-221.6257607334501
 20
312.1937977092271
 10
-221.5825452397889
 20
314.0704266222381
 10
-221.5393297461278
 20
315.9884928315344
 10
-221.4961142524667
 20
317.9464657109686
 10
-221.4528987588055
 20
319.9428069918515
 10
-221.4096832651443
 20
321.9759784054935
 10
-221.3664677714831
 20
324.0444416832056
 10
-221.323252277822
 20
326.1466585562981
 10
-221.2800367841608
 20
328.2810907560817
 10
-221.2368212904997
 20
330.4462000138671
 10
-221.1936057968385
 20
332.6404480609649
 10
-221.1503903031773
 20
334.8622966286857
 10
-221.1071748095161
 20
337.1101835710072
 10
-221.063959315855
 20
339.3824150496194
 10
-221.0207438221938
 20
341.6772520705159
 10
-220.9775283285326
 20
343.9929555993994
 10
-220.9343128348715
 20
346.3277866019723
 10
-220.8910973412103
 20
348.6800060439371
 10
-220.847881847549
 20
351.0478748909964
 10
-220.8046663538879
 20
353.4296541088528
 10
-220.7614508602268
 20
355.8236046632089
 10
-220.7182353665656
 20
358.227987519767
 10
-220.6750198729044
 20
360.6410633649895
 10
-220.6318043792432
 20
363.061072415386
 10
-220.5885888855821
 20
365.4862208152869
 10
-220.5453733919209
 20
367.9147114859304
 10
-220.5021578982598
 20
370.3447473485548
 10
-220.4589424045986
 20
372.7745313243992
 10
-220.4157269109376
 20
375.2022663347017
 10
-220.3725114172763
 20
377.6261553007008
 10
-220.3292959236152
 20
380.0444011436352
 10
-220.2860804299541
 20
382.4552067847432
 10
-220.242864936293
 20
384.8567751452636
 10
-220.1996494426318
 20
387.2473147078927
 10
-220.1564339489707
 20
389.6250875476191
 10
-220.1132184553095
 20
391.9883856984209
 10
-220.0700029616484
 20
394.3355015218792
 10
-220.0267874679872
 20
396.6647273795749
 10
-219.9835719743261
 20
398.974355633089
 10
-219.9403564806649
 20
401.2626786440024
 10
-219.8971409870038
 20
403.5279887738961
 10
-219.8539254933426
 20
405.7685783843509
 10
-219.8107099996814
 20
407.9827398369479
 10
-219.7674945060203
 20
410.1687655833616
 10
-219.7242790123591
 20
412.3250033722279
 10
-219.6810635186979
 20
414.4499502157433
 10
-219.6378480250367
 20
416.542128060341
 10
-219.5946325313755
 20
418.6000588524537
 10
-219.5514170377142
 20
420.6222645385144
 10
-219.508201544053
 20
422.6072670649563
 10
-219.4649860503918
 20
424.5535883782122
 10
-219.4217705567306
 20
426.459750424715
 10
-219.3785550630694
 20
428.3242751508977
 10
-219.3353395694082
 20
430.1456845031934
 10
-219.2921240757471
 20
431.9225099563335
 10
-219.2489085820859
 20
433.6534610410236
 10
-219.2056930884247
 20
435.3374051251086
 10
-219.1624775947636
 20
436.9732150425395
 10
-219.1192621011024
 20
438.5597636272667
 10
-219.0760466074412
 20
440.0959237132411
 10
-219.0328311137801
 20
441.5805681344135
 10
-218.9896156201189
 20
443.0125697247344
 10
-218.9464001264578
 20
444.3908013181547
 10
-218.9031846327967
 20
445.7141357486249
 10
-218.8599691391356
 20
446.9814458500961
 10
-218.8167536454744
 20
448.191669698111
 10
-218.7735381518132
 20
449.3440402447071
 10
-218.7303226581521
 20
450.4378737119869
 10
-218.6871071644909
 20
451.4724863270285
 10
-218.6438916708298
 20
452.4471943169101
 10
-218.6006761771686
 20
453.3613139087101
 10
-218.5574606835074
 20
454.2141613295065
 10
-218.5142451898462
 20
455.0050528063778
 10
-218.4710296961851
 20
455.733304566402
 10
-218.427814202524
 20
456.3982328366575
 10
-218.3845987088628
 20
456.9991581457789
 10
-218.3413832152016
 20
457.5355990399402
 10
-218.2981677215405
 20
458.0073506819506
 10
-218.2549522278793
 20
458.4142288087089
 10
-218.2117367342181
 20
458.756049157114
 10
-218.1685212405567
 20
459.0326274640657
210
0.0
220
0.0
230
-1.0
  0
LWPOLYLINE
  5
245
330
1F
100
AcDbEntity
  8
0
  6
CONTINUOUS
 62
     7
100
AcDbPolyline
 90
      113
 70
     0
 43
0.0
 10
-283.0086042590679
 20
280.4868222725801
 10
-282.9653897349273
 20
280.5192664398072
 10
-282.9221752107866
 20
280.6178374091056
 10
-282.8789606866458
 20
280.7826493725278
 10
-282.8357461625051
 20
281.0135062789288
 10
-282.7925316383645
 20
281.3100432574067
 10
-282.7493171142238
 20
281.6718937469313
 10
-282.7061025900831
 20
282.0986911864724
 10
-282.6628880659424
 20
282.590069015
 10
-282.6196735418017
 20
283.1456606714841
 10
-282.576459017661
 20
283.7650995948944
 10
-282.5332444935203
 20
284.4480192242008
 10
-282.4900299693796
 20
285.1940529983733
 10
-282.4468154452389
 20
286.0028341219796
 10
-282.4036009210982
 20
286.8738763811539
 10
-282.3603863969576
 20
287.8063800667154
 10
-282.3171718728168
 20
288.7994946461094
 10
-282.2739573486761
 20
289.8523695867813
 10
-282.2307428245354
 20
290.9641543561763
 10
-282.1875283003947
 20
292.1339984217401
 10
-282.1443137762539
 20
293.3610512509177
 10
-282.1010992521132
 20
294.6444623111548
 10
-282.0578847279726
 20
295.9833810698966
 10
-282.0146702038318
 20
297.3769569945885
 10
-281.9714556796911
 20
298.8243277133605
 10
-281.9282411555504
 20
300.3244183602536
 10
-281.8850266314096
 20
301.8759702917424
 10
-281.8418121072689
 20
303.4777188062694
 10
-281.7985975831281
 20
305.1283992022772
 10
-281.7553830589875
 20
306.8267467782083
 10
-281.7121685348467
 20
308.571496832505
 10
-281.668954010706
 20
310.3613846636102
 10
-281.6257394865653
 20
312.1951455699663
 10
-281.5825249624245
 20
314.0715148500158
 10
-281.5393104382839
 20
315.9892278022012
 10
-281.4960959141431
 20
317.9469727303498
 10
-281.4528813900024
 20
319.9432313239238
 10
-281.4096668658617
 20
321.9764285070161
 10
-281.366452341721
 20
324.0449892021048
 10
-281.3232378175803
 20
326.1473383316676
 10
-281.2800232934396
 20
328.2819008181824
 10
-281.2368087692989
 20
330.447101584127
 10
-281.1935942451582
 20
332.6413655519791
 10
-281.1503797210175
 20
334.8631176442166
 10
-281.1071651968768
 20
337.1107827833175
 10
-281.0639506727361
 20
339.3827842169015
 10
-281.0207361485954
 20
341.6774723195288
 10
-280.9775216244547
 20
343.9930980479498
 10
-280.9343071003141
 20
346.3279052140211
 10
-280.8910925761733
 20
348.6801376295995
 10
-280.8478780520326
 20
351.0480391065416
 10
-280.8046635278919
 20
353.4298534567042
 10
-280.7614490037513
 20
355.8238244919439
 10
-280.7182344796105
 20
358.2281960241174
 10
-280.6750199554698
 20
360.6412118650815
 10
-280.6318054313291
 20
363.0611158266927
 10
-280.5885909071885
 20
365.4861486318256
 10
-280.5453763830477
 20
367.9145277525463
 10
-280.502161858907
 20
370.3444600726704
 10
-280.4589473347663
 20
372.7741524223794
 10
-280.4157328106255
 20
375.2018116318555
 10
-280.3725182864848
 20
377.6256445312806
 10
-280.329303762344
 20
380.0438579508366
 10
-280.2860892382033
 20
382.4546587207054
 10
-280.2428747140626
 20
384.8562536710689
 10
-280.1996601899219
 20
387.2468496321092
 10
-280.1564456657812
 20
389.6246535974083
 10
-280.1132311416405
 20
391.9879042156449
 10
-280.0700166174998
 20
394.3349093493622
 10
-280.0268020933591
 20
396.6639860110695
 10
-279.9835875692184
 20
398.9734512132769
 10
-279.9403730450778
 20
401.2616219684942
 10
-279.8971585209371
 20
403.5268152892312
 10
-279.8539439967964
 20
405.7673481879974
 10
-279.8107294726557
 20
407.9815376773028
 10
-279.767514948515
 20
410.1677007696572
 10
-279.7243004243743
 20
412.3241544775701
 10
-279.6810859002337
 20
414.4492256823776
 10
-279.637871376093
 20
416.5413777752426
 10
-279.5946568519523
 20
418.5991738038136
 10
-279.5514423278116
 20
420.6211790843559
 10
-279.5082278036708
 20
422.605958933135
 10
-279.4650132795301
 20
424.552078666416
 10
-279.4217987553894
 20
426.4581036004647
 10
-279.3785842312487
 20
428.322599051546
 10
-279.335369707108
 20
430.1441303359256
 10
-279.2921551829673
 20
431.9212627698686
 10
-279.2489406588266
 20
433.6525616718382
 10
-279.2057261346859
 20
435.3366596057958
 10
-279.1625116105451
 20
436.9724327744286
 10
-279.1192970864043
 20
438.5588125410961
 10
-279.0760825622636
 20
440.0947302691574
 10
-279.0328680381229
 20
441.5791173219723
 10
-278.9896535139821
 20
443.0109050629001
 10
-278.9464389898415
 20
444.3890248553003
 10
-278.9032244657006
 20
445.7124080625322
 10
-278.86000994156
 20
446.9799860479555
 10
-278.8167954174192
 20
448.1906901749294
 10
-278.7735808932784
 20
449.343458512825
 10
-278.7303663691377
 20
450.437430922815
 10
-278.687151844997
 20
451.4719796540084
 10
-278.6439373208563
 20
452.4464898190067
 10
-278.6007227967156
 20
453.3603465304119
 10
-278.5575082725749
 20
454.2129349008259
 10
-278.5142937484342
 20
455.0036400428505
 10
-278.4710792242935
 20
455.7318470690876
 10
-278.4278647001528
 20
456.396941092139
 10
-278.384650176012
 20
456.9983072246065
 10
-278.3414356518714
 20
457.5353305790924
 10
-278.2982211277307
 20
458.0074495021879
 10
-278.2550066035901
 20
458.4144291434399
 10
-278.2117920794493
 20
458.7561585915999
 10
-278.1685775553084
 20
459.0325271718272
210
0.0
220
0.0
230
-1.0
  0
LWPOLYLINE
  5
246
330
1F
100
AcDbEntity
  8
0
  6
CONTINUOUS
 62
     7
100
AcDbPolyline
 90
        3
 70
     0
 43
0.0
 10
-303.5374841033913
 20
283.4860595645827
 10
-303.4623932115969
 20
283.582378705717
 10
-303.3941833596052
 20
283.8360895791365
210
0.0
220
0.0
230
-1.0
  0
LWPOLYLINE
  5
247
330
1F
100
AcDbEntity
  8
0
  6
CONTINUOUS
 62
     7
100
AcDbPolyline
 90
        3
 70
     0
 43
0.0
 10
-283.5373813155375
 20
283.486059564634
 10
-283.4591305442941
 20
283.5912342455353
 10
-283.3929331679797
 20
283.8425992002501
210
0.0
220
0.0
230
-1.0
  0
LWPOLYLINE
  5
248
330
1F
100
AcDbEntity
  8
0
  6
CONTINUOUS
 62
     7
100
AcDbPolyline
 90
      113
 70
     0
 43
0.0
 10
299.0486519615345
 20
280.9388469638799
 10
299.0054357581027
 20
281.2154536590797
 10
298.9622195546709
 20
281.557286177769
 10
298.9190033512392
 20
281.9641235643126
 10
298.8757871478074
 20
282.4357448630748
 10
298.8325709443756
 20
282.9719291184205
 10
298.7893547409439
 20
283.5724553747142
 10
298.7461385375121
 20
284.2370483008022
 10
298.7029223340804
 20
284.9651092792596
 10
298.6597061306487
 20
285.7559206902422
 10
298.6164899272169
 20
286.6087647285137
 10
298.5732737237853
 20
287.5229235888373
 10
298.5300575203535
 20
288.4976794659765
 10
298.4868413169219
 20
289.5323145546947
 10
298.4436251134902
 20
290.6261110497553
 10
298.4004089100584
 20
291.7783511459216
 10
298.3571927066267
 20
292.9883170379572
 10
298.3139765031951
 20
294.2552892751308
 10
298.2707602997635
 20
295.5784010206766
 10
298.2275440963317
 20
296.9565234905606
 10
298.1843278929001
 20
298.3885009396431
 10
298.1411116894683
 20
299.8731776227835
 10
298.0978954860367
 20
301.409397794842
 10
298.0546792826049
 20
302.996005710678
 10
298.0114630791733
 20
304.6318456251518
 10
297.9682468757416
 20
306.3157617931227
 10
297.9250306723099
 20
308.0465984694508
 10
297.8818144688781
 20
309.8231999089958
 10
297.8385982654464
 20
311.6443911034644
 10
297.7953820620147
 20
313.5087952367255
 10
297.7521658585829
 20
315.4149150843039
 10
297.7089496551511
 20
317.3612518122289
 10
297.6657334517194
 20
319.3463065865292
 10
297.6225172482877
 20
321.3685805732341
 10
297.5793010448558
 20
323.4265749383721
 10
297.5360848414241
 20
325.5187908479725
 10
297.4928686379924
 20
327.6437294680642
 10
297.4496524345606
 20
329.799891964676
 10
297.4064362311288
 20
331.9857794561716
 10
297.3632200276971
 20
334.1998432052624
 10
297.3200038242654
 20
336.4403902319473
 10
297.2767876208336
 20
338.7057016215213
 10
297.2335714174018
 20
340.994058459279
 10
297.1903552139702
 20
343.3037418305153
 10
297.1471390105385
 20
345.6330328205251
 10
297.1039228071067
 20
347.9802125146032
 10
297.0607066036749
 20
350.3435619980443
 10
297.0174904002432
 20
352.7213623561434
 10
296.9742741968115
 20
355.1118946741952
 10
296.9310579933797
 20
357.513438159719
 10
296.887841789948
 20
359.9242330631801
 10
296.8446255865163
 20
362.3424828933174
 10
296.8014093830845
 20
364.7663897246371
 10
296.7581931796528
 20
367.1941556316452
 10
296.7149769762211
 20
369.6239826888478
 10
296.6717607727894
 20
372.0540729707508
 10
296.6285445693576
 20
374.4826285518602
 10
296.5853283659259
 20
376.9078515066822
 10
296.5421121624941
 20
379.3279439097225
 10
296.4988959590624
 20
381.7411078354874
 10
296.4556797556307
 20
384.1455547190224
 10
296.4124635521989
 20
386.539541417221
 10
296.3692473487672
 20
388.9213385450684
 10
296.3260311453355
 20
391.2892167205787
 10
296.2828149419037
 20
393.6414465617665
 10
296.2395987384721
 20
395.976298686646
 10
296.1963825350402
 20
398.2920437132313
 10
296.1531663316086
 20
400.5869522595371
 10
296.1099501281769
 20
402.8592949435775
 10
296.0667339247452
 20
405.1073423833669
 10
296.0235177213135
 20
407.3293666889554
 10
295.9803015178817
 20
409.5237201307589
 10
295.93708531445
 20
411.6888741243473
 10
295.8938691110183
 20
413.8233097602298
 10
295.8506529075867
 20
415.9255081289155
 10
295.8074367041549
 20
417.9939503209136
 10
295.7642205007232
 20
420.0271174267335
 10
295.7210042972915
 20
422.0234905368844
 10
295.6777880938599
 20
423.9815507418755
 10
295.6345718904281
 20
425.8997791322161
 10
295.5913556869964
 20
427.7766567984152
 10
295.5481394835646
 20
429.6106895813314
 10
295.5049232801328
 20
431.4005900668963
 10
295.4617070767011
 20
433.1451737244411
 10
295.4184908732693
 20
434.8432567726482
 10
295.3752746698376
 20
436.4936554302002
 10
295.3320584664059
 20
438.0951859157801
 10
295.2888422629741
 20
439.6466644480698
 10
295.2456260595422
 20
441.1469072457525
 10
295.2024098561105
 20
442.5947305275106
 10
295.1591936526788
 20
443.9889505120266
 10
295.1159774492471
 20
445.328383808754
 10
295.0727612458153
 20
446.6119625494013
 10
295.0295450423836
 20
447.8388948802058
 10
294.9863288389519
 20
449.008429300003
 10
294.9431126355203
 20
450.119814307628
 10
294.8998964320886
 20
451.172298401916
 10
294.8566802286568
 20
452.1651300817022
 10
294.8134640252251
 20
453.0975578458218
 10
294.7702478217935
 20
453.96883019311
 10
294.7270316183618
 20
454.7781956224021
 10
294.6838154149301
 20
455.5249026325332
 10
294.6405992114984
 20
456.2082165457042
 10
294.5973830080666
 20
456.8276656988895
 10
294.5541668046349
 20
457.3829868311508
 10
294.5109506012031
 20
457.8739223965709
 10
294.4677343977714
 20
458.300214849233
 10
294.4245181943397
 20
458.6616066432201
 10
294.3813019909079
 20
458.9578402326153
 10
294.3380857874761
 20
459.1886580715015
 10
294.2948695840444
 20
459.3538026139622
 10
294.2516533806126
 20
459.4530163140803
 10
294.2084371771808
 20
459.4860416259397
  0
LWPOLYLINE
  5
249
330
1F
100
AcDbEntity
  8
0
  6
CONTINUOUS
 62
     7
100
AcDbPolyline
 90
        3
 70
     0
 43
0.0
 10
-223.537485847492
 20
283.4860595646375
 10
-223.4578776719767
 20
283.5945908672103
 10
-223.3915955228271
 20
283.8487651160305
210
0.0
220
0.0
230
-1.0
  0
LWPOLYLINE
  5
24A
330
1F
100
AcDbEntity
  8
0
  6
CONTINUOUS
 62
     7
100
AcDbPolyline
 90
       33
 70
     0
 43
0.0
 10
298.1682742619132
 20
459.0343119087927
 10
298.163279353015
 20
459.0620569626353
 10
298.1582844441167
 20
459.0889267169685
 10
298.1532895352185
 20
459.1149207741454
 10
298.1482946263203
 20
459.1400387365192
 10
298.1432997174221
 20
459.1642802064429
 10
298.1383048085239
 20
459.18764478627
 10
298.1333098996257
 20
459.2101320783535
 10
298.1283149907275
 20
459.2317416850466
 10
298.1233200818292
 20
459.2524732087026
 10
298.1183251729311
 20
459.2723262516746
 10
298.1133302640329
 20
459.2913004163158
 10
298.1083353551347
 20
459.3093953049795
 10
298.1033404462364
 20
459.3266105200186
 10
298.0983455373382
 20
459.3429456637865
 10
298.09335062844
 20
459.3584003386363
 10
298.0883557195418
 20
459.3729741469213
 10
298.0833608106436
 20
459.3866666909945
 10
298.0783659017453
 20
459.3994775732093
 10
298.0733709928471
 20
459.4114063959187
 10
298.0683760839489
 20
459.4224527614761
 10
298.0633811750507
 20
459.4326162722344
 10
298.0583862661525
 20
459.4418965305471
 10
298.0533913572543
 20
459.4502931387671
 10
298.0483964483561
 20
459.4578056992478
 10
298.0434015394579
 20
459.4644338143422
 10
298.0384066305597
 20
459.4701770864037
 10
298.0334117216615
 20
459.4750351177853
 10
298.0284168127633
 20
459.4790075108403
 10
298.023421903865
 20
459.4820938679217
 10
298.0184269949668
 20
459.484293791383
 10
298.0134320860686
 20
459.4856068835771
 10
298.0084371771704
 20
459.4860327468585
  0
LWPOLYLINE
  5
24B
330
1F
100
AcDbEntity
  8
0
  6
CONTINUOUS
 62
     7
100
AcDbPolyline
 90
      113
 70
     0
 43
0.0
 10
249.0482776343186
 20
280.9405512746665
 10
249.0050619482926
 20
281.217188166171
 10
248.9618462622668
 20
281.5592922919784
 10
248.9186305762409
 20
281.9667898369666
 10
248.8754148902149
 20
282.4395449412258
 10
248.8321992041891
 20
282.9770887811632
 10
248.7889835181631
 20
283.5788413164641
 10
248.7457678321372
 20
284.244222428776
 10
248.7025521461113
 20
284.9726519997461
 10
248.6593364600853
 20
285.7635499110216
 10
248.6161207740594
 20
286.6163360442497
 10
248.5729050880335
 20
287.5304302810777
 10
248.5296894020075
 20
288.5052525031528
 10
248.4864737159816
 20
289.5402225921223
 10
248.4432580299557
 20
290.6347580228127
 10
248.4000423439298
 20
291.788111756129
 10
248.3568266579038
 20
292.9992694707438
 10
248.3136109718779
 20
294.2671923549195
 10
248.2703952858519
 20
295.5908415969183
 10
248.227179599826
 20
296.9691783850025
 10
248.1839639138001
 20
298.4011639074342
 10
248.1407482277742
 20
299.8857593524758
 10
248.0975325417483
 20
301.4219259083893
 10
248.0543168557224
 20
303.0086247634372
 10
248.0111011696964
 20
304.6448171058816
 10
247.9678854836705
 20
306.3294400161254
 10
247.9246697976446
 20
308.0612053331471
 10
247.8814541116187
 20
309.8387020457037
 10
247.8382384255927
 20
311.6605179031149
 10
247.7950227395669
 20
313.5252406547006
 10
247.751807053541
 20
315.4314580497805
 10
247.708591367515
 20
317.3777578376744
 10
247.665375681489
 20
319.3627277677024
 10
247.6221599954631
 20
321.384955589184
 10
247.5789443094372
 20
323.4430290514391
 10
247.5357286234112
 20
325.5355357805328
 10
247.4925129373853
 20
327.6609999453665
 10
247.4492972513594
 20
329.8177788569203
 10
247.4060815653335
 20
332.0042027278472
 10
247.3628658793075
 20
334.2186017708004
 10
247.3196501932816
 20
336.4593061984332
 10
247.2764345072556
 20
338.7246462233987
 10
247.2332188212297
 20
341.0129520583502
 10
247.1900031352038
 20
343.3225539159407
 10
247.1467874491778
 20
345.6517820088234
 10
247.1035717631519
 20
347.9989665496518
 10
247.060356077126
 20
350.3624343117697
 10
247.0171403911001
 20
352.7404502654556
 10
246.9739247050742
 20
355.1312258906745
 10
246.9307090190482
 20
357.5329709015153
 10
246.8874933330223
 20
359.9438950120674
 10
246.8442776469965
 20
362.3622079364197
 10
246.8010619609705
 20
364.7861193886615
 10
246.7578462749446
 20
367.213839082882
 10
246.7146305889188
 20
369.6435767331704
 10
246.6714149028929
 20
372.0735420536156
 10
246.628199216867
 20
374.501944758307
 10
246.5849835308411
 20
376.9269985630042
 10
246.5417678448152
 20
379.3469347768494
 10
246.4985521587892
 20
381.7599895425527
 10
246.4553364727633
 20
384.164399002962
 10
246.4121207867374
 20
386.5583993009252
 10
246.3689051007115
 20
388.9402265792898
 10
246.3256894146856
 20
391.308116980904
 10
246.2824737286595
 20
393.6603066486151
 10
246.2392580426337
 20
395.9950317252712
 10
246.1960423566077
 20
398.3105283537202
 10
246.1528266705818
 20
400.6050342634869
 10
246.1096109845558
 20
402.8768560969508
 10
246.0663952985298
 20
405.1243944400773
 10
246.0231796125039
 20
407.3460566228089
 10
245.9799639264779
 20
409.5402499750876
 10
245.936748240452
 20
411.7053818268557
 10
245.893532554426
 20
413.839859508055
 10
245.8503168684001
 20
415.9420903486283
 10
245.8071011823741
 20
418.0104816785172
 10
245.7638854963483
 20
420.0434408276644
 10
245.7206698103223
 20
422.0393751260116
 10
245.6774541242964
 20
423.9967171746828
 10
245.6342384382704
 20
425.9140894405577
 10
245.5910227522446
 20
427.7902007156371
 10
245.5478070662187
 20
429.6237602261061
 10
245.5045913801928
 20
431.4134771981501
 10
245.4613756941669
 20
433.1580608579545
 10
245.418160008141
 20
434.8562204317045
 10
245.3749443221151
 20
436.5066651455859
 10
245.3317286360892
 20
438.1081042257836
 10
245.2885129500633
 20
439.6592468984832
 10
245.2452972640374
 20
441.158803002218
 10
245.2020815780114
 20
442.605599768546
 10
245.1588658919855
 20
443.9987204947203
 10
245.1156502059596
 20
445.3372822359366
 10
245.0724345199336
 20
446.6204020473911
 10
245.0292188339077
 20
447.8471969842793
 10
244.9860031478818
 20
449.0167841017972
 10
244.9427874618558
 20
450.1282804551406
 10
244.8995717758299
 20
451.1808030995051
 10
244.8563560898039
 20
452.1734690900869
 10
244.8131404037779
 20
453.1053954820818
 10
244.769924717752
 20
453.9757185255148
 10
244.7267090317261
 20
454.7838388177782
 10
244.6834933457001
 20
455.5293493569392
 10
244.6402776596742
 20
456.2118474897731
 10
244.5970619736483
 20
456.8309305630548
 10
244.5538462876224
 20
457.3861959235599
 10
244.5106306015965
 20
457.8772409180634
 10
244.4674149155706
 20
458.3036628933403
 10
244.4241992295446
 20
458.6650591961662
 10
244.3809835435187
 20
458.961027173316
 10
244.3377678574928
 20
459.1911641750641
 10
244.2945521714669
 20
459.3551622450281
 10
244.251336485441
 20
459.4530550526563
 10
244.2081207994149
 20
459.4849532817292
  0
LWPOLYLINE
  5
24C
330
1F
100
AcDbEntity
  8
0
  6
CONTINUOUS
 62
     7
100
AcDbPolyline
 90
       33
 70
     0
 43
0.0
 10
-233.1679329944046
 20
280.9355847431515
 10
-233.1629472924004
 20
280.9079390392953
 10
-233.1579615903962
 20
280.8811664754234
 10
-233.152975888392
 20
280.855267503004
 10
-233.1479901863877
 20
280.8302425735055
 10
-233.1430044843836
 20
280.8060921383959
 10
-233.1380187823793
 20
280.7828166491436
 10
-233.1330330803751
 20
280.7604165572168
 10
-233.1280473783709
 20
280.7388923140837
 10
-233.1230616763667
 20
280.7182443712126
 10
-233.1180759743625
 20
280.6984731800717
 10
-233.1130902723582
 20
280.6795791921292
 10
-233.108104570354
 20
280.6615628588534
 10
-233.1031188683498
 20
280.6444246317125
 10
-233.0981331663455
 20
280.6281649621747
 10
-233.0931474643413
 20
280.6127843017083
 10
-233.0881617623371
 20
280.5982831017815
 10
-233.0831760603329
 20
280.5846618138625
 10
-233.0781903583286
 20
280.5719208894196
 10
-233.0732046563244
 20
280.5600607799209
 10
-233.0682189543202
 20
280.5490819368349
 10
-233.063233252316
 20
280.5389848116297
 10
-233.0582475503118
 20
280.5297698557734
 10
-233.0532618483075
 20
280.5214375207344
 10
-233.0482761463033
 20
280.5139882579808
 10
-233.0432904442991
 20
280.507422518981
 10
-233.0383047422949
 20
280.5017407289224
 10
-233.0333190402906
 20
280.4969428941075
 10
-233.0283333382864
 20
280.4930286847393
 10
-233.0233476362822
 20
280.4899977615488
 10
-233.0183619342779
 20
280.4878497852668
 10
-233.0133762322737
 20
280.4865844166246
 10
-233.0083905302695
 20
280.4862013163531
210
0.0
220
0.0
230
-1.0
  0
LWPOLYLINE
  5
24D
330
1F
100
AcDbEntity
  8
0
  6
CONTINUOUS
 62
     7
100
AcDbPolyline
 90
       33
 70
     0
 43
0.0
 10
-303.1679172168691
 20
280.9354958800548
 10
-303.1629320733257
 20
280.9078559860545
 10
-303.1579469297824
 20
280.8810890378221
 10
-303.1529617862391
 20
280.8551954866742
 10
-303.1479766426958
 20
280.8301757839272
 10
-303.1429914991525
 20
280.8060303808979
 10
-303.1380063556091
 20
280.7827597289026
 10
-303.1330212120657
 20
280.7603642792581
 10
-303.1280360685224
 20
280.7388444832806
 10
-303.1230509249791
 20
280.718200792287
 10
-303.1180657814357
 20
280.6984336575934
 10
-303.1130806378924
 20
280.6795435305168
 10
-303.1080954943491
 20
280.6615308623735
 10
-303.1031103508057
 20
280.6443961044801
 10
-303.0981252072624
 20
280.628139708153
 10
-303.093140063719
 20
280.612762124709
 10
-303.0881549201757
 20
280.5982638054645
 10
-303.0831697766324
 20
280.584645201736
 10
-303.0781846330891
 20
280.57190676484
 10
-303.0731994895457
 20
280.5600489460932
 10
-303.0682143460024
 20
280.5490721968122
 10
-303.0632292024591
 20
280.5389769683132
 10
-303.0582440589157
 20
280.5297637119131
 10
-303.0532589153723
 20
280.5214328789283
 10
-303.048273771829
 20
280.5139849206753
 10
-303.0432886282857
 20
280.5074202884707
 10
-303.0383034847424
 20
280.5017394073161
 10
-303.033318341199
 20
280.4969422833256
 10
-303.0283331976557
 20
280.4930285867911
 10
-303.0233480541123
 20
280.4899979785575
 10
-303.018362910569
 20
280.48785011947
 10
-303.0133777670257
 20
280.4865846703736
 10
-303.0083926234823
 20
280.4862012921131
210
0.0
220
0.0
230
-1.0
  0
LWPOLYLINE
  5
24E
330
1F
100
AcDbEntity
  8
0
  6
CONTINUOUS
 62
     7
100
AcDbPolyline
 90
       33
 70
     0
 43
0.0
 10
-219.208656527839
 20
280.4861921198541
 10
-219.2036598483918
 20
280.486582102876
 10
-219.1986631689447
 20
280.4878582464669
 10
-219.1936664894976
 20
280.4900208921416
 10
-219.1886698100504
 20
280.493070381415
 10
-219.1836731306032
 20
280.4970070558023
 10
-219.1786764511561
 20
280.5018312568182
 10
-219.1736797717089
 20
280.5075433149863
 10
-219.1686830922617
 20
280.5141432120022
 10
-219.1636864128147
 20
280.5216305172156
 10
-219.1586897333675
 20
280.5300047761693
 10
-219.1536930539203
 20
280.5392655344067
 10
-219.1486963744732
 20
280.5494123374707
 10
-219.143699695026
 20
280.5604447309043
 10
-219.1387030155788
 20
280.5723622602507
 10
-219.1337063361317
 20
280.5851644710526
 10
-219.1287096566846
 20
280.5988509088534
 10
-219.1237129772374
 20
280.6134211191959
 10
-219.1187162977903
 20
280.6288746476234
 10
-219.1137196183431
 20
280.6452110396786
 10
-219.108722938896
 20
280.6624298409048
 10
-219.1037262594488
 20
280.680530596845
 10
-219.0987295800017
 20
280.6995128530422
 10
-219.0937329005545
 20
280.7193761550394
 10
-219.0887362211074
 20
280.7401200483798
 10
-219.0837395416602
 20
280.7617440786062
 10
-219.078742862213
 20
280.7842477912619
 10
-219.0737461827659
 20
280.8076307318898
 10
-219.0687495033187
 20
280.831892446033
 10
-219.0637528238716
 20
280.8570324792344
 10
-219.0587561444244
 20
280.8830503770371
 10
-219.0537594649772
 20
280.9099456849843
 10
-219.0487627855299
 20
280.93771794862
210
0.0
220
0.0
230
-1.0
  0
LWPOLYLINE
  5
24F
330
1F
100
AcDbEntity
  8
0
  6
CONTINUOUS
 62
     7
100
AcDbPolyline
 90
      105
 70
     0
 43
0.0
 10
219.0487627855299
 20
280.93771794862
 10
219.002222244632
 20
281.238439370732
 10
218.9556817037341
 20
281.6148353619751
 10
218.9091411628362
 20
282.0665386886144
 10
218.8626006219383
 20
282.5931821169154
 10
218.8160600810405
 20
283.1943984131433
 10
218.7695195401426
 20
283.8698203435634
 10
218.7229789992446
 20
284.619080674441
 10
218.6764384583468
 20
285.4417375951936
 10
218.6298979174488
 20
286.3369463693822
 10
218.5833573765509
 20
287.3037268006802
 10
218.536816835653
 20
288.3410985916852
 10
218.4902762947551
 20
289.4480814449949
 10
218.4437357538571
 20
290.6236950632073
 10
218.3971952129593
 20
291.86695914892
 10
218.3506546720614
 20
293.176893404731
 10
218.3041141311634
 20
294.5525175332377
 10
218.2575735902655
 20
295.9928512067596
 10
218.2110330493676
 20
297.4968055129231
 10
218.1644925084697
 20
299.0629389743596
 10
218.1179519675718
 20
300.6897386822174
 10
218.0714114266738
 20
302.3756917276451
 10
218.0248708857759
 20
304.1192852017913
 10
217.9783303448779
 20
305.9190061958042
 10
217.9317898039801
 20
307.7733418008324
 10
217.8852492630821
 20
309.6807791080245
 10
217.8387087221842
 20
311.6398052085289
 10
217.7921681812863
 20
313.6489062597038
 10
217.7456276403884
 20
315.7064425557918
 10
217.6990870994905
 20
317.8105226960604
 10
217.6525465585925
 20
319.9592253234192
 10
217.6060060176946
 20
322.1506290807786
 10
217.5594654767967
 20
324.3828126110486
 10
217.5129249358988
 20
326.6538545571391
 10
217.4663843950009
 20
328.9618335619602
 10
217.419843854103
 20
331.3048282684218
 10
217.373303313205
 20
333.6809173194339
 10
217.3267627723071
 20
336.0881765007624
 10
217.2802222314092
 20
338.5245761454977
 10
217.2336816905113
 20
340.9879527647054
 10
217.1871411496134
 20
343.4761342372856
 10
217.1406006087154
 20
345.9869484421388
 10
217.0940600678175
 20
348.5182232581651
 10
217.0475195269195
 20
351.0677865642651
 10
217.0009789860216
 20
353.6334662393389
 10
216.9544384451237
 20
356.2130901622871
 10
216.9078979042257
 20
358.8044862120099
 10
216.8613573633278
 20
361.4054799292782
 10
216.8148168224299
 20
364.0138586918022
 10
216.768276281532
 20
366.6273787842043
 10
216.7217357406341
 20
369.2437955856042
 10
216.6751951997362
 20
371.8608644751214
 10
216.6286546588383
 20
374.4763408318759
 10
216.5821141179404
 20
377.0879800349873
 10
216.5355735770425
 20
379.6935374635754
 10
216.4890330361446
 20
382.2907684967598
 10
216.4424924952468
 20
384.8774285136604
 10
216.3959519543489
 20
387.4512806827983
 10
216.349411413451
 20
390.0101564443989
 10
216.3028708725531
 20
392.5519225937444
 10
216.2563303316552
 20
395.0744462244016
 10
216.2097897907574
 20
397.5755944299372
 10
216.1632492498594
 20
400.0532343039179
 10
216.1167087089616
 20
402.5052329399107
 10
216.0701681680636
 20
404.9294574314823
 10
216.0236276271657
 20
407.3237748721994
 10
215.9770870862678
 20
409.6860523556289
 10
215.9305465453698
 20
412.0141938790691
 10
215.8840060044718
 20
414.3062927385175
 10
215.8374654635739
 20
416.5605027609849
 10
215.7909249226759
 20
418.7749778003978
 10
215.7443843817779
 20
420.9478717106832
 10
215.69784384088
 20
423.0773383457679
 10
215.651303299982
 20
425.1615315595788
 10
215.6047627590841
 20
427.1986052060426
 10
215.5582222181861
 20
429.1867131390861
 10
215.5116816772882
 20
431.1240092606176
 10
215.4651411363903
 20
433.0087410789195
 10
215.4186005954923
 20
434.839445115808
 10
215.3720600545944
 20
436.6147134972909
 10
215.3255195136965
 20
438.3331383493765
 10
215.2789789727986
 20
439.9933117980727
 10
215.2324384319007
 20
441.5938259693877
 10
215.1858978910028
 20
443.1332729893295
 10
215.1393573501049
 20
444.6102449839063
 10
215.092816809207
 20
446.0233340791259
 10
215.0462762683091
 20
447.3711339575325
 10
214.9997357274112
 20
448.6524151536498
 10
214.9531951865133
 20
449.8662856626767
 10
214.9066546456153
 20
451.0118914257874
 10
214.8601141047175
 20
452.0883783841554
 10
214.8135735638196
 20
453.0948924789549
 10
214.7670330229217
 20
454.0305796513594
 10
214.7204924820238
 20
454.8945858425429
 10
214.6739519411258
 20
455.6860569936792
 10
214.6274114002279
 20
456.4041390459422
 10
214.58087085933
 20
457.0479859764376
 10
214.5343303184321
 20
457.6170211128312
 10
214.4877897775342
 20
458.1109946324938
 10
214.4412492366363
 20
458.5296763836852
 10
214.3947086957384
 20
458.8728362146649
 10
214.3481681548404
 20
459.1402439736925
 10
214.3016276139425
 20
459.3316695090273
 10
214.2550870730446
 20
459.446882668929
 10
214.2085465321464
 20
459.4856533016573
  0
LWPOLYLINE
  5
250
330
1F
100
AcDbEntity
  8
0
  6
CONTINUOUS
 62
     7
100
AcDbPolyline
 90
      105
 70
     0
 43
0.0
 10
-243.0088344725098
 20
280.4868198117265
 10
-242.9622846444319
 20
280.5250851591003
 10
-242.915734816354
 20
280.639724515744
 10
-242.8691849882761
 20
280.8305535334206
 10
-242.8226351601983
 20
281.097387863893
 10
-242.7760853321204
 20
281.4400431589241
 10
-242.7295355040425
 20
281.858335070277
 10
-242.6829856759646
 20
282.3520792497143
 10
-242.6364358478868
 20
282.9210892630775
 10
-242.5898860198089
 20
283.564972223146
 10
-242.543336191731
 20
284.2829568832034
 10
-242.4967863636532
 20
285.074231522247
 10
-242.4502365355753
 20
285.9379844192738
 10
-242.4036867074974
 20
286.873403853281
 10
-242.3571368794196
 20
287.8796781032655
 10
-242.3105870513417
 20
288.9559954482248
 10
-242.2640372232638
 20
290.1015441671556
 10
-242.217487395186
 20
291.3155125390552
 10
-242.1709375671081
 20
292.597080735203
 10
-242.1243877390303
 20
293.9451807275889
 10
-242.0778379109524
 20
295.3584562179583
 10
-242.0312880828745
 20
296.8355347298315
 10
-241.9847382547966
 20
298.3750437867288
 10
-241.9381884267188
 20
299.9756109121702
 10
-241.8916385986409
 20
301.6358636296759
 10
-241.8450887705631
 20
303.3544294627662
 10
-241.7985389424852
 20
305.1299359349611
 10
-241.7519891144073
 20
306.961010569781
 10
-241.7054392863294
 20
308.8462635897678
 10
-241.6588894582516
 20
310.7840603164032
 10
-241.6123396301737
 20
312.7725844460477
 10
-241.5657898020958
 20
314.8100153847838
 10
-241.5192399740179
 20
316.8945325386939
 10
-241.4726901459401
 20
319.0243153138606
 10
-241.4261403178622
 20
321.1975431163663
 10
-241.3795904897843
 20
323.4123953522933
 10
-241.3330406617064
 20
325.6670514277243
 10
-241.2864908336285
 20
327.9596907487417
 10
-241.2399410055507
 20
330.2884685817035
 10
-241.1933911774728
 20
332.6513533138676
 10
-241.1468413493949
 20
335.0462261390293
 10
-241.100291521317
 20
337.4709677605095
 10
-241.0537416932391
 20
339.9234588816296
 10
-241.0071918651612
 20
342.4015802057106
 10
-240.9606420370834
 20
344.9032124360736
 10
-240.9140922090054
 20
347.4262362760396
 10
-240.8675423809275
 20
349.96853242893
 10
-240.8209925528497
 20
352.5279815980656
 10
-240.7744427247718
 20
355.1024462546465
 10
-240.727892896694
 20
357.6897059121076
 10
-240.6813430686161
 20
360.2875165016225
 10
-240.6347932405383
 20
362.8936339527224
 10
-240.5882434124603
 20
365.5058141949383
 10
-240.5416935843825
 20
368.1218131578017
 10
-240.4951437563047
 20
370.7393867708435
 10
-240.4485939282268
 20
373.3562909635949
 10
-240.4020441001489
 20
375.9702816655871
 10
-240.3554942720711
 20
378.5791148273881
 10
-240.3089444439932
 20
381.1805605446456
 10
-240.2623946159154
 20
383.7724275912065
 10
-240.2158447878375
 20
386.3525312918679
 10
-240.1692949597596
 20
388.9186869714268
 10
-240.1227451316818
 20
391.4687099546805
 10
-240.0761953036039
 20
394.0004155664258
 10
-240.029645475526
 20
396.5116191314598
 10
-239.9830956474482
 20
399.0001359745799
 10
-239.9365458193703
 20
401.4637814205829
 10
-239.8899959912924
 20
403.9003718687648
 10
-239.8434461632146
 20
406.3078068280879
 10
-239.7968963351367
 20
408.6841266701984
 10
-239.7503465070588
 20
411.0273854096936
 10
-239.7037966789809
 20
413.3356370611706
 10
-239.657246850903
 20
415.6069356392266
 10
-239.6106970228251
 20
417.8393351584589
 10
-239.5641471947472
 20
420.0308896334645
 10
-239.5175973666693
 20
422.1796530788408
 10
-239.4710475385914
 20
424.2836795091849
 10
-239.4244977105136
 20
426.3410298994132
 10
-239.3779478824356
 20
428.3499489514105
 10
-239.3313980543578
 20
430.3088792738343
 10
-239.2848482262798
 20
432.2162732765362
 10
-239.2382983982019
 20
434.0705833693686
 10
-239.191748570124
 20
435.8702619621831
 10
-239.1451987420462
 20
437.6137614648316
 10
-239.0986489139683
 20
439.299534287166
 10
-239.0520990858904
 20
440.926032839038
 10
-239.0055492578126
 20
442.4917095302998
 10
-238.9589994297347
 20
443.995040048081
 10
-238.9124496016569
 20
445.4347953339063
 10
-238.865899773579
 20
446.8099492173836
 10
-238.8193499455012
 20
448.1194795130965
 10
-238.7728001174233
 20
449.3623640356283
 10
-238.7262502893454
 20
450.5375805995627
 10
-238.6797004612677
 20
451.6441070194833
 10
-238.6331506331898
 20
452.6809211099734
 10
-238.586600805112
 20
453.6470006856164
 10
-238.5400509770341
 20
454.5413235609959
 10
-238.4935011489562
 20
455.3629224123042
 10
-238.4469513208784
 20
456.111217080952
 10
-238.4004014928005
 20
456.7857940274607
 10
-238.3538516647226
 20
457.3862403610786
 10
-238.3073018366447
 20
457.912143191055
 10
-238.2607520085668
 20
458.3630896266386
 10
-238.214202180489
 20
458.7386667770784
 10
-238.1676523524109
 20
459.0384617516241
210
0.0
220
0.0
230
-1.0
  0
LWPOLYLINE
  5
251
330
1F
100
AcDbEntity
  8
0
  6
CONTINUOUS
 62
     7
100
AcDbPolyline
 90
      105
 70
     0
 43
0.0
 10
-303.0083926234823
 20
280.4862012921131
 10
-302.9618530238519
 20
280.5251159660488
 10
-302.9153134242213
 20
280.6406015957435
 10
-302.8687738245908
 20
280.8323822294584
 10
-302.8222342249602
 20
281.1001819154554
 10
-302.7756946253298
 20
281.443724701996
 10
-302.7291550256992
 20
281.8627346373415
 10
-302.6826154260686
 20
282.3569357697539
 10
-302.6360758264382
 20
282.9260521474946
 10
-302.5895362268077
 20
283.569807818825
 10
-302.5429966271772
 20
284.2878576387408
 10
-302.4964570275467
 20
285.0794519276106
 10
-302.4499174279162
 20
285.9436944215031
 10
-302.4033778282858
 20
286.8796886526615
 10
-302.3568382286553
 20
287.8865381533283
 10
-302.3102986290249
 20
288.9633464557465
 10
-302.2637590293945
 20
290.109217092159
 10
-302.217219429764
 20
291.3232535948086
 10
-302.1706798301336
 20
292.6045594959381
 10
-302.1241402305032
 20
293.9522383200605
 10
-302.0776006308727
 20
295.3652899152228
 10
-302.0310610312423
 20
296.8423505328738
 10
-301.9845214316119
 20
298.3819767616242
 10
-301.9379818319815
 20
299.9827251900848
 10
-301.891442232351
 20
301.6431524068667
 10
-301.8449026327206
 20
303.3618150005806
 10
-301.7983630330902
 20
305.1372695598376
 10
-301.7518234334597
 20
306.9680726732484
 10
-301.7052838338293
 20
308.8527809294241
 10
-301.6587442341988
 20
310.7899502244829
 10
-301.6122046345683
 20
312.7780116899104
 10
-301.5656650349378
 20
314.815128208189
 10
-301.5191254353073
 20
316.8994278839077
 10
-301.4725858356769
 20
319.0290388216553
 10
-301.4260462360463
 20
321.2020891260209
 10
-301.3795066364158
 20
323.4167069015937
 10
-301.3329670367854
 20
325.6710202529624
 10
-301.2864274371548
 20
327.9631572847162
 10
-301.2398878375243
 20
330.2912461014439
 10
-301.1933482378938
 20
332.6534122430122
 10
-301.1468086382633
 20
335.0476704466769
 10
-301.1002690386329
 20
337.471884741304
 10
-301.0537294390023
 20
339.9239083724092
 10
-301.0071898393718
 20
342.4015945855086
 10
-300.9606502397414
 20
344.9027966261177
 10
-300.9141106401109
 20
347.4253677397522
 10
-300.8675710404805
 20
349.9671611719279
 10
-300.82103144085
 20
352.5260301681605
 10
-300.7744918412195
 20
355.0998279739657
 10
-300.727952241589
 20
357.686405070697
 10
-300.6814126419585
 20
360.2835615316727
 10
-300.6348730423281
 20
362.8890534058352
 10
-300.5883334426976
 20
365.500635262038
 10
-300.5417938430671
 20
368.1160616691351
 10
-300.4952542434368
 20
370.7330871959804
 10
-300.4487146438061
 20
373.3494664114274
 10
-300.4021750441757
 20
375.9629538843305
 10
-300.3556354445452
 20
378.5713041835431
 10
-300.3090958449147
 20
381.1722718779193
 10
-300.2625562452842
 20
383.7636168877191
 10
-300.2160166456538
 20
386.3431504752992
 10
-300.1694770460233
 20
388.9087125043115
 10
-300.1229374463928
 20
391.4581431476735
 10
-300.0763978467623
 20
393.9892825783032
 10
-300.0298582471319
 20
396.4999709691177
 10
-299.9833186475013
 20
398.9880484930345
 10
-299.9367790478709
 20
401.4513553229713
 10
-299.8902394482405
 20
403.8877316318454
 10
-299.8436998486101
 20
406.2950175925745
 10
-299.7971602489797
 20
408.6710843134525
 10
-299.7506206493492
 20
411.0139751624693
 10
-299.7040810497188
 20
413.3217931143356
 10
-299.6575414500883
 20
415.5926412013015
 10
-299.6110018504578
 20
417.8246224556172
 10
-299.5644622508275
 20
420.0158399095328
 10
-299.517922651197
 20
422.1643965952985
 10
-299.4713830515666
 20
424.2683955451644
 10
-299.4248434519361
 20
426.3259397913805
 10
-299.3783038523056
 20
428.335132381113
 10
-299.3317642526752
 20
430.2941593361006
 10
-299.2852246530446
 20
432.2014842541656
 10
-299.2386850534141
 20
434.0556287095063
 10
-299.1921454537836
 20
435.8551142763205
 10
-299.145605854153
 20
437.5984625288062
 10
-299.0990662545225
 20
439.2841950411617
 10
-299.052526654892
 20
440.9108333875848
 10
-299.0059870552615
 20
442.4768991422736
 10
-298.959447455631
 20
443.9809138794263
 10
-298.9129078560006
 20
445.4214002553427
 10
-298.86636825637
 20
446.7970436735877
 10
-298.8198286567396
 20
448.1068643622733
 10
-298.7732890571092
 20
449.3499237707602
 10
-298.7267494574787
 20
450.5252833484093
 10
-298.6802098578483
 20
451.6320045445809
 10
-298.6336702582179
 20
452.669148808636
 10
-298.5871306585875
 20
453.6357775899353
 10
-298.540591058957
 20
454.5309523378393
 10
-298.4940514593266
 20
455.3537345017087
 10
-298.4475118596961
 20
456.1031920335021
 10
-298.4009722600657
 20
456.7786480499942
 10
-298.3544326604352
 20
457.3797585174177
 10
-298.3078930608047
 20
457.9062017863909
 10
-298.2613534611742
 20
458.3576562075322
 10
-298.2148138615437
 20
458.7338001314599
 10
-298.1682742619132
 20
459.0343119087927
210
0.0
220
0.0
230
-1.0
  0
LWPOLYLINE
  5
252
330
1F
100
AcDbEntity
  8
0
  6
CONTINUOUS
 62
     7
100
AcDbPolyline
 90
      113
 70
     0
 43
0.0
 10
-293.0086431050229
 20
280.4862008597884
 10
-292.9654279230809
 20
280.518929098075
 10
-292.9222127411387
 20
280.6179770835383
 10
-292.8789975591966
 20
280.7830882833242
 10
-292.8357823772545
 20
281.0139686906941
 10
-292.7925671953125
 20
281.3103242989096
 10
-292.7493520133704
 20
281.6718611012319
 10
-292.7061368314284
 20
282.0982850909226
 10
-292.6629216494862
 20
282.5893022612428
 10
-292.6197064675442
 20
283.1446186054542
 10
-292.5764912856021
 20
283.763940116818
 10
-292.53327610366
 20
284.4469727885956
 10
-292.4900609217179
 20
285.1933996876563
 10
-292.4468457397758
 20
286.0026251572792
 10
-292.4036305578337
 20
286.8738677490783
 10
-292.3604153758916
 20
287.8063426385269
 10
-292.3172001939495
 20
288.799265001098
 10
-292.2739850120075
 20
289.851850012265
 10
-292.2307698300652
 20
290.9633128475008
 10
-292.1875546481231
 20
292.1328686822789
 10
-292.144339466181
 20
293.3597326920722
 10
-292.1011242842389
 20
294.6431200523541
 10
-292.0579091022968
 20
295.9822459167574
 10
-292.0146939203547
 20
297.3762390778762
 10
-291.9714787384126
 20
298.8239459327162
 10
-291.9282635564705
 20
300.3241552488791
 10
-291.8850483745284
 20
301.8756557939668
 10
-291.8418331925864
 20
303.4772363355808
 10
-291.7986180106443
 20
305.1276856413228
 10
-291.7554028287023
 20
306.8257924787948
 10
-291.7121876467601
 20
308.5703456155983
 10
-291.668972464818
 20
310.3601338193353
 10
-291.625757282876
 20
312.1939458576072
 10
-291.5825421009338
 20
314.0705644500418
 10
-291.5393269189917
 20
315.9886196326644
 10
-291.4961117370497
 20
317.9465808090918
 10
-291.4528965551076
 20
319.9429097439212
 10
-291.4096813731655
 20
321.9760682017505
 10
-291.3664661912234
 20
324.044517947177
 10
-291.3232510092813
 20
326.1467207447986
 10
-291.2800358273392
 20
328.2811383592127
 10
-291.2368206453971
 20
330.4462325550169
 10
-291.193605463455
 20
332.6404650968087
 10
-291.1503902815129
 20
334.862297749186
 10
-291.1071750995707
 20
337.1101683999513
 10
-291.0639599176287
 20
339.3823832474797
 10
-291.0207447356866
 20
341.6772033353957
 10
-290.9775295537445
 20
343.9928896670333
 10
-290.9343143718024
 20
346.3277032457264
 10
-290.8910991898603
 20
348.6799050748087
 10
-290.8478840079181
 20
351.0477561576145
 10
-290.8046688259761
 20
353.4295174974774
 10
-290.761453644034
 20
355.8234500977315
 10
-290.7182384620918
 20
358.2278149617106
 10
-290.6750232801498
 20
360.6408728137239
 10
-290.6318080982077
 20
363.0608639115308
 10
-290.5885929162656
 20
365.4859944393482
 10
-290.5453777343235
 20
367.9144673573021
 10
-290.5021625523814
 20
370.3444856255182
 10
-290.4589473704393
 20
372.7742522041226
 10
-290.4157321884972
 20
375.2019700532413
 10
-290.3725170065551
 20
377.6258421330001
 10
-290.329301824613
 20
380.0440714035249
 10
-290.2860866426709
 20
382.4548608249416
 10
-290.2428714607288
 20
384.8564133573764
 10
-290.1996562787867
 20
387.2469375187477
 10
-290.1564410968446
 20
389.6246954120496
 10
-290.1132259149026
 20
391.9879791076826
 10
-290.0700107329605
 20
394.3350810041796
 10
-290.0267955510183
 20
396.6642935000734
 10
-289.9835803690762
 20
398.9739089938972
 10
-289.9403651871341
 20
401.2622198841837
 10
-289.897150005192
 20
403.5275185694659
 10
-289.8539348232499
 20
405.7680974482768
 10
-289.8107196413078
 20
407.9822489191493
 10
-289.7675044593658
 20
410.1682654702428
 10
-289.7242892774237
 20
412.3244948535497
 10
-289.6810740954815
 20
414.4494340939956
 10
-289.6378589135395
 20
416.5416051699976
 10
-289.5946437315973
 20
418.5995300599722
 10
-289.5514285496553
 20
420.6217307423368
 10
-289.5082133677132
 20
422.606729195508
 10
-289.4649981857712
 20
424.553047397903
 10
-289.421783003829
 20
426.4592073279384
 10
-289.3785678218869
 20
428.3237309640313
 10
-289.3353526399449
 20
430.1451402845986
 10
-289.2921374580027
 20
431.9219667801583
 10
-289.2489222760607
 20
433.6529199291132
 10
-289.2057070941186
 20
435.3368671127634
 10
-289.1624919121764
 20
436.9726811894506
 10
-289.1192767302343
 20
438.5592350175165
 10
-289.0760615482922
 20
440.095401455303
 10
-289.0328463663502
 20
441.5800533611516
 10
-288.989631184408
 20
443.0120635934042
 10
-288.9464160024659
 20
444.3903050104025
 10
-288.9032008205239
 20
445.7136504704882
 10
-288.8599856385817
 20
446.980972832003
 10
-288.8167704566396
 20
448.191210115546
 10
-288.7735552746976
 20
449.3435951984047
 10
-288.7303400927554
 20
450.4374443173367
 10
-288.6871249108134
 20
451.4720737142165
 10
-288.6439097288713
 20
452.4467996309185
 10
-288.6006945469292
 20
453.3609383093175
 10
-288.557479364987
 20
454.2138059912879
 10
-288.514264183045
 20
455.0047189187042
 10
-288.4710490011029
 20
455.7329933334412
 10
-288.4278338191609
 20
456.3979454773732
 10
-288.3846186372188
 20
456.9988958779739
 10
-288.3414034552766
 20
457.5353629238252
 10
-288.2981882733346
 20
458.0071417370455
 10
-288.2549730913925
 20
458.4140480585208
 10
-288.2117579094503
 20
458.7558976291371
 10
-288.1685427275085
 20
459.0325061897796
210
0.0
220
0.0
230
-1.0
  0
LWPOLYLINE
  5
253
330
1F
100
AcDbEntity
  8
0
  6
CONTINUOUS
 62
     7
100
AcDbPolyline
 90
      113
 70
     0
 43
0.0
 10
-263.0085719949307
 20
280.4877109434836
 10
-262.9653594672765
 20
280.5205334213164
 10
-262.9221469396223
 20
280.6191048689344
 10
-262.8789344119681
 20
280.7834252863374
 10
-262.8357218843139
 20
281.0134946735256
 10
-262.7925093566597
 20
281.3093130304989
 10
-262.7492968290055
 20
281.6708505407246
 10
-262.7060843013514
 20
282.0977753338233
 10
-262.6628717736972
 20
282.589579931051
 10
-262.6196592460431
 20
283.1457546822247
 10
-262.5764467183889
 20
283.7657899371612
 10
-262.5332341907347
 20
284.4491760456773
 10
-262.4900216630805
 20
285.1954033575898
 10
-262.4468091354263
 20
286.0039622227158
 10
-262.4035966077722
 20
286.8743429908719
 10
-262.3603840801181
 20
287.8060360118749
 10
-262.3171715524638
 20
288.798531507985
 10
-262.2739590248096
 20
289.8512113039629
 10
-262.2307464971555
 20
290.9631514547671
 10
-262.1875339695013
 20
292.1333744866112
 10
-262.1443214418471
 20
293.3609029257091
 10
-262.1011089141929
 20
294.6447592982744
 10
-262.0578963865388
 20
295.9839661305209
 10
-262.0146838588846
 20
297.3775459486623
 10
-261.9714713312304
 20
298.8245212789121
 10
-261.9282588035762
 20
300.3239146474842
 10
-261.885046275922
 20
301.8747485805924
 10
-261.8418337482677
 20
303.4760359735884
 10
-261.7986212206135
 20
305.126596762481
 10
-261.7554086929593
 20
306.8250725669143
 10
-261.7121961653051
 20
308.5700983099852
 10
-261.6689836376509
 20
310.3603089147906
 10
-261.6257711099967
 20
312.1943393044272
 10
-261.5825585823425
 20
314.0708244019921
 10
-261.5393460546882
 20
315.9883991305819
 10
-261.496133527034
 20
317.9456984132938
 10
-261.4529209993798
 20
319.9413571732247
 10
-261.4097084717257
 20
321.9740103334712
 10
-261.3664959440715
 20
324.0422543448148
 10
-261.3232834164173
 20
326.1445028232331
 10
-261.2800708887631
 20
328.2791151281274
 10
-261.2368583611089
 20
330.4444506102399
 10
-261.1936458334548
 20
332.6388686203122
 10
-261.1504333058006
 20
334.8607285090865
 10
-261.1072207781464
 20
337.1083896273047
 10
-261.0640082504923
 20
339.3802113257089
 10
-261.0207957228381
 20
341.6745529550409
 10
-260.977583195184
 20
343.9897738660427
 10
-260.9343706675298
 20
346.3242323579962
 10
-260.8911581398756
 20
348.6762324937597
 10
-260.8479456122215
 20
351.0439989989047
 10
-260.8047330845672
 20
353.4257502985814
 10
-260.7615205569131
 20
355.8197048179397
 10
-260.7183080292588
 20
358.2240809821301
 10
-260.6750955016046
 20
360.6370972163027
 10
-260.6318829739505
 20
363.0569719456076
 10
-260.5886704462962
 20
365.481923595195
 10
-260.5454579186419
 20
367.910170590215
 10
-260.5022453909878
 20
370.3399313558179
 10
-260.4590328633336
 20
372.7694247154972
 10
-260.4158203356793
 20
375.1968727647056
 10
-260.3726078080251
 20
377.6204992043384
 10
-260.3293952803709
 20
380.038527746367
 10
-260.2861827527167
 20
382.4491821027626
 10
-260.2429702250625
 20
384.8506859854967
 10
-260.1997576974084
 20
387.2412631065403
 10
-260.1565451697541
 20
389.6191371778647
 10
-260.1133326420999
 20
391.9825319114414
 10
-260.0701201144457
 20
394.3296710192416
 10
-260.0269075867915
 20
396.6587783598324
 10
-259.9836950591374
 20
398.9681185626208
 10
-259.9404825314832
 20
401.2560525178466
 10
-259.897270003829
 20
403.5209550028304
 10
-259.8540574761748
 20
405.761200794892
 10
-259.8108449485206
 20
407.9751646713518
 10
-259.7676324208665
 20
410.1612214095301
 10
-259.7244198932123
 20
412.3177457867467
 10
-259.6812073655581
 20
414.4431125803221
 10
-259.637994837904
 20
416.5356965675766
 10
-259.5947823102499
 20
418.5938725258301
 10
-259.5515697825957
 20
420.6160250840676
 10
-259.5083572549415
 20
422.6006908622927
 10
-259.4651447272873
 20
424.5465258715698
 10
-259.4219321996331
 20
426.4521893352846
 10
-259.378719671979
 20
428.3163404768223
 10
-259.3355071443249
 20
430.1376385195683
 10
-259.2922946166706
 20
431.9147426869076
 10
-259.2490820890164
 20
433.6463122022261
 10
-259.2058695613622
 20
435.3310062889086
 10
-259.1626570337081
 20
436.9674841703409
 10
-259.1194445060539
 20
438.5544050699148
 10
-259.0762319783997
 20
440.0904948955632
 10
-259.0330194507454
 20
441.5747425347593
 10
-258.9898069230913
 20
443.0062016934104
 10
-258.946594395437
 20
444.383926077424
 10
-258.9033818677829
 20
445.7069693927072
 10
-258.8601693401287
 20
446.9743853451673
 10
-258.8169568124745
 20
448.1852276407118
 10
-258.7737442848202
 20
449.3385499852477
 10
-258.730531757166
 20
450.4334060846825
 10
-258.6873192295118
 20
451.4688496449235
 10
-258.6441067018577
 20
452.4439400838227
 10
-258.6008941742035
 20
453.3579379291855
 10
-258.5576816465493
 20
454.2103534496799
 10
-258.5144691188951
 20
455.0007124953287
 10
-258.4712565912409
 20
455.7285409161553
 10
-258.4280440635868
 20
456.393364562183
 10
-258.3848315359326
 20
456.9947092834349
 10
-258.3416190082785
 20
457.5321009299345
 10
-258.2984064806243
 20
458.0050653517047
 10
-258.2551939529701
 20
458.4131283987689
 10
-258.2119814253159
 20
458.7558159211502
 10
-258.1687688976615
 20
459.0327023939566
210
0.0
220
0.0
230
-1.0
  0
LWPOLYLINE
  5
254
330
1F
100
AcDbEntity
  8
0
  6
CONTINUOUS
 62
     7
100
AcDbPolyline
 90
      113
 70
     0
 43
0.0
 10
269.0497161720456
 20
280.931338717225
 10
269.0064911202151
 20
281.2064536586553
 10
268.9632660683845
 20
281.5472986650913
 10
268.920041016554
 20
281.9534350067377
 10
268.8768159647234
 20
282.4244238523478
 10
268.8335909128929
 20
282.9598263706748
 10
268.7903658610623
 20
283.5592037304721
 10
268.7471408092318
 20
284.2221171004928
 10
268.7039157574013
 20
284.9481276494904
 10
268.6606907055707
 20
285.7367965462181
 10
268.6174656537401
 20
286.587684959429
 10
268.5742406019096
 20
287.5003517003885
 10
268.531015550079
 20
288.4741865733968
 10
268.4877904982484
 20
289.5083002124949
 10
268.4445654464178
 20
290.6017771065917
 10
268.4013403945872
 20
291.7537017445966
 10
268.3581153427566
 20
292.9631586154186
 10
268.314890290926
 20
294.2292322079671
 10
268.2716652390954
 20
295.5510070111508
 10
268.2284401872648
 20
296.9275675138793
 10
268.1852151354342
 20
298.3579982050615
 10
268.1419900836036
 20
299.8413835736066
 10
268.098765031773
 20
301.3767825971855
 10
268.0555399799423
 20
302.9630127352836
 10
268.0123149281118
 20
304.5987583228956
 10
267.9690898762813
 20
306.2827023043443
 10
267.9258648244506
 20
308.0135276239525
 10
267.8826397726201
 20
309.7899172260431
 10
267.8394147207895
 20
311.6105540549388
 10
267.7961896689589
 20
313.4741210549624
 10
267.7529646171283
 20
315.379301170437
 10
267.7097395652978
 20
317.3247773456852
 10
267.6665145134672
 20
319.3092323892145
 10
267.6232894616365
 20
321.3312770854543
 10
267.580064409806
 20
323.3893319723786
 10
267.5368393579755
 20
325.4817865394226
 10
267.4936143061449
 20
327.6070302760214
 10
267.4503892543143
 20
329.7634526716101
 10
267.4071642024838
 20
331.9494432156236
 10
267.3639391506532
 20
334.1633913974972
 10
267.3207140988226
 20
336.4036867066659
 10
267.2774890469921
 20
338.6687186325648
 10
267.2342639951615
 20
340.9568766646289
 10
267.1910389433309
 20
343.2665456711495
 10
267.1478138915004
 20
345.5960277316763
 10
267.1045888396698
 20
347.9435534062261
 10
267.0613637878392
 20
350.3073509026513
 10
267.0181387360086
 20
352.6856484288039
 10
266.974913684178
 20
355.0766741925361
 10
266.9316886323474
 20
357.4786564017002
 10
266.8884635805168
 20
359.8898232641482
 10
266.8452385286862
 20
362.3084029877324
 10
266.8020134768557
 20
364.7326237803051
 10
266.758788425025
 20
367.1607138497181
 10
266.7155633731945
 20
369.5908989781198
 10
266.6723383213639
 20
372.0213943789949
 10
266.6291132695333
 20
374.4504123882286
 10
266.5858882177027
 20
376.8761653416446
 10
266.5426631658722
 20
379.2968655750665
 10
266.4994381140416
 20
381.7107254243181
 10
266.456213062211
 20
384.115957225223
 10
266.4129880103803
 20
386.510773313605
 10
266.3697629585498
 20
388.893386025288
 10
266.3265379067192
 20
391.2620076960955
 10
266.2833128548887
 20
393.6148519258099
 10
266.240087803058
 20
395.9501854448438
 10
266.1968627512276
 20
398.2663464061345
 10
266.1536376993969
 20
400.5616779856362
 10
266.1104126475664
 20
402.8345233593031
 10
266.0671875957357
 20
405.0832257030897
 10
266.0239625439052
 20
407.3061281929503
 10
265.9807374920746
 20
409.501574004839
 10
265.937512440244
 20
411.6679063147103
 10
265.8942873884135
 20
413.8034682985185
 10
265.8510623365829
 20
415.9066031322177
 10
265.8078372847523
 20
417.9756769727538
 10
265.7646122329218
 20
420.009224472266
 10
265.7213871810911
 20
422.0058552783982
 10
265.6781621292606
 20
423.9641793814504
 10
265.63493707743
 20
425.8828067717224
 10
265.5917120255994
 20
427.7603474395138
 10
265.5484869737688
 20
429.5954113751245
 10
265.5052619219383
 20
431.3866085688544
 10
265.4620368701077
 20
433.1325490110031
 10
265.4188118182771
 20
434.8318426918705
 10
265.3755867664465
 20
436.483100259145
 10
265.3323617146158
 20
438.0850444291115
 10
265.2891366627853
 20
439.6366357217655
 10
265.2459116109549
 20
441.1368650187289
 10
265.2026865591242
 20
442.5847232016233
 10
265.1594615072937
 20
443.9792011520706
 10
265.1162364554631
 20
445.3192897516926
 10
265.0730114036324
 20
446.6039798821108
 10
265.0297863518019
 20
447.8322624249473
 10
264.9865612999712
 20
449.0031282618235
 10
264.9433362481407
 20
450.1155682743615
 10
264.9001111963101
 20
451.1685929881463
 10
264.8568861444795
 20
452.1614711829996
 10
264.8136610926489
 20
453.0936536431474
 10
264.7704360408183
 20
453.9645949590659
 10
264.7272109889877
 20
454.7737497212316
 10
264.6839859371571
 20
455.5205725201201
 10
264.6407608853265
 20
456.2045179462084
 10
264.597535833496
 20
456.8250405899722
 10
264.5543107816654
 20
457.3815950418877
 10
264.5110857298348
 20
457.8736358924315
 10
264.4678606780042
 20
458.3006177420075
 10
264.4246356261737
 20
458.6620929549399
 10
264.381410574343
 20
458.9579516880526
 10
264.3381855225125
 20
459.188157001997
 10
264.294960470682
 20
459.3526719574237
 10
264.2517354188514
 20
459.4514596149837
 10
264.2085103670211
 20
459.4844830353281
  0
LWPOLYLINE
  5
255
330
1F
100
AcDbEntity
  8
0
  6
CONTINUOUS
 62
     7
100
AcDbPolyline
 90
      113
 70
     0
 43
0.0
 10
259.0483441586916
 20
280.9394854566956
 10
259.0051316048143
 20
281.2160989145468
 10
258.961919050937
 20
281.558455430875
 10
258.9187064970598
 20
281.9663332020539
 10
258.8754939431824
 20
282.4392397293901
 10
258.8322813893051
 20
282.9766653617222
 10
258.7890688354278
 20
283.5781004478883
 10
258.7458562815506
 20
284.2430353367272
 10
258.7026437276733
 20
284.9709603770772
 10
258.659431173796
 20
285.7613659177767
 10
258.6162186199188
 20
286.6137423076643
 10
258.5730060660414
 20
287.5275798955784
 10
258.5297935121641
 20
288.5023690303574
 10
258.4865809582869
 20
289.5375561610832
 10
258.4433684044095
 20
290.6322888222261
 10
258.4001558505323
 20
291.7855899507174
 10
258.356943296655
 20
292.996482070894
 10
258.3137307427777
 20
294.2639877070932
 10
258.2705181889004
 20
295.5871293836523
 10
258.2273056350231
 20
296.9649296249084
 10
258.1840930811458
 20
298.3964109551988
 10
258.1408805272685
 20
299.8805958988607
 10
258.0976679733911
 20
301.4165069802315
 10
258.0544554195138
 20
303.0031658509807
 10
258.0112428656365
 20
304.6394750315027
 10
257.9680303117592
 20
306.3240980067626
 10
257.9248177578818
 20
308.0556696972363
 10
257.8816052040045
 20
309.8328250234005
 10
257.8383926501272
 20
311.6541989057313
 10
257.7951800962499
 20
313.5184262647051
 10
257.7519675423725
 20
315.424142020798
 10
257.7087549884952
 20
317.3699810944867
 10
257.6655424346179
 20
319.3545784062472
 10
257.6223298807406
 20
321.3765688765558
 10
257.5791173268633
 20
323.4345747787934
 10
257.5359047729859
 20
325.5270624384552
 10
257.4926922191086
 20
327.6523931625291
 10
257.4494796652314
 20
329.8089262986073
 10
257.4062671113541
 20
331.9950211942825
 10
257.3630545574768
 20
334.2090371971467
 10
257.3198420035995
 20
336.4493336547926
 10
257.2766294497223
 20
338.7142699148124
 10
257.233416895845
 20
341.0022053247985
 10
257.1902043419677
 20
343.3114992323432
 10
257.1469917880904
 20
345.6405109791652
 10
257.1037792342132
 20
347.9875717179348
 10
257.0605666803359
 20
350.3509191925036
 10
257.0173541264585
 20
352.7287718246019
 10
256.9741415725812
 20
355.1193480359598
 10
256.9309290187039
 20
357.5208662483072
 10
256.8877164648266
 20
359.9315448833743
 10
256.8445039109493
 20
362.3496023628909
 10
256.801291357072
 20
364.7732571085874
 10
256.7580788031947
 20
367.2007275421934
 10
256.7148662493173
 20
369.630232085439
 10
256.6716536954401
 20
372.0599892547405
 10
256.6284411415627
 20
374.4882200178192
 10
256.5852285876854
 20
376.9131479560412
 10
256.5420160338081
 20
379.3329967779675
 10
256.4988034799308
 20
381.7459901921597
 10
256.4555909260534
 20
384.1503519071788
 10
256.4123783721761
 20
386.5443056315866
 10
256.3691658182988
 20
388.9260750739438
 10
256.3259532644215
 20
391.2938839428121
 10
256.2827407105441
 20
393.6459559467526
 10
256.2395281566668
 20
395.9805147943268
 10
256.1963156027896
 20
398.2958018148415
 10
256.1531030489123
 20
400.5901572543384
 10
256.109890495035
 20
402.8619558514968
 10
256.0666779411578
 20
405.109572380517
 10
256.0234653872804
 20
407.3313816155992
 10
255.9802528334032
 20
409.5257583309436
 10
255.937040279526
 20
411.6910773007505
 10
255.8938277256486
 20
413.8257132992197
 10
255.8506151717713
 20
415.9280411005519
 10
255.807402617894
 20
417.9964354789469
 10
255.7641900640167
 20
420.0292724920051
 10
255.7209775101395
 20
422.0250272822104
 10
255.6777649562622
 20
423.9823428279439
 10
255.6345524023849
 20
425.899878350017
 10
255.5913398485076
 20
427.7762930692413
 10
255.5481272946304
 20
429.610246206428
 10
255.504914740753
 20
431.4003969823883
 10
255.4617021868758
 20
433.145404617934
 10
255.4184896329984
 20
434.8439283338762
 10
255.3752770791212
 20
436.4946273510267
 10
255.3320645252439
 20
438.0961608901966
 10
255.2888519713665
 20
439.6472119718616
 10
255.2456394174892
 20
441.1466987189959
 10
255.2024268636119
 20
442.5936732763147
 10
255.1592143097346
 20
443.9871893479087
 10
255.1160017558573
 20
445.3263006378685
 10
255.07278920198
 20
446.6100608502849
 10
255.0295766481027
 20
447.8375236892484
 10
254.9863640942254
 20
449.0077428588497
 10
254.943151540348
 20
450.1197720631794
 10
254.8999389864707
 20
451.1726650063285
 10
254.8567264325934
 20
452.165475546472
 10
254.8135138787161
 20
453.0973689993677
 10
254.7703013248388
 20
453.9678185165847
 10
254.7270887709615
 20
454.7763499472353
 10
254.6838762170842
 20
455.5224891404332
 10
254.640663663207
 20
456.205761945291
 10
254.5974511093297
 20
456.8256942109219
 10
254.5542385554523
 20
457.3818117864386
 10
254.5110260015751
 20
457.8736405209544
 10
254.4678134476978
 20
458.3007062635823
 10
254.4246008938205
 20
458.662534863435
 10
254.3813883399432
 20
458.9586653983957
 10
254.3381757860659
 20
459.188893621458
 10
254.2949632321886
 20
459.3532480147653
 10
254.2517506783112
 20
459.4517654856343
 10
254.2085381244339
 20
459.4844829413817
  0
LWPOLYLINE
  5
256
330
1F
100
AcDbEntity
  8
0
  6
CONTINUOUS
 62
     7
100
AcDbPolyline
 90
       33
 70
     0
 43
0.0
 10
228.1682670809144
 20
459.0343524249445
 10
228.163273091607
 20
459.0620911934447
 10
228.1582791022995
 20
459.0889549842026
 10
228.153285112992
 20
459.1149433997908
 10
228.1482911236846
 20
459.1400560427824
 10
228.1432971343771
 20
459.1642925157499
 10
228.1383031450697
 20
459.1876524212661
 10
228.1333091557622
 20
459.2101353619039
 10
228.1283151664547
 20
459.2317409402359
 10
228.1233211771473
 20
459.2524687588351
 10
228.1183271878398
 20
459.2723184202741
 10
228.1133331985324
 20
459.2912895271256
 10
228.1083392092249
 20
459.3093816819626
 10
228.1033452199174
 20
459.3265944873577
 10
228.0983512306099
 20
459.3429275458837
 10
228.0933572413025
 20
459.3583804601135
 10
228.088363251995
 20
459.3729528326198
 10
228.0833692626876
 20
459.3866442659753
 10
228.0783752733801
 20
459.3994543627527
 10
228.0733812840727
 20
459.4113827255252
 10
228.0683872947652
 20
459.4224289568649
 10
228.0633933054578
 20
459.4325926593453
 10
228.0583993161503
 20
459.4418734355385
 10
228.0534053268428
 20
459.4502708880178
 10
228.0484113375354
 20
459.4577846193557
 10
228.0434173482279
 20
459.464414232125
 10
228.0384233589205
 20
459.4701593288986
 10
228.0334293696129
 20
459.4750195122489
 10
228.0284353803055
 20
459.4789943847492
 10
228.023441390998
 20
459.482083548972
 10
228.0184474016906
 20
459.4842866074902
 10
228.0134534123832
 20
459.4856031628763
 10
228.0084594230755
 20
459.4860328177037
  0
LWPOLYLINE
  5
257
330
1F
100
AcDbEntity
  8
0
  6
CONTINUOUS
 62
     7
100
AcDbPolyline
 90
        3
 70
     0
 43
0.0
 10
-253.5372686075323
 20
283.4860595646467
 10
-253.458344994024
 20
283.5929681528606
 10
-253.3902739201067
 20
283.8553047882786
210
0.0
220
0.0
230
-1.0
  0
LWPOLYLINE
  5
258
330
1F
100
AcDbEntity
  8
0
  6
CONTINUOUS
 62
     7
100
AcDbPolyline
 90
      105
 70
     0
 43
0.0
 10
-233.0083905302695
 20
280.4862013163531
 10
-232.961850881718
 20
280.5251195216305
 10
-232.9153112331664
 20
280.6406088309434
 10
-232.868771584615
 20
280.8323932916832
 10
-232.8222319360635
 20
281.100196951241
 10
-232.775692287512
 20
281.4437438570084
 10
-232.7291526389605
 20
281.8627580563767
 10
-232.682612990409
 20
282.3569635967372
 10
-232.6360733418575
 20
282.9260845254814
 10
-232.589533693306
 20
283.5698448900004
 10
-232.5429940447545
 20
284.2878995312492
 10
-232.496454396203
 20
285.0794987465895
 10
-232.4499147476514
 20
285.9437462689974
 10
-232.4033750991
 20
286.8797456278892
 10
-232.3568354505485
 20
287.8866003526803
 10
-232.310295801997
 20
288.9634139727867
 10
-232.2637561534455
 20
290.1092900176242
 10
-232.2172165048941
 20
291.3233320166086
 10
-232.1706768563426
 20
292.6046434991558
 10
-232.1241372077911
 20
293.9523279869174
 10
-232.0775975592396
 20
295.365385305545
 10
-232.0310579106882
 20
296.8424516859641
 10
-231.9845182621368
 20
298.3820837122336
 10
-231.9379786135853
 20
299.9828379684125
 10
-231.8914389650339
 20
301.64327103856
 10
-231.8448993164824
 20
303.3619395067352
 10
-231.798359667931
 20
305.137399956997
 10
-231.7518200193795
 20
306.9682089734046
 10
-231.705280370828
 20
308.852923140017
 10
-231.6587407222766
 20
310.7900983476656
 10
-231.6122010737251
 20
312.7781657013601
 10
-231.5656614251736
 20
314.8152880678131
 10
-231.5191217766221
 20
316.8995935457104
 10
-231.4725821280705
 20
319.0292102337382
 10
-231.4260424795191
 20
321.2022662305823
 10
-231.3795028309676
 20
323.4168896349287
 10
-231.332963182416
 20
325.6712085454633
 10
-231.2864235338645
 20
327.9633510608721
 10
-231.239883885313
 20
330.2914452798411
 10
-231.1933442367615
 20
332.6536167346042
 10
-231.14680458821
 20
335.0478801388408
 10
-231.1002649396586
 20
337.4720995101987
 10
-231.053725291107
 20
339.9241280874238
 10
-231.0071856425556
 20
342.401819109262
 10
-230.9606459940042
 20
344.9030258144592
 10
-230.9141063454527
 20
347.4256014417613
 10
-230.8675666969012
 20
349.9673992299143
 10
-230.8210270483497
 20
352.5262724176641
 10
-230.7744873997983
 20
355.1000742437566
 10
-230.7279477512468
 20
357.6866551813251
 10
-230.6814081026953
 20
360.2838152896789
 10
-230.6348684541438
 20
362.8893106097333
 10
-230.5883288055924
 20
365.5008957032614
 10
-230.5417891570409
 20
368.1163251320359
 10
-230.4952495084894
 20
370.7333534578298
 10
-230.4487098599378
 20
373.3497352424156
 10
-230.4021702113864
 20
375.9632250475666
 10
-230.3556305628349
 20
378.5715774350554
 10
-230.3090909142834
 20
381.1725469666549
 10
-230.2625512657318
 20
383.7638935579263
 10
-230.2160116171804
 20
386.3434284707
 10
-230.1694719686289
 20
388.9089915621691
 10
-230.1229323200774
 20
391.4584229984405
 10
-230.076392671526
 20
393.9895629456204
 10
-230.0298530229744
 20
396.5002515698154
 10
-229.9833133744229
 20
398.9883290371318
 10
-229.9367737258715
 20
401.4516355136763
 10
-229.8902340773201
 20
403.8880111655551
 10
-229.8436944287686
 20
406.2952961588747
 10
-229.7971547802171
 20
408.6713616073666
 10
-229.7506151316657
 20
411.0142508911578
 10
-229.7040754831142
 20
413.3220669791606
 10
-229.6575358345627
 20
415.5929128976429
 10
-229.6109961860112
 20
417.8248916728726
 10
-229.5644565374598
 20
420.0161063311178
 10
-229.5179168889084
 20
422.1646598986468
 10
-229.4713772403569
 20
424.2686554017272
 10
-229.4248375918054
 20
426.3261958666272
 10
-229.3782979432539
 20
428.335384334626
 10
-229.3317582947024
 20
430.2944068512887
 10
-229.2852186461509
 20
432.2017270330661
 10
-229.2386789975994
 20
434.0558664494939
 10
-229.1921393490478
 20
435.8553466701078
 10
-229.1455997004963
 20
437.5986892644439
 10
-229.0990600519448
 20
439.2844158020377
 10
-229.0525204033933
 20
440.9110478524252
 10
-229.0059807548417
 20
442.4771069851421
 10
-228.9594411062902
 20
443.9811147697243
 10
-228.9129014577387
 20
445.4215938597584
 10
-228.8663618091872
 20
446.7972297047991
 10
-228.8198221606357
 20
448.1070425518798
 10
-228.7732825120843
 20
449.3500938474016
 10
-228.7267428635328
 20
450.5254450377653
 10
-228.6802032149813
 20
451.6321575693721
 10
-228.6336635664298
 20
452.669292888623
 10
-228.5871239178784
 20
453.6359124419185
 10
-228.5405842693269
 20
454.5310776756601
 10
-228.4940446207754
 20
455.3538500362486
 10
-228.4475049722239
 20
456.1032974799313
 10
-228.4009653236725
 20
456.7787431886892
 10
-228.354425675121
 20
457.3798431441392
 10
-228.3078860265696
 20
457.9062756958853
 10
-228.2613463780181
 20
458.3577191935315
 10
-228.2148067294665
 20
458.7338519866819
 10
-228.1682670809144
 20
459.0343524249445
210
0.0
220
0.0
230
-1.0
  0
ENDSEC
  0
SECTION
  2
OBJECTS
  0
DICTIONARY
  5
C
330
0
100
AcDbDictionary
  3
ACAD_GROUP
350
D
  3
ACAD_LAYOUT
350
1A
  3
ACAD_MATERIAL
350
43
  3
ACAD_MLEADERSTYLE
350
6B
  3
ACAD_MLINESTYLE
350
17
  3
ACAD_PLOTSETTINGS
350
19
  3
ACAD_SCALELIST
350
47
  3
ACAD_VISUALSTYLE
350
2A
  3
ACDBHEADERROUNDTRIPXREC
350
259
  3
ACDBVARIABLEDICTIONARY
350
27A
  0
DICTIONARY
  5
281
330
8
100
AcDbDictionary
280
     1
  3
ACAD_XREC_ROUNDTRIP
360
282
  0
DICTIONARY
  5
D
102
{ACAD_REACTORS
330
C
102
}
330
C
100
AcDbDictionary
  0
DICTIONARY
  5
1A
102
{ACAD_REACTORS
330
C
102
}
330
C
100
AcDbDictionary
  0
DICTIONARY
  5
43
102
{ACAD_REACTORS
330
C
102
}
330
C
100
AcDbDictionary
  3
BYBLOCK
350
45
  3
BYLAYER
350
44
  3
GLOBAL
350
46
  0
DICTIONARY
  5
6B
102
{ACAD_REACTORS
330
C
102
}
330
C
100
AcDbDictionary
  3
STANDARD
350
6C
  0
DICTIONARY
  5
17
102
{ACAD_REACTORS
330
C
102
}
330
C
100
AcDbDictionary
  3
STANDARD
350
18
  0
DICTIONARY
  5
19
102
{ACAD_REACTORS
330
C
102
}
330
C
100
AcDbDictionary
  0
DICTIONARY
  5
47
102
{ACAD_REACTORS
330
C
102
}
330
C
100
AcDbDictionary
  3
A0
350
48
  3
A1
350
49
  3
A2
350
4A
  3
A3
350
4B
  3
A4
350
4C
  3
A5
350
4D
  3
A6
350
4E
  3
A7
350
4F
  3
A8
350
50
  3
A9
350
51
  3
B0
350
52
  3
B1
350
53
  3
B2
350
54
  3
B3
350
55
  3
B4
350
56
  3
B5
350
57
  3
B6
350
58
  3
B7
350
59
  3
B8
350
5A
  3
B9
350
5B
  3
C0
350
5C
  3
C1
350
5D
  3
C2
350
5E
  3
C3
350
5F
  3
C4
350
60
  3
C5
350
61
  3
C6
350
62
  3
C7
350
63
  3
C8
350
64
  3
C9
350
65
  3
D0
350
66
  3
D1
350
67
  3
D2
350
68
  0
DICTIONARY
  5
2A
102
{ACAD_REACTORS
330
C
102
}
330
C
100
AcDbDictionary
  3
2DWIREFRAME
350
2F
  3
BASIC
350
32
  3
BRIGHTEN
350
36
  3
COLORCHANGE
350
3A
  3
CONCEPTUAL
350
34
  3
DIM
350
35
  3
EDGECOLOROFF
350
3D
  3
FACEPATTERN
350
39
  3
FLAT
350
2B
  3
FLATWITHEDGES
350
2C
  3
GOURAUD
350
2D
  3
GOURAUDWITHEDGES
350
2E
  3
HIDDEN
350
31
  3
JITTEROFF
350
3B
  3
LINEPATTERN
350
38
  3
OVERHANGOFF
350
3C
  3
REALISTIC
350
33
  3
SHADED
350
42
  3
SHADED_WITH_EDGES
350
41
  3
SHADES_OF_GRAY
350
3E
  3
SKETCHY
350
3F
  3
THICKEN
350
37
  3
WIREFRAME
350
30
  3
X-RAY
350
40
  0
DICTIONARY
  5
259
102
{ACAD_REACTORS
330
C
102
}
330
C
100
AcDbDictionary
  3
CEPSNID
350
263
  3
CEPSNTYPE
350
262
  3
DIMSTYLEDATA
350
279
  3
FINGERPRINTGUID
350
264
  3
HYPERLINKBASE
350
25C
  3
INSUNITS
350
261
  3
LAYOUTDICT
350
25E
  3
LWETCUNION
350
260
  3
PLOTSETDICT
350
25F
  3
PSVPSCALE
350
266
  3
PUCSBASE
350
269
  3
PUCSORGBACK
350
26F
  3
PUCSORGBOTTOM
350
26B
  3
PUCSORGFRONT
350
26E
  3
PUCSORGLEFT
350
26C
  3
PUCSORGRIGHT
350
26D
  3
PUCSORGTOP
350
26A
  3
PUCSORTHOREF
350
267
  3
PUCSORTHOVIEW
350
268
  3
STYLESHEET
350
25D
  3
TSTACKALIGN
350
25A
  3
TSTACKSIZE
350
25B
  3
UCSBASE
350
272
  3
UCSORGBACK
350
278
  3
UCSORGBOTTOM
350
274
  3
UCSORGFRONT
350
277
  3
UCSORGLEFT
350
275
  3
UCSORGRIGHT
350
276
  3
UCSORGTOP
350
273
  3
UCSORTHOREF
350
270
  3
UCSORTHOVIEW
350
271
  3
VERSIONGUID
350
265
  0
DICTIONARY
  5
27A
102
{ACAD_REACTORS
330
C
102
}
330
C
100
AcDbDictionary
  3
CANNOSCALE
350
283
  3
CMLEADERSTYLE
350
27C
  3
CTABLESTYLE
350
27B
  3
DIMASSOC
350
27F
  3
HIDETEXT
350
280
  3
MSLTSCALE
350
284
  0
XRECORD
  5
282
102
{ACAD_REACTORS
330
281
102
}
330
281
100
AcDbXrecord
102
VTR_0.000_0.000_1.000_1.000_VISUALSTYLE
340
2F
102
VTR_0.000_0.000_1.000_1.000_GRIDDISPLAY
 70
     3
102
VTR_0.000_0.000_1.000_1.000_GRIDMAJOR
 70
     5
102
VTR_0.000_0.000_1.000_1.000_DEFAULTLIGHTING
280
     1
102
VTR_0.000_0.000_1.000_1.000_DEFAULTLIGHTINGTYPE
 70
     1
102
VTR_0.000_0.000_1.000_1.000_BRIGHTNESS
141
0.0
102
VTR_0.000_0.000_1.000_1.000_CONTRAST
142
0.0
  0
MATERIAL
  5
45
102
{ACAD_REACTORS
330
43
102
}
102
{ACAD_XDICTIONARY
360
287
102
}
330
43
100
AcDbMaterial
  1
BYBLOCK
  0
MATERIAL
  5
44
102
{ACAD_REACTORS
330
43
102
}
102
{ACAD_XDICTIONARY
360
285
102
}
330
43
100
AcDbMaterial
  1
BYLAYER
  0
MATERIAL
  5
46
102
{ACAD_REACTORS
330
43
102
}
102
{ACAD_XDICTIONARY
360
289
102
}
330
43
100
AcDbMaterial
  1
GLOBAL
  0
ACAD_PROXY_OBJECT
  5
6C
102
{ACAD_REACTORS
330
6B
102
}
330
6B
100
AcDbProxyObject
 90
      499
 91
      505
 93
      610
310
40901902A4063FBFFFFFE056BD1B81E855B9FC0AD7A3703D0AD73F4214DD185B99185C9900AD7A3703D0AC73F90141901A02B5E8DC0F42B1CFC02B5E8DC0F42B1CFE5764000000000000300FC0
340
14
340
0
340
11
340
0
 94
        0
1001
ACAD_MLEADERVER
1070
     2
  0
MLINESTYLE
  5
18
102
{ACAD_REACTORS
330
17
102
}
330
17
100
AcDbMlineStyle
  2
Standard
 70
     0
  3

 62
   256
 51
90.0
 52
90.0
 71
     2
 49
0.5
 62
   256
  6
BYLAYER
 49
-0.5
 62
   256
  6
BYLAYER
  0
ACAD_PROXY_OBJECT
  5
48
102
{ACAD_REACTORS
330
47
102
}
330
47
100
AcDbProxyObject
 90
      499
 91
      503
 93
       41
310
903313A31580
  0
ACAD_PROXY_OBJECT
  5
49
102
{ACAD_REACTORS
330
47
102
}
330
47
100
AcDbProxyObject
 90
      499
 91
      503
 93
      105
310
903313A324000000000000004000
  0
ACAD_PROXY_OBJECT
  5
4A
102
{ACAD_REACTORS
330
47
102
}
330
47
100
AcDbProxyObject
 90
      499
 91
      503
 93
      105
310
903313A344000000000000104000
  0
ACAD_PROXY_OBJECT
  5
4B
102
{ACAD_REACTORS
330
47
102
}
330
47
100
AcDbProxyObject
 90
      499
 91
      503
 93
      105
310
903313A354000000000000144000
  0
ACAD_PROXY_OBJECT
  5
4C
102
{ACAD_REACTORS
330
47
102
}
330
47
100
AcDbProxyObject
 90
      499
 91
      503
 93
      105
310
903313A384000000000000204000
  0
ACAD_PROXY_OBJECT
  5
4D
102
{ACAD_REACTORS
330
47
102
}
330
47
100
AcDbProxyObject
 90
      499
 91
      503
 93
      113
310
904313A31304000000000000244000
  0
ACAD_PROXY_OBJECT
  5
4E
102
{ACAD_REACTORS
330
47
102
}
330
47
100
AcDbProxyObject
 90
      499
 91
      503
 93
      113
310
904313A31364000000000000304000
  0
ACAD_PROXY_OBJECT
  5
4F
102
{ACAD_REACTORS
330
47
102
}
330
47
100
AcDbProxyObject
 90
      499
 91
      503
 93
      113
310
904313A32304000000000000344000
  0
ACAD_PROXY_OBJECT
  5
50
102
{ACAD_REACTORS
330
47
102
}
330
47
100
AcDbProxyObject
 90
      499
 91
      503
 93
      113
310
904313A333040000000000003E4000
  0
ACAD_PROXY_OBJECT
  5
51
102
{ACAD_REACTORS
330
47
102
}
330
47
100
AcDbProxyObject
 90
      499
 91
      503
 93
      113
310
904313A34304000000000000444000
  0
ACAD_PROXY_OBJECT
  5
52
102
{ACAD_REACTORS
330
47
102
}
330
47
100
AcDbProxyObject
 90
      499
 91
      503
 93
      113
310
904313A35304000000000000494000
  0
ACAD_PROXY_OBJECT
  5
53
102
{ACAD_REACTORS
330
47
102
}
330
47
100
AcDbProxyObject
 90
      499
 91
      503
 93
      121
310
905313A3130304000000000000594000
  0
ACAD_PROXY_OBJECT
  5
54
102
{ACAD_REACTORS
330
47
102
}
330
47
100
AcDbProxyObject
 90
      499
 91
      503
 93
      105
310
903323A310000000000000010100
  0
ACAD_PROXY_OBJECT
  5
55
102
{ACAD_REACTORS
330
47
102
}
330
47
100
AcDbProxyObject
 90
      499
 91
      503
 93
      105
310
903343A310000000000000410100
  0
ACAD_PROXY_OBJECT
  5
56
102
{ACAD_REACTORS
330
47
102
}
330
47
100
AcDbProxyObject
 90
      499
 91
      503
 93
      105
310
903383A310000000000000810100
  0
ACAD_PROXY_OBJECT
  5
57
102
{ACAD_REACTORS
330
47
102
}
330
47
100
AcDbProxyObject
 90
      499
 91
      503
 93
      113
310
90431303A310000000000000910100
  0
ACAD_PROXY_OBJECT
  5
58
102
{ACAD_REACTORS
330
47
102
}
330
47
100
AcDbProxyObject
 90
      499
 91
      503
 93
      121
310
9053130303A310000000000001650100
  0
ACAD_PROXY_OBJECT
  5
59
102
{ACAD_REACTORS
330
47
102
}
330
47
100
AcDbProxyObject
 90
      499
 91
      503
 93
      257
310
90E312F31323822203D2031272D3022000000000000200FC000000000000284000
  0
ACAD_PROXY_OBJECT
  5
5A
102
{ACAD_REACTORS
330
47
102
}
330
47
100
AcDbProxyObject
 90
      499
 91
      503
 93
      249
310
90D312F363422203D2031272D3022000000000000240FC000000000000284000
  0
ACAD_PROXY_OBJECT
  5
5B
102
{ACAD_REACTORS
330
47
102
}
330
47
100
AcDbProxyObject
 90
      499
 91
      503
 93
      249
310
90D312F333222203D2031272D3022000000000000280FC000000000000284000
  0
ACAD_PROXY_OBJECT
  5
5C
102
{ACAD_REACTORS
330
47
102
}
330
47
100
AcDbProxyObject
 90
      499
 91
      503
 93
      249
310
90D312F313622203D2031272D30220000000000002C0FC000000000000284000
  0
ACAD_PROXY_OBJECT
  5
5D
102
{ACAD_REACTORS
330
47
102
}
330
47
100
AcDbProxyObject
 90
      499
 91
      503
 93
      249
310
90D332F333222203D2031272D30220000000000002E0FC000000000000284000
  0
ACAD_PROXY_OBJECT
  5
5E
102
{ACAD_REACTORS
330
47
102
}
330
47
100
AcDbProxyObject
 90
      499
 91
      503
 93
      241
310
90C312F3822203D2031272D3022000000000000300FC000000000000284000
  0
ACAD_PROXY_OBJECT
  5
5F
102
{ACAD_REACTORS
330
47
102
}
330
47
100
AcDbProxyObject
 90
      499
 91
      503
 93
      249
310
90D332F313622203D2031272D3022000000000000320FC000000000000284000
  0
ACAD_PROXY_OBJECT
  5
60
102
{ACAD_REACTORS
330
47
102
}
330
47
100
AcDbProxyObject
 90
      499
 91
      503
 93
      241
310
90C312F3422203D2031272D3022000000000000340FC000000000000284000
  0
ACAD_PROXY_OBJECT
  5
61
102
{ACAD_REACTORS
330
47
102
}
330
47
100
AcDbProxyObject
 90
      499
 91
      503
 93
      241
310
90C332F3822203D2031272D3022000000000000360FC000000000000284000
  0
ACAD_PROXY_OBJECT
  5
62
102
{ACAD_REACTORS
330
47
102
}
330
47
100
AcDbProxyObject
 90
      499
 91
      503
 93
      241
310
90C312F3222203D2031272D3022000000000000380FC000000000000284000
  0
ACAD_PROXY_OBJECT
  5
63
102
{ACAD_REACTORS
330
47
102
}
330
47
100
AcDbProxyObject
 90
      499
 91
      503
 93
      241
310
90C332F3422203D2031272D30220000000000003A0FC000000000000284000
  0
ACAD_PROXY_OBJECT
  5
64
102
{ACAD_REACTORS
330
47
102
}
330
47
100
AcDbProxyObject
 90
      499
 91
      503
 93
      161
310
90A3122203D2031272D30224000000000000284000
  0
ACAD_PROXY_OBJECT
  5
65
102
{ACAD_REACTORS
330
47
102
}
330
47
100
AcDbProxyObject
 90
      499
 91
      503
 93
      257
310
90E312D312F3222203D2031272D30220000000000003E0FC000000000000284000
  0
ACAD_PROXY_OBJECT
  5
66
102
{ACAD_REACTORS
330
47
102
}
330
47
100
AcDbProxyObject
 90
      499
 91
      503
 93
      225
310
90A3322203D2031272D302200000000000002100000000000000284000
  0
ACAD_PROXY_OBJECT
  5
67
102
{ACAD_REACTORS
330
47
102
}
330
47
100
AcDbProxyObject
 90
      499
 91
      503
 93
      225
310
90A3622203D2031272D302200000000000006100000000000000284000
  0
ACAD_PROXY_OBJECT
  5
68
102
{ACAD_REACTORS
330
47
102
}
330
47
100
AcDbProxyObject
 90
      499
 91
      503
 93
      249
310
90D31272D3022203D2031272D30220000000000000A100000000000000284000
  0
ACAD_PROXY_OBJECT
  5
2F
102
{ACAD_REACTORS
330
2A
102
}
330
2A
100
AcDbProxyObject
 90
      499
 91
      501
 93
      436
310
42CC9915DA5C99599C985B595049028333333333333E33F0000000000000F90107901411070040501600405405064090741402480A0340
1001
ACAD
1000
AcDbSavedByObjectVersion
1070
     0
  0
ACAD_PROXY_OBJECT
  5
32
102
{ACAD_REACTORS
330
2A
102
}
330
2A
100
AcDbProxyObject
 90
      499
 91
      501
 93
      388
310
4150985CDA58D07406404333333333333E33F0000000000000F90107A41107004050150841D405064090741402480A0350
1001
ACAD
1000
AcDbSavedByObjectVersion
1070
     0
  0
ACAD_PROXY_OBJECT
  5
36
102
{ACAD_REACTORS
330
2A
102
}
330
2A
100
AcDbProxyObject
 90
      499
 91
      501
 93
      428
310
42109C9A59DA1D195B90C409028333333333333E33F0000000000000F9010790141107004050150841D405064090741402480A029950
1001
ACAD
1000
AcDbSavedByObjectVersion
1070
     0
  0
ACAD_PROXY_OBJECT
  5
3A
102
{ACAD_REACTORS
330
2A
102
}
330
2A
100
AcDbProxyObject
 90
      499
 91
      501
 93
      452
310
42D0DBDB1BDC90DA185B99D95104090240C333333333333E33F0000000000000F90108901411070040501508421405064090741402480A0350
1001
ACAD
1000
AcDbSavedByObjectVersion
1070
     0
  0
ACAD_PROXY_OBJECT
  5
34
102
{ACAD_REACTORS
330
2A
102
}
330
2A
100
AcDbProxyObject
 90
      499
 91
      501
 93
      500
310
4290DBDB98D95C1D1D585B10940D028333333333333E33F0000000000000F90107902409070040501000000000018199010841D405064090740C02480A0340
1001
ACAD
1000
AcDbSavedByObjectVersion
1070
     0
  0
ACAD_PROXY_OBJECT
  5
35
102
{ACAD_REACTORS
330
2A
102
}
330
2A
100
AcDbProxyObject
 90
      499
 91
      501
 93
      412
310
40D11A5B50B409028333333333333E33F0000000000000F9010790141107004050150841D405064090741402480A02677FFFFFD0
1001
ACAD
1000
AcDbSavedByObjectVersion
1070
     0
  0
ACAD_PROXY_OBJECT
  5
3D
102
{ACAD_REACTORS
330
2A
102
}
330
2A
100
AcDbProxyObject
 90
      499
 91
      501
 93
      452
310
43115919D950DBDB1BDC93D999916409028333333333333E33F0000000000000F9010790141107004050150841D405064090741402480A0350
1001
ACAD
1000
AcDbSavedByObjectVersion
1070
     0
  0
ACAD_PROXY_OBJECT
  5
39
102
{ACAD_REACTORS
330
2A
102
}
330
2A
100
AcDbProxyObject
 90
      499
 91
      501
 93
      444
310
42D19858D95C185D1D195C9B90F409028333333333333E33F0000000000000F9010790141107004050150841D405064090741402480A0350
1001
ACAD
1000
AcDbSavedByObjectVersion
1070
     0
  0
ACAD_PROXY_OBJECT
  5
2B
102
{ACAD_REACTORS
330
2A
102
}
330
2A
100
AcDbProxyObject
 90
      499
 91
      501
 93
      380
310
41119B185D240901404333333333333E33F0000000000000F9010740A907004050150841D405064090741402480A1B50
1001
ACAD
1000
AcDbSavedByObjectVersion
1070
     0
  0
ACAD_PROXY_OBJECT
  5
2C
102
{ACAD_REACTORS
330
2A
102
}
330
2A
100
AcDbProxyObject
 90
      499
 91
      501
 93
      468
310
43519B185D15DA5D1A115919D95CD0140901404333333333333E33F0000000000000F90107409019070040501600405405064090741402480A1B50
1001
ACAD
1000
AcDbSavedByObjectVersion
1070
     0
  0
ACAD_PROXY_OBJECT
  5
2D
102
{ACAD_REACTORS
330
2A
102
}
330
2A
100
AcDbProxyObject
 90
      499
 91
      501
 93
      404
310
41D1DBDD5C985D5910240902404333333333333E33F0000000000000F9010740A9070040501641D405064090741402480A1B50
1001
ACAD
1000
AcDbSavedByObjectVersion
1070
     0
  0
ACAD_PROXY_OBJECT
  5
2E
102
{ACAD_REACTORS
330
2A
102
}
330
2A
100
AcDbProxyObject
 90
      499
 91
      501
 93
      492
310
4411DBDD5C985D5915DA5D1A115919D95CD0340902404333333333333E33F0000000000000F90107409019070040501600405405064090741402480A1B50
1001
ACAD
1000
AcDbSavedByObjectVersion
1070
     0
  0
ACAD_PROXY_OBJECT
  5
31
102
{ACAD_REACTORS
330
2A
102
}
330
2A
100
AcDbProxyObject
 90
      499
 91
      501
 93
      476
310
41921A5919195B90640502408333333333333E33F0000000000000F901079024090700405020000000000001110200405405064090740C02480A0340
1001
ACAD
1000
AcDbSavedByObjectVersion
1070
     0
  0
ACAD_PROXY_OBJECT
  5
3B
102
{ACAD_REACTORS
330
2A
102
}
330
2A
100
AcDbProxyObject
 90
      499
 91
      501
 93
      428
310
42529A5D1D195C93D999914409028333333333333E33F0000000000000F9010790141107004050150A41D405064090741402480A0350
1001
ACAD
1000
AcDbSavedByObjectVersion
1070
     0
  0
ACAD_PROXY_OBJECT
  5
38
102
{ACAD_REACTORS
330
2A
102
}
330
2A
100
AcDbProxyObject
 90
      499
 91
      501
 93
      444
310
42D31A5B995C185D1D195C9B90E409028333333333333E33F0000000000000F9010790141107004050750841D405064090741402483A0350
1001
ACAD
1000
AcDbSavedByObjectVersion
1070
     0
  0
ACAD_PROXY_OBJECT
  5
3C
102
{ACAD_REACTORS
330
2A
102
}
330
2A
100
AcDbProxyObject
 90
      499
 91
      501
 93
      444
310
42D3DD995C9A185B99D3D999915409028333333333333E33F0000000000000F9010790141107004050150941D405064090741402480A0350
1001
ACAD
1000
AcDbSavedByObjectVersion
1070
     0
  0
ACAD_PROXY_OBJECT
  5
33
102
{ACAD_REACTORS
330
2A
102
}
330
2A
100
AcDbProxyObject
 90
      499
 91
      501
 93
      428
310
425499585B1A5CDD1A58D08409038333333333333E33F0000000000000F9010740A907004050150800405405064090740C02480A1B40
1001
ACAD
1000
AcDbSavedByObjectVersion
1070
     0
  0
ACAD_PROXY_OBJECT
  5
42
102
{ACAD_REACTORS
330
2A
102
}
330
2A
100
AcDbProxyObject
 90
      499
 91
      501
 93
      420
310
4194DA1859195911B40902404333333333333E33F0000000000000F9010740A41107004050150800405405064090840C02480A0B40
1001
ACAD
1000
AcDbSavedByObjectVersion
1070
     0
  0
ACAD_PROXY_OBJECT
  5
41
102
{ACAD_REACTORS
330
2A
102
}
330
2A
100
AcDbProxyObject
 90
      499
 91
      501
 93
      516
310
4454DA18591959081DDA5D1A08195919D95CD1A40902404333333333333E33F0000000000000F901074090142907004050250800405405064090740C02480A0B40
1001
ACAD
1000
AcDbSavedByObjectVersion
1070
     0
  0
ACAD_PROXY_OBJECT
  5
3E
102
{ACAD_REACTORS
330
2A
102
}
330
2A
100
AcDbProxyObject
 90
      499
 91
      501
 93
      532
310
4394DA1859195CC81BD98811DC985E5174090240C333333333333E33F0000000000000F901079024090741D01000000000000111010841D405064090740C02480A0340
1001
ACAD
1000
AcDbSavedByObjectVersion
1070
     0
  0
ACAD_PROXY_OBJECT
  5
3F
102
{ACAD_REACTORS
330
2A
102
}
330
2A
100
AcDbProxyObject
 90
      499
 91
      501
 93
      476
310
41D4DAD95D18DA1E51840502408333333333333E33F0000000000000F901079024090741D01000000000000111010B41D405064090741802480A0340
1001
ACAD
1000
AcDbSavedByObjectVersion
1070
     0
  0
ACAD_PROXY_OBJECT
  5
37
102
{ACAD_REACTORS
330
2A
102
}
330
2A
100
AcDbProxyObject
 90
      499
 91
      501
 93
      412
310
41D51A1A58DAD95B90D409028333333333333E33F0000000000000F9010790141107004050150C41D405064090741402480A0350
1001
ACAD
1000
AcDbSavedByObjectVersion
1070
     0
  0
ACAD_PROXY_OBJECT
  5
30
102
{ACAD_REACTORS
330
2A
102
}
330
2A
100
AcDbProxyObject
 90
      499
 91
      501
 93
      420
310
4255DA5C99599C985B595059028333333333333E33F0000000000000F90107901411070040501600405405064090740C02480A0340
1001
ACAD
1000
AcDbSavedByObjectVersion
1070
     0
  0
ACAD_PROXY_OBJECT
  5
40
102
{ACAD_REACTORS
330
2A
102
}
330
2A
100
AcDbProxyObject
 90
      499
 91
      501
 93
      404
310
41560B54985E51940902404000000000000E03F0000000000000F9010740501907004050150841D405064090740C02480A1B40
1001
ACAD
1000
AcDbSavedByObjectVersion
1070
     0
  0
XRECORD
  5
263
102
{ACAD_REACTORS
330
259
102
}
330
259
100
AcDbXrecord
340
0
  0
XRECORD
  5
262
102
{ACAD_REACTORS
330
259
102
}
330
259
100
AcDbXrecord
 90
        0
  0
XRECORD
  5
279
102
{ACAD_REACTORS
330
259
102
}
330
259
100
AcDbXrecord
1000
DSTYLE
1002
{
1070
   179
 70
     2
1070
   171
 70
     2
1070
   143
 40
25.4
1070
   274
 70
     2
1070
    41
 40
3.0
1070
   141
 40
0.09
1070
    43
 40
0.38
1070
   278
 70
    46
1070
    44
 40
1.5
1070
    42
 40
0.0625
1070
   147
 40
1.5
1070
   272
 70
     4
1070
    73
 70
     1
1070
   172
 70
     0
1070
    74
 70
     1
1070
   283
 70
     1
1070
   340
340
6E
1070
   140
 40
3.0
1070
   284
 70
     0
1070
    78
 70
     0
1002
}
  0
XRECORD
  5
264
102
{ACAD_REACTORS
330
259
102
}
330
259
100
AcDbXrecord
  1
{1D455219-AA01-4BCE-96C9-07DB83E87086}
  0
XRECORD
  5
25C
102
{ACAD_REACTORS
330
259
102
}
330
259
100
AcDbXrecord
  1

  0
XRECORD
  5
261
102
{ACAD_REACTORS
330
259
102
}
330
259
100
AcDbXrecord
 90
        4
  0
XRECORD
  5
25E
102
{ACAD_REACTORS
330
259
102
}
330
259
100
AcDbXrecord
340
1A
  0
XRECORD
  5
260
102
{ACAD_REACTORS
330
259
102
}
330
259
100
AcDbXrecord
 90
    10269
  0
XRECORD
  5
25F
102
{ACAD_REACTORS
330
259
102
}
330
259
100
AcDbXrecord
340
19
  0
XRECORD
  5
266
102
{ACAD_REACTORS
330
259
102
}
330
259
100
AcDbXrecord
 40
0.0
  0
XRECORD
  5
269
102
{ACAD_REACTORS
330
259
102
}
330
259
100
AcDbXrecord
340
0
  0
XRECORD
  5
26F
102
{ACAD_REACTORS
330
259
102
}
330
259
100
AcDbXrecord
 10
0.0
 20
0.0
 30
0.0
  0
XRECORD
  5
26B
102
{ACAD_REACTORS
330
259
102
}
330
259
100
AcDbXrecord
 10
0.0
 20
0.0
 30
0.0
  0
XRECORD
  5
26E
102
{ACAD_REACTORS
330
259
102
}
330
259
100
AcDbXrecord
 10
0.0
 20
0.0
 30
0.0
  0
XRECORD
  5
26C
102
{ACAD_REACTORS
330
259
102
}
330
259
100
AcDbXrecord
 10
0.0
 20
0.0
 30
0.0
  0
XRECORD
  5
26D
102
{ACAD_REACTORS
330
259
102
}
330
259
100
AcDbXrecord
 10
0.0
 20
0.0
 30
0.0
  0
XRECORD
  5
26A
102
{ACAD_REACTORS
330
259
102
}
330
259
100
AcDbXrecord
 10
0.0
 20
0.0
 30
0.0
  0
XRECORD
  5
267
102
{ACAD_REACTORS
330
259
102
}
330
259
100
AcDbXrecord
340
0
  0
XRECORD
  5
268
102
{ACAD_REACTORS
330
259
102
}
330
259
100
AcDbXrecord
 70
     0
  0
XRECORD
  5
25D
102
{ACAD_REACTORS
330
259
102
}
330
259
100
AcDbXrecord
  1

  0
XRECORD
  5
25A
102
{ACAD_REACTORS
330
259
102
}
330
259
100
AcDbXrecord
 90
        1
  0
XRECORD
  5
25B
102
{ACAD_REACTORS
330
259
102
}
330
259
100
AcDbXrecord
 90
       70
  0
XRECORD
  5
272
102
{ACAD_REACTORS
330
259
102
}
330
259
100
AcDbXrecord
340
0
  0
XRECORD
  5
278
102
{ACAD_REACTORS
330
259
102
}
330
259
100
AcDbXrecord
 10
0.0
 20
0.0
 30
0.0
  0
XRECORD
  5
274
102
{ACAD_REACTORS
330
259
102
}
330
259
100
AcDbXrecord
 10
0.0
 20
0.0
 30
0.0
  0
XRECORD
  5
277
102
{ACAD_REACTORS
330
259
102
}
330
259
100
AcDbXrecord
 10
0.0
 20
0.0
 30
0.0
  0
XRECORD
  5
275
102
{ACAD_REACTORS
330
259
102
}
330
259
100
AcDbXrecord
 10
0.0
 20
0.0
 30
0.0
  0
XRECORD
  5
276
102
{ACAD_REACTORS
330
259
102
}
330
259
100
AcDbXrecord
 10
0.0
 20
0.0
 30
0.0
  0
XRECORD
  5
273
102
{ACAD_REACTORS
330
259
102
}
330
259
100
AcDbXrecord
 10
0.0
 20
0.0
 30
0.0
  0
XRECORD
  5
270
102
{ACAD_REACTORS
330
259
102
}
330
259
100
AcDbXrecord
340
0
  0
XRECORD
  5
271
102
{ACAD_REACTORS
330
259
102
}
330
259
100
AcDbXrecord
 70
     0
  0
XRECORD
  5
265
102
{ACAD_REACTORS
330
259
102
}
330
259
100
AcDbXrecord
  1
{FAEB1C32-E019-11D5-929B-00C0DF256EC4}
  0
DICTIONARYVAR
  5
283
102
{ACAD_REACTORS
330
27A
102
}
330
27A
100
DictionaryVariables
280
     0
  1
1:1
  0
DICTIONARYVAR
  5
27C
102
{ACAD_REACTORS
330
27A
102
}
330
27A
100
DictionaryVariables
280
     0
  1
Standard
  0
DICTIONARYVAR
  5
27B
102
{ACAD_REACTORS
330
27A
102
}
330
27A
100
DictionaryVariables
280
     0
  1
Standard
  0
DICTIONARYVAR
  5
27F
102
{ACAD_REACTORS
330
27A
102
}
330
27A
100
DictionaryVariables
280
     0
  1
2
  0
DICTIONARYVAR
  5
280
102
{ACAD_REACTORS
330
27A
102
}
330
27A
100
DictionaryVariables
280
     0
  1
1
  0
DICTIONARYVAR
  5
284
102
{ACAD_REACTORS
330
27A
102
}
330
27A
100
DictionaryVariables
280
     0
  1
1
  0
DICTIONARY
  5
287
330
45
100
AcDbDictionary
280
     1
  3
ACAD_XREC_ROUNDTRIP
360
288
  0
DICTIONARY
  5
285
330
44
100
AcDbDictionary
280
     1
  3
ACAD_XREC_ROUNDTRIP
360
286
  0
DICTIONARY
  5
289
330
46
100
AcDbDictionary
280
     1
  3
ACAD_XREC_ROUNDTRIP
360
28A
  0
XRECORD
  5
288
102
{ACAD_REACTORS
330
287
102
}
330
287
100
AcDbXrecord
102
MATERIAL
148
0.0
149
0.0
149
0.0
 93
        0
 94
      127
282
     0
 72
     1
 77
     1
171
     1
175
     1
179
     1
273
     0
  0
XRECORD
  5
286
102
{ACAD_REACTORS
330
285
102
}
330
285
100
AcDbXrecord
102
MATERIAL
148
0.0
149
0.0
149
0.0
 93
        0
 94
      127
282
     0
 72
     1
 77
     1
171
     1
175
     1
179
     1
273
     0
  0
XRECORD
  5
28A
102
{ACAD_REACTORS
330
289
102
}
330
289
100
AcDbXrecord
102
MATERIAL
148
0.0
149
0.0
149
0.0
 93
        0
 94
      127
282
     0
 72
     1
 77
     1
171
     1
175
     1
179
     1
273
     0
  0
ENDSEC
  0
EOF
