  0
SECTION
  2
HEADER
  9
$ACADVER
  1
AC1014
  9
$ACADMAINTVER
 70
     9
  9
$DWGCODEPAGE
  3
ANSI_932
  9
$INSBASE
 10
0.0
 20
0.0
 30
0.0
  9
$EXTMIN
 10
475.9836583894547
 20
139.7125109416031
 30
0.0
  9
$EXTMAX
 10
849.015984892269
 20
224.0171617864106
 30
0.0
  9
$LIMMIN
 10
0.0
 20
0.0
  9
$LIMMAX
 10
12.0
 20
9.0
  9
$ORTHOMODE
 70
     0
  9
$REGENMODE
 70
     1
  9
$FILLMODE
 70
     1
  9
$QTEXTMODE
 70
     0
  9
$MIRRTEXT
 70
     1
  9
$DRAGMODE
 70
     2
  9
$LTSCALE
 40
1.0
  9
$OSMODE
 70
    37
  9
$ATTMODE
 70
     1
  9
$TEXTSIZE
 40
0.2
  9
$TRACEWID
 40
0.05
  9
$TEXTSTYLE
  7
STANDARD
  9
$CLAYER
  8
0
  9
$CELTYPE
  6
BYLAYER
  9
$CECOLOR
 62
   256
  9
$CELTSCALE
 40
1.0
  9
$DELOBJ
 70
     1
  9
$DISPSILH
 70
     0
  9
$DIMSCALE
 40
1.0
  9
$DIMASZ
 40
3.0
  9
$DIMEXO
 40
0.0625
  9
$DIMDLI
 40
0.38
  9
$DIMRND
 40
0.0
  9
$DIMDLE
 40
0.0
  9
$DIMEXE
 40
1.5
  9
$DIMTP
 40
0.0
  9
$DIMTM
 40
0.0
  9
$DIMTXT
 40
3.0
  9
$DIMCEN
 40
0.09
  9
$DIMTSZ
 40
0.0
  9
$DIMTOL
 70
     0
  9
$DIMLIM
 70
     0
  9
$DIMTIH
 70
     1
  9
$DIMTOH
 70
     1
  9
$DIMSE1
 70
     0
  9
$DIMSE2
 70
     0
  9
$DIMTAD
 70
     1
  9
$DIMZIN
 70
     0
  9
$DIMBLK
  1

  9
$DIMASO
 70
     1
  9
$DIMSHO
 70
     1
  9
$DIMPOST
  1

  9
$DIMAPOST
  1

  9
$DIMALT
 70
     0
  9
$DIMALTD
 70
     2
  9
$DIMALTF
 40
25.4
  9
$DIMLFAC
 40
1.0
  9
$DIMTOFL
 70
     0
  9
$DIMTVP
 40
0.0
  9
$DIMTIX
 70
     0
  9
$DIMSOXD
 70
     0
  9
$DIMSAH
 70
     0
  9
$DIMBLK1
  1

  9
$DIMBLK2
  1

  9
$DIMSTYLE
  2
STANDARD
  9
$DIMCLRD
 70
     0
  9
$DIMCLRE
 70
     0
  9
$DIMCLRT
 70
     0
  9
$DIMTFAC
 40
1.0
  9
$DIMGAP
 40
1.5
  9
$DIMJUST
 70
     0
  9
$DIMSD1
 70
     0
  9
$DIMSD2
 70
     0
  9
$DIMTOLJ
 70
     1
  9
$DIMTZIN
 70
     0
  9
$DIMALTZ
 70
     0
  9
$DIMALTTZ
 70
     0
  9
$DIMFIT
 70
     3
  9
$DIMUPT
 70
     0
  9
$DIMUNIT
 70
     2
  9
$DIMDEC
 70
     2
  9
$DIMTDEC
 70
     4
  9
$DIMALTU
 70
     2
  9
$DIMALTTD
 70
     2
  9
$DIMTXSTY
  7
ＭＳ_ゴシック
  9
$DIMAUNIT
 70
     0
  9
$LUNITS
 70
     2
  9
$LUPREC
 70
     4
  9
$SKETCHINC
 40
0.1
  9
$FILLETRAD
 40
0.5
  9
$AUNITS
 70
     0
  9
$AUPREC
 70
     0
  9
$MENU
  1
.
  9
$ELEVATION
 40
0.0
  9
$PELEVATION
 40
0.0
  9
$THICKNESS
 40
0.0
  9
$LIMCHECK
 70
     0
  9
$CHAMFERA
 40
0.0
  9
$CHAMFERB
 40
0.0
  9
$CHAMFERC
 40
0.0
  9
$CHAMFERD
 40
0.0
  9
$SKPOLY
 70
     0
  9
$TDCREATE
 40
2459548.620462303
  9
$TDUPDATE
 40
2459548.620462847
  9
$TDINDWG
 40
0.0000000116
  9
$TDUSRTIMER
 40
0.0000000116
  9
$USRTIMER
 70
     1
  9
$ANGBASE
 50
0.0
  9
$ANGDIR
 70
     0
  9
$PDMODE
 70
     0
  9
$PDSIZE
 40
0.0
  9
$PLINEWID
 40
0.0
  9
$COORDS
 70
     1
  9
$SPLFRAME
 70
     0
  9
$SPLINETYPE
 70
     6
  9
$SPLINESEGS
 70
     8
  9
$ATTDIA
 70
     0
  9
$ATTREQ
 70
     1
  9
$HANDLING
 70
     1
  9
$HANDSEED
  5
229
  9
$SURFTAB1
 70
     6
  9
$SURFTAB2
 70
     6
  9
$SURFTYPE
 70
     6
  9
$SURFU
 70
     6
  9
$SURFV
 70
     6
  9
$UCSNAME
  2

  9
$UCSORG
 10
0.0
 20
0.0
 30
0.0
  9
$UCSXDIR
 10
1.0
 20
0.0
 30
0.0
  9
$UCSYDIR
 10
0.0
 20
1.0
 30
0.0
  9
$PUCSNAME
  2

  9
$PUCSORG
 10
0.0
 20
0.0
 30
0.0
  9
$PUCSXDIR
 10
1.0
 20
0.0
 30
0.0
  9
$PUCSYDIR
 10
0.0
 20
1.0
 30
0.0
  9
$USERI1
 70
     0
  9
$USERI2
 70
     0
  9
$USERI3
 70
     0
  9
$USERI4
 70
     0
  9
$USERI5
 70
     0
  9
$USERR1
 40
0.0
  9
$USERR2
 40
0.0
  9
$USERR3
 40
0.0
  9
$USERR4
 40
0.0
  9
$USERR5
 40
0.0
  9
$WORLDVIEW
 70
     1
  9
$SHADEDGE
 70
     3
  9
$SHADEDIF
 70
    70
  9
$TILEMODE
 70
     1
  9
$MAXACTVP
 70
    64
  9
$PINSBASE
 10
0.0
 20
0.0
 30
0.0
  9
$PLIMCHECK
 70
     0
  9
$PEXTMIN
 10
1.000000000000000E+20
 20
1.000000000000000E+20
 30
1.000000000000000E+20
  9
$PEXTMAX
 10
-1.000000000000000E+20
 20
-1.000000000000000E+20
 30
-1.000000000000000E+20
  9
$PLIMMIN
 10
0.0
 20
0.0
  9
$PLIMMAX
 10
12.0
 20
9.0
  9
$UNITMODE
 70
     0
  9
$VISRETAIN
 70
     1
  9
$PLINEGEN
 70
     0
  9
$PSLTSCALE
 70
     1
  9
$TREEDEPTH
 70
  3020
  9
$PICKSTYLE
 70
     1
  9
$CMLSTYLE
  2
STANDARD
  9
$CMLJUST
 70
     0
  9
$CMLSCALE
 40
1.0
  9
$PROXYGRAPHICS
 70
     1
  9
$MEASUREMENT
 70
     1
  0
ENDSEC
  0
SECTION
  2
CLASSES
  0
CLASS
  1
ACDBDICTIONARYWDFLT
  2
AcDbDictionaryWithDefault
  3
ObjectDBX Classes
 90
        0
280
     0
281
     0
  0
CLASS
  1
VISUALSTYLE
  2
AcDbVisualStyle
  3
ObjectDBX Classes
 90
     4095
280
     0
281
     0
  0
CLASS
  1
MATERIAL
  2
AcDbMaterial
  3
ObjectDBX Classes
 90
     1153
280
     0
281
     0
  0
CLASS
  1
SCALE
  2
AcDbScale
  3
ObjectDBX Classes
 90
     1153
280
     0
281
     0
  0
CLASS
  1
TABLESTYLE
  2
AcDbTableStyle
  3
ObjectDBX Classes
 90
     4095
280
     0
281
     0
  0
CLASS
  1
MLEADERSTYLE
  2
AcDbMLeaderStyle
  3
ACDB_MLEADERSTYLE_CLASS
 90
     4095
280
     0
281
     0
  0
CLASS
  1
SUN
  2
AcDbSun
  3
SCENEOE
 90
     1153
280
     0
281
     0
  0
CLASS
  1
DICTIONARYVAR
  2
AcDbDictionaryVar
  3
ObjectDBX Classes
 90
        0
280
     0
281
     0
  0
CLASS
  1
XRECORD
  2
AcDbXrecord
  3
ObjectDBX Classes
 90
        0
280
     0
281
     0
  0
CLASS
  1
LWPOLYLINE
  2
AcDbPolyline
  3
ObjectDBX Classes
 90
        0
280
     0
281
     1
  0
CLASS
  1
HATCH
  2
AcDbHatch
  3
ObjectDBX Classes
 90
        0
280
     0
281
     1
  0
CLASS
  1
ACDBPLACEHOLDER
  2
AcDbPlaceHolder
  3
ObjectDBX Classes
 90
        0
280
     0
281
     0
  0
CLASS
  1
LAYOUT
  2
AcDbLayout
  3
ObjectDBX Classes
 90
        0
280
     0
281
     0
  0
ENDSEC
  0
SECTION
  2
TABLES
  0
TABLE
  2
VPORT
  5
8
102
{ACAD_XDICTIONARY
360
21E
102
}
330
0
100
AcDbSymbolTable
 70
     1
  0
VPORT
  5
29
330
8
100
AcDbSymbolTableRecord
100
AcDbViewportTableRecord
  2
*ACTIVE
 70
     0
 10
0.0
 20
0.0
 11
1.0
 21
1.0
 12
662.4998216408619
 22
181.8648363640069
 13
0.0
 23
0.0
 14
0.5
 24
0.5
 15
0.5
 25
0.5
 16
0.0
 26
0.0
 36
1.0
 17
0.0
 27
0.0
 37
0.0
 40
84.30465084480747
 41
1.6
 42
50.0
 43
0.0
 44
0.0
 50
0.0
 51
0.0
 71
     0
 72
   100
 73
     1
 74
     3
 75
     0
 76
     0
 77
     0
 78
     0
  0
ENDTAB
  0
TABLE
  2
LTYPE
  5
5
330
0
100
AcDbSymbolTable
 70
     2
  0
LTYPE
  5
14
330
5
100
AcDbSymbolTableRecord
100
AcDbLinetypeTableRecord
  2
BYBLOCK
 70
     0
  3

 72
    65
 73
     0
 40
0.0
  0
LTYPE
  5
15
330
5
100
AcDbSymbolTableRecord
100
AcDbLinetypeTableRecord
  2
BYLAYER
 70
     0
  3

 72
    65
 73
     0
 40
0.0
  0
LTYPE
  5
16
330
5
100
AcDbSymbolTableRecord
100
AcDbLinetypeTableRecord
  2
CONTINUOUS
 70
     0
  3
Solid line
 72
    65
 73
     0
 40
0.0
  0
LTYPE
  5
7C
330
5
100
AcDbSymbolTableRecord
100
AcDbLinetypeTableRecord
  2
CENTER
 70
     0
  3

 72
    65
 73
     0
 40
0.0
  0
ENDTAB
  0
TABLE
  2
LAYER
  5
2
330
0
100
AcDbSymbolTable
 70
     1
  0
LAYER
  5
10
330
2
100
AcDbSymbolTableRecord
100
AcDbLayerTableRecord
  2
0
 70
     0
 62
     7
  6
CONTINUOUS
  0
ENDTAB
  0
TABLE
  2
STYLE
  5
3
330
0
100
AcDbSymbolTable
 70
     2
  0
STYLE
  5
11
330
3
100
AcDbSymbolTableRecord
100
AcDbTextStyleTableRecord
  2
STANDARD
 70
     0
 40
0.0
 41
1.0
 50
0.0
 71
     0
 42
0.2
  3
txt
  4

  0
STYLE
  5
6E
330
3
100
AcDbSymbolTableRecord
100
AcDbTextStyleTableRecord
  2
ＭＳ_ゴシック
 70
     0
 40
0.0
 41
1.0
 50
0.0
 71
     0
 42
0.2
  3
ＭＳ ゴシック.shx
  4

  0
ENDTAB
  0
TABLE
  2
VIEW
  5
6
330
0
100
AcDbSymbolTable
 70
     0
  0
ENDTAB
  0
TABLE
  2
UCS
  5
7
330
0
100
AcDbSymbolTable
 70
     0
  0
ENDTAB
  0
TABLE
  2
APPID
  5
9
330
0
100
AcDbSymbolTable
 70
     2
  0
APPID
  5
12
330
9
100
AcDbSymbolTableRecord
100
AcDbRegAppTableRecord
  2
ACAD
 70
     0
  0
APPID
  5
228
330
9
100
AcDbSymbolTableRecord
100
AcDbRegAppTableRecord
  2
ACAD_MLEADERVER
 70
     0
  0
ENDTAB
  0
TABLE
  2
DIMSTYLE
  5
A
330
0
100
AcDbSymbolTable
 70
     1
  0
DIMSTYLE
105
27
330
A
100
AcDbSymbolTableRecord
100
AcDbDimStyleTableRecord
  2
STANDARD
 70
     0
  3

  4

  5

  6

  7

 40
1.0
 41
0.18
 42
0.0625
 43
0.38
 44
0.18
 45
0.0
 46
0.0
 47
0.0
 48
0.0
140
0.18
141
0.09
142
0.0
143
25.4
144
1.0
145
0.0
146
1.0
147
0.09
 71
     0
 72
     0
 73
     1
 74
     1
 75
     0
 76
     0
 77
     0
 78
     0
170
     0
171
     2
172
     0
173
     0
174
     0
175
     0
176
     0
177
     0
178
     0
270
     2
271
     4
272
     4
273
     2
274
     2
340
11
275
     0
280
     0
281
     0
282
     0
283
     1
284
     0
285
     0
286
     0
287
     3
288
     0
  0
ENDTAB
  0
TABLE
  2
BLOCK_RECORD
  5
1
330
0
100
AcDbSymbolTable
 70
     0
  0
BLOCK_RECORD
  5
1F
330
1
100
AcDbSymbolTableRecord
100
AcDbBlockTableRecord
  2
*MODEL_SPACE
  0
BLOCK_RECORD
  5
1B
330
1
100
AcDbSymbolTableRecord
100
AcDbBlockTableRecord
  2
*PAPER_SPACE
  0
ENDTAB
  0
ENDSEC
  0
SECTION
  2
BLOCKS
  0
BLOCK
  5
20
330
1F
100
AcDbEntity
  8
0
100
AcDbBlockBegin
  2
*MODEL_SPACE
 70
     0
 10
0.0
 20
0.0
 30
0.0
  3
*MODEL_SPACE
  1

  0
ENDBLK
  5
21
330
1F
100
AcDbEntity
  8
0
100
AcDbBlockEnd
  0
BLOCK
  5
1C
330
1B
100
AcDbEntity
 67
     1
  8
0
100
AcDbBlockBegin
  2
*PAPER_SPACE
 70
     0
 10
0.0
 20
0.0
 30
0.0
  3
*PAPER_SPACE
  1

  0
ENDBLK
  5
1D
330
1B
100
AcDbEntity
 67
     1
  8
0
100
AcDbBlockEnd
  0
ENDSEC
  0
SECTION
  2
ENTITIES
  0
ARC
  5
6F
330
1F
100
AcDbEntity
  8
0
  6
CONTINUOUS
 62
     7
100
AcDbCircle
 10
30.02247755576348
 20
151.8609864556724
 30
0.0
 40
607.4242761285757
100
AcDbArc
 50
2.960282399330367
 51
6.201531439962877
  0
LWPOLYLINE
  5
70
330
1F
100
AcDbEntity
  8
0
  6
CONTINUOUS
 62
     7
100
AcDbPolyline
 90
       33
 70
     0
 43
0.0
 10
737.9670690025613
 20
169.017697731678
 10
737.9836729110623
 20
169.0191506306288
 10
738.0002768195633
 20
169.0234330461587
 10
738.0168807280639
 20
169.0305470976808
 10
738.033484636565
 20
169.040494904608
 10
738.050088545066
 20
169.0532785863533
 10
738.0666924535669
 20
169.0689002623296
 10
738.0832963620679
 20
169.087362045325
 10
738.0999002705688
 20
169.1086638367106
 10
738.1165041790697
 20
169.13280013223
 10
738.1331080875706
 20
169.1597646170412
 10
738.1497119960716
 20
169.1895509763022
 10
738.1663159045726
 20
169.2221528951708
 10
738.1829198130736
 20
169.2575640588052
 10
738.1995237215745
 20
169.2957781523633
 10
738.2161276300753
 20
169.3367888610028
 10
738.2327315385763
 20
169.380589869882
 10
738.2493354470772
 20
169.4271748641587
 10
738.2659393555782
 20
169.4765375289909
 10
738.2825432640791
 20
169.5286715495365
 10
738.2991471725799
 20
169.5835706109536
 10
738.3157510810809
 20
169.6412283984
 10
738.332354989582
 20
169.7016385970338
 10
738.3489588980829
 20
169.7647948920129
 10
738.3655628065837
 20
169.8306909684952
 10
738.3821667150845
 20
169.8993205116388
 10
738.3987706235855
 20
169.9706772066016
 10
738.4153745320865
 20
170.0447547385415
 10
738.4319784405875
 20
170.1215467926166
 10
738.4485823490884
 20
170.2010470539847
 10
738.4651862575893
 20
170.2832492078039
 10
738.4817901660901
 20
170.368146939232
 10
738.4983940745907
 20
170.455733933425
  0
LWPOLYLINE
  5
71
330
1F
100
AcDbEntity
  8
0
  6
CONTINUOUS
 62
     7
100
AcDbPolyline
 90
       33
 70
     0
 43
0.0
 10
-732.9666746745164
 20
221.0170910646061
 10
-732.9833002536402
 20
221.0157018920264
 10
-732.9999258327641
 20
221.0114735899931
 10
-733.0165514118879
 20
221.0044037589942
 10
-733.0331769910117
 20
220.994489999518
 10
-733.0498025701355
 20
220.9817299120525
 10
-733.0664281492593
 20
220.9661210971251
 10
-733.0830537283832
 20
220.947662699408
 10
-733.0996793075069
 20
220.9263595042761
 10
-733.1163048866308
 20
220.9022175847511
 10
-733.1329304657546
 20
220.8752430138545
 10
-733.1495560448784
 20
220.8454418646077
 10
-733.1661816240022
 20
220.8128202100323
 10
-733.182807203126
 20
220.7773841231497
 10
-733.1994327822499
 20
220.7391396769814
 10
-733.2160583613737
 20
220.6980929445489
 10
-733.2326839404976
 20
220.6542499988737
 10
-733.2493095196214
 20
220.6076169129773
 10
-733.2659350987452
 20
220.5581997598812
 10
-733.282560677869
 20
220.5060046126068
 10
-733.2991862569928
 20
220.4510375441757
 10
-733.3158118361166
 20
220.3933046276094
 10
-733.3324374152405
 20
220.3328119359293
 10
-733.3490629943643
 20
220.2695655421569
 10
-733.3656885734881
 20
220.2035715193137
 10
-733.382314152612
 20
220.1348359404213
 10
-733.3989397317357
 20
220.063364878501
 10
-733.4155653108596
 20
219.9891644065745
 10
-733.4321908899833
 20
219.9122405976631
 10
-733.4488164691073
 20
219.8325995247884
 10
-733.4654420482311
 20
219.7502472609719
 10
-733.4820676273549
 20
219.665189879235
 10
-733.4986932064788
 20
219.5774334525984
210
0.0
220
0.0
230
-1.0
  0
LWPOLYLINE
  5
72
330
1F
100
AcDbEntity
  8
0
  6
CONTINUOUS
 62
     7
100
AcDbPolyline
 90
       33
 70
     0
 43
0.0
 10
727.9666040388915
 20
169.0176066908772
 10
727.9832183124545
 20
169.0189836726308
 10
727.9998325860174
 20
169.0231984154282
 10
728.0164468595806
 20
169.0302535849238
 10
728.0330611331437
 20
169.0401518467719
 10
728.0496754067066
 20
169.0528958666271
 10
728.0662896802694
 20
169.0684872822725
 10
728.0829039538326
 20
169.0869221720199
 10
728.0995182273956
 20
169.1081947431821
 10
728.1161325009585
 20
169.1322992016626
 10
728.1327467745216
 20
169.1592297533646
 10
728.1493610480846
 20
169.1889806041912
 10
728.1659753216477
 20
169.2215459600459
 10
728.1825895952105
 20
169.2569200268318
 10
728.1992038687737
 20
169.2950970104522
 10
728.2158181423365
 20
169.3360711168103
 10
728.2324324158997
 20
169.3798365518095
 10
728.2490466894625
 20
169.4263875213528
 10
728.2656609630257
 20
169.4757182313438
 10
728.2822752365888
 20
169.5278228876855
 10
728.2988895101516
 20
169.5826956962813
 10
728.3155037837147
 20
169.6403308630344
 10
728.3321180572777
 20
169.700722593848
 10
728.3487323308407
 20
169.7638650946254
 10
728.3653466044036
 20
169.82975257127
 10
728.3819608779667
 20
169.8983792296848
 10
728.3985751515295
 20
169.9697392757733
 10
728.4151894250928
 20
170.0438269154386
 10
728.4318036986556
 20
170.120636354584
 10
728.4484179722185
 20
170.2001617991128
 10
728.4650322457819
 20
170.2823974549282
 10
728.4816465193447
 20
170.3673375279335
 10
728.4982607929079
 20
170.454976224033
  0
LWPOLYLINE
  5
73
330
1F
100
AcDbEntity
  8
0
  6
CONTINUOUS
 62
     7
100
AcDbPolyline
 90
       41
 70
     0
 43
0.0
 10
-702.9668914649822
 20
221.017301484166
 10
-702.9801739659064
 20
221.0163531399699
 10
-702.9934564668307
 20
221.0135823166843
 10
-703.0067389677548
 20
221.0089908214914
 10
-703.020021468679
 20
221.00258093052
 10
-703.0333039696033
 20
220.9943549198987
 10
-703.0465864705275
 20
220.9843150657563
 10
-703.0598689714516
 20
220.9724636442216
 10
-703.0731514723761
 20
220.9588029314232
 10
-703.0864339733002
 20
220.9433352034899
 10
-703.0997164742245
 20
220.9260627365504
 10
-703.1129989751488
 20
220.9069878067335
 10
-703.1262814760731
 20
220.8861126901679
 10
-703.1395639769971
 20
220.8634396629823
 10
-703.1528464779216
 20
220.8389710013055
 10
-703.1661289788457
 20
220.8127089812662
 10
-703.1794114797699
 20
220.784655878993
 10
-703.1926939806942
 20
220.7548139706149
 10
-703.2059764816183
 20
220.7231855322605
 10
-703.2192589825427
 20
220.6897728400585
 10
-703.2325414834668
 20
220.6545781701376
 10
-703.2458239843911
 20
220.6176037986267
 10
-703.2591064853154
 20
220.5788520016544
 10
-703.2723889862395
 20
220.5383250553494
 10
-703.2856714871639
 20
220.4960252358405
 10
-703.2989539880882
 20
220.4519548192565
 10
-703.3122364890123
 20
220.406116081726
 10
-703.3255189899367
 20
220.3585112993778
 10
-703.3388014908609
 20
220.3091427483407
 10
-703.3520839917851
 20
220.2580127047433
 10
-703.3653664927093
 20
220.2051234447144
 10
-703.3786489936335
 20
220.1504772443828
 10
-703.3919314945579
 20
220.0940763798771
 10
-703.4052139954821
 20
220.0359231273261
 10
-703.4184964964063
 20
219.9760197628585
 10
-703.4317789973305
 20
219.9143685626031
 10
-703.4450614982547
 20
219.8509721731314
 10
-703.458343999179
 20
219.785835871218
 10
-703.4716265001032
 20
219.7189660716759
 10
-703.4849090010275
 20
219.6503691938671
 10
-703.4981915019517
 20
219.5800516571526
210
0.0
220
0.0
230
-1.0
  0
LWPOLYLINE
  5
74
330
1F
100
AcDbEntity
  8
0
  6
CONTINUOUS
 62
     7
100
AcDbPolyline
 90
       33
 70
     0
 43
0.0
 10
697.9655174778301
 20
169.0174422196555
 10
697.9821762215164
 20
169.0187016717563
 10
697.9988349652027
 20
169.0228244976119
 10
698.015493708889
 20
169.0298064781271
 10
698.0321524525754
 20
169.039643394207
 10
698.0488111962619
 20
169.0523310267566
 10
698.0654699399482
 20
169.0678651566805
 10
698.0821286836344
 20
169.086241564884
 10
698.0987874273209
 20
169.107456032272
 10
698.1154461710071
 20
169.1315043397493
 10
698.1321049146934
 20
169.158382268221
 10
698.1487636583798
 20
169.188085598592
 10
698.1654224020662
 20
169.2206101117671
 10
698.1820811457525
 20
169.2559515886514
 10
698.1987398894389
 20
169.2941058101499
 10
698.215398633125
 20
169.3350685571674
 10
698.2320573768116
 20
169.378835610609
 10
698.2487161204978
 20
169.4254027513795
 10
698.2653748641842
 20
169.4747657603839
 10
698.2820336078706
 20
169.5269204185272
 10
698.2986923515568
 20
169.5818625067143
 10
698.3153510952432
 20
169.6395878058501
 10
698.3320098389296
 20
169.7000920968397
 10
698.3486685826158
 20
169.7633711605878
 10
698.3653273263021
 20
169.8294207779996
 10
698.3819860699887
 20
169.89823672998
 10
698.3986448136749
 20
169.9698147974338
 10
698.4153035573613
 20
170.0441507612661
 10
698.4319623010477
 20
170.121239855037
 10
698.4486210447341
 20
170.2010723397794
 10
698.4652797884203
 20
170.2836358250062
 10
698.4819385321067
 20
170.3689178954437
 10
698.4985972757931
 20
170.4569061358189
  0
LWPOLYLINE
  5
75
330
1F
100
AcDbEntity
  8
0
  6
CONTINUOUS
 62
     7
100
AcDbPolyline
 90
       33
 70
     0
 43
0.0
 10
-692.9665824678713
 20
221.0172966431811
 10
-692.9831941362285
 20
221.0158489071708
 10
-692.9998058045858
 20
221.0115575015237
 10
-693.0164174729431
 20
221.0044263403157
 10
-693.0330291413002
 20
220.9944593376228
 10
-693.0496408096574
 20
220.981660407521
 10
-693.0662524780146
 20
220.9660334640863
 10
-693.0828641463718
 20
220.9475824213947
 10
-693.0994758147291
 20
220.9263111935221
 10
-693.1160874830862
 20
220.9022236945446
 10
-693.1326991514437
 20
220.8753238385382
 10
-693.1493108198009
 20
220.8456155395788
 10
-693.1659224881581
 20
220.8131027117424
 10
-693.1825341565154
 20
220.777789269105
 10
-693.1991458248725
 20
220.7396791257427
 10
-693.2157574932297
 20
220.6987761957313
 10
-693.2323691615869
 20
220.6550843931469
 10
-693.2489808299442
 20
220.6086076320655
 10
-693.2655924983014
 20
220.5593498265631
 10
-693.2822041666586
 20
220.5073148907155
 10
-693.298815835016
 20
220.452506738599
 10
-693.315427503373
 20
220.3949292842893
 10
-693.3320391717302
 20
220.3345864418627
 10
-693.3486508400875
 20
220.2714821253949
 10
-693.3652625084449
 20
220.205620248962
 10
-693.381874176802
 20
220.13700472664
 10
-693.3984858451593
 20
220.065639472505
 10
-693.4150975135166
 20
219.9915286972836
 10
-693.4317091818738
 20
219.9146810111909
 10
-693.448320850231
 20
219.8351083911941
 10
-693.4649325185882
 20
219.7528228997192
 10
-693.4815441869455
 20
219.6678365991917
 10
-693.4981558553023
 20
219.5801615520381
210
0.0
220
0.0
230
-1.0
  0
LWPOLYLINE
  5
76
330
1F
100
AcDbEntity
  8
0
  6
CONTINUOUS
 62
     7
100
AcDbPolyline
 90
       33
 70
     0
 43
0.0
 10
747.967266549814
 20
169.0177825023563
 10
747.9838780372627
 20
169.0192758002387
 10
748.000489524711
 20
169.0235973893101
 10
748.0171010121597
 20
169.0307488491769
 10
748.0337124996084
 20
169.0407317594453
 10
748.050323987057
 20
169.0535476997215
 10
748.0669354745055
 20
169.0691982496118
 10
748.0835469619541
 20
169.0876849887225
 10
748.1001584494026
 20
169.1090094966598
 10
748.1167699368511
 20
169.1331732441339
 10
748.1333814242997
 20
169.1601740590901
 10
748.1499929117484
 20
169.1900053532391
 10
748.1666043991972
 20
169.2226602729016
 10
748.1832158866457
 20
169.2581319643982
 10
748.1998273740943
 20
169.2964135740495
 10
748.2164388615429
 20
169.3374982481762
 10
748.2330503489915
 20
169.381379133099
 10
748.24966183644
 20
169.4280493751384
 10
748.2662733238886
 20
169.4775021206151
 10
748.2828848113372
 20
169.5297305158497
 10
748.299496298786
 20
169.5847277071629
 10
748.3161077862344
 20
169.6424868408753
 10
748.3327192736832
 20
169.7030010633076
 10
748.3493307611316
 20
169.7662635207803
 10
748.3659422485802
 20
169.8322673596141
 10
748.382553736029
 20
169.9010057261298
 10
748.3991652234774
 20
169.9724717666478
 10
748.4157767109259
 20
170.0466586274889
 10
748.4323881983746
 20
170.1235594549736
 10
748.4489996858232
 20
170.2031673954227
 10
748.4656111732718
 20
170.2854755951567
 10
748.4822226607205
 20
170.3704772004963
 10
748.4988341481692
 20
170.4581653577634
  0
LWPOLYLINE
  5
77
330
1F
100
AcDbEntity
  8
0
  6
CONTINUOUS
 62
     7
100
AcDbPolyline
 90
       33
 70
     0
 43
0.0
 10
-742.9664683560144
 20
221.0170016012036
 10
-742.9830975599798
 20
221.015644789958
 10
-742.9997267639451
 20
221.0114519365299
 10
-743.0163559679106
 20
221.0044211839513
 10
-743.0329851718758
 20
220.9945506752541
 10
-743.0496143758413
 20
220.9818385534705
 10
-743.0662435798067
 20
220.9662829616325
 10
-743.082872783772
 20
220.9478820427719
 10
-743.0995019877375
 20
220.9266339660891
 10
-743.1161311917028
 20
220.9025396505722
 10
-743.1327603956685
 20
220.8756051451511
 10
-743.1493895996339
 20
220.8458370597927
 10
-743.1660188035991
 20
220.8132420044641
 10
-743.1826480075645
 20
220.7778265891327
 10
-743.19927721153
 20
220.7395974237653
 10
-743.2159064154953
 20
220.6985611183292
 10
-743.2325356194605
 20
220.6547242827912
 10
-743.2491648234261
 20
220.6080935271189
 10
-743.2657940273915
 20
220.5586754612791
 10
-743.2824232313569
 20
220.5064766952388
 10
-743.2990524353222
 20
220.4515038389654
 10
-743.3156816392877
 20
220.3937635024258
 10
-743.332310843253
 20
220.3332622955872
 10
-743.3489400472183
 20
220.2700068284166
 10
-743.3655692511838
 20
220.2040037108813
 10
-743.3821984551493
 20
220.1352595529482
 10
-743.3988276591147
 20
220.0637809645846
 10
-743.41545686308
 20
219.9895745557574
 10
-743.4320860670454
 20
219.9126469364339
 10
-743.4487152710108
 20
219.8330047165811
 10
-743.4653444749762
 20
219.7506545061661
 10
-743.4819736789417
 20
219.6656029151561
 10
-743.4986028829068
 20
219.5778565535196
210
0.0
220
0.0
230
-1.0
  0
LWPOLYLINE
  5
78
330
1F
100
AcDbEntity
  8
0
  6
CONTINUOUS
 62
     7
100
AcDbPolyline
 90
       33
 70
     0
 43
0.0
 10
-752.9663796481667
 20
221.0169252152708
 10
-752.9830094224303
 20
221.015574895803
 10
-752.9996391966937
 20
221.0113916856163
 10
-753.0162689709572
 20
221.0043742723452
 10
-753.0328987452207
 20
220.9945213436245
 10
-753.049528519484
 20
220.9818315870889
 10
-753.0661582937477
 20
220.9663036903731
 10
-753.0827880680112
 20
220.9479363411118
 10
-753.0994178422743
 20
220.9267282269397
 10
-753.1160476165381
 20
220.9026780354915
 10
-753.1326773908015
 20
220.8757846360618
 10
-753.1493071650648
 20
220.8460509760839
 10
-753.1659369393284
 20
220.8134840263146
 10
-753.1825667135919
 20
220.778090928207
 10
-753.1991964878555
 20
220.7398788232141
 10
-753.215826262119
 20
220.698854852789
 10
-753.2324560363825
 20
220.6550261583847
 10
-753.2490858106459
 20
220.6083998814544
 10
-753.2657155849092
 20
220.5589831634511
 10
-753.282345359173
 20
220.5067831458279
 10
-753.2989751334363
 20
220.4518069700378
 10
-753.3156049076997
 20
220.3940617775338
 10
-753.3322346819633
 20
220.3335547097692
 10
-753.3488644562269
 20
220.270292908197
 10
-753.3654942304902
 20
220.20428351427
 10
-753.3821240047537
 20
220.1355336694417
 10
-753.3987537790172
 20
220.0640505151648
 10
-753.4153835532807
 20
219.9898411928926
 10
-753.4320133275442
 20
219.912912844078
 10
-753.4486431018076
 20
219.8332726101742
 10
-753.4652728760713
 20
219.7509276326343
 10
-753.4819026503349
 20
219.6658850529112
 10
-753.4985324245982
 20
219.5781520124575
210
0.0
220
0.0
230
-1.0
  0
MTEXT
  5
79
330
1F
100
AcDbEntity
  8
0
 62
     4
100
AcDbMText
 10
650.1498917539247
 20
142.371601850694
 30
0.0
 40
3.0
 41
0.0
 71
     1
 72
     1
  1
{\fＭＳ ゴシック;BML-30}
  0
ARC
  5
7A
330
1F
100
AcDbEntity
  8
0
  6
CONTINUOUS
 62
     7
100
AcDbCircle
 10
651.0592399034238
 20
219.4937229067363
 30
0.0
 40
2.440636463249839
100
AcDbArc
 50
1.992797726204685
 51
38.61803789443399
  0
LINE
  5
7B
330
1F
100
AcDbEntity
  8
0
  6
CENTER
 62
     1
100
AcDbLine
 10
475.9836583894547
 20
195.0
 30
0.0
 11
533.9833413074208
 21
195.0
 31
0.0
  0
LINE
  5
7D
330
1F
100
AcDbEntity
  8
0
  6
CENTER
 62
     1
100
AcDbLine
 10
820.0
 20
166.017847838645
 30
0.0
 11
820.0
 21
224.0171617864106
 31
0.0
  0
ARC
  5
7E
330
1F
100
AcDbEntity
  8
0
  6
CONTINUOUS
 62
     7
100
AcDbCircle
 10
721.2349600172864
 20
219.559134046623
 30
0.0
 40
2.263959582883701
100
AcDbArc
 50
0.4420703073026289
 51
40.09262683691588
  0
CIRCLE
  5
7F
330
1F
100
AcDbEntity
  8
0
  6
CONTINUOUS
 62
     4
100
AcDbCircle
 10
505.0
 20
195.0
 30
0.0
 40
21.0
  0
LINE
  5
80
330
1F
100
AcDbEntity
  8
0
  6
CENTER
 62
     1
100
AcDbLine
 10
791.0165756290648
 20
195.0
 30
0.0
 11
849.015984892269
 21
195.0
 31
0.0
  0
LINE
  5
81
330
1F
100
AcDbEntity
  8
0
  6
CENTER
 62
     1
100
AcDbLine
 10
505.0
 20
166.0173490367241
 30
0.0
 11
505.0
 21
224.017126921865
 31
0.0
  0
ARC
  5
82
330
1F
100
AcDbEntity
  8
0
  6
CONTINUOUS
 62
     7
100
AcDbCircle
 10
716.3589643232576
 20
170.4297617286189
 30
0.0
 40
2.139397993538086
100
AcDbArc
 50
318.691768921228
 51
0.6690422016758931
  0
CIRCLE
  5
83
330
1F
100
AcDbEntity
  8
0
  6
CONTINUOUS
 62
     4
100
AcDbCircle
 10
505.0
 20
195.0
 30
0.0
 40
18.0
  0
ARC
  5
84
330
1F
100
AcDbEntity
  8
0
  6
CONTINUOUS
 62
     7
100
AcDbCircle
 10
711.4592054835421
 20
219.6427248891907
 30
0.0
 40
2.040278769423628
100
AcDbArc
 50
358.1986462893227
 51
42.3531324558702
  0
ARC
  5
85
330
1F
100
AcDbEntity
  8
0
  6
CONTINUOUS
 62
     7
100
AcDbCircle
 10
706.577984678733
 20
170.349063998228
 30
0.0
 40
1.923228824267677
100
AcDbArc
 50
316.1814182527344
 51
3.162293272332988
  0
ARC
  5
86
330
1F
100
AcDbEntity
  8
0
  6
CONTINUOUS
 62
     7
100
AcDbCircle
 10
657.9549000397723
 20
184.8966759066716
 30
0.0
 40
61.35621412516451
100
AcDbArc
 50
181.2830744887668
 51
192.9619822043149
  0
ARC
  5
87
330
1F
100
AcDbEntity
  8
0
  6
CONTINUOUS
 62
     7
100
AcDbCircle
 10
747.7313983426375
 20
184.8692031115685
 30
0.0
 40
61.1324006101099
100
AcDbArc
 50
181.2584365743432
 51
192.983504339178
  0
ARC
  5
88
330
1F
100
AcDbEntity
  8
0
  6
CONTINUOUS
 62
     7
100
AcDbCircle
 10
772.601675748447
 20
185.4714300904636
 30
0.0
 40
66.02998883042768
100
AcDbArc
 50
181.4441145682898
 51
192.5076884194645
  0
ARC
  5
89
330
1F
100
AcDbEntity
  8
0
  6
CONTINUOUS
 62
     7
100
AcDbCircle
 10
90.83410110119871
 20
151.9057396682267
 30
0.0
 40
606.6123996979184
100
AcDbArc
 50
2.956266041237257
 51
6.205827590543264
  0
ARC
  5
8A
330
1F
100
AcDbEntity
  8
0
  6
CONTINUOUS
 62
     7
100
AcDbCircle
 10
758.7991648434934
 20
184.7833866886428
 30
0.0
 40
62.18034249201799
100
AcDbArc
 50
181.4674788884516
 51
192.6117267908961
  0
ARC
  5
8B
330
1F
100
AcDbEntity
  8
0
  6
CONTINUOUS
 62
     7
100
AcDbCircle
 10
641.2952797322881
 20
219.5807235655482
 30
0.0
 40
2.203062348155119
100
AcDbArc
 50
359.9525927757652
 51
40.68544597043035
  0
ARC
  5
8C
330
1F
100
AcDbEntity
  8
0
  6
CONTINUOUS
 62
     7
100
AcDbCircle
 10
119.1986517486456
 20
151.7721778265782
 30
0.0
 40
608.2527821555235
100
AcDbArc
 50
2.960136759925319
 51
6.201637485067693
  0
ARC
  5
8D
330
1F
100
AcDbEntity
  8
0
  6
CONTINUOUS
 62
     7
100
AcDbCircle
 10
73.56979308958822
 20
152.3790288304782
 30
0.0
 40
603.8416961386873
100
AcDbArc
 50
2.981606171624662
 51
6.189102770389582
  0
ARC
  5
8E
330
1F
100
AcDbEntity
  8
0
  6
CONTINUOUS
 62
     7
100
AcDbCircle
 10
646.173434809562
 20
170.4986778271442
 30
0.0
 40
2.325511751283602
100
AcDbArc
 50
320.4465008761798
 51
358.975371723827
  0
ARC
  5
8F
330
1F
100
AcDbEntity
  8
0
  6
CONTINUOUS
 62
     7
100
AcDbCircle
 10
742.5907599463966
 20
185.4700971096333
 30
0.0
 40
66.01813134531959
100
AcDbArc
 50
181.4599526350391
 51
192.5107315301306
  0
ARC
  5
90
330
1F
100
AcDbEntity
  8
0
  6
CONTINUOUS
 62
     7
100
AcDbCircle
 10
60.88886299146856
 20
151.9237100888767
 30
0.0
 40
606.5559866754601
100
AcDbArc
 50
2.957839260090451
 51
6.20470440197687
  0
ARC
  5
91
330
1F
100
AcDbEntity
  8
0
  6
CONTINUOUS
 62
     7
100
AcDbCircle
 10
728.8707564383072
 20
184.7989937425972
 30
0.0
 40
62.25393566684741
100
AcDbArc
 50
181.4509336471032
 51
192.610221483279
  0
ARC
  5
92
330
1F
100
AcDbEntity
  8
0
  6
CONTINUOUS
 62
     7
100
AcDbCircle
 10
10.76065182421615
 20
153.6467839617782
 30
0.0
 40
586.6146972699896
100
AcDbArc
 50
2.919309353411904
 51
6.247051675772185
  0
ARC
  5
93
330
1F
100
AcDbEntity
  8
0
  6
CONTINUOUS
 62
     7
100
AcDbCircle
 10
68.89646598885469
 20
153.4915937782136
 30
0.0
 40
588.4846809905049
100
AcDbArc
 50
2.923749669365577
 51
6.242262616463449
  0
ARC
  5
94
330
1F
100
AcDbEntity
  8
0
  6
CONTINUOUS
 62
     7
100
AcDbCircle
 10
717.7574994932372
 20
184.8658905866701
 30
0.0
 40
61.15745109184085
100
AcDbArc
 50
181.2718959530067
 51
192.9740328974748
  0
ARC
  5
95
330
1F
100
AcDbEntity
  8
0
  6
CONTINUOUS
 62
     7
100
AcDbCircle
 10
802.4352822463112
 20
185.4570491001324
 30
0.0
 40
65.86287701775034
100
AcDbArc
 50
181.4422804407088
 51
192.5307265866205
  0
ARC
  5
96
330
1F
100
AcDbEntity
  8
0
  6
CONTINUOUS
 62
     7
100
AcDbCircle
 10
44.05512304469361
 20
152.4218279361777
 30
0.0
 40
603.3546015940949
100
AcDbArc
 50
2.980710938475454
 51
6.190007467982355
  0
ARC
  5
97
330
1F
100
AcDbEntity
  8
0
  6
CONTINUOUS
 62
     7
100
AcDbCircle
 10
712.6862787172092
 20
185.4883516028418
 30
0.0
 40
66.11449431476854
100
AcDbArc
 50
181.4666720811629
 51
192.5106166113134
  0
ARC
  5
98
330
1F
100
AcDbEntity
  8
0
  6
CONTINUOUS
 62
     7
100
AcDbCircle
 10
99.20900885319605
 20
153.52283512983
 30
0.0
 40
588.1705089545969
100
AcDbArc
 50
2.924043198492768
 51
6.242671152803609
  0
ARC
  5
99
330
1F
100
AcDbEntity
  8
0
  6
CONTINUOUS
 62
     7
100
AcDbCircle
 10
129.2961606607304
 20
153.5143955433487
 30
0.0
 40
588.0847381252561
100
AcDbArc
 50
2.922108973141802
 51
6.244530818877251
  0
ARC
  5
9A
330
1F
100
AcDbEntity
  8
0
  6
CONTINUOUS
 62
     7
100
AcDbCircle
 10
777.491064475435
 20
184.837868029527
 30
0.0
 40
60.88964932825776
100
AcDbArc
 50
181.2646845436701
 51
193.0093549067981
  0
ARC
  5
9B
330
1F
100
AcDbEntity
  8
0
  6
CONTINUOUS
 62
     7
100
AcDbCircle
 10
132.2322514136367
 20
152.277025179414
 30
0.0
 40
605.1825307221417
100
AcDbArc
 50
2.985727796377774
 51
6.185025772160373
  0
ARC
  5
9C
330
1F
100
AcDbEntity
  8
0
  6
CONTINUOUS
 62
     7
100
AcDbCircle
 10
788.7024482862176
 20
184.765072111402
 30
0.0
 40
62.08276283764872
100
AcDbArc
 50
181.4601937912281
 51
192.6119622687776
  0
ARC
  5
9D
330
1F
100
AcDbEntity
  8
0
  6
CONTINUOUS
 62
     7
100
AcDbCircle
 10
103.0028964087687
 20
152.3388759343017
 30
0.0
 40
604.4095189790215
100
AcDbArc
 50
2.984443935878005
 51
6.1872554845217
  0
LWPOLYLINE
  5
9E
330
1F
100
AcDbEntity
  8
0
  6
CONTINUOUS
 62
     7
100
AcDbPolyline
 90
      105
 70
     0
 43
0.0
 10
733.4986932064788
 20
219.5774334525984
 10
733.5416583583643
 20
219.3381911861298
 10
733.5846235102498
 20
219.081135931913
 10
733.6275886621352
 20
218.8065066248491
 10
733.6705538140204
 20
218.5145457676775
 10
733.713518965906
 20
218.2054958631374
 10
733.7564841177914
 20
217.8795994139682
 10
733.799449269677
 20
217.5370989229094
 10
733.8424144215624
 20
217.1782368927001
 10
733.8853795734478
 20
216.8032558260798
 10
733.9283447253332
 20
216.4123982257879
 10
733.9713098772188
 20
216.0059065945636
 10
734.014275029104
 20
215.5840355917204
 10
734.0572401809895
 20
215.147116103589
 10
734.1002053328749
 20
214.6955084967857
 10
734.1431704847602
 20
214.2295732016188
 10
734.1861356366459
 20
213.7496706483969
 10
734.2291007885311
 20
213.2561612674284
 10
734.2720659404165
 20
212.7494054890217
 10
734.3150310923019
 20
212.2297637434854
 10
734.3579962441872
 20
211.6975964611279
 10
734.4009613960726
 20
211.1532640722578
 10
734.4439265479579
 20
210.5971272157277
 10
734.4868916998433
 20
210.0295739569937
 10
734.5298568517286
 20
209.4510468501502
 10
734.572822003614
 20
208.8619948836884
 10
734.6157871554994
 20
208.2628670460994
 10
734.6587523073849
 20
207.6541123258742
 10
734.7017174592702
 20
207.0361797115038
 10
734.7446826111554
 20
206.4095181914795
 10
734.7876477630408
 20
205.7745767542922
 10
734.8306129149263
 20
205.131804388433
 10
734.8735780668115
 20
204.481650082393
 10
734.9165432186971
 20
203.8245650059986
 10
734.9595083705824
 20
203.1610292201041
 10
735.002473522468
 20
202.491543252417
 10
735.0454386743534
 20
201.8166080641288
 10
735.0884038262388
 20
201.1367246164314
 10
735.1313689781243
 20
200.4523938705166
 10
735.1743341300096
 20
199.7641167875761
 10
735.2172992818951
 20
199.0723943288017
 10
735.2602644337804
 20
198.3777274553852
 10
735.3032295856658
 20
197.6806171285183
 10
735.3461947375512
 20
196.9815643094107
 10
735.3891598894369
 20
196.2810719387945
 10
735.4321250413223
 20
195.5796503872728
 10
735.4750901932076
 20
194.8778117683008
 10
735.518055345093
 20
194.1760681953336
 10
735.5610204969785
 20
193.474931781826
 10
735.6039856488636
 20
192.7749146412332
 10
735.646950800749
 20
192.0765288870101
 10
735.6899159526344
 20
191.3802866326117
 10
735.73288110452
 20
190.6866999914932
 10
735.7758462564052
 20
189.9962810771095
 10
735.8188114082907
 20
189.3095416492096
 10
735.861776560176
 20
188.6269805675154
 10
735.9047417120613
 20
187.9490804101133
 10
735.9477068639469
 20
187.2763227135506
 10
735.9906720158323
 20
186.6091890143745
 10
736.0336371677176
 20
185.9481608491322
 10
736.0766023196029
 20
185.2937197543708
 10
736.1195674714884
 20
184.6463472666377
 10
736.1625326233739
 20
184.0065249224799
 10
736.2054977752591
 20
183.3747342584447
 10
736.2484629271446
 20
182.7514568110792
 10
736.2914280790301
 20
182.1371681438619
 10
736.3343932309155
 20
181.5322997740704
 10
736.3773583828008
 20
180.9372635158265
 10
736.4203235346862
 20
180.3524710911342
 10
736.4632886865718
 20
179.7783342219979
 10
736.506253838457
 20
179.2152646304216
 10
736.5492189903425
 20
178.6636740384095
 10
736.592184142228
 20
178.1239741679657
 10
736.6351492941133
 20
177.5965767410944
 10
736.6781144459989
 20
177.0818934797998
 10
736.7210795978842
 20
176.5803359871175
 10
736.7640447497697
 20
176.092287279746
 10
736.8070099016551
 20
175.6180648569321
 10
736.8499750535404
 20
175.1579770772862
 10
736.892940205426
 20
174.7123322994183
 10
736.9359053573113
 20
174.2814388819388
 10
736.9788705091966
 20
173.8656051834577
 10
737.0218356610819
 20
173.4651395625854
 10
737.0648008129675
 20
173.0803503779321
 10
737.1077659648529
 20
172.7115459881079
 10
737.1507311167381
 20
172.359034751723
 10
737.1936962686237
 20
172.0231208454642
 10
737.236661420509
 20
171.7040406796598
 10
737.2796265723942
 20
171.4019757078628
 10
737.3225917242796
 20
171.1171057989254
 10
737.3655568761652
 20
170.8496108216995
 10
737.4085220280505
 20
170.5996706450372
 10
737.4514871799357
 20
170.3674651377905
 10
737.4944523318212
 20
170.1531741688116
 10
737.5374174837067
 20
169.9569776069524
 10
737.580382635592
 20
169.779055321065
 10
737.6233477874774
 20
169.6195871800016
 10
737.6663129393627
 20
169.4787312849038
 10
737.7092780912483
 20
169.3565504338112
 10
737.7522432431335
 20
169.253081349993
 10
737.7952083950191
 20
169.1683607560682
 10
737.8381735469046
 20
169.1024253746554
 10
737.88113869879
 20
169.0553119283736
 10
737.9241038506756
 20
169.0270571398415
 10
737.9670690025613
 20
169.017697731678
  0
LWPOLYLINE
  5
9F
330
1F
100
AcDbEntity
  8
0
  6
CONTINUOUS
 62
     7
100
AcDbPolyline
 90
      105
 70
     0
 43
0.0
 10
-619.4665522510671
 20
221.0168340834503
 10
-619.5095137705904
 20
221.0073815405549
 10
-619.5524752901138
 20
220.9790514628347
 10
-619.5954368096369
 20
220.9318459079867
 10
-619.6383983291603
 20
220.865766933708
 10
-619.6813598486835
 20
220.7808165976957
 10
-619.724321368207
 20
220.677000889221
 10
-619.7672828877302
 20
220.5543993104677
 10
-619.8102444072534
 20
220.4131565521772
 10
-619.8532059267769
 20
220.2534195642525
 10
-619.8961674463002
 20
220.0753352965964
 10
-619.9391289658236
 20
219.8790506991122
 10
-619.9820904853468
 20
219.6647127217028
 10
-620.0250520048702
 20
219.4324683142712
 10
-620.0680135243935
 20
219.1824644267205
 10
-620.1109750439167
 20
218.9148480089537
 10
-620.1539365634401
 20
218.6297660108739
 10
-620.1968980829632
 20
218.3273834831881
 10
-620.2398596024867
 20
218.0079535433412
 10
-620.2828211220101
 20
217.6717560532243
 10
-620.3257826415334
 20
217.3190708808465
 10
-620.3687441610566
 20
216.9501778942169
 10
-620.41170568058
 20
216.5653569613448
 10
-620.4546672001032
 20
216.1648879502393
 10
-620.4976287196266
 20
215.7490507289095
 10
-620.5405902391499
 20
215.3181251653645
 10
-620.5835517586731
 20
214.8723911276136
 10
-620.6265132781965
 20
214.4121291062283
 10
-620.6694747977197
 20
213.9376596685638
 10
-620.7124363172429
 20
213.4493671194822
 10
-620.7553978367663
 20
212.9476414402693
 10
-620.7983593562894
 20
212.4328726122108
 10
-620.8413208758129
 20
211.9054506165924
 10
-620.8842823953362
 20
211.3657654347001
 10
-620.9272439148594
 20
210.8142070478193
 10
-620.9702054343826
 20
210.2511654372361
 10
-621.0131669539061
 20
209.6770305842361
 10
-621.0561284734293
 20
209.092192470105
 10
-621.0990899929526
 20
208.497045799639
 10
-621.1420515124759
 20
207.8920319593597
 10
-621.1850130319991
 20
207.277618956424
 10
-621.2279745515226
 20
206.6542751080688
 10
-621.2709360710459
 20
206.0224687315316
 10
-621.3138975905691
 20
205.3826681440493
 10
-621.3568591100925
 20
204.7353416628594
 10
-621.3998206296158
 20
204.080957605199
 10
-621.4427821491391
 20
203.4199842883054
 10
-621.4857436686623
 20
202.7528900294155
 10
-621.5287051881858
 20
202.0801431527466
 10
-621.5716667077089
 20
201.4022209007661
 10
-621.6146282272324
 20
200.7196269075068
 10
-621.6575897467557
 20
200.0328696656874
 10
-621.7005512662789
 20
199.3424576680269
 10
-621.7435127858023
 20
198.6488994072438
 10
-621.7864743053254
 20
197.9527033760569
 10
-621.8294358248489
 20
197.2543780671851
 10
-621.8723973443723
 20
196.5544319733469
 10
-621.9153588638953
 20
195.853373587261
 10
-621.9583203834187
 20
195.1517114016464
 10
-622.0012819029421
 20
194.4499538845066
 10
-622.0442434224652
 20
193.7486089084531
 10
-622.0872049419886
 20
193.0481837353369
 10
-622.130166461512
 20
192.3491855992203
 10
-622.1731279810352
 20
191.6521217341653
 10
-622.2160895005585
 20
190.957499374234
 10
-622.2590510200818
 20
190.2658257534886
 10
-622.3020125396051
 20
189.5776081059911
 10
-622.3449740591284
 20
188.8933536658037
 10
-622.3879355786518
 20
188.2135696669885
 10
-622.430897098175
 20
187.5387633436077
 10
-622.4738586176983
 20
186.8694371077004
 10
-622.5168201372215
 20
186.206065562998
 10
-622.5597816567448
 20
185.549113365882
 10
-622.6027431762683
 20
184.8990451601802
 10
-622.6457046957916
 20
184.2563255897209
 10
-622.6886662153148
 20
183.6214192983319
 10
-622.7316277348381
 20
182.9947909298412
 10
-622.7745892543616
 20
182.3769051280771
 10
-622.8175507738846
 20
181.7682265368673
 10
-622.8605122934079
 20
181.1692198000399
 10
-622.9034738129311
 20
180.5803493035882
 10
-622.9464353324545
 20
180.0020531344471
 10
-622.9893968519777
 20
179.4347207461877
 10
-623.0323583715011
 20
178.8787363312589
 10
-623.0753198910244
 20
178.3344840821098
 10
-623.1182814105479
 20
177.8023481911892
 10
-623.161242930071
 20
177.2827128509459
 10
-623.2042044495944
 20
176.775962253829
 10
-623.2471659691178
 20
176.2824805922874
 10
-623.2901274886409
 20
175.8026520587699
 10
-623.3330890081642
 20
175.3368608457254
 10
-623.3760505276875
 20
174.8854858694483
 10
-623.4190120472108
 20
174.4488424491813
 10
-623.4619735667343
 20
174.0272037736665
 10
-623.5049350862577
 20
173.6208422783474
 10
-623.5478966057807
 20
173.2300303986676
 10
-623.5908581253042
 20
172.8550405700707
 10
-623.6338196448276
 20
172.4961452280002
 10
-623.6767811643508
 20
172.1536168078996
 10
-623.7197426838742
 20
171.8277277452127
 10
-623.7627042033974
 20
171.5187504753828
 10
-623.8056657229208
 20
171.2269574317389
 10
-623.8486272424441
 20
170.952595535526
 10
-623.8915887619673
 20
170.6958226758759
 10
-623.9345502814907
 20
170.4567773320339
210
0.0
220
0.0
230
-1.0
  0
LWPOLYLINE
  5
A0
330
1F
100
AcDbEntity
  8
0
  6
CONTINUOUS
 62
     7
100
AcDbPolyline
 90
      105
 70
     0
 43
0.0
 10
693.4981558553023
 20
219.5801615520381
 10
693.5411112555189
 20
219.341066177707
 10
693.5840666557358
 20
219.0842813029252
 10
693.6270220559524
 20
218.8100154959458
 10
693.6699774561688
 20
218.5184773250223
 10
693.7129328563856
 20
218.2098753584082
 10
693.7558882566021
 20
217.8844181643567
 10
693.7988436568188
 20
217.5423143111211
 10
693.8417990570354
 20
217.183772366955
 10
693.884754457252
 20
216.8090044077746
 10
693.9277098574686
 20
216.4182859446743
 10
693.9706652576853
 20
216.011947607747
 10
694.0136206579018
 20
215.5903218612099
 10
694.0565760581185
 20
215.15374116928
 10
694.099531458335
 20
214.7025379961741
 10
694.1424868585517
 20
214.2370448061094
 10
694.1854422587684
 20
213.7575940633029
 10
694.2283976589849
 20
213.2645182319716
 10
694.2713530592016
 20
212.7581497763324
 10
694.3143084594182
 20
212.2388211606025
 10
694.3572638596347
 20
211.7068782990458
 10
694.4002192598513
 20
211.1627313174314
 10
694.4431746600678
 20
210.6068094820601
 10
694.4861300602846
 20
210.0395420625217
 10
694.5290854605012
 20
209.4613583284056
 10
694.5720408607178
 20
208.8726875493015
 10
694.6149962609345
 20
208.273958994799
 10
694.6579516611511
 20
207.6656019344878
 10
694.7009070613677
 20
207.0480456379574
 10
694.7438624615843
 20
206.4217193747973
 10
694.7868178618007
 20
205.7870527798016
 10
694.8297732620174
 20
205.1444981863288
 10
694.8727286622342
 20
204.4945435702473
 10
694.9156840624506
 20
203.8376800278169
 10
694.9586394626673
 20
203.1743986552975
 10
695.001594862884
 20
202.5051905489487
 10
695.0445502631006
 20
201.8305468050306
 10
695.0875056633172
 20
201.1509585198027
 10
695.1304610635339
 20
200.4669167895249
 10
695.1734164637505
 20
199.778912710457
 10
695.2163718639672
 20
199.0874373788589
 10
695.2593272641836
 20
198.3929832241617
 10
695.3022826644004
 20
197.6960557046013
 10
695.345238064617
 20
196.9971676430684
 10
695.3881934648335
 20
196.2968319458919
 10
695.4311488650501
 20
195.5955615194007
 10
695.4741042652669
 20
194.8938692699238
 10
695.5170596654834
 20
194.19226810379
 10
695.5600150657001
 20
193.4912709273284
 10
695.6029704659168
 20
192.7913906468679
 10
695.6459258661333
 20
192.0931401687373
 10
695.6888812663501
 20
191.3970323956125
 10
695.7318366665668
 20
190.7035757737843
 10
695.7747920667832
 20
190.0132656286526
 10
695.8177474669998
 20
189.3265948828378
 10
695.8607028672164
 20
188.6440564589601
 10
695.9036582674331
 20
187.9661432796398
 10
695.9466136676498
 20
187.2933482674972
 10
695.9895690678666
 20
186.6261643451526
 10
696.032524468083
 20
185.9650844352262
 10
696.0754798682996
 20
185.3106014603384
 10
696.1184352685161
 20
184.6632083431095
 10
696.1613906687329
 20
184.0233968234473
 10
696.2043460689492
 20
183.3916301799219
 10
696.247301469166
 20
182.7683425122651
 10
696.2902568693828
 20
182.1539665939677
 10
696.3332122695992
 20
181.5489351985207
 10
696.3761676698159
 20
180.9536810994152
 10
696.4191230700326
 20
180.3686370701421
 10
696.4620784702491
 20
179.7942358841925
 10
696.5050338704657
 20
179.2309103150573
 10
696.5479892706825
 20
178.6790931362276
 10
696.5909446708989
 20
178.1392171211943
 10
696.6339000711156
 20
177.6117042882232
 10
696.6768554713321
 20
177.096914384779
 10
696.7198108715489
 20
176.5951848000389
 10
696.7627662717655
 20
176.1068528941492
 10
696.8057216719822
 20
175.6322560272566
 10
696.8486770721987
 20
175.1717315595078
 10
696.8916324724153
 20
174.7256168510494
 10
696.934587872632
 20
174.294249262028
 10
696.9775432728487
 20
173.8779661525901
 10
697.0204986730652
 20
173.4771048828824
 10
697.0634540732817
 20
173.0920024313812
 10
697.1064094734985
 20
172.7229558273732
 10
697.1493648737152
 20
172.3701876578949
 10
697.1923202739318
 20
172.0339123802164
 10
697.2352756741483
 20
171.7143444516078
 10
697.278231074365
 20
171.4116983293393
 10
697.3211864745816
 20
171.1261884706809
 10
697.3641418747982
 20
170.8580293329027
 10
697.4070972750147
 20
170.6074353732749
 10
697.4500526752314
 20
170.3746210490676
 10
697.493008075448
 20
170.1598008175509
 10
697.5359634756645
 20
169.9631826382594
 10
697.5789188758812
 20
169.7848948962957
 10
697.6218742760979
 20
169.6250126534792
 10
697.6648296763144
 20
169.4836099893177
 10
697.707785076531
 20
169.3607609833191
 10
697.7507404767476
 20
169.2565397149913
 10
697.7936958769643
 20
169.1710202638422
 10
697.8366512771811
 20
169.1042767093795
 10
697.8796066773975
 20
169.0563831311113
 10
697.9225620776143
 20
169.0274136085454
 10
697.9655174778301
 20
169.0174422196555
  0
LWPOLYLINE
  5
A1
330
1F
100
AcDbEntity
  8
0
  6
CONTINUOUS
 62
     7
100
AcDbPolyline
 90
      105
 70
     0
 43
0.0
 10
673.4985037753394
 20
219.5781344888042
 10
673.5414623079432
 20
219.3389204157275
 10
673.5844208405471
 20
219.0820429515784
 10
673.6273793731507
 20
218.8076933898122
 10
673.6703379057545
 20
218.5160630238842
 10
673.7132964383584
 20
218.2073431472498
 10
673.7562549709622
 20
217.8817250533643
 10
673.7992135035659
 20
217.5394000356831
 10
673.8421720361697
 20
217.1805758771673
 10
673.8851305687735
 20
216.805544065453
 10
673.9280891013774
 20
216.4146225837363
 10
673.971047633981
 20
216.0081294256804
 10
674.0140061665849
 20
215.5863825849482
 10
674.0569646991886
 20
215.1497000552029
 10
674.0999232317926
 20
214.6983998301075
 10
674.1428817643964
 20
214.232799903325
 10
674.185840297
 20
213.7532182685185
 10
674.2287988296039
 20
213.2599729193508
 10
674.2717573622076
 20
212.7533823449039
 10
674.3147158948115
 20
212.2338007265213
 10
674.3576744274152
 20
211.701641303307
 10
674.400632960019
 20
211.1573228576628
 10
674.4435914926228
 20
210.6012641719903
 10
674.4865500252266
 20
210.0338840286911
 10
674.5295085578304
 20
209.4556012101669
 10
674.5724670904342
 20
208.8668344988193
 10
674.6154256230379
 20
208.26800267705
 10
674.6583841556419
 20
207.6595245272607
 10
674.7013426882456
 20
207.041818831853
 10
674.7443012208495
 20
206.415308136431
 10
674.7872597534532
 20
205.7804542384099
 10
674.8302182860568
 20
205.1377422758763
 10
674.8731768186607
 20
204.4876576958085
 10
674.9161353512646
 20
203.830685945185
 10
674.9590938838681
 20
203.1673124709839
 10
675.0020524164721
 20
202.4980227201837
 10
675.0450109490758
 20
201.8233021397626
 10
675.0879694816797
 20
201.143636176699
 10
675.1309280142834
 20
200.4595102779713
 10
675.1738865468872
 20
199.7714098933484
 10
675.216845079491
 20
199.0798262348839
 10
675.2598036120947
 20
198.3852683985989
 10
675.3027621446986
 20
197.6882489397748
 10
675.3457206773023
 20
196.9892804136929
 10
675.3886792099061
 20
196.2888753756344
 10
675.43163774251
 20
195.5875463808807
 10
675.4745962751136
 20
194.885805984713
 10
675.5175548077175
 20
194.1841667424128
 10
675.5605133403213
 20
193.4831412092612
 10
675.603471872925
 20
192.7832419405396
 10
675.6464304055288
 20
192.0849812325902
 10
675.6893889381327
 20
191.3888646060777
 10
675.7323474707363
 20
190.6953903164163
 10
675.7753060033401
 20
190.0050562620171
 10
675.818264535944
 20
189.3183603412916
 10
675.8612230685478
 20
188.6358004526512
 10
675.9041816011517
 20
187.9578744945071
 10
675.9471401337553
 20
187.2850803652707
 10
675.9900986663591
 20
186.6179159633534
 10
676.033057198963
 20
185.9568791871664
 10
676.0760157315667
 20
185.3024679351211
 10
676.1189742641704
 20
184.6551742230818
 10
676.1619327967743
 20
184.0154542363213
 10
676.2048913293781
 20
183.3837506700386
 10
676.2478498619819
 20
182.7605061949058
 10
676.2908083945856
 20
182.1461634815953
 10
676.3337669271895
 20
181.5411652007791
 10
676.3767254597932
 20
180.9459540231297
 10
676.4196839923969
 20
180.3609726193191
 10
676.4626425250008
 20
179.7866636600195
 10
676.5056010576046
 20
179.2234698159033
 10
676.5485595902085
 20
178.671833521412
 10
676.5915181228122
 20
178.1321684745802
 10
676.634476655416
 20
177.6048324808523
 10
676.6774351880199
 20
177.090176912482
 10
676.7203937206234
 20
176.5885531417232
 10
676.7633522532274
 20
176.1003125408297
 10
676.8063107858312
 20
175.6258064820553
 10
676.849269318435
 20
175.1653863376538
 10
676.8922278510388
 20
174.719403479879
 10
676.9351863836425
 20
174.2882092809847
 10
676.9781449162463
 20
173.8721551132247
 10
677.0211034488501
 20
173.4715871686313
 10
677.064061981454
 20
173.0867845850992
 10
677.1070205140577
 20
172.7179797567935
 10
677.1499790466614
 20
172.3654041262519
 10
677.1929375792653
 20
172.0292891360117
 10
677.2358961118691
 20
171.7098662286105
 10
677.2788546444729
 20
171.4073668465858
 10
677.3218131770767
 20
171.1220224324751
 10
677.3647717096806
 20
170.8540644288158
 10
677.4077302422842
 20
170.6037242781455
 10
677.4506887748879
 20
170.3712334226106
 10
677.4936473074919
 20
170.1567983473561
 10
677.5366058400956
 20
169.960533102019
 10
677.5795643726995
 20
169.7825303405033
 10
677.6225229053032
 20
169.6228827167131
 10
677.6654814379069
 20
169.4816828845524
 10
677.7084399705108
 20
169.3590234979251
 10
677.7513985031145
 20
169.2549972107353
 10
677.7943570357183
 20
169.1696966768871
 10
677.8373155683222
 20
169.1032145502843
 10
677.8802741009259
 20
169.0556434848311
 10
677.9232326335299
 20
169.0270744067197
 10
677.9661911661337
 20
169.0175362338666
  0
LWPOLYLINE
  5
A2
330
1F
100
AcDbEntity
  8
0
  6
CONTINUOUS
 62
     7
100
AcDbPolyline
 90
        3
 70
     0
 43
0.0
 10
708.1387796353683
 20
171.1712745087633
 10
708.2069962984615
 20
171.0770111284088
 10
708.3191894094188
 20
171.0173716407136
  0
LWPOLYLINE
  5
A3
330
1F
100
AcDbEntity
  8
0
  6
CONTINUOUS
 62
     7
100
AcDbPolyline
 90
      105
 70
     0
 43
0.0
 10
663.4983420636155
 20
219.5789414137693
 10
663.5413019014885
 20
219.3398230099613
 10
663.5842617393618
 20
219.0830441235079
 10
663.6272215772346
 20
218.8087873064045
 10
663.6701814151078
 20
218.5172351106467
 10
663.7131412529809
 20
218.20857008823
 10
663.7561010908539
 20
217.8829747911501
 10
663.799060928727
 20
217.5406362994474
 10
663.8420207666001
 20
217.1818104073101
 10
663.8849806044733
 20
216.8068063011576
 10
663.9279404423464
 20
216.4159345697971
 10
663.9709002802194
 20
216.0095058020363
 10
664.0138601180927
 20
215.5878305866828
 10
664.0568199559657
 20
215.1512195125439
 10
664.0997797938387
 20
214.6999831684273
 10
664.1427396317117
 20
214.2344321431404
 10
664.1856994695848
 20
213.7548770254908
 10
664.228659307458
 20
213.2616284042859
 10
664.271619145331
 20
212.7550132246074
 10
664.3145789832041
 20
212.2354268940297
 10
664.3575388210772
 20
211.7032827300227
 10
664.4004986589504
 20
211.1589940501158
 10
664.4434584968234
 20
210.6029741718382
 10
664.4864183346964
 20
210.0356364127193
 10
664.5293781725695
 20
209.4573940902885
 10
664.5723380104426
 20
208.8686605220751
 10
664.6152978483157
 20
208.2698490256083
 10
664.6582576861887
 20
207.6613729184176
 10
664.7012175240619
 20
207.0436461166915
 10
664.7441773619349
 20
206.4171099481557
 10
664.7871371998081
 20
205.7822439475424
 10
664.830097037681
 20
205.1395304822418
 10
664.8730568755542
 20
204.4894519196441
 10
664.9160167134271
 20
203.8324906271393
 10
664.9589765513003
 20
203.1691289721175
 10
665.0019363891734
 20
202.4998493219689
 10
665.0448962270465
 20
201.8251340440836
 10
665.0878560649196
 20
201.1454655058517
 10
665.1308159027926
 20
200.4613260746633
 10
665.1737757406657
 20
199.7732003089176
 10
665.2167355785388
 20
199.0815911091028
 10
665.2596954164119
 20
198.3870105200667
 10
665.3026552542851
 20
197.6899706537242
 10
665.3456150921583
 20
196.9909836219905
 10
665.3885749300312
 20
196.2905615367806
 10
665.4315347679043
 20
195.5892165100097
 10
665.4744946057774
 20
194.8874606535928
 10
665.5174544436504
 20
194.1858060794449
 10
665.5604142815234
 20
193.4847648994811
 10
665.6033741193967
 20
192.7848492188559
 10
665.6463339572698
 20
192.0865681307958
 10
665.6892937951428
 20
191.3904229887362
 10
665.732253633016
 20
190.6969139200714
 10
665.7752134708891
 20
190.0065410521959
 10
665.8181733087621
 20
189.3198045125042
 10
665.8611331466353
 20
188.6372044283907
 10
665.9040929845081
 20
187.9592409272498
 10
665.9470528223814
 20
187.2864141364762
 10
665.9900126602545
 20
186.6192241834641
 10
666.0329724981275
 20
185.9581711956081
 10
666.0759323360006
 20
185.3037539272586
 10
666.1188921738736
 20
184.6564446128628
 10
666.1618520117466
 20
184.016691506352
 10
666.2048118496198
 20
183.3849419981037
 10
666.2477716874929
 20
182.7616434784956
 10
666.290731525366
 20
182.1472433379057
 10
666.3336913632392
 20
181.5421889667114
 10
666.3766512011122
 20
180.9469277552905
 10
666.4196110389853
 20
180.3619070940208
 10
666.4625708768583
 20
179.78757437328
 10
666.5055307147314
 20
179.2243769834457
 10
666.5484905526046
 20
178.6727504735315
 10
666.5914503904777
 20
178.1330713891074
 10
666.6344102283507
 20
177.6056979340585
 10
666.6773700662238
 20
177.090988306485
 10
666.7203299040968
 20
176.5893007044869
 10
666.7632897419699
 20
176.1009933261645
 10
666.8062495798431
 20
175.6264243696178
 10
666.8492094177162
 20
175.1659520329468
 10
666.8921692555892
 20
174.7199345142517
 10
666.9351290934624
 20
174.2887300116327
 10
666.9780889313354
 20
173.872696104081
 10
667.0210487692085
 20
173.472147940122
 10
667.0640086070816
 20
173.087331668193
 10
667.1069684449546
 20
172.7184871066196
 10
667.1499282828278
 20
172.3658540737277
 10
667.1928881207008
 20
172.029672387843
 10
667.2358479585738
 20
171.7101818672913
 10
667.278807796447
 20
171.4076223303983
 10
667.32176763432
 20
171.1222335954897
 10
667.3647274721932
 20
170.8542554808914
 10
667.4076873100663
 20
170.6039278049291
 10
667.4506471479393
 20
170.3714823710855
 10
667.4936069858123
 20
170.1570693414317
 10
667.5365668236855
 20
169.9607912102452
 10
667.5795266615585
 20
169.7827498746653
 10
667.6224864994317
 20
169.6230472318318
 10
667.6654463373048
 20
169.4817851788841
 10
667.7084061751779
 20
169.3590656129619
 10
667.7513660130509
 20
169.2549904312047
 10
667.7943258509241
 20
169.1696615307521
 10
667.837285688797
 20
169.1031808087436
 10
667.8802455266701
 20
169.0556501431806
 10
667.9232053645433
 20
169.0271397311787
 10
667.9661652024162
 20
169.0176234742743
  0
LWPOLYLINE
  5
A4
330
1F
100
AcDbEntity
  8
0
  6
CONTINUOUS
 62
     7
100
AcDbPolyline
 90
      105
 70
     0
 43
0.0
 10
653.4984002846488
 20
219.5785932808769
 10
653.5413607600779
 20
219.3394879349524
 10
653.5843212355069
 20
219.0827205122789
 10
653.6272817109364
 20
218.808464752345
 10
653.6702421863653
 20
218.5168943946386
 10
653.7132026617942
 20
218.2081831786482
 10
653.7561631372233
 20
217.8825053021371
 10
653.7991236126524
 20
217.540078018429
 10
653.8420840880815
 20
217.1811962467325
 10
653.8850445635105
 20
216.8061630511344
 10
653.9280050389397
 20
216.4152814957218
 10
653.9709655143689
 20
216.0088546445817
 10
654.0139259897979
 20
215.587185561801
 10
654.0568864652269
 20
215.1505773114668
 10
654.0998469406561
 20
214.6993329576661
 10
654.1428074160851
 20
214.2337555644857
 10
654.1857678915144
 20
213.7541481960129
 10
654.2287283669433
 20
213.2608190587914
 10
654.2716888423724
 20
212.754136369404
 10
654.3146493178016
 20
212.2345071695914
 10
654.3576097932307
 20
211.7023391530953
 10
654.4005702686597
 20
211.1580400136571
 10
654.443530744089
 20
210.6020174450185
 10
654.486491219518
 20
210.0346791409212
 10
654.5294516949472
 20
209.4564327951068
 10
654.5724121703762
 20
208.8676861013169
 10
654.6153726458053
 20
208.2688467532931
 10
654.6583331212344
 20
207.6603224466713
 10
654.7012935966636
 20
207.0425348127622
 10
654.7442540720926
 20
206.4159528848577
 10
654.7872145475217
 20
205.7810557657431
 10
654.8301750229508
 20
205.1383225582036
 10
654.8731354983797
 20
204.4882323650244
 10
654.916095973809
 20
203.8312642889908
 10
654.959056449238
 20
203.167897432888
 10
655.002016924667
 20
202.4986108995012
 10
655.0449774000962
 20
201.8238837916159
 10
655.0879378755252
 20
201.144195212017
 10
655.1308983509543
 20
200.4600247318034
 10
655.1738588263833
 20
199.7718662513727
 10
655.2168193018125
 20
199.0802303098062
 10
655.2597797772415
 20
198.3856283796106
 10
655.3027402526707
 20
197.6885719332928
 10
655.3457007280997
 20
196.9895724433597
 10
655.388661203529
 20
196.2891413823181
 10
655.431621678958
 20
195.5877902226748
 10
655.4745821543871
 20
194.8860304369368
 10
655.5175426298163
 20
194.1843734976107
 10
655.5605031052453
 20
193.4833308772036
 10
655.6034635806743
 20
192.7834131569117
 10
655.6464240561036
 20
192.0851249555027
 10
655.6893845315326
 20
191.3889684457012
 10
655.7323450069616
 20
190.695445792792
 10
655.7753054823909
 20
190.0050591620595
 10
655.81826595782
 20
189.3183107187883
 10
655.861226433249
 20
188.6357026282631
 10
655.9041869086782
 20
187.9577370557682
 10
655.9471473841073
 20
187.2849161665885
 10
655.9901078595365
 20
186.6177421260082
 10
656.0330683349654
 20
185.9567170102561
 10
656.0760288103945
 20
185.3023280537851
 10
656.1189892858237
 20
184.655031169542
 10
656.1619497612528
 20
184.0152782970368
 10
656.2049102366819
 20
183.3835213757799
 10
656.2478707121107
 20
182.7602123452815
 10
656.2908311875399
 20
182.1458031450519
 10
656.3337916629691
 20
181.5407457146013
 10
656.376752138398
 20
180.9454919934399
 10
656.4197126138272
 20
180.3604939210781
 10
656.4626730892562
 20
179.786203437026
 10
656.5056335646852
 20
179.2230692115828
 10
656.5485940401145
 20
178.671492610575
 10
656.5915545155435
 20
178.1318393922912
 10
656.6345149909727
 20
177.6044744445239
 10
656.6774754664018
 20
177.0897626550655
 10
656.7204359418308
 20
176.5880689117086
 10
656.7633964172601
 20
176.0997581022456
 10
656.8063568926891
 20
175.6251951144691
 10
656.8493173681182
 20
175.1647448361716
 10
656.8922778435474
 20
174.7187721551455
 10
656.9352383189765
 20
174.2876419591834
 10
656.9781987944056
 20
173.8716998410504
 10
657.0211592698347
 20
173.4712135382819
 10
657.064119745264
 20
173.086431154352
 10
657.1070802206929
 20
172.7176007927341
 10
657.150040696122
 20
172.364970556902
 10
657.1930011715511
 20
172.0287885503292
 10
657.2359616469802
 20
171.7093028764892
 10
657.2789221224092
 20
171.4067616388556
 10
657.3218825978383
 20
171.1214129409021
 10
657.3648430732675
 20
170.8535048861022
 10
657.4078035486965
 20
170.6032842680099
 10
657.4507640241256
 20
170.3709423681628
 10
657.4937244995544
 20
170.1565955829205
 10
657.5366849749837
 20
169.9603550149166
 10
657.5796454504127
 20
169.7823317667852
 10
657.6226059258419
 20
169.6226369411602
 10
657.665566401271
 20
169.4813816406755
 10
657.7085268767
 20
169.3586769679649
 10
657.7514873521292
 20
169.2546340256625
 10
657.7944478275583
 20
169.1693639164022
 10
657.8374083029873
 20
169.1029777428177
 10
657.8803687784164
 20
169.0555753090887
 10
657.9233292538455
 20
169.0271656528473
 10
657.9662897292743
 20
169.0177141028018
  0
LWPOLYLINE
  5
A5
330
1F
100
AcDbEntity
  8
0
  6
CONTINUOUS
 62
     7
100
AcDbPolyline
 90
      105
 70
     0
 43
0.0
 10
743.4986028829068
 20
219.5778565535196
 10
743.5415708027808
 20
219.3386997323745
 10
743.5845387226549
 20
219.0817204327225
 10
743.627506642529
 20
218.8071289026047
 10
743.6704745624032
 20
218.5151757058669
 10
743.7134424822773
 20
218.2061116451232
 10
743.7564104021515
 20
217.8801875229874
 10
743.7993783220256
 20
217.5376541420738
 10
743.8423462418997
 20
217.1787623049962
 10
743.8853141617739
 20
216.8037628143688
 10
743.9282820816479
 20
216.4129064728055
 10
743.9712500015221
 20
216.0064440829204
 10
744.014217921396
 20
215.5846265453394
 10
744.0571858412702
 20
215.1477355522595
 10
744.1001537611444
 20
214.6961272210013
 10
744.1431216810183
 20
214.2301686906544
 10
744.1860896008925
 20
213.7502271003088
 10
744.2290575207667
 20
213.2566695890541
 10
744.2720254406407
 20
212.74986329598
 10
744.3149933605149
 20
212.2301753601762
 10
744.3579612803891
 20
211.6979729207326
 10
744.4009292002631
 20
211.1536231167388
 10
744.4438971201373
 20
210.5974930872844
 10
744.4868650400114
 20
210.029952528677
 10
744.5298329598855
 20
209.4514158045085
 10
744.5728008797596
 20
208.8623352643479
 10
744.6157687996338
 20
208.2631644677142
 10
744.6587367195078
 20
207.6543569741265
 10
744.7017046393819
 20
207.0363663431037
 10
744.744672559256
 20
206.4096461341651
 10
744.78764047913
 20
205.7746499068295
 10
744.8306083990042
 20
205.1318312206161
 10
744.8735763188783
 20
204.4816436350438
 10
744.9165442387523
 20
203.8245407096317
 10
744.9595121586266
 20
203.1609831269163
 10
745.0024800785005
 20
202.4914644352877
 10
745.0454479983747
 20
201.8164876558601
 10
745.0884159182488
 20
201.1365558106329
 10
745.1313838381228
 20
200.452171921606
 10
745.1743517579971
 20
199.7638390107792
 10
745.217319677871
 20
199.0720601001522
 10
745.2602875977452
 20
198.3773382117246
 10
745.3032555176194
 20
197.6801763674963
 10
745.3462234374934
 20
196.981077589467
 10
745.3891913573676
 20
196.2805449565693
 10
745.4321592772417
 20
195.579084740219
 10
745.4751271971157
 20
194.8772080357791
 10
745.5180951169898
 20
194.1754263393692
 10
745.5610630368637
 20
193.4742511471088
 10
745.604030956738
 20
192.7741939551178
 10
745.6469988766121
 20
192.0757662595156
 10
745.6899667964861
 20
191.3794795564219
 10
745.7329347163604
 20
190.6858453419564
 10
745.7759026362344
 20
189.9953751122385
 10
745.8188705561084
 20
189.308580363388
 10
745.8618384759827
 20
188.6259704093509
 10
745.9048063958568
 20
187.9480344744808
 10
745.9477743157307
 20
187.275250955135
 10
745.990742235605
 20
186.6080981426853
 10
746.0337101554792
 20
185.9470543285029
 10
746.0766780753531
 20
185.2925978039596
 10
746.1196459952273
 20
184.645206860427
 10
746.1626139151016
 20
184.0053597892764
 10
746.2055818349756
 20
183.3735348818796
 10
746.2485497548498
 20
182.750210429608
 10
746.2915176747239
 20
182.1358647010543
 10
746.334485594598
 20
181.5309589863246
 10
746.3774535144721
 20
180.9359074932897
 10
746.4204214343462
 20
180.3511163353684
 10
746.4633893542205
 20
179.7769916259797
 10
746.5063572740944
 20
179.2139394785425
 10
746.5493251939686
 20
178.6623660064757
 10
746.5922931138427
 20
178.122677323198
 10
746.6352610337169
 20
177.5952795421286
 10
746.678228953591
 20
177.0805787766861
 10
746.721196873465
 20
176.5789811402896
 10
746.7641647933391
 20
176.0908903619262
 10
746.8071327132133
 20
175.6166588041997
 10
746.8501006330873
 20
175.1565893230631
 10
746.8930685529612
 20
174.7109827621429
 10
746.9360364728353
 20
174.280139965066
 10
746.9790043927094
 20
173.8643617754588
 10
747.0219723125834
 20
173.463949036948
 10
747.0649402324575
 20
173.07920259316
 10
747.1079081523317
 20
172.7104232877217
 10
747.1508760722056
 20
172.3579119642594
 10
747.1938439920798
 20
172.0219694663999
 10
747.2368119119539
 20
171.7028806284373
 10
747.2797798318281
 20
171.4008448880206
 10
747.3227477517021
 20
171.1160333237804
 10
747.3657156715764
 20
170.8486169955395
 10
747.4086835914505
 20
170.5987669631206
 10
747.4516515113245
 20
170.3666542863465
 10
747.4946194311988
 20
170.1524500250399
 10
747.5375873510727
 20
169.9563252390236
 10
747.5805552709471
 20
169.7784509881204
 10
747.6235231908211
 20
169.618998332153
 10
747.6664911106952
 20
169.4781377161614
 10
747.7094590305695
 20
169.3559900260438
 10
747.7524269504437
 20
169.2525909935496
 10
747.7953948703175
 20
169.1679679560194
 10
747.8383627901918
 20
169.1021482507942
 10
747.8813307100659
 20
169.0551592152148
 10
747.9242986299399
 20
169.0270281866219
 10
747.967266549814
 20
169.0177825023563
  0
LWPOLYLINE
  5
A6
330
1F
100
AcDbEntity
  8
0
  6
CONTINUOUS
 62
     7
100
AcDbPolyline
 90
      105
 70
     0
 43
0.0
 10
-599.466671973175
 20
221.0168807464412
 10
-599.5096319003948
 20
221.0074531460173
 10
-599.5525918276145
 20
220.9791205053642
 10
-599.5955517548341
 20
220.9318660737436
 10
-599.6385116820541
 20
220.8656731004174
 10
-599.6814716092739
 20
220.7805429310663
 10
-599.7244315364934
 20
220.6765727526604
 10
-599.7673914637132
 20
220.5538913611589
 10
-599.810351390933
 20
220.4126275720965
 10
-599.8533113181526
 20
220.2529102010078
 10
-599.8962712453723
 20
220.0748680634277
 10
-599.9392311725921
 20
219.8786299748907
 10
-599.9821910998119
 20
219.6643247509316
 10
-600.0251510270315
 20
219.4320812070849
 10
-600.0681109542512
 20
219.1820281588853
 10
-600.1110708814709
 20
218.9142950018457
 10
-600.1540308086907
 20
218.6290577406442
 10
-600.1969907359103
 20
218.3265723842084
 10
-600.23995066313
 20
218.0071028179114
 10
-600.2829105903497
 20
217.6709129271258
 10
-600.3258705175695
 20
217.3182665972243
 10
-600.3688304447892
 20
216.9494277135797
 10
-600.411790372009
 20
216.5646601615648
 10
-600.4547502992286
 20
216.1642278265523
 10
-600.4977102264485
 20
215.748394593915
 10
-600.5406701536681
 20
215.3174243490256
 10
-600.5836300808879
 20
214.8715870289559
 10
-600.6265900081078
 20
214.4112187224331
 10
-600.6695499353273
 20
213.9366962837403
 10
-600.7125098625471
 20
213.4483971655917
 10
-600.7554697897667
 20
212.9466988207014
 10
-600.7984297169867
 20
212.4319787017835
 10
-600.8413896442064
 20
211.9046142615523
 10
-600.8843495714261
 20
211.3649829527218
 10
-600.9273094986457
 20
210.8134622280063
 10
-600.9702694258655
 20
210.2504295401199
 10
-601.0132293530853
 20
209.6762623469797
 10
-601.0561892803049
 20
209.0913550998574
 10
-601.0991492075246
 20
208.4961570407558
 10
-601.1421091347444
 20
207.8911284332861
 10
-601.185069061964
 20
207.2767295410599
 10
-601.2280289891838
 20
206.6534206276885
 10
-601.2709889164034
 20
206.0216619567834
 10
-601.3139488436232
 20
205.381913791956
 10
-601.3569087708428
 20
204.7346363968177
 10
-601.3998686980626
 20
204.08029003498
 10
-601.4428286252823
 20
203.4193349700542
 10
-601.4857885525021
 20
202.7522322039294
 10
-601.5287484797218
 20
202.0794633185055
 10
-601.5717084069415
 20
201.4015326995476
 10
-601.6146683341613
 20
200.7189459173381
 10
-601.6576282613809
 20
200.0322085421592
 10
-601.7005881886007
 20
199.3418261442932
 10
-601.7435481158204
 20
198.6483042940223
 10
-601.78650804304
 20
197.9521485616289
 10
-601.8294679702598
 20
197.253864517395
 10
-601.8724278974796
 20
196.5539577316031
 10
-601.9153878246995
 20
195.8529337745355
 10
-601.9583477519191
 20
195.1512986359257
 10
-602.0013076791389
 20
194.4495609594419
 10
-602.0442676063585
 20
193.7482304236788
 10
-602.0872275335782
 20
193.047816709584
 10
-602.1301874607981
 20
192.3488294981047
 10
-602.1731473880177
 20
191.6517784701885
 10
-602.2161073152374
 20
190.9571733067829
 10
-602.2590672424571
 20
190.2655236888351
 10
-602.302027169677
 20
189.5773392972929
 10
-602.3449870968966
 20
188.8931298131035
 10
-602.3879470241164
 20
188.2134048335862
 10
-602.4309069513359
 20
187.5386624691581
 10
-602.4738668785559
 20
186.8693777445421
 10
-602.5168268057755
 20
186.2060229203908
 10
-602.5597867329953
 20
185.5490702573568
 10
-602.6027466602151
 20
184.8989920160925
 10
-602.6457065874347
 20
184.2562604572508
 10
-602.6886665146545
 20
183.6213478414841
 10
-602.7316264418743
 20
182.994726429445
 10
-602.7745863690941
 20
182.3768684817861
 10
-602.8175462963137
 20
181.7682462591601
 10
-602.8605062235334
 20
181.1693289186235
 10
-602.9034661507532
 20
180.5805436465842
 10
-602.9464260779729
 20
180.0022874632883
 10
-602.9893860051926
 20
179.4349567272973
 10
-603.0323459324125
 20
178.8789477971729
 10
-603.075305859632
 20
178.3346570314768
 10
-603.1182657868517
 20
177.8024807887705
 10
-603.1612257140715
 20
177.2828154276156
 10
-603.2041856412911
 20
176.776057306574
 10
-603.247145568511
 20
176.2826027842071
 10
-603.2901054957306
 20
175.8028482190221
 10
-603.3330654229504
 20
175.3371711426898
 10
-603.37602535017
 20
174.885876976645
 10
-603.4189852773898
 20
174.4492538803858
 10
-603.4619452046096
 20
174.0275900134103
 10
-603.5049051318294
 20
173.6211735352167
 10
-603.5478650590491
 20
173.2302926053029
 10
-603.5908249862689
 20
172.855235383167
 10
-603.6337849134886
 20
172.4962900283073
 10
-603.6767448407082
 20
172.1537447002216
 10
-603.7197047679279
 20
171.8278875584082
 10
-603.7626646951477
 20
171.5190053269131
 10
-603.8056246223674
 20
171.2273298739496
 10
-603.8485845495871
 20
170.9530223513375
 10
-603.8915444768068
 20
170.6962392390564
 10
-603.9345044040267
 20
170.457137017085
210
0.0
220
0.0
230
-1.0
  0
LWPOLYLINE
  5
A7
330
1F
100
AcDbEntity
  8
0
  6
CONTINUOUS
 62
     7
100
AcDbPolyline
 90
       33
 70
     0
 43
0.0
 10
-622.9665522893116
 20
221.016842143858
 10
-622.9831811335514
 20
221.0154228360727
 10
-622.9998099777912
 20
221.0111751382884
 10
-623.0164388220311
 20
221.0040991698294
 10
-623.0330676662707
 20
220.99419505002
 10
-623.0496965105106
 20
220.9814628981846
 10
-623.0663253547503
 20
220.9659028336473
 10
-623.0829541989904
 20
220.9475149757324
 10
-623.0995830432299
 20
220.9262994437644
 10
-623.1162118874698
 20
220.9022563570674
 10
-623.1328407317095
 20
220.8753858349658
 10
-623.1494695759494
 20
220.8456879967839
 10
-623.1660984201892
 20
220.8131629618458
 10
-623.1827272644289
 20
220.7778108494761
 10
-623.1993561086687
 20
220.7396317789988
 10
-623.2159849529086
 20
220.6986269229288
 10
-623.2326137971482
 20
220.654802989397
 10
-623.249242641388
 20
220.6081684988754
 10
-623.2658714856278
 20
220.5587319728777
 10
-623.2825003298676
 20
220.5065019329171
 10
-623.2991291741073
 20
220.4514869005071
 10
-623.3157580183473
 20
220.3936953971612
 10
-623.332386862587
 20
220.3331359443927
 10
-623.3490157068269
 20
220.2698170637152
 10
-623.3656445510666
 20
220.2037472766421
 10
-623.3822733953064
 20
220.1349351046869
 10
-623.3989022395461
 20
220.0633890693628
 10
-623.4155310837859
 20
219.9891176921835
 10
-623.4321599280258
 20
219.9121294946624
 10
-623.4487887722655
 20
219.8324329983128
 10
-623.4654176165054
 20
219.7500367246483
 10
-623.4820464607451
 20
219.6649491951822
 10
-623.4986753049849
 20
219.5771789314281
210
0.0
220
0.0
230
-1.0
  0
LWPOLYLINE
  5
A8
330
1F
100
AcDbEntity
  8
0
  6
CONTINUOUS
 62
     7
100
AcDbPolyline
 90
       97
 70
     0
 43
0.0
 10
703.4981915019517
 20
219.5800516571526
 10
703.5447276630972
 20
219.3202074438066
 10
703.5912638242427
 20
219.0395970179931
 10
703.637799985388
 20
218.7384964527337
 10
703.6843361465334
 20
218.41718182105
 10
703.7308723076789
 20
218.0759291959637
 10
703.7774084688242
 20
217.7150146504961
 10
703.8239446299698
 20
217.3347142576691
 10
703.8704807911153
 20
216.935304090504
 10
703.9170169522606
 20
216.5170652206286
 10
703.9635531134061
 20
216.0803605954837
 10
704.0100892745514
 20
215.6256200211682
 10
704.0566254356969
 20
215.1532752602482
 10
704.1031615968423
 20
214.6637580752892
 10
704.149697757988
 20
214.157500228857
 10
704.1962339191333
 20
213.6349334835175
 10
704.2427700802788
 20
213.0964896018363
 10
704.2893062414244
 20
212.5426003463792
 10
704.3358424025698
 20
211.9736974797121
 10
704.3823785637152
 20
211.3902223493893
 10
704.4289147248608
 20
210.7926915151181
 10
704.4754508860062
 20
210.1816570375499
 10
704.5219870471515
 20
209.557671186954
 10
704.568523208297
 20
208.9212862335997
 10
704.6150593694425
 20
208.2730544477564
 10
704.6615955305879
 20
207.6135280996935
 10
704.7081316917332
 20
206.9432594596802
 10
704.7546678528788
 20
206.2628007979858
 10
704.8012040140242
 20
205.5727043848796
 10
704.8477401751697
 20
204.873534531539
 10
704.8942763363151
 20
204.1659058707356
 10
704.9408124974605
 20
203.4504461790849
 10
704.9873486586059
 20
202.7277832332419
 10
705.0338848197515
 20
201.998544809861
 10
705.0804209808969
 20
201.263358685597
 10
705.1269571420423
 20
200.5228526371045
 10
705.1734933031878
 20
199.7776544410383
 10
705.2200294643332
 20
199.0283918740531
 10
705.2665656254786
 20
198.275692740344
 10
705.313101786624
 20
197.5201915618421
 10
705.3596379477697
 20
196.7625383052585
 10
705.406174108915
 20
196.0033850997352
 10
705.4527102700606
 20
195.2433840744145
 10
705.499246431206
 20
194.4831873584383
 10
705.5457825923514
 20
193.723447080949
 10
705.592318753497
 20
192.9648153710885
 10
705.6388549146425
 20
192.2079443579991
 10
705.6853910757877
 20
191.4534861708227
 10
705.7319272369334
 20
190.7020926469459
 10
705.7784633980788
 20
189.9544038157059
 10
705.8249995592242
 20
189.2110440921685
 10
705.8715357203696
 20
188.4726368197216
 10
705.9180718815152
 20
187.7398053417532
 10
705.9646080426605
 20
187.0131730016511
 10
706.0111442038059
 20
186.2933631428033
 10
706.0576803649512
 20
185.5809991085977
 10
706.1042165260968
 20
184.8767042424222
 10
706.1507526872422
 20
184.1811018876647
 10
706.1972888483875
 20
183.4948125631926
 10
706.243825009533
 20
182.8184140478666
 10
706.2903611706785
 20
182.1524509736246
 10
706.3368973318239
 20
181.4974671054435
 10
706.3834334929694
 20
180.8540062083006
 10
706.429969654115
 20
180.2226120471729
 10
706.4765058152605
 20
179.6038283870375
 10
706.5230419764058
 20
178.9981989928715
 10
706.5695781375515
 20
178.406267629652
 10
706.6161142986967
 20
177.8285780623561
 10
706.6626504598422
 20
177.2656634406207
 10
706.7091866209878
 20
176.7179787366437
 10
706.7557227821333
 20
176.1859439911918
 10
706.8022589432788
 20
175.6699790825602
 10
706.8487951044243
 20
175.1705038890442
 10
706.8953312655698
 20
174.6879382889391
 10
706.9418674267152
 20
174.2227021605403
 10
706.9884035878606
 20
173.775215382143
 10
707.034939749006
 20
173.3458978320425
 10
707.0814759101514
 20
172.9351693885309
 10
707.1280120712968
 20
172.5434231804776
 10
707.1745482324422
 20
172.1709469406434
 10
707.2210843935876
 20
171.8180024471818
 10
707.2676205547331
 20
171.4848514782463
 10
707.3141567158785
 20
171.1717558119904
 10
707.3606928770239
 20
170.8789772265677
 10
707.4072290381692
 20
170.6067775001316
 10
707.4537651993148
 20
170.3554184108356
 10
707.5003013604602
 20
170.1251617368332
 10
707.5468375216055
 20
169.9162689834425
 10
707.593373682751
 20
169.7289499057341
 10
707.6399098438965
 20
169.5633016539557
 10
707.6864460050421
 20
169.4194065753277
 10
707.7329821661874
 20
169.2973470170702
 10
707.7795183273329
 20
169.1972053264034
 10
707.8260544884785
 20
169.1190638505475
 10
707.8725906496237
 20
169.0630049367227
 10
707.9191268107693
 20
169.0291109321491
 10
707.9656629719146
 20
169.0174641840471
  0
LWPOLYLINE
  5
A9
330
1F
100
AcDbEntity
  8
0
  6
CONTINUOUS
 62
     7
100
AcDbPolyline
 90
        3
 70
     0
 43
0.0
 10
658.1612810048872
 20
171.135465759311
 10
658.2295395865889
 20
171.0555806032306
 10
658.3191466465372
 20
171.0173716407234
  0
LWPOLYLINE
  5
AA
330
1F
100
AcDbEntity
  8
0
  6
CONTINUOUS
 62
     7
100
AcDbPolyline
 90
      105
 70
     0
 43
0.0
 10
643.498341326323
 20
219.5789007251974
 10
643.5413041489045
 20
219.3398473093426
 10
643.584266971486
 20
219.0831222634449
 10
643.6272297940677
 20
218.8088904749969
 10
643.6701926166492
 20
218.5173168314912
 10
643.7131554392306
 20
218.2085662204205
 10
643.756118261812
 20
217.8828224894803
 10
643.7990810843935
 20
217.5403562850665
 10
643.8420439069749
 20
217.1814630773248
 10
643.8850067295564
 20
216.8064383383758
 10
643.9279695521379
 20
216.4155775403396
 10
643.9709323747193
 20
216.0091761553366
 10
644.0138951973008
 20
215.5875296554871
 10
644.0568580198824
 20
215.1509335129114
 10
644.0998208424638
 20
214.6996831997298
 10
644.1427836650455
 20
214.2340741880627
 10
644.1857464876267
 20
213.7544026740822
 10
644.2287093102084
 20
213.2610050749749
 10
644.2716721327897
 20
212.7542783651637
 10
644.3146349553713
 20
212.2346245250779
 10
644.3575977779528
 20
211.7024455351472
 10
644.4005606005342
 20
211.1581433758008
 10
644.4435234231156
 20
210.6021200274685
 10
644.4864862456972
 20
210.0347774705796
 10
644.5294490682787
 20
209.4565176855636
 10
644.5724118908602
 20
208.86774265285
 10
644.6153747134417
 20
208.2688543528682
 10
644.6583375360232
 20
207.660259614813
 10
644.7013003586047
 20
207.0424098930412
 10
644.7442631811862
 20
206.4157806882715
 10
644.7872260037676
 20
205.7808477341766
 10
644.8301888263492
 20
205.1380867644289
 10
644.8731516489305
 20
204.4879735127008
 10
644.9161144715121
 20
203.830983712665
 10
644.9590772940935
 20
203.1675930979937
 10
645.0020401166751
 20
202.4982774023597
 10
645.0450029392566
 20
201.8235123594353
 10
645.087965761838
 20
201.1437737136253
 10
645.1309285844195
 20
200.4595454151604
 10
645.1738914070011
 20
199.7713342466437
 10
645.2168542295826
 20
199.0796509301982
 10
645.2598170521641
 20
198.3850061879469
 10
645.3027798747455
 20
197.6879107420128
 10
645.3457426973271
 20
196.9888753145191
 10
645.3887055199084
 20
196.2884106275886
 10
645.43166834249
 20
195.5870274033445
 10
645.4746311650715
 20
194.8852363639099
 10
645.517593987653
 20
194.1835482314077
 10
645.5605568102344
 20
193.4824735799627
 10
645.6035196328158
 20
192.7825197598306
 10
645.6464824553974
 20
192.0841909943811
 10
645.689445277979
 20
191.3879913783883
 10
645.7324081005603
 20
190.6944250066264
 10
645.7753709231418
 20
190.0039959738695
 10
645.8183337457233
 20
189.3172083748919
 10
645.8612965683047
 20
188.6345663044675
 10
645.9042593908862
 20
187.9565738573707
 10
645.9472222134676
 20
187.2837351283756
 10
645.9901850360492
 20
186.6165542122562
 10
646.0331478586306
 20
185.9555293910594
 10
646.0761106812121
 20
185.3011275902939
 10
646.1190735037936
 20
184.6538052093552
 10
646.1620363263751
 20
184.0140186398935
 10
646.2049991489565
 20
183.382224273559
 10
646.2479619715381
 20
182.758878502002
 10
646.2909247941195
 20
182.1444377168728
 10
646.3338876167011
 20
181.5393583098216
 10
646.3768504392824
 20
180.9440966724985
 10
646.419813261864
 20
180.3591091965541
 10
646.4627760844454
 20
179.7848519284642
 10
646.5057389070269
 20
179.2217519206316
 10
646.5487017296085
 20
178.6701857361968
 10
646.59166455219
 20
178.1305248749635
 10
646.6346273747713
 20
177.6031408367355
 10
646.6775901973529
 20
177.0884051213166
 10
646.7205530199344
 20
176.5866892285103
 10
646.763515842516
 20
176.0983646581205
 10
646.8064786650975
 20
175.6238029099508
 10
646.849441487679
 20
175.163375483805
 10
646.8924043102604
 20
174.7174538794867
 10
646.935367132842
 20
174.2864035831983
 10
646.9783299554233
 20
173.8705232570032
 10
647.0212927780051
 20
173.4700698712214
 10
647.0642556005865
 20
173.085299762434
 10
647.1072184231681
 20
172.7164692672226
 10
647.1501812457493
 20
172.3638347221683
 10
647.193144068331
 20
172.0276524638526
 10
647.2361068909124
 20
171.7081788288569
 10
647.2790697134939
 20
171.4056701537625
 10
647.3220325360753
 20
171.1203827751507
 10
647.3649953586568
 20
170.8525730223628
 10
647.4079581812383
 20
170.6024696040869
 10
647.45092100382
 20
170.3702111424609
 10
647.4938838264013
 20
170.1559179234544
 10
647.5368466489829
 20
169.9597102330373
 10
647.5798094715642
 20
169.7817083571794
 10
647.6227722941456
 20
169.6220325818505
 10
647.6657351167272
 20
169.4808031930204
 10
647.7086979393086
 20
169.3581404766589
 10
647.75166076189
 20
169.2541647187358
 10
647.7946235844715
 20
169.1689962052209
 10
647.8375864070531
 20
169.1027528941983
 10
647.8805492296345
 20
169.0554867898873
 10
647.9235120522161
 20
169.0271762071818
 10
647.9664748747978
 20
169.0177955800301
  0
LWPOLYLINE
  5
AB
330
1F
100
AcDbEntity
  8
0
  6
CONTINUOUS
 62
     7
100
AcDbPolyline
 90
       97
 70
     0
 43
0.0
 10
723.4988522135079
 20
219.5766016399978
 10
723.5453912950223
 20
219.3165100442911
 10
723.5919303765369
 20
219.0355837742275
 10
723.6384694580512
 20
218.7341204314538
 10
723.6850085395656
 20
218.4124176176166
 10
723.7315476210802
 20
218.0707729343626
 10
723.7780867025945
 20
217.7094839833384
 10
723.8246257841088
 20
217.3288483661906
 10
723.8711648656234
 20
216.9291636845659
 10
723.9177039471379
 20
216.510727540111
 10
723.9642430286522
 20
216.073838515742
 10
724.0107821101667
 20
215.6188519607427
 10
724.0573211916811
 20
215.1462100201055
 10
724.1038602731954
 20
214.6563621675022
 10
724.1503993547097
 20
214.1497578766039
 10
724.1969384362242
 20
213.6268466210823
 10
724.2434775177386
 20
213.0880778746089
 10
724.290016599253
 20
212.5339011108551
 10
724.3365556807674
 20
211.9647658034924
 10
724.3830947622818
 20
211.3811214261923
 10
724.4296338437962
 20
210.7834205276233
 10
724.4761729253107
 20
210.1721739174301
 10
724.522712006825
 20
209.5479444828536
 10
724.5692510883395
 20
208.9112969445735
 10
724.6157901698539
 20
208.2627960232699
 10
724.6623292513683
 20
207.6030064396223
 10
724.7088683328827
 20
206.9324929143109
 10
724.7554074143969
 20
206.2518201680153
 10
724.8019464959114
 20
205.5615529214154
 10
724.8484855774259
 20
204.8622558951911
 10
724.8950246589403
 20
204.1544986298647
 10
724.9415637404546
 20
203.4388929642077
 10
724.9881028219692
 20
202.7160726643872
 10
725.0346419034836
 20
201.986671682261
 10
725.0811809849978
 20
201.2513239696872
 10
725.1277200665124
 20
200.5106634785236
 10
725.1742591480267
 20
199.765324160628
 10
725.2207982295412
 20
199.0159399678584
 10
725.2673373110557
 20
198.2631448520727
 10
725.31387639257
 20
197.5075727651287
 10
725.3604154740847
 20
196.7498601865998
 10
725.406954555599
 20
195.9906552727196
 10
725.4534936371133
 20
195.2306095491219
 10
725.5000327186278
 20
194.4703745417631
 10
725.5465718001421
 20
193.7106017765993
 10
725.5931108816568
 20
192.951942779587
 10
725.639649963171
 20
192.1950490766824
 10
725.6861890446855
 20
191.440572193842
 10
725.7327281261998
 20
190.689163657022
 10
725.7792672077142
 20
189.9414749694418
 10
725.8258062892287
 20
189.1981485667938
 10
725.8723453707431
 20
188.4598040109809
 10
725.9188844522575
 20
187.7270573129664
 10
725.965423533772
 20
187.0005244837134
 10
726.0119626152865
 20
186.2808215341854
 10
726.0585016968007
 20
185.5685644753455
 10
726.1050407783152
 20
184.8643693181569
 10
726.1515798598296
 20
184.1688520735829
 10
726.198118941344
 20
183.4826287525868
 10
726.2446580228583
 20
182.8063146932226
 10
726.2911971043727
 20
182.1404919003134
 10
726.3377361858873
 20
181.4856943991737
 10
726.3842752674016
 20
180.8424524905939
 10
726.430814348916
 20
180.2112964753647
 10
726.4773534304305
 20
179.5927566542767
 10
726.5238925119448
 20
178.9873633281202
 10
726.5704315934593
 20
178.395646797686
 10
726.6169706749736
 20
177.8181373637646
 10
726.663509756488
 20
177.2553653271464
 10
726.7100488380025
 20
176.7078570988768
 10
726.756587919517
 20
176.1760721791258
 10
726.8031270010313
 20
175.6604137075396
 10
726.8496660825458
 20
175.1612830635841
 10
726.8962051640601
 20
174.6790816267247
 10
726.9427442455745
 20
174.2142107764274
 10
726.9892833270887
 20
173.7670718921578
 10
727.0358224086033
 20
173.3380663533819
 10
727.0823614901178
 20
172.9275955395653
 10
727.1289005716321
 20
172.5360608301739
 10
727.1754396531466
 20
172.1638512952669
 10
727.221978734661
 20
171.8112558055377
 10
727.2685178161754
 20
171.4785144397711
 10
727.31505689769
 20
171.165866950011
 10
727.3615959792044
 20
170.8735530883012
 10
727.4081350607188
 20
170.6018126066856
 10
727.4546741422331
 20
170.3508852572079
 10
727.5012132237475
 20
170.1210107919123
 10
727.547752305262
 20
169.9124289628423
 10
727.5942913867764
 20
169.7253795220421
 10
727.6408304682908
 20
169.5600742550828
 10
727.6873695498052
 20
169.4166042856991
 10
727.7339086313197
 20
169.2950282029865
 10
727.780447712834
 20
169.1954045955561
 10
727.8269867943485
 20
169.1177920520189
 10
727.8735258758629
 20
169.062249160986
 10
727.9200649573772
 20
169.0288345110684
 10
727.9666040388915
 20
169.0176066908772
  0
LWPOLYLINE
  5
AC
330
1F
100
AcDbEntity
  8
0
  6
CONTINUOUS
 62
     7
100
AcDbPolyline
 90
      105
 70
     0
 43
0.0
 10
623.4986753049849
 20
219.5771789314281
 10
623.5416360549244
 20
219.3380656267842
 10
623.5845968048642
 20
219.081250196511
 10
623.6275575548036
 20
218.8068795826602
 10
623.6705183047432
 20
218.5151014589621
 10
623.7134790546828
 20
218.2061116195614
 10
623.7564398046222
 20
217.8801829783907
 10
623.7994005545618
 20
217.5375953885062
 10
623.8423613045014
 20
217.178628702964
 10
623.8853220544411
 20
216.8035627748202
 10
623.9282828043805
 20
216.4126774571307
 10
623.97124355432
 20
216.0062526029518
 10
624.0142043042596
 20
215.5845680653395
 10
624.0571650541992
 20
215.1479036973498
 10
624.1001258041389
 20
214.6965393520388
 10
624.1430865540782
 20
214.230761436689
 10
624.1860473040178
 20
213.7509218211555
 10
624.2290080539574
 20
213.2574100159982
 10
624.2719688038969
 20
212.7506159816664
 10
624.3149295538365
 20
212.2309296786097
 10
624.3578903037761
 20
211.6987410672774
 10
624.4008510537157
 20
211.154440108119
 10
624.4438118036552
 20
210.598416761584
 10
624.4867725535947
 20
210.0310609881218
 10
624.5297333035343
 20
209.4527627481818
 10
624.5726940534738
 20
208.8639120145568
 10
624.6156548034133
 20
208.2649159996322
 10
624.658615553353
 20
207.6562334194321
 10
624.7015763032924
 20
207.0383325661717
 10
624.7445370532322
 20
206.4116817320669
 10
624.7874978031717
 20
205.7767492093328
 10
624.8304585531113
 20
205.1340032901851
 10
624.8734193030508
 20
204.4839122668392
 10
624.9163800529903
 20
203.8269444315107
 10
624.95934080293
 20
203.1635680764149
 10
625.0023015528697
 20
202.4942514937675
 10
625.0452623028091
 20
201.8194637481581
 10
625.0882230527487
 20
201.1396928206664
 10
625.1311838026883
 20
200.455446271826
 10
625.1741445526277
 20
199.7672325671876
 10
625.2171053025673
 20
199.0755601723016
 10
625.2600660525069
 20
198.3809375527185
 10
625.3030268024463
 20
197.6838731739887
 10
625.345987552386
 20
196.9848755016627
 10
625.3889483023254
 20
196.2844530012909
 10
625.4319090522652
 20
195.583114138424
 10
625.4748698022047
 20
194.8813673786123
 10
625.517830552144
 20
194.1797210466659
 10
625.5607913020837
 20
193.4786826466454
 10
625.6037520520232
 20
192.7787593859172
 10
625.6467128019627
 20
192.0804584714423
 10
625.6896735519024
 20
191.3842871101819
 10
625.7326343018419
 20
190.6907525090971
 10
625.7755950517814
 20
190.0003618751489
 10
625.818555801721
 20
189.3136224152986
 10
625.8615165516608
 20
188.6310413365071
 10
625.9044773016003
 20
187.9531258457356
 10
625.9474380515401
 20
187.2803830192063
 10
625.9903988014794
 20
186.6133061186331
 10
626.0333595514189
 20
185.9523625918362
 10
626.0763203013587
 20
185.2980170578181
 10
626.1192810512981
 20
184.6507341355813
 10
626.1622418012378
 20
184.0109784441284
 10
626.2052025511772
 20
183.3792146024619
 10
626.2481633011168
 20
182.7559072295844
 10
626.2911240510564
 20
182.1415209444985
 10
626.3340848009958
 20
181.5365203662066
 10
626.3770455509356
 20
180.9413701137115
 10
626.4200063008749
 20
180.3565310771072
 10
626.4629670508145
 20
179.782418531736
 10
626.5059278007541
 20
179.2194172109808
 10
626.5488885506936
 20
178.6679112867634
 10
626.5918493006332
 20
178.1282849310057
 10
626.6348100505728
 20
177.6009223156298
 10
626.6777708005123
 20
177.0862076125573
 10
626.7207315504518
 20
176.5845249937102
 10
626.7636923003913
 20
176.0962586310105
 10
626.806653050331
 20
175.6217926963801
 10
626.8496138002705
 20
175.1615113604201
 10
626.89257455021
 20
174.7157777641535
 10
626.9355353001496
 20
174.2848807353897
 10
626.9784960500892
 20
173.8690926950164
 10
627.0214568000288
 20
173.4686860639212
 10
627.0644175499684
 20
173.0839332629916
 10
627.107378299908
 20
172.7151067131153
 10
627.1503390498475
 20
172.3624788351799
 10
627.193299799787
 20
172.026322050073
 10
627.2362605497267
 20
171.7069087786823
 10
627.2792212996662
 20
171.4045114418953
 10
627.3221820496058
 20
171.1194006851528
 10
627.3651427995453
 20
170.8517889680776
 10
627.4081035494847
 20
170.6018188961021
 10
627.4510642994245
 20
170.3696289410734
 10
627.4940250493642
 20
170.155357574838
 10
627.5369857993036
 20
169.9591432692428
 10
627.579946549243
 20
169.7811244961345
 10
627.6229072991827
 20
169.6214397273602
 10
627.6658680491223
 20
169.4802274347665
 10
627.7088287990618
 20
169.3576260902001
 10
627.7517895490014
 20
169.253774165508
 10
627.7947502989408
 20
169.1687968505217
 10
627.8377110488804
 20
169.1027268551732
 10
627.8806717988201
 20
169.0555575632766
 10
627.9236325487594
 20
169.0272822143658
 10
627.9665932986993
 20
169.0178940479751
  0
LWPOLYLINE
  5
AD
330
1F
100
AcDbEntity
  8
0
  6
CONTINUOUS
 62
     7
100
AcDbPolyline
 90
        3
 70
     0
 43
0.0
 10
728.1176682331742
 20
171.2094877462748
 10
728.1859219891847
 20
171.1015409006517
 10
728.3191631134566
 20
171.017371640701
  0
LWPOLYLINE
  5
AE
330
1F
100
AcDbEntity
  8
0
  6
CONTINUOUS
 62
     7
100
AcDbPolyline
 90
       33
 70
     0
 43
0.0
 10
-632.9658023941321
 20
221.0168619501814
 10
-632.9824499549436
 20
221.0155501346658
 10
-632.9990975157552
 20
221.0114033821279
 10
-633.0157450765669
 20
221.0044223595681
 10
-633.0323926373784
 20
220.9946077339868
 10
-633.0490401981899
 20
220.9819601723844
 10
-633.0656877590014
 20
220.9664803417614
 10
-633.082335319813
 20
220.9481689091181
 10
-633.0989828806248
 20
220.9270265414549
 10
-633.1156304414362
 20
220.9030539057723
 10
-633.1322780022477
 20
220.8762516690708
 10
-633.1489255630593
 20
220.8466204983505
 10
-633.1655731238709
 20
220.8141610606122
 10
-633.1822206846823
 20
220.7788740228561
 10
-633.1988682454939
 20
220.7407600520827
 10
-633.2155158063055
 20
220.6998198152923
 10
-633.232163367117
 20
220.656053982399
 10
-633.2488109279285
 20
220.6094652205887
 10
-633.26545848874
 20
220.5600616730035
 10
-633.2821060495517
 20
220.5078524129016
 10
-633.2987536103631
 20
220.4528465135414
 10
-633.3154011711748
 20
220.3950530481811
 10
-633.3320487319862
 20
220.3344810900789
 10
-633.3486962927977
 20
220.2711397124932
 10
-633.3653438536094
 20
220.2050379886822
 10
-633.381991414421
 20
220.1361849919042
 10
-633.3986389752325
 20
220.0645897954174
 10
-633.415286536044
 20
219.9902614724801
 10
-633.4319340968557
 20
219.9132090963508
 10
-633.4485816576671
 20
219.8334417402874
 10
-633.4652292184787
 20
219.7509684775484
 10
-633.4818767792902
 20
219.6657983813921
 10
-633.4985243401018
 20
219.5779405250771
210
0.0
220
0.0
230
-1.0
  0
LWPOLYLINE
  5
AF
330
1F
100
AcDbEntity
  8
0
  6
CONTINUOUS
 62
     7
100
AcDbPolyline
 90
      105
 70
     0
 43
0.0
 10
683.4981891214755
 20
219.579898208258
 10
683.5411526790031
 20
219.3407573792602
 10
683.5841162365307
 20
219.0839370022665
 10
683.6270797940583
 20
218.8096371347353
 10
683.6700433515857
 20
218.5180578341251
 10
683.7130069091132
 20
218.2093991578943
 10
683.7559704666407
 20
217.8838611635014
 10
683.7989340241685
 20
217.5416439084046
 10
683.8418975816959
 20
217.1829477222292
 10
683.8848611392235
 20
216.8080112339869
 10
683.927824696751
 20
216.4171505330538
 10
683.9707882542785
 20
216.0106910535719
 10
684.0137518118061
 20
215.588958229683
 10
684.0567153693338
 20
215.152277495529
 10
684.0996789268613
 20
214.7009742852516
 10
684.1426424843888
 20
214.2353740329928
 10
684.1856060419165
 20
213.7558021728944
 10
684.228569599444
 20
213.2625841390983
 10
684.2715331569718
 20
212.7560453657462
 10
684.3144967144992
 20
212.2365153023117
 10
684.3574602720269
 20
211.7043779887935
 10
684.4004238295544
 20
211.1600568467749
 10
684.443387387082
 20
210.6039761693305
 10
684.4863509446096
 20
210.0365602495349
 10
684.5293145021374
 20
209.4582333804624
 10
684.5722780596648
 20
208.8694198551877
 10
684.6152416171923
 20
208.2705439667851
 10
684.6582051747198
 20
207.6620300083292
 10
684.7011687322474
 20
207.0443022728946
 10
684.744132289775
 20
206.4177850535848
 10
684.7870958473027
 20
205.7829138128857
 10
684.8300594048302
 20
205.1401668579899
 10
684.8730229623577
 20
204.4900327677098
 10
684.9159865198853
 20
203.8330001208578
 10
684.9589500774129
 20
203.1695574962459
 10
685.0019136349404
 20
202.5001934726865
 10
685.0448771924679
 20
201.8253966289918
 10
685.0878407499956
 20
201.1456555439742
 10
685.1308043075229
 20
200.4614587964458
 10
685.1737678650505
 20
199.773294965219
 10
685.2167314225782
 20
199.081652896695
 10
685.2596949801057
 20
198.3870316393433
 10
685.3026585376333
 20
197.6899433796634
 10
685.3456220951608
 20
196.9909011707366
 10
685.3885856526883
 20
196.290418065644
 10
685.4315492102158
 20
195.589007117467
 10
685.4745127677435
 20
194.8871813792869
 10
685.517476325271
 20
194.1854539041847
 10
685.5604398827986
 20
193.4843377452418
 10
685.6034034403264
 20
192.7843459555394
 10
685.6463669978539
 20
192.0859915881587
 10
685.6893305553812
 20
191.3897862576217
 10
685.7322941129089
 20
190.6962306920377
 10
685.7752576704365
 20
190.0058206387726
 10
685.8182212279639
 20
189.3190518194407
 10
685.8611847854917
 20
188.6364199556564
 10
685.9041483430191
 20
187.9584207690342
 10
685.9471119005467
 20
187.2855499811886
 10
685.9900754580742
 20
186.618303313734
 10
686.0330390156018
 20
185.9571764882849
 10
686.0760025731294
 20
185.3026652264555
 10
686.118966130657
 20
184.6552651918689
 10
686.1619296881844
 20
184.0154563926251
 10
686.2048932457121
 20
183.3836820914414
 10
686.2478568032396
 20
182.7603802849707
 10
686.2908203607673
 20
182.1459889698662
 10
686.3337839182948
 20
181.5409461427809
 10
686.3767474758222
 20
180.9456898003681
 10
686.4197110333498
 20
180.3606579392809
 10
686.4626745908774
 20
179.7862885561722
 10
686.505638148405
 20
179.2230196476953
 10
686.5486017059326
 20
178.6712892105032
 10
686.5915652634601
 20
178.1315323376784
 10
686.6345288209877
 20
177.6041353321135
 10
686.6774923785152
 20
177.089444002058
 10
686.720455936043
 20
176.5878029293831
 10
686.7634194935703
 20
176.0995566959602
 10
686.806383051098
 20
175.6250498836606
 10
686.8493466086255
 20
175.1646270743555
 10
686.8923101661532
 20
174.7186328499165
 10
686.9352737236807
 20
174.2874117922148
 10
686.9782372812082
 20
173.8713084831216
 10
687.0212008387359
 20
173.4706675045085
 10
687.0641643962633
 20
173.085815485604
 10
687.107127953791
 20
172.7169982446478
 10
687.1500915113186
 20
172.3644388719719
 10
687.1930550688462
 20
172.028360456677
 10
687.2360186263738
 20
171.708986087864
 10
687.2789821839015
 20
171.4065388546335
 10
687.3219457414289
 20
171.1212418460865
 10
687.3649092989564
 20
170.8533181513234
 10
687.4078728564842
 20
170.6029908594454
 10
687.4508364140116
 20
170.3704830595528
 10
687.4937999715393
 20
170.1560168425393
 10
687.5367635290669
 20
169.9597610161772
 10
687.5797270865944
 20
169.7818053909233
 10
687.622690644122
 20
169.622233384864
 10
687.6656542016497
 20
169.4811284160859
 10
687.7086177591772
 20
169.3585739026751
 10
687.7515813167048
 20
169.2546532627181
 10
687.7945448742322
 20
169.1694499143013
 10
687.8375084317599
 20
169.1030472755111
 10
687.8804719892873
 20
169.0555287644337
 10
687.9234355468149
 20
169.0269777991556
 10
687.9663991043427
 20
169.0174679313993
  0
LWPOLYLINE
  5
B0
330
1F
100
AcDbEntity
  8
0
  6
CONTINUOUS
 62
     7
100
AcDbPolyline
 90
      105
 70
     0
 43
0.0
 10
633.4985243401018
 20
219.5779405250771
 10
633.5414866164494
 20
219.3388518399451
 10
633.584448892797
 20
219.0820790818861
 10
633.6274111691446
 20
218.8077781965613
 10
633.670373445492
 20
218.5161051296322
 10
633.7133357218397
 20
218.207221540082
 10
633.7562979981872
 20
217.8813628192873
 10
633.7992602745348
 20
217.5388156487612
 10
633.8422225508823
 20
217.1798677487154
 10
633.8851848272299
 20
216.8048068393613
 10
633.9281471035774
 20
216.4139206409108
 10
633.9711093799251
 20
216.0074968735753
 10
634.0140716562727
 20
215.5858232575666
 10
634.0570339326202
 20
215.1491875130963
 10
634.0999962089678
 20
214.6978773603759
 10
634.1429584853154
 20
214.2321805199882
 10
634.1859207616629
 20
213.7524042906494
 10
634.2288830380104
 20
213.2589281108401
 10
634.2718453143581
 20
212.7521480306618
 10
634.3148075907055
 20
212.2324601002165
 10
634.3577698670531
 20
211.7002603696059
 10
634.4007321434008
 20
211.1559448889317
 10
634.4436944197483
 20
210.5999097082959
 10
634.4866566960958
 20
210.0325508778
 10
634.5296189724434
 20
209.4542644475459
 10
634.572581248791
 20
208.8654464676353
 10
634.6155435251386
 20
208.2664939034984
 10
634.6585058014862
 20
207.6578360811533
 10
634.7014680778336
 20
207.0399425893166
 10
634.7444303541812
 20
206.4132855361423
 10
634.787392630529
 20
205.7783370297844
 10
634.8303549068764
 20
205.1355691783966
 10
634.8733171832241
 20
204.4854540901332
 10
634.9162794595716
 20
203.8284638731478
 10
634.9592417359191
 20
203.1650706355946
 10
635.0022040122667
 20
202.4957464856274
 10
635.0451662886144
 20
201.8209635314003
 10
635.088128564962
 20
201.1411971545339
 10
635.1310908413094
 20
200.4569465113397
 10
635.1740531176571
 20
199.7687212525162
 10
635.2170153940046
 20
199.0770310748996
 10
635.2599776703523
 20
198.3823856753263
 10
635.3029399466998
 20
197.6852947506325
 10
635.3459022230473
 20
196.9862679976544
 10
635.3888644993949
 20
196.2858151132284
 10
635.4318267757425
 20
195.5844457941906
 10
635.47478905209
 20
194.8826697373774
 10
635.5177513284376
 20
194.1809966347914
 10
635.5607136047852
 20
193.4799350776591
 10
635.6036758811327
 20
192.7799911627936
 10
635.6466381574804
 20
192.0816706434588
 10
635.6896004338279
 20
191.3854792729183
 10
635.7325627101756
 20
190.6919228044361
 10
635.7755249865231
 20
190.001506991276
 10
635.8184872628707
 20
189.3147375867019
 10
635.8614495392181
 20
188.6321203439776
 10
635.9044118155657
 20
187.954161016367
 10
635.9473740919133
 20
187.2813653571338
 10
635.9903363682607
 20
186.6142376244951
 10
636.0332986446083
 20
185.9532581756956
 10
636.0762609209559
 20
185.2988881532858
 10
636.1192231973034
 20
184.6515881560415
 10
636.1621854736512
 20
184.0118187827382
 10
636.2051477499987
 20
183.3800406321516
 10
636.2481100263462
 20
182.7567143030574
 10
636.2910723026938
 20
182.1423003942311
 10
636.3340345790415
 20
181.5372595044485
 10
636.3769968553889
 20
180.9420522324853
 10
636.4199591317365
 20
180.357139177117
 10
636.4629214080842
 20
179.7829682613845
 10
636.5058836844318
 20
179.219932345905
 10
636.5488459607793
 20
178.6684093437151
 10
636.5918082371268
 20
178.1287771675653
 10
636.6347705134743
 20
177.601413730206
 10
636.6777327898221
 20
177.0866969443878
 10
636.7206950661695
 20
176.5850047228608
 10
636.7636573425171
 20
176.0967149783757
 10
636.8066196188647
 20
175.6222056236829
 10
636.8495818952122
 20
175.1618545715328
 10
636.8925441715597
 20
174.716038840862
 10
636.9355064479073
 20
174.2850912881261
 10
636.9784687242549
 20
173.8692812683655
 10
637.0214310006024
 20
173.4688732143757
 10
637.0643932769501
 20
173.084131558952
 10
637.1073555532976
 20
172.7153207348897
 10
637.1503178296452
 20
172.3627051749842
 10
637.1932801059927
 20
172.026549312031
 10
637.2362423823403
 20
171.7071175788255
 10
637.2792046586878
 20
171.404674408163
 10
637.3221669350355
 20
171.1194842328389
 10
637.3651292113831
 20
170.8518019699661
 10
637.4080914877308
 20
170.6017998717729
 10
637.4510537640783
 20
170.3696076932376
 10
637.4940160404258
 20
170.1553548400977
 10
637.5369783167733
 20
169.9591707180905
 10
637.579940593121
 20
169.7811847329532
 10
637.6229028694687
 20
169.6215262904234
 10
637.6658651458163
 20
169.4803247962383
 10
637.7088274221638
 20
169.3577096561352
 10
637.7517896985112
 20
169.2538102758517
 10
637.7947519748589
 20
169.1687559951284
 10
637.8377142512064
 20
169.1026405110157
 10
637.8806765275542
 20
169.0554631115074
 10
637.9236388039017
 20
169.027207630756
 10
637.9666010802491
 20
169.0178579029138
  0
LWPOLYLINE
  5
B1
330
1F
100
AcDbEntity
  8
0
  6
CONTINUOUS
 62
     7
100
AcDbPolyline
 90
       33
 70
     0
 43
0.0
 10
-682.9675576507983
 20
221.0172367348382
 10
-682.984139884257
 20
221.0156098070976
 10
-683.0007221177157
 20
221.0111553201319
 10
-683.0173043511742
 20
221.0038766304428
 10
-683.0338865846329
 20
220.9937770945317
 10
-683.0504688180918
 20
220.9808600689004
 10
-683.0670510515502
 20
220.9651289100503
 10
-683.0836332850088
 20
220.9465869744832
 10
-683.1002155184676
 20
220.9252376187006
 10
-683.1167977519262
 20
220.901084199204
 10
-683.1333799853849
 20
220.8741300724951
 10
-683.1499622188436
 20
220.8443785950756
 10
-683.1665444523022
 20
220.8118331234468
 10
-683.1831266857608
 20
220.7764970141105
 10
-683.1997089192196
 20
220.7383736235683
 10
-683.2162911526782
 20
220.6974663083217
 10
-683.2328733861368
 20
220.6537784248723
 10
-683.2494556195957
 20
220.6073133297218
 10
-683.2660378530543
 20
220.5580743793718
 10
-683.2826200865129
 20
220.5060649303236
 10
-683.2992023199714
 20
220.4512883390792
 10
-683.3157845534304
 20
220.39374796214
 10
-683.3323667868888
 20
220.3334471560075
 10
-683.3489490203476
 20
220.2703892771834
 10
-683.3655312538062
 20
220.2045776821694
 10
-683.3821134872649
 20
220.1360157982955
 10
-683.3986957207237
 20
220.0647102885637
 10
-683.4152779541822
 20
219.9906723216434
 10
-683.431860187641
 20
219.913913399793
 10
-683.4484424210997
 20
219.8344450252709
 10
-683.4650246545582
 20
219.7522787003352
 10
-683.4816068880169
 20
219.6674259272445
 10
-683.4981891214754
 20
219.579898208258
210
0.0
220
0.0
230
-1.0
  0
LWPOLYLINE
  5
B2
330
1F
100
AcDbEntity
  8
0
  6
CONTINUOUS
 62
     7
100
AcDbPolyline
 90
       33
 70
     0
 43
0.0
 10
-602.9666719731639
 20
221.016888806875
 10
-602.9832964783752
 20
221.0154818550427
 10
-602.9999209835867
 20
221.0112453871384
 10
-603.0165454887981
 20
221.0041784324517
 10
-603.0331699940095
 20
220.9942800202722
 10
-603.0497944992209
 20
220.9815491798896
 10
-603.0664190044324
 20
220.9659849405934
 10
-603.0830435096436
 20
220.9475863316735
 10
-603.0996680148552
 20
220.9263523824194
 10
-603.1162925200665
 20
220.9022821221209
 10
-603.1329170252781
 20
220.8753745800674
 10
-603.1495415304894
 20
220.8456288918808
 10
-603.1661660357008
 20
220.813047818126
 10
-603.1827905409123
 20
220.7776385534752
 10
-603.1994150461237
 20
220.7394085628276
 10
-603.216039551335
 20
220.6983653110825
 10
-603.2326640565466
 20
220.654516263139
 10
-603.2492885617579
 20
220.6078688838965
 10
-603.2659130669693
 20
220.5584306382542
 10
-603.2825375721807
 20
220.5062089911113
 10
-603.2991620773922
 20
220.4512114073669
 10
-603.3157865826036
 20
220.3934453519204
 10
-603.3324110878151
 20
220.3329182896711
 10
-603.3490355930264
 20
220.269637685518
 10
-603.3656600982379
 20
220.2036110043604
 10
-603.3822846034493
 20
220.1348457110978
 10
-603.3989091086607
 20
220.063349270629
 10
-603.4155336138722
 20
219.9891291478536
 10
-603.4321581190835
 20
219.9121928076706
 10
-603.448782624295
 20
219.8325477149793
 10
-603.4654071295063
 20
219.750201334679
 10
-603.4820316347177
 20
219.6651611316689
 10
-603.4986561399292
 20
219.5774345708482
210
0.0
220
0.0
230
-1.0
  0
LWPOLYLINE
  5
B3
330
1F
100
AcDbEntity
  8
0
  6
CONTINUOUS
 62
     7
100
AcDbPolyline
 90
       97
 70
     0
 43
0.0
 10
713.4984759838287
 20
219.5785900030446
 10
713.5450128427317
 20
219.3186348511584
 10
713.5915497016346
 20
219.0378828125047
 10
713.6380865605372
 20
218.7366207575089
 10
713.6846234194403
 20
218.4151355565963
 10
713.731160278343
 20
218.0737140801919
 10
713.7776971372458
 20
217.712643198721
 10
713.8242339961487
 20
217.3322097826089
 10
713.8707708550517
 20
216.9327007022807
 10
713.9173077139544
 20
216.5144028281616
 10
713.9638445728573
 20
216.0776254859163
 10
714.01038143176
 20
215.6227802536981
 10
714.0569182906628
 20
215.1503077991196
 10
714.1034551495657
 20
214.6606487918545
 10
714.1499920084683
 20
214.1542439015765
 10
714.1965288673713
 20
213.6315337979593
 10
714.2430657262739
 20
213.0929591506764
 10
714.2896025851768
 20
212.5389606294019
 10
714.3361394440795
 20
211.9699789038091
 10
714.3826763029824
 20
211.386454725436
 10
714.4292131618851
 20
210.788859260153
 10
714.4757500207883
 20
210.1777394613219
 10
714.522286879691
 20
209.5536538902351
 10
714.5688237385938
 20
208.9171611081855
 10
714.6153605974965
 20
208.2688196764656
 10
714.6618974563995
 20
207.6091881563682
 10
714.7084343153023
 20
206.938825109186
 10
714.754971174205
 20
206.2582890962115
 10
714.8015080331079
 20
205.5681386787376
 10
714.8480448920109
 20
204.8689330045738
 10
714.8945817509139
 20
204.1612595542093
 10
714.9411186098166
 20
203.4457461777163
 10
714.9876554687194
 20
202.7230238140689
 10
715.0341923276222
 20
201.9937234022417
 10
715.0807291865251
 20
201.2584758812086
 10
715.1272660454281
 20
200.5179121899442
 10
715.1738029043308
 20
199.7726632674227
 10
715.2203397632336
 20
199.0233600526183
 10
715.2668766221366
 20
198.2706334845053
 10
715.3134134810394
 20
197.5151151459897
 10
715.3599503399422
 20
196.757447542729
 10
715.4064871988452
 20
195.9982823001498
 10
715.4530240577478
 20
195.2382713233308
 10
715.4995609166507
 20
194.478066517351
 10
715.5460977755537
 20
193.7183197872891
 10
715.5926346344562
 20
192.9596830382237
 10
715.6391714933592
 20
192.2028081752339
 10
715.6857083522619
 20
191.4483471033981
 10
715.7322452111648
 20
190.6969517277953
 10
715.7787820700675
 20
189.949271476962
 10
715.8253189289703
 20
189.2059358107015
 10
715.8718557878732
 20
188.4675645427869
 10
715.9183926467759
 20
187.7347774244174
 10
715.9649295056787
 20
187.0081942067922
 10
716.0114663645817
 20
186.2884346411107
 10
716.0580032234843
 20
185.576118478572
 10
716.1045400823872
 20
184.8718654703755
 10
716.1510769412901
 20
184.1762953677204
 10
716.1976138001929
 20
183.4900279218059
 10
716.2441506590956
 20
182.8136700288279
 10
716.2906875179985
 20
182.1477735248785
 10
716.3372243769014
 20
181.4928755074906
 10
716.3837612358042
 20
180.849513074034
 10
716.430298094707
 20
180.2182233218786
 10
716.47683495361
 20
179.5995433483943
 10
716.5233718125128
 20
178.994010250951
 10
716.5699086714156
 20
178.4021611269184
 10
716.6164455303185
 20
177.8245330736665
 10
716.6629823892214
 20
177.2616630630428
 10
716.7095192481245
 20
176.7140538377139
 10
716.756056107027
 20
176.1821276390837
 10
716.8025929659299
 20
175.6662951457264
 10
716.8491298248327
 20
175.1669670362165
 10
716.8956666837356
 20
174.6845539891281
 10
716.9422035426385
 20
174.2194666830358
 10
716.9887404015413
 20
173.7721157965138
 10
717.0352772604442
 20
173.3429120081364
 10
717.0818141193469
 20
172.9322659964779
 10
717.1283509782498
 20
172.5405869152357
 10
717.1748878371525
 20
172.1682191686097
 10
717.2214246960554
 20
171.8154197401466
 10
717.2679615549582
 20
171.4824394257974
 10
717.3144984138611
 20
171.169529021513
 10
717.3610352727641
 20
170.8769393232444
 10
717.4075721316667
 20
170.6049211269427
 10
717.4541089905697
 20
170.3537252285588
 10
717.5006458494723
 20
170.1236024240437
 10
717.5471827083752
 20
169.9148035093484
 10
717.593719567278
 20
169.7275731260367
 10
717.6402564261807
 20
169.5620598594273
 10
717.6867932850837
 20
169.4183362668795
 10
717.7333301439864
 20
169.2964728258057
 10
717.7798670028892
 20
169.1965400136184
 10
717.8264038617921
 20
169.11860830773
 10
717.8729407206949
 20
169.062748185553
 10
717.9194775795977
 20
169.0290301244998
 10
717.9660144385016
 20
169.017524601983
  0
LWPOLYLINE
  5
B4
330
1F
100
AcDbEntity
  8
0
  6
CONTINUOUS
 62
     7
100
AcDbPolyline
 90
        4
 70
     0
 43
0.0
 10
748.0966352918317
 20
171.2517410939577
 10
748.1648653538892
 20
171.1301170006056
 10
748.233046759847
 20
171.0524576010879
 10
748.3191309879828
 20
171.0173716407221
  0
LWPOLYLINE
  5
B5
330
1F
100
AcDbEntity
  8
0
  6
CONTINUOUS
 62
     7
100
AcDbPolyline
 90
       33
 70
     0
 43
0.0
 10
597.9668071038643
 20
169.0178254847133
 10
597.9834288962581
 20
169.019248657289
 10
598.0000506886521
 20
169.0235016839548
 10
598.0166724810459
 20
169.0305858071514
 10
598.0332942734399
 20
169.0405022693192
 10
598.0499160658338
 20
169.0532523128988
 10
598.0665378582277
 20
169.0688371803309
 10
598.0831596506216
 20
169.0872581140559
 10
598.0997814430154
 20
169.1085163565145
 10
598.1164032354094
 20
169.1326131501473
 10
598.1330250278033
 20
169.1595496967208
 10
598.1496468201972
 20
169.1893242206345
 10
598.166268612591
 20
169.2219299928941
 10
598.1828904049848
 20
169.2573598162343
 10
598.1995121973787
 20
169.2956064933901
 10
598.2161339897727
 20
169.3366628270959
 10
598.2327557821666
 20
169.3805216200868
 10
598.2493775745605
 20
169.4271756750974
 10
598.2659993669542
 20
169.4766177948624
 10
598.2826211593483
 20
169.5288407821166
 10
598.2992429517421
 20
169.5838374395948
 10
598.3158647441361
 20
169.6416005700318
 10
598.3324865365298
 20
169.7021229761621
 10
598.3491083289238
 20
169.7653974607208
 10
598.3657301213176
 20
169.8314168264424
 10
598.3823519137114
 20
169.9001738760618
 10
598.3989737061055
 20
169.9716614123138
 10
598.4155954984992
 20
170.0458722379329
 10
598.4322172908932
 20
170.1227991556542
 10
598.4488390832871
 20
170.2024349682122
 10
598.4654608756808
 20
170.2847724783417
 10
598.4820826680748
 20
170.3698044887775
 10
598.4987044604686
 20
170.4575238022541
  0
LWPOLYLINE
  5
B6
330
1F
100
AcDbEntity
  8
0
  6
CONTINUOUS
 62
     7
100
AcDbPolyline
 90
       97
 70
     0
 43
0.0
 10
-689.4665824676729
 20
221.0172885826211
 10
-689.5131276188847
 20
221.0060558950407
 10
-689.5596727700967
 20
220.9725530699024
 10
-689.6062179213085
 20
220.9168662090989
 10
-689.6527630725203
 20
220.839081414523
 10
-689.6993082237323
 20
220.7392847880675
 10
-689.745853374944
 20
220.6175624316251
 10
-689.792398526156
 20
220.4740004470889
 10
-689.8389436773679
 20
220.3086849363513
 10
-689.8854888285797
 20
220.1217020013054
 10
-689.9320339797915
 20
219.9131435369422
 10
-689.9785791310034
 20
219.6831958345859
 10
-690.0251242822152
 20
219.4321220114206
 10
-690.071669433427
 20
219.1601874168383
 10
-690.1182145846388
 20
218.8676574002311
 10
-690.1647597358507
 20
218.5547973109912
 10
-690.2113048870627
 20
218.2218724985107
 10
-690.2578500382745
 20
217.8691483121815
 10
-690.3043951894863
 20
217.4968901013959
 10
-690.3509403406981
 20
217.105363215546
 10
-690.39748549191
 20
216.6948456942658
 10
-690.4440306431219
 20
216.2657141369475
 10
-690.4905757943336
 20
215.8183912562492
 10
-690.5371209455453
 20
215.3533000272711
 10
-690.5836660967572
 20
214.8708634251135
 10
-690.6302112479691
 20
214.3715044248767
 10
-690.6767563991809
 20
213.8556460016609
 10
-690.7233015503926
 20
213.3237111305663
 10
-690.7698467016045
 20
212.7761227866932
 10
-690.8163918528163
 20
212.2133039451418
 10
-690.8629370040281
 20
211.635697525102
 10
-690.90948215524
 20
211.0438285411871
 10
-690.9560273064519
 20
210.4382431283867
 10
-691.0025724576637
 20
209.8194874217084
 10
-691.0491176088755
 20
209.1881075561599
 10
-691.0956627600872
 20
208.5446496667489
 10
-691.142207911299
 20
207.889659888483
 10
-691.188753062511
 20
207.2236843563697
 10
-691.2352982137229
 20
206.5472692054169
 10
-691.2818433649347
 20
205.8609606697478
 10
-691.3283885161464
 20
205.1653270299741
 10
-691.3749336673583
 20
204.4609862730506
 10
-691.4214788185701
 20
203.7485631925012
 10
-691.468023969782
 20
203.0286825818499
 10
-691.5145691209937
 20
202.3019692346204
 10
-691.5611142722056
 20
201.5690479443369
 10
-691.6076594234174
 20
200.8305435045231
 10
-691.6542045746291
 20
200.0870807087029
 10
-691.7007497258411
 20
199.3392843504003
 10
-691.747294877053
 20
198.5877795237721
 10
-691.7938400282649
 20
197.8332028672315
 10
-691.8403851794767
 20
197.0762059334706
 10
-691.8869303306886
 20
196.3174412637096
 10
-691.9334754819005
 20
195.5575613991689
 10
-691.9800206331122
 20
194.7972188810689
 10
-692.0265657843241
 20
194.0370662506299
 10
-692.073110935536
 20
193.2777560490723
 10
-692.1196560867477
 20
192.5199408176165
 10
-692.1662012379599
 20
191.7642730974829
 10
-692.2127463891716
 20
191.0114044779621
 10
-692.2592915403835
 20
190.2619727412917
 10
-692.3058366915953
 20
189.5166052599941
 10
-692.3523818428071
 20
188.7759291511669
 10
-692.3989269940189
 20
188.0405715319073
 10
-692.4454721452306
 20
187.3111595193126
 10
-692.4920172964427
 20
186.5883202304801
 10
-692.5385624476544
 20
185.8726807825071
 10
-692.5851075988662
 20
185.164868292491
 10
-692.6316527500782
 20
184.4655098775291
 10
-692.6781979012898
 20
183.7752257827379
 10
-692.7247430525017
 20
183.0945876449979
 10
-692.7712882037135
 20
182.4241461395629
 10
-692.8178333549255
 20
181.7644518592529
 10
-692.8643785061373
 20
181.1160553968876
 10
-692.910923657349
 20
180.4795073452869
 10
-692.9574688085609
 20
179.8553582972707
 10
-693.0040139597727
 20
179.2441588456587
 10
-693.0505591109846
 20
178.6464595832709
 10
-693.0971042621962
 20
178.062811102776
 10
-693.1436494134081
 20
177.4937425563652
 10
-693.1901945646199
 20
176.9397022162067
 10
-693.2367397158318
 20
176.4011192862105
 10
-693.2832848670436
 20
175.8784229702865
 10
-693.3298300182556
 20
175.3720424723445
 10
-693.3763751694673
 20
174.8824069962943
 10
-693.4229203206792
 20
174.4099457460459
 10
-693.4694654718911
 20
173.9550879255092
 10
-693.516010623103
 20
173.5182627385939
 10
-693.5625557743148
 20
173.0998990909231
 10
-693.6091009255266
 20
172.7003791326564
 10
-693.6556460767385
 20
172.3199878190576
 10
-693.7021912279503
 20
171.9589979917758
 10
-693.7487363791622
 20
171.6176824924605
 10
-693.795281530374
 20
171.2963141627611
 10
-693.8418266815859
 20
170.9951658443268
 10
-693.8883718327976
 20
170.7145103788072
 10
-693.9349169840095
 20
170.4546206078515
210
0.0
220
0.0
230
-1.0
  0
LWPOLYLINE
  5
B7
330
1F
100
AcDbEntity
  8
0
  6
CONTINUOUS
 62
     7
100
AcDbPolyline
 90
      105
 70
     0
 43
0.0
 10
-699.4668914478523
 20
221.0172934236523
 10
-699.5098533230464
 20
221.0076429448761
 10
-699.5528151982406
 20
220.9789748166094
 10
-699.5957770734349
 20
220.9313655904878
 10
-699.6387389486291
 20
220.864892287096
 10
-699.6817008238233
 20
220.7796319270183
 10
-699.7246626990174
 20
220.675661530839
 10
-699.7676245742116
 20
220.5530581191428
 10
-699.8105864494058
 20
220.4118987125138
 10
-699.8535483246001
 20
220.2522603315365
 10
-699.8965101997941
 20
220.0742199967955
 10
-699.9394720749883
 20
219.8778547703841
 10
-699.9824339501826
 20
219.6632744746854
 10
-700.0253958253768
 20
219.4306804671475
 10
-700.0683577005708
 20
219.1802899687949
 10
-700.1113195757649
 20
218.9123202006517
 10
-700.154281450959
 20
218.6269883837425
 10
-700.1972433261533
 20
218.3245117390914
 10
-700.2402052013472
 20
218.0051074877229
 10
-700.2831670765415
 20
217.6689928506612
 10
-700.3261289517355
 20
217.3163850489308
 10
-700.3690908269298
 20
216.9475013035558
 10
-700.4120527021241
 20
216.5625615444435
 10
-700.4550145773183
 20
216.1618451648719
 10
-700.4979764525123
 20
215.7456894847484
 10
-700.5409383277065
 20
215.3144342254493
 10
-700.5839002029007
 20
214.868419108351
 10
-700.6268620780951
 20
214.4079838548292
 10
-700.6698239532892
 20
213.9334681862602
 10
-700.7127858284834
 20
213.4452118240202
 10
-700.7557477036776
 20
212.9435544894853
 10
-700.7987095788718
 20
212.4288359040315
 10
-700.841671454066
 20
211.9013957890351
 10
-700.8846333292603
 20
211.3615853465288
 10
-700.9275952044545
 20
210.809818071769
 10
-700.9705570796486
 20
210.2465284882488
 10
-701.0135189548429
 20
209.672151135761
 10
-701.0564808300372
 20
209.0871205540984
 10
-701.0994427052314
 20
208.4918712830539
 10
-701.1424045804255
 20
207.8868378624202
 10
-701.1853664556197
 20
207.2724548319904
 10
-701.2283283308138
 20
206.6491567315572
 10
-701.271290206008
 20
206.0173781009134
 10
-701.3142520812022
 20
205.3775537161098
 10
-701.3572139563963
 20
204.7301385598884
 10
-701.4001758315906
 20
204.0756230066831
 10
-701.4431377067847
 20
203.4145010065623
 10
-701.4860995819789
 20
202.7472665095951
 10
-701.529061457173
 20
202.0744134658501
 10
-701.5720233323673
 20
201.3964358253959
 10
-701.6149852075614
 20
200.7138275383012
 10
-701.6579470827555
 20
200.0270825546349
 10
-701.7009089579497
 20
199.3366948244656
 10
-701.7438708331439
 20
198.643158297862
 10
-701.7868327083381
 20
197.9469679149963
 10
-701.8297945835322
 20
197.2486297121847
 10
-701.8727564587265
 20
196.5486566928294
 10
-701.9157183339208
 20
195.8475619681337
 10
-701.9586802091148
 20
195.1458586493004
 10
-702.0016420843091
 20
194.4440598475327
 10
-702.0446039595032
 20
193.7426786740338
 10
-702.0875658346977
 20
193.0422282400068
 10
-702.1305277098918
 20
192.3432216566545
 10
-702.173489585086
 20
191.6461720351803
 10
-702.21645146028
 20
190.9515924857147
 10
-702.2594133354743
 20
190.2599915532696
 10
-702.3023752106686
 20
189.5718627779707
 10
-702.3453370858626
 20
188.8876966216836
 10
-702.388298961057
 20
188.2079835462741
 10
-702.431260836251
 20
187.5332140136077
 10
-702.4742227114451
 20
186.8638784855503
 10
-702.5171845866394
 20
186.2004674239674
 10
-702.5601464618335
 20
185.5434712907249
 10
-702.6031083370277
 20
184.8933805476882
 10
-702.646070212222
 20
184.2506856567232
 10
-702.6890320874161
 20
183.6158760988409
 10
-702.7319939626103
 20
182.9894131556693
 10
-702.7749558378044
 20
182.3717263672372
 10
-702.8179177129987
 20
181.7632435811649
 10
-702.8608795881929
 20
181.1643926450728
 10
-702.903841463387
 20
180.5756014065811
 10
-702.9468033385814
 20
179.9972977133104
 10
-702.9897652137755
 20
179.4299094128807
 10
-703.0327270889696
 20
178.8738643529125
 10
-703.075688964164
 20
178.3295903810261
 10
-703.1186508393581
 20
177.7975153448419
 10
-703.1616127145523
 20
177.2780573386745
 10
-703.2045745897467
 20
176.7715716702024
 10
-703.2475364649409
 20
176.2783887721261
 10
-703.290498340135
 20
175.7988390149864
 10
-703.3334602153292
 20
175.3332527693239
 10
-703.3764220905234
 20
174.8819604056793
 10
-703.4193839657178
 20
174.4452922945931
 10
-703.4623458409119
 20
174.0235788066061
 10
-703.505307716106
 20
173.6171503122588
 10
-703.5482695913
 20
173.226337182092
 10
-703.5912314664943
 20
172.8514695260061
 10
-703.6341933416884
 20
172.4928396777467
 10
-703.6771552168826
 20
172.1506629833741
 10
-703.7201170920769
 20
171.8251454163597
 10
-703.7630789672709
 20
171.516492950175
 10
-703.8060408424651
 20
171.2249115582918
 10
-703.8490027176592
 20
170.9506072141812
 10
-703.8919645928534
 20
170.6937858913151
 10
-703.9349264680468
 20
170.4546535631693
210
0.0
220
0.0
230
-1.0
  0
LWPOLYLINE
  5
B8
330
1F
100
AcDbEntity
  8
0
  6
CONTINUOUS
 62
     7
100
AcDbPolyline
 90
       97
 70
     0
 43
0.0
 10
-679.4675576508141
 20
221.0172286742964
 10
-679.5140909818923
 20
221.0054995232636
 10
-679.5606243129703
 20
220.9715515190034
 10
-679.6071576440484
 20
220.9154588352382
 10
-679.6536909751264
 20
220.8372956456906
 10
-679.7002243062044
 20
220.737136124083
 10
-679.7467576372827
 20
220.6150544441379
 10
-679.7932909683607
 20
220.4711247795778
 10
-679.8398242994388
 20
220.3054213041251
 10
-679.8863576305168
 20
220.1180185303341
 10
-679.9328909615948
 20
219.909044679921
 10
-679.979424292673
 20
219.6787399359595
 10
-680.0259576237511
 20
219.4273584813522
 10
-680.072490954829
 20
219.1551544990013
 10
-680.1190242859072
 20
218.8623821718093
 10
-680.1655576169853
 20
218.5492956826785
 10
-680.2120909480633
 20
218.2161492145113
 10
-680.2586242791414
 20
217.86319695021
 10
-680.3051576102196
 20
217.490693072677
 10
-680.3516909412976
 20
217.0988938418831
 10
-680.3982242723756
 20
216.6881244706064
 10
-680.4447576034538
 20
216.258793462275
 10
-680.4912909345319
 20
215.8113142970728
 10
-680.53782426561
 20
215.3461004551836
 10
-680.5843575966879
 20
214.8635654167915
 10
-680.6308909277661
 20
214.3641226620804
 10
-680.6774242588442
 20
213.8481856712341
 10
-680.7239575899223
 20
213.3161679244368
 10
-680.7704909210004
 20
212.7684829018721
 10
-680.8170242520785
 20
212.2055493438085
 10
-680.8635575831566
 20
211.6278557817536
 10
-680.9100909142346
 20
211.0359402494529
 10
-680.9566242453128
 20
210.4303418322574
 10
-681.0031575763909
 20
209.8115996155176
 10
-681.0496909074689
 20
209.1802526845841
 10
-681.096224238547
 20
208.5368401248077
 10
-681.1427575696252
 20
207.8819010215392
 10
-681.1892909007033
 20
207.2159744601291
 10
-681.2358242317813
 20
206.5395995259282
 10
-681.2823575628595
 20
205.8533232112048
 10
-681.3288908939376
 20
205.1577449048683
 10
-681.3754242250155
 20
204.4534853086093
 10
-681.4219575560936
 20
203.74116518599
 10
-681.4684908871718
 20
203.0214053005726
 10
-681.5150242182498
 20
202.2948264159193
 10
-681.5615575493279
 20
201.5620492955922
 10
-681.6080908804059
 20
200.8236947031538
 10
-681.654624211484
 20
200.0803834021661
 10
-681.7011575425621
 20
199.3327361564688
 10
-681.74769087364
 20
198.5813795197183
 10
-681.7942242047183
 20
197.8269607327535
 10
-681.8407575357963
 20
197.0701316549065
 10
-681.8872908668743
 20
196.3115441455094
 10
-681.9338241979525
 20
195.5518500638948
 10
-681.9803575290307
 20
194.7917012693947
 10
-682.0268908601086
 20
194.0317496213414
 10
-682.0734241911866
 20
193.2726469790672
 10
-682.1199575222649
 20
192.5150452019042
 10
-682.1664908533428
 20
191.7595960978017
 10
-682.2130241844209
 20
191.0069446655382
 10
-682.259557515499
 20
190.2577223485754
 10
-682.306090846577
 20
189.5125589857592
 10
-682.352624177655
 20
188.7720844159356
 10
-682.3991575087332
 20
188.0369284779504
 10
-682.4456908398113
 20
187.3077210106495
 10
-682.4922241708892
 20
186.5850918528788
 10
-682.5387575019674
 20
185.8696708434842
 10
-682.5852908330454
 20
185.1620878213116
 10
-682.6318241641234
 20
184.4629715527599
 10
-682.6783574952016
 20
183.7729182624483
 10
-682.7248908262795
 20
183.0924865438624
 10
-682.7714241573576
 20
182.422232893428
 10
-682.8179574884359
 20
181.7627138075704
 10
-682.8644908195139
 20
181.1144857827151
 10
-682.9110241505921
 20
180.4781053152879
 10
-682.9575574816702
 20
179.8541289017142
 10
-683.0040908127481
 20
179.2431130384194
 10
-683.0506241438263
 20
178.6456142218294
 10
-683.0971574749044
 20
178.0621835738753
 10
-683.1436908059825
 20
177.4933052284526
 10
-683.1902241370605
 20
176.9394178589854
 10
-683.2367574681386
 20
176.4009592737958
 10
-683.2832907992167
 20
175.8783672812056
 10
-683.3298241302947
 20
175.3720796895366
 10
-683.3763574613728
 20
174.8825343071109
 10
-683.4228907924507
 20
174.4101689422504
 10
-683.469424123529
 20
173.9554214032769
 10
-683.515957454607
 20
173.5187294985124
 10
-683.5624907856852
 20
173.1005151801581
 10
-683.6090241167633
 20
172.7011006632544
 10
-683.6555574478414
 20
172.3207694786298
 10
-683.7020907789195
 20
171.959805072028
 10
-683.7486241099975
 20
171.6184908891929
 10
-683.7951574410756
 20
171.2971103758684
 10
-683.8416907721537
 20
170.9959469777984
 10
-683.8882241032318
 20
170.7152841407267
 10
-683.9347574343093
 20
170.4554053104005
210
0.0
220
0.0
230
-1.0
  0
LWPOLYLINE
  5
B9
330
1F
100
AcDbEntity
  8
0
  6
CONTINUOUS
 62
     7
100
AcDbPolyline
 90
       97
 70
     0
 43
0.0
 10
-669.4672698115543
 20
221.0171514262261
 10
-669.5138033323906
 20
221.005550303334
 10
-669.560336853227
 20
220.9717605302634
 10
-669.6068703740633
 20
220.9158443939831
 10
-669.6534038948996
 20
220.8378641814617
 10
-669.6999374157358
 20
220.737882179668
 10
-669.7464709365722
 20
220.6159606755708
 10
-669.7930044574086
 20
220.4721619561388
 10
-669.8395379782451
 20
220.3065483083407
 10
-669.8860714990814
 20
220.1192002176672
 10
-669.9326050199178
 20
219.910314737174
 10
-669.9791385407542
 20
219.6801348911177
 10
-670.0256720615905
 20
219.4289038155741
 10
-670.0722055824266
 20
219.1568646466194
 10
-670.1187391032631
 20
218.8642605203298
 10
-670.1652726240995
 20
218.5513345727812
 10
-670.2118061449358
 20
218.2183299400497
 10
-670.2583396657722
 20
217.8654897582115
 10
-670.3048731866086
 20
217.4930571664171
 10
-670.351406707445
 20
217.1013062345767
 10
-670.3979402282812
 20
216.6906180202192
 10
-670.4444737491177
 20
216.2613966967721
 10
-670.4910072699539
 20
215.8140464376625
 10
-670.5375407907904
 20
215.3489714163177
 10
-670.5840743116266
 20
214.8665758061649
 10
-670.630607832463
 20
214.3672637806315
 10
-670.6771413532994
 20
213.8514395131445
 10
-670.7236748741357
 20
213.3195071771314
 10
-670.7702083949722
 20
212.7718712874398
 10
-670.8167419158084
 20
212.2089768878524
 10
-670.8632754366447
 20
211.6313473177373
 10
-670.909808957481
 20
211.0395148541118
 10
-670.9563424783175
 20
210.4340117739937
 10
-671.0028759991537
 20
209.8153703544002
 10
-671.0494095199901
 20
209.1841228723491
 10
-671.0959430408265
 20
208.5408016048577
 10
-671.1424765616629
 20
207.8859388289436
 10
-671.1890100824992
 20
207.2200668216242
 10
-671.2355436033357
 20
206.5437191928611
 10
-671.282077124172
 20
205.8574677478479
 10
-671.3286106450082
 20
205.1619272128612
 10
-671.3751441658447
 20
204.4577145963252
 10
-671.4216776866809
 20
203.7454469066644
 10
-671.4682112075174
 20
203.025741152303
 10
-671.5147447283537
 20
202.2992143416655
 10
-671.5612782491901
 20
201.5664834831761
 10
-671.6078117700264
 20
200.8281655852592
 10
-671.6543452908627
 20
200.0848776563391
 10
-671.7008788116991
 20
199.3372383458999
 10
-671.7474123325354
 20
198.5858859444436
 10
-671.7939458533717
 20
197.8314716870033
 10
-671.8404793742081
 20
197.074647036953
 10
-671.8870128950444
 20
196.316063457667
 10
-671.9335464158808
 20
195.5563724125194
 10
-671.9800799367172
 20
194.7962253648847
 10
-672.0266134575534
 20
194.0362737781367
 10
-672.0731469783898
 20
193.27716911565
 10
-672.1196804992262
 20
192.5195628407984
 10
-672.1662140200624
 20
191.764104427937
 10
-672.2127475408988
 20
191.0114312621137
 10
-672.2592810617354
 20
190.2621761858111
 10
-672.3058145825714
 20
189.5169720333612
 10
-672.352348103408
 20
188.776451639096
 10
-672.3988816242444
 20
188.0412478373475
 10
-672.4454151450806
 20
187.3119934624477
 10
-672.4919486659169
 20
186.5893213487286
 10
-672.5384821867533
 20
185.8738643305223
 10
-672.5850157075897
 20
185.1662552388848
 10
-672.631549228426
 20
184.46711276912
 10
-672.6780827492623
 20
183.7770091104419
 10
-672.7246162700987
 20
183.0965069021215
 10
-672.7711497909352
 20
182.4261687834298
 10
-672.8176833117714
 20
181.7665573936376
 10
-672.8642168326077
 20
181.1182353720158
 10
-672.9107503534441
 20
180.4817653578356
 10
-672.9572838742804
 20
179.8577099903676
 10
-673.0038173951166
 20
179.246631908883
 10
-673.050350915953
 20
178.6490933770568
 10
-673.0968844367893
 20
178.0656186575197
 10
-673.1434179576257
 20
177.4966619092716
 10
-673.189951478462
 20
176.9426697302941
 10
-673.2364849992983
 20
176.4040887185687
 10
-673.2830185201349
 20
175.881365472077
 10
-673.3295520409712
 20
175.3749465888005
 10
-673.3760855618075
 20
174.8852786667208
 10
-673.4226190826438
 20
174.4128083038195
 10
-673.4691526034802
 20
173.9579820980781
 10
-673.5156861243165
 20
173.5212439731952
 10
-673.562219645153
 20
173.102967492226
 10
-673.6087531659894
 20
172.7034505572686
 10
-673.6552866868257
 20
172.3229873343222
 10
-673.701820207662
 20
171.9618719893859
 10
-673.7483537284983
 20
171.6203986884587
 10
-673.7948872493348
 20
171.2988615975397
 10
-673.841420770171
 20
170.997554882628
 10
-673.8879542910073
 20
170.7167727097228
 10
-673.9344878118435
 20
170.4568092448247
210
0.0
220
0.0
230
-1.0
  0
LWPOLYLINE
  5
BA
330
1F
100
AcDbEntity
  8
0
  6
CONTINUOUS
 62
     7
100
AcDbPolyline
 90
       33
 70
     0
 43
0.0
 10
-612.9665722302585
 20
221.0168507202214
 10
-612.9832016128533
 20
221.0154448324192
 10
-612.9998309954483
 20
221.011209554178
 10
-613.0164603780432
 20
221.0041444593113
 10
-613.0330897606382
 20
220.994249121633
 10
-613.0497191432329
 20
220.9815231149571
 10
-613.066348525828
 20
220.9659660130974
 10
-613.0829779084228
 20
220.9475773898676
 10
-613.0996072910177
 20
220.9263568190817
 10
-613.1162366736125
 20
220.9023038745536
 10
-613.1328660562074
 20
220.8754181300969
 10
-613.1494954388023
 20
220.8456991595257
 10
-613.166124821397
 20
220.8131465366537
 10
-613.1827542039921
 20
220.7777602491879
 10
-613.1993835865869
 20
220.7395451162828
 10
-613.216012969182
 20
220.6985090836511
 10
-613.2326423517768
 20
220.6546601495428
 10
-613.2492717343716
 20
220.6080063122083
 10
-613.2659011169665
 20
220.5585555698974
 10
-613.2825304995613
 20
220.5063159208606
 10
-613.2991598821562
 20
220.4512953633478
 10
-613.3157892647512
 20
220.3935018956092
 10
-613.3324186473461
 20
220.332943515895
 10
-613.349048029941
 20
220.2696282224553
 10
-613.365677412536
 20
220.2035640135404
 10
-613.3823067951308
 20
220.1347588874001
 10
-613.3989361777255
 20
220.0632208422848
 10
-613.4155655603205
 20
219.9889578764446
 10
-613.4321949429154
 20
219.9119779881297
 10
-613.4488243255105
 20
219.8322891755902
 10
-613.4654537081051
 20
219.7498994370762
 10
-613.4820830907
 20
219.6648167708378
 10
-613.4987124732949
 20
219.5770491751259
210
0.0
220
0.0
230
-1.0
  0
LWPOLYLINE
  5
BB
330
1F
100
AcDbEntity
  8
0
  6
CONTINUOUS
 62
     7
100
AcDbPolyline
 90
      105
 70
     0
 43
0.0
 10
-739.4664683751515
 20
221.0169935408045
 10
-739.509432336208
 20
221.0076853352321
 10
-739.5523962972643
 20
220.9794262942476
 10
-739.595360258321
 20
220.9321843918458
 10
-739.6383242193774
 20
220.8659523835362
 10
-739.6812881804339
 20
220.7808203689318
 10
-739.7242521414901
 20
220.6769023461623
 10
-739.7672161025466
 20
220.5543123133575
 10
-739.810180063603
 20
220.4131642686468
 10
-739.8531440246595
 20
220.2535722101601
 10
-739.896107985716
 20
220.0756501360267
 10
-739.9390719467724
 20
219.8795120443766
 10
-739.9820359078288
 20
219.6652719333392
 10
-740.0249998688853
 20
219.4330438010443
 10
-740.0679638299418
 20
219.1829430553322
 10
-740.1109277909983
 20
218.915141396106
 10
-740.1538917520547
 20
218.6298845222447
 10
-740.1968557131111
 20
218.3274231669685
 10
-740.2398196741676
 20
218.0080080634976
 10
-740.2827836352242
 20
217.671889945052
 10
-740.3257475962806
 20
217.3193195448519
 10
-740.368711557337
 20
216.9505475961176
 10
-740.4116755183935
 20
216.565824832069
 10
-740.45463947945
 20
216.1654019859263
 10
-740.4976034405064
 20
215.7495297909097
 10
-740.540567401563
 20
215.318468354498
 10
-740.5835313626194
 20
214.8725505191887
 10
-740.6264953236758
 20
214.4121431296539
 10
-740.6694592847323
 20
213.9376132234007
 10
-740.7124232457887
 20
213.4493278379362
 10
-740.7553872068452
 20
212.9476540107674
 10
-740.7983511679017
 20
212.4329587794013
 10
-740.8413151289583
 20
211.9056091813449
 10
-740.8842790900146
 20
211.3659722541052
 10
-740.9272430510712
 20
210.8144150351893
 10
-740.9702070121277
 20
210.2513046384471
 10
-741.013170973184
 20
209.6770311941085
 10
-741.0561349342406
 20
209.0920400321974
 10
-741.099098895297
 20
208.4967845867386
 10
-741.1420628563534
 20
207.8917182917572
 10
-741.1850268174101
 20
207.2772945812779
 10
-741.2279907784664
 20
206.6539668893257
 10
-741.2709547395228
 20
206.0221886499254
 10
-741.3139187005793
 20
205.382413297102
 10
-741.3568826616358
 20
204.7350942648804
 10
-741.3998466226923
 20
204.0806849872853
 10
-741.4428105837488
 20
203.4196403754382
 10
-741.4857745448052
 20
202.7524409500703
 10
-741.5287385058617
 20
202.0795889100527
 10
-741.5717024669183
 20
201.4015871382053
 10
-741.6146664279746
 20
200.7189385173479
 10
-741.657630389031
 20
200.0321459303005
 10
-741.7005943500875
 20
199.3417122598833
 10
-741.743558311144
 20
198.648140388916
 10
-741.7865222722004
 20
197.9519332002186
 10
-741.8294862332568
 20
197.2535935766112
 10
-741.8724501943133
 20
196.5536244009136
 10
-741.91541415537
 20
195.8525297790096
 10
-741.9583781164262
 20
195.1508194465531
 10
-742.0013420774826
 20
194.4490047579952
 10
-742.0443060385392
 20
193.747597067931
 10
-742.0872699995955
 20
193.0471077309556
 10
-742.130233960652
 20
192.3480481016643
 10
-742.1731979217086
 20
191.6509295346522
 10
-742.2161618827649
 20
190.9562633845144
 10
-742.2591258438214
 20
190.2645610058461
 10
-742.3020898048777
 20
189.5763337532424
 10
-742.3450537659342
 20
188.8920927586328
 10
-742.3880177269907
 20
188.212336652122
 10
-742.4309816880472
 20
187.5375451639347
 10
-742.4739456491037
 20
186.8681964531054
 10
-742.5169096101602
 20
186.2047686786685
 10
-742.5598735712166
 20
185.5477399996582
 10
-742.602837532273
 20
184.8975885751093
 10
-742.6458014933297
 20
184.2547925640559
 10
-742.6887654543862
 20
183.6198301255327
 10
-742.7317294154426
 20
182.9931794185739
 10
-742.7746933764992
 20
182.375318602214
 10
-742.8176573375556
 20
181.7667211158371
 10
-742.8606212986122
 20
181.1678167774757
 10
-742.9035852596686
 20
180.5790118193207
 10
-742.946549220725
 20
180.0007122424248
 10
-742.9895131817816
 20
179.4333240478403
 10
-743.032477142838
 20
178.8772532366197
 10
-743.0754411038946
 20
178.3329058098157
 10
-743.118405064951
 20
177.8006877684805
 10
-743.1613690260073
 20
177.2810051136667
 10
-743.2043329870638
 20
176.7742638464268
 10
-743.2472969481203
 20
176.2808699362924
 10
-743.2902609091766
 20
175.801204731967
 10
-743.3332248702332
 20
175.3355808827374
 10
-743.3761888312896
 20
174.8842991489906
 10
-743.419152792346
 20
174.4476602911134
 10
-743.4621167534024
 20
174.0259650694929
 10
-743.5050807144588
 20
173.6195142445162
 10
-743.5480446755151
 20
173.2286085765701
 10
-743.5910086365716
 20
172.8535488260418
 10
-743.6339725976279
 20
172.4946357533182
 10
-743.6769365586845
 20
172.1521701187864
 10
-743.719900519741
 20
171.8264497970632
 10
-743.7628644807974
 20
171.5177096023195
 10
-743.8058284418538
 20
171.2261230753181
 10
-743.8487924029104
 20
170.9518612285516
 10
-743.891756363967
 20
170.6950950745128
 10
-743.9347203250231
 20
170.4559956256956
210
0.0
220
0.0
230
-1.0
  0
LWPOLYLINE
  5
BC
330
1F
100
AcDbEntity
  8
0
  6
CONTINUOUS
 62
     7
100
AcDbPolyline
 90
      105
 70
     0
 43
0.0
 10
-649.466167785707
 20
221.0169785544124
 10
-649.5091313522605
 20
221.0075730045803
 10
-649.5520949188139
 20
220.9792829226958
 10
-649.5950584853675
 20
220.9321385731422
 10
-649.6380220519211
 20
220.8661702203032
 10
-649.6809856184747
 20
220.7814081285622
 10
-649.7239491850282
 20
220.6778825623027
 10
-649.7669127515817
 20
220.5556237859082
 10
-649.8098763181351
 20
220.4146650554908
 10
-649.8528398846886
 20
220.2551084030119
 10
-649.895803451242
 20
220.0771246174494
 10
-649.9387670177956
 20
219.8808874757438
 10
-649.9817305843491
 20
219.6665707548351
 10
-650.0246941509026
 20
219.4343482316636
 10
-650.0676577174561
 20
219.1843936831696
 10
-650.1106212840098
 20
218.9168808862932
 10
-650.1535848505632
 20
218.6319836179747
 10
-650.1965484171167
 20
218.3298756551542
 10
-650.2395119836704
 20
218.0107307747721
 10
-650.2824755502238
 20
217.6747379238032
 10
-650.3254391167771
 20
217.3221707907054
 10
-650.3684026833308
 20
216.9533324757671
 10
-650.4113662498843
 20
216.5685261084051
 10
-650.454329816438
 20
216.1680548180357
 10
-650.4972933829913
 20
215.7522217340757
 10
-650.5402569495449
 20
215.3213299859417
 10
-650.5832205160984
 20
214.8756827030503
 10
-650.6261840826519
 20
214.4155830148181
 10
-650.6691476492055
 20
213.9413340506615
 10
-650.712111215759
 20
213.4532393179544
 10
-650.7550747823124
 20
212.9516372874537
 10
-650.7980383488659
 20
212.4369291977823
 10
-650.8410019154196
 20
211.9095228305659
 10
-650.8839654819731
 20
211.36982596743
 10
-650.9269290485265
 20
210.8182463900002
 10
-650.9698926150802
 20
210.2551918799022
 10
-651.0128561816337
 20
209.6810702187615
 10
-651.055819748187
 20
209.0962891882036
 10
-651.0987833147406
 20
208.5012565698542
 10
-651.1417468812942
 20
207.896380145339
 10
-651.1847104478477
 20
207.282071246803
 10
-651.2276740144014
 20
206.6587822617366
 10
-651.2706375809547
 20
206.0269919611187
 10
-651.3136011475082
 20
205.3871795510119
 10
-651.3565647140617
 20
204.7398242374786
 10
-651.3995282806152
 20
204.085405226581
 10
-651.4424918471688
 20
203.4244017243817
 10
-651.4854554137223
 20
202.7572929369429
 10
-651.5284189802759
 20
202.0845580703273
 10
-651.5713825468292
 20
201.4066763305971
 10
-651.6143461133828
 20
200.7241269248395
 10
-651.6573096799362
 20
200.0373954371913
 10
-651.7002732464898
 20
199.3469889323555
 10
-651.7432368130434
 20
198.6534189930939
 10
-651.786200379597
 20
197.9571972021683
 10
-651.8291639461504
 20
197.2588351423404
 10
-651.8721275127039
 20
196.5588443963719
 10
-651.9150910792574
 20
195.8577365470246
 10
-651.958054645811
 20
195.1560231770603
 10
-652.0010182123646
 20
194.4542158692408
 10
-652.0439817789181
 20
193.7528262063276
 10
-652.0869453454716
 20
193.0523656326705
 10
-652.1299089120251
 20
192.3533414472151
 10
-652.1728724785786
 20
191.6562561861285
 10
-652.2158360451323
 20
190.9616121229437
 10
-652.2587996116858
 20
190.269911531194
 10
-652.3017631782392
 20
189.5816566844124
 10
-652.3447267447926
 20
188.8973498561323
 10
-652.3876903113462
 20
188.2174933198867
 10
-652.4306538778999
 20
187.5425893492089
 10
-652.4736174444533
 20
186.8731402176319
 10
-652.5165810110068
 20
186.2096481986891
 10
-652.5595445775604
 20
185.5526106709341
 10
-652.6025081441139
 20
184.9024927597834
 10
-652.6454717106674
 20
184.2597465389867
 10
-652.6884352772208
 20
183.6248240454762
 10
-652.7313988437743
 20
182.9981773161838
 10
-652.774362410328
 20
182.3802583880416
 10
-652.8173259768814
 20
181.7715192979815
 10
-652.8602895434349
 20
181.1724120829355
 10
-652.9032531099884
 20
180.5833887798357
 10
-652.946216676542
 20
180.0049014256141
 10
-652.9891802430955
 20
179.437401890772
 10
-653.032143809649
 20
178.8813160015742
 10
-653.0751073762025
 20
178.3370154660623
 10
-653.1180709427562
 20
177.8048652506853
 10
-653.1610345093096
 20
177.2852303218922
 10
-653.2039980758632
 20
176.7784756461322
 10
-653.2469616424166
 20
176.2849661898543
 10
-653.2899252089703
 20
175.8050669195075
 10
-653.3328887755238
 20
175.3391428015408
 10
-653.3758523420773
 20
174.8875588024034
 10
-653.4188159086309
 20
174.4506798885444
 10
-653.4617794751842
 20
174.0288665010991
 10
-653.5047430417379
 20
173.6224151984985
 10
-653.5477066082914
 20
173.2315752499264
 10
-653.5906701748448
 20
172.8565948123384
 10
-653.6336337413984
 20
172.4977220426903
 10
-653.6765973079519
 20
172.1552050979376
 10
-653.7195608745053
 20
171.8292921350361
 10
-653.762524441059
 20
171.5202313109415
 10
-653.8054880076122
 20
171.2282707826093
 10
-653.8484515741659
 20
170.9536587069955
 10
-653.8914151407193
 20
170.6966432410538
 10
-653.9343787072735
 20
170.4574494143242
210
0.0
220
0.0
230
-1.0
  0
LWPOLYLINE
  5
BD
330
1F
100
AcDbEntity
  8
0
  6
CONTINUOUS
 62
     7
100
AcDbPolyline
 90
       33
 70
     0
 43
0.0
 10
657.9662897292743
 20
169.0177141028018
 10
657.9829161679874
 20
169.0191370765946
 10
657.9995426067001
 20
169.0233923767965
 10
658.016169045413
 20
169.0304779773395
 10
658.0327954841259
 20
169.0403918521555
 10
658.049421922839
 20
169.0531319751764
 10
658.0660483615519
 20
169.0686963203341
 10
658.0826748002646
 20
169.0870828615606
 10
658.0993012389778
 20
169.1082895727878
 10
658.1159276776906
 20
169.1323144279475
 10
658.1325541164035
 20
169.1591554009718
 10
658.1491805551163
 20
169.1888104657925
 10
658.1658069938293
 20
169.2212775963417
 10
658.1824334325424
 20
169.2565547665511
 10
658.1990598712553
 20
169.2946399503527
 10
658.2156863099681
 20
169.3355311216785
 10
658.2323127486809
 20
169.3792262544603
 10
658.2489391873941
 20
169.4257233226303
 10
658.2655656261069
 20
169.47502030012
 10
658.2821920648198
 20
169.5271151608617
 10
658.2988185035326
 20
169.582005878787
 10
658.3154449422457
 20
169.6396898445291
 10
658.3320713809586
 20
169.7001593690029
 10
658.3486978196714
 20
169.7634041463973
 10
658.3653242583842
 20
169.8294138492394
 10
658.3819506970973
 20
169.8981781500562
 10
658.3985771358101
 20
169.9696867213746
 10
658.4152035745229
 20
170.0439292357218
 10
658.431830013236
 20
170.1208953656248
 10
658.4484564519489
 20
170.2005747836106
 10
658.4650828906617
 20
170.2829571622061
 10
658.4817093293747
 20
170.3680321739385
 10
658.4983357680878
 20
170.4557894913358
  0
LWPOLYLINE
  5
BE
330
1F
100
AcDbEntity
  8
0
  6
CONTINUOUS
 62
     7
100
AcDbPolyline
 90
      105
 70
     0
 43
0.0
 10
-609.4665722111423
 20
221.0168426597894
 10
-609.5095320323005
 20
221.0074238725282
 10
-609.5524918534585
 20
220.979117823794
 10
-609.5954516746165
 20
220.9319171657718
 10
-609.6384114957748
 20
220.8658145506465
 10
-609.6813713169325
 20
220.7808029079241
 10
-609.7243311380909
 20
220.6769186043598
 10
-609.7672909592488
 20
220.5542882872178
 10
-609.8102507804068
 20
220.413049853196
 10
-609.8532106015649
 20
220.2533411989922
 10
-609.8961704227231
 20
220.0753002213042
 10
-609.9391302438812
 20
219.8790648168296
 10
-609.9820900650391
 20
219.6647728822662
 10
-610.0250498861974
 20
219.432562314312
 10
-610.0680097073553
 20
219.1825710096644
 10
-610.1109695285134
 20
218.9149368650214
 10
-610.1539293496713
 20
218.6298029431958
 10
-610.1968891708295
 20
218.3273855215191
 10
-610.2398489919876
 20
218.0079552187631
 10
-610.2828088131456
 20
217.6717839397321
 10
-610.3257686343037
 20
217.3191435892302
 10
-610.3687284554617
 20
216.9503060720619
 10
-610.4116882766198
 20
216.5655432930314
 10
-610.4546480977779
 20
216.1651271569429
 10
-610.497607918936
 20
215.7493295686008
 10
-610.5405677400939
 20
215.3184224328093
 10
-610.583527561252
 20
214.8726776543728
 10
-610.6264873824101
 20
214.412385907232
 10
-610.669447203568
 20
213.9379124328543
 10
-610.7124070247262
 20
213.4496409881968
 10
-610.7553668458842
 20
212.9479553302163
 10
-610.7983266670423
 20
212.4332392158698
 10
-610.8412864882002
 20
211.9058764021142
 10
-610.8842463093583
 20
211.3662506459063
 10
-610.9272061305164
 20
210.8147457042031
 10
-610.9701659516744
 20
210.2517453339614
 10
-611.0131257728326
 20
209.6776332921383
 10
-611.0560855939906
 20
209.0927941365796
 10
-611.0990454151487
 20
208.4976453438141
 10
-611.1420052363068
 20
207.8926482146616
 10
-611.1849650574648
 20
207.2782670880913
 10
-611.227924878623
 20
206.6549663030723
 10
-611.2708846997812
 20
206.0232101985734
 10
-611.313844520939
 20
205.3834631135638
 10
-611.3568043420972
 20
204.7361893870125
 10
-611.3997641632553
 20
204.0818533578884
 10
-611.4427239844132
 20
203.4209193651606
 10
-611.4856838055713
 20
202.7538517477982
 10
-611.5286436267296
 20
202.0811182139955
 10
-611.5716034478876
 20
201.4032131137005
 10
-611.6145632690457
 20
200.7206434548022
 10
-611.6575230902038
 20
200.0339163219778
 10
-611.7004829113617
 20
199.3435387999047
 10
-611.7434427325198
 20
198.6500179732602
 10
-611.7864025536778
 20
197.9538609267217
 10
-611.8293623748359
 20
197.2555747449665
 10
-611.872322195994
 20
196.555666512672
 10
-611.915282017152
 20
195.8546433145155
 10
-611.95824183831
 20
195.1530122362918
 10
-612.001201659468
 20
194.4512807376449
 10
-612.0441614806263
 20
193.749957192412
 10
-612.0871213017844
 20
193.0495501115737
 10
-612.1300811229422
 20
192.3505680061106
 10
-612.1730409441004
 20
191.6535193870035
 10
-612.2160007652585
 20
190.9589127652331
 10
-612.2589605864165
 20
190.26725665178
 10
-612.3019204075747
 20
189.5790595576249
 10
-612.3448802287327
 20
188.8948299937485
 10
-612.3878400498907
 20
188.2150764711314
 10
-612.4307998710489
 20
187.540306354974
 10
-612.473759692207
 20
186.8710064752411
 10
-612.5167195133649
 20
186.2076459174729
 10
-612.559679334523
 20
185.550693183327
 10
-612.6026391556812
 20
184.9006167744615
 10
-612.6455989768391
 20
184.257885192534
 10
-612.6885587979972
 20
183.6229669392024
 10
-612.7315186191554
 20
182.9963305161246
 10
-612.7744784403134
 20
182.3784444249582
 10
-612.8174382614715
 20
181.7697771673613
 10
-612.8603980826294
 20
181.1707972449915
 10
-612.9033579037877
 20
180.5819621849513
 10
-612.9463177249456
 20
180.0036776264236
 10
-612.9892775461036
 20
179.4363338884901
 10
-613.0322373672617
 20
178.8803212879886
 10
-613.0751971884199
 20
178.3360301417567
 10
-613.1181570095778
 20
177.803850766632
 10
-613.1611168307359
 20
177.2841734794523
 10
-613.204076651894
 20
176.7773885970551
 10
-613.2470364730519
 20
176.2838864362782
 10
-613.28999629421
 20
175.8040573139593
 10
-613.3329561153682
 20
175.3382908713575
 10
-613.3759159365261
 20
174.8869360533811
 10
-613.4188757576842
 20
174.4502786324699
 10
-613.4618355788424
 20
174.028598935974
 10
-613.5047954000004
 20
173.6221772912435
 10
-613.5477552211585
 20
173.2312940256285
 10
-613.5907150423166
 20
172.8562294664792
 10
-613.6336748634745
 20
172.4972639411457
 10
-613.6766346846327
 20
172.1546777769783
 10
-613.7195945057907
 20
171.828751301327
 10
-613.7625543269487
 20
171.5197648415419
 10
-613.8055141481067
 20
171.2279904203928
 10
-613.8484739692649
 20
170.9536203917955
 10
-613.8914337904231
 20
170.6968027311199
 10
-613.9343936115808
 20
170.4576849339709
210
0.0
220
0.0
230
-1.0
  0
LWPOLYLINE
  5
BF
330
1F
100
AcDbEntity
  8
0
  6
CONTINUOUS
 62
     7
100
AcDbPolyline
 90
        3
 70
     0
 43
0.0
 10
698.1191038177194
 20
171.2067454864529
 10
698.1873182727007
 20
171.0996459192078
 10
698.3191923811713
 20
171.0173716406939
  0
LWPOLYLINE
  5
C0
330
1F
100
AcDbEntity
  8
0
  6
CONTINUOUS
 62
     7
100
AcDbPolyline
 90
       33
 70
     0
 43
0.0
 10
637.9666010802491
 20
169.0178579029138
 10
637.9832236590796
 20
169.019309458282
 10
637.9998462379101
 20
169.0235878513194
 10
638.0164688167406
 20
169.03069214569
 10
638.0330913955711
 20
169.0406214050573
 10
638.0497139744016
 20
169.0533746930852
 10
638.0663365532321
 20
169.0689510734374
 10
638.0829591320626
 20
169.0873496097778
 10
638.0995817108931
 20
169.1085693657699
 10
638.1162042897236
 20
169.1326094050778
 10
638.132826868554
 20
169.1594687913649
 10
638.1494494473844
 20
169.1891465882952
 10
638.1660720262148
 20
169.2216418595323
 10
638.1826946050454
 20
169.2569536687402
 10
638.1993171838758
 20
169.2950810795824
 10
638.2159397627064
 20
169.3360231557228
 10
638.232562341537
 20
169.3797789608251
 10
638.2491849203674
 20
169.426347529832
 10
638.2658074991979
 20
169.4757251314304
 10
638.2824300780284
 20
169.5279030063232
 10
638.2990526568586
 20
169.5828718628712
 10
638.3156752356892
 20
169.6406224094358
 10
638.3322978145197
 20
169.7011453543778
 10
638.3489203933503
 20
169.7644314060582
 10
638.3655429721808
 20
169.8304712728383
 10
638.3821655510112
 20
169.899255663079
 10
638.3987881298417
 20
169.9707752851414
 10
638.4154107086722
 20
170.0450208473865
 10
638.4320332875027
 20
170.1219830581754
 10
638.4486558663332
 20
170.201652625869
 10
638.4652784451637
 20
170.2840202588287
 10
638.481901023994
 20
170.3690766654152
 10
638.4985236028247
 20
170.4568125539898
  0
LWPOLYLINE
  5
C1
330
1F
100
AcDbEntity
  8
0
  6
CONTINUOUS
 62
     7
100
AcDbPolyline
 90
        3
 70
     0
 43
0.0
 10
678.1401993728708
 20
171.1690863731097
 10
678.2084892589319
 20
171.0754866294836
 10
678.3191794693431
 20
171.0173716407095
  0
LWPOLYLINE
  5
C2
330
1F
100
AcDbEntity
  8
0
  6
CONTINUOUS
 62
     7
100
AcDbPolyline
 90
        3
 70
     0
 43
0.0
 10
688.1618604763376
 20
171.1345548543167
 10
688.2281618423966
 20
171.0566024422483
 10
688.3191855120873
 20
171.017371640721
  0
LWPOLYLINE
  5
C3
330
1F
100
AcDbEntity
  8
0
  6
CONTINUOUS
 62
     7
100
AcDbPolyline
 90
      105
 70
     0
 43
0.0
 10
-709.4669850989624
 20
221.0172487810905
 10
-709.5099449507663
 20
221.0076320608025
 10
-709.5529048025701
 20
220.9789737774137
 10
-709.5958646543739
 20
220.9313396470084
 10
-709.6388245061779
 20
220.8648159648253
 10
-709.6817843579818
 20
220.7794890261032
 10
-709.7247442097857
 20
220.6754451260808
 10
-709.7677040615896
 20
220.5527705599966
 10
-709.8106639133933
 20
220.4115516230894
 10
-709.8536237651973
 20
220.2518746105978
 10
-709.8965836170013
 20
220.0738258177606
 10
-709.9395434688051
 20
219.8774915398163
 10
-709.9825033206091
 20
219.6629601003002
 10
-710.025463172413
 20
219.4303816006199
 10
-710.0684230242168
 20
219.1799777148537
 10
-710.1113828760208
 20
218.9119741176463
 10
-710.1543427278247
 20
218.6265964836422
 10
-710.1973025796286
 20
218.3240704874857
 10
-710.2402624314326
 20
218.0046218038215
 10
-710.2832222832366
 20
217.668476107294
 10
-710.3261821350404
 20
217.3158590725476
 10
-710.3691419868444
 20
216.946996374227
 10
-710.4121018386483
 20
216.5621136869765
 10
-710.4550616904521
 20
216.1614483017919
 10
-710.498021542256
 20
215.7453150442647
 10
-710.5409813940598
 20
215.3140604840135
 10
-710.5839412458637
 20
214.8680312861641
 10
-710.6269010976677
 20
214.4075741158417
 10
-710.6698609494716
 20
213.9330356381718
 10
-710.7128208012754
 20
213.4447625182799
 10
-710.7557806530792
 20
212.9431014212914
 10
-710.798740504883
 20
212.4283990123318
 10
-710.8417003566868
 20
211.9010019565266
 10
-710.8846602084907
 20
211.3612570846912
 10
-710.9276200602947
 20
210.8095386665141
 10
-710.9705799120984
 20
210.2462787884725
 10
-711.0135397639024
 20
209.6719168584319
 10
-711.0564996157062
 20
209.0868922842575
 10
-711.0994594675102
 20
208.4916444738144
 10
-711.1424193193142
 20
207.886612834968
 10
-711.185379171118
 20
207.2722367755836
 10
-711.228339022922
 20
206.6489557035263
 10
-711.271298874726
 20
206.0172090266616
 10
-711.3142587265298
 20
205.3774361528545
 10
-711.3572185783337
 20
204.730078632486
 10
-711.4001784301377
 20
204.0756089689795
 10
-711.4431382819416
 20
203.4145229405073
 10
-711.4860981337456
 20
202.7473168928624
 10
-711.5290579855495
 20
202.0744871718379
 10
-711.5720178373533
 20
201.3965301232271
 10
-711.6149776891573
 20
200.7139420928227
 10
-711.6579375409611
 20
200.0272194264181
 10
-711.7008973927651
 20
199.3368584698062
 10
-711.743857244569
 20
198.6433555687802
 10
-711.7868170963728
 20
197.9472070691331
 10
-711.8297769481768
 20
197.2489120437343
 10
-711.8727367999808
 20
196.5489805610518
 10
-711.9156966517846
 20
195.8479254604514
 10
-711.9586565035885
 20
195.1462595812985
 10
-712.0016163553923
 20
194.444495762959
 10
-712.0445762071963
 20
193.7431468447984
 10
-712.0875360590001
 20
193.0427256661824
 10
-712.1304959108039
 20
192.3437450664766
 10
-712.1734557626078
 20
191.6467178850468
 10
-712.2164156144117
 20
190.9521569612586
 10
-712.2593754662158
 20
190.260574892451
 10
-712.3023353180195
 20
189.5724740251199
 10
-712.3452951698232
 20
188.8883428808338
 10
-712.3882550216271
 20
188.2086690042096
 10
-712.4312148734309
 20
187.5339399398642
 10
-712.4741747252347
 20
186.8646432324145
 10
-712.5171345770386
 20
186.2012664264775
 10
-712.5600944288426
 20
185.54429706667
 10
-712.6030542806463
 20
184.894222697609
 10
-712.6460141324502
 20
184.2515308639113
 10
-712.6889739842542
 20
183.6167091101938
 10
-712.7319338360581
 20
182.9902399523059
 10
-712.774893687862
 20
182.3725654991294
 10
-712.817853539666
 20
181.7641083981025
 10
-712.86081339147
 20
181.1652911718951
 10
-712.9037732432738
 20
180.5765363431771
 10
-712.9467330950777
 20
179.9982664346186
 10
-712.9896929468815
 20
179.4309039688895
 10
-713.0326527986856
 20
178.8748714686599
 10
-713.0756126504895
 20
178.3305914565997
 10
-713.1185725022933
 20
177.7984864553788
 10
-713.1615323540973
 20
177.2789789163822
 10
-713.2044922059011
 20
176.7724655281838
 10
-713.2474520577051
 20
176.2792790950005
 10
-713.2904119095091
 20
175.7997426886206
 10
-713.333371761313
 20
175.3341793808323
 10
-713.3763316131169
 20
174.8829122434238
 10
-713.4192914649208
 20
174.4462643481834
 10
-713.4622513167246
 20
174.0245587668992
 10
-713.5052111685286
 20
173.6181185713595
 10
-713.5481710203326
 20
173.2272668333524
 10
-713.5911308721362
 20
172.8523266246663
 10
-713.6340907239403
 20
172.4936175094284
 10
-713.677050575744
 20
172.151394861378
 10
-713.7200104275479
 20
171.8258578730629
 10
-713.7629702793519
 20
171.5172038401336
 10
-713.8059301311558
 20
171.2256300582401
 10
-713.8488899829597
 20
170.9513338230329
 10
-713.8918498347634
 20
170.694512430162
 10
-713.9348096865688
 20
170.4553631752707
210
0.0
220
0.0
230
-1.0
  0
LWPOLYLINE
  5
C4
330
1F
100
AcDbEntity
  8
0
  6
CONTINUOUS
 62
     7
100
AcDbPolyline
 90
        3
 70
     0
 43
0.0
 10
648.1416145440663
 20
171.1665959397339
 10
648.2078884060611
 20
171.0761126575282
 10
648.3191379612354
 20
171.0173716407186
  0
LWPOLYLINE
  5
C5
330
1F
100
AcDbEntity
  8
0
  6
CONTINUOUS
 62
     7
100
AcDbPolyline
 90
       33
 70
     0
 43
0.0
 10
677.9661911661337
 20
169.0175362338666
 10
677.9828181557905
 20
169.0189427621619
 10
677.9994451454476
 20
169.023189809928
 10
678.0160721351044
 20
169.0302742644311
 10
678.0326991247613
 20
169.0401930129374
 10
678.0493261144181
 20
169.052942942713
 10
678.0659531040749
 20
169.0685209410243
 10
678.0825800937318
 20
169.0869238951377
 10
678.0992070833888
 20
169.1081486923191
 10
678.1158340730458
 20
169.132192219835
 10
678.1324610627025
 20
169.1590513649514
 10
678.1490880523594
 20
169.1887230149347
 10
678.1657150420165
 20
169.2212040570512
 10
678.1823420316731
 20
169.2564913785669
 10
678.1989690213301
 20
169.2945818667483
 10
678.2155960109869
 20
169.3354724088614
 10
678.232223000644
 20
169.3791598921727
 10
678.2488499903008
 20
169.4256412039481
 10
678.2654769799576
 20
169.4749132314542
 10
678.2821039696144
 20
169.526972861957
 10
678.2987309592713
 20
169.5818169827228
 10
678.3153579489284
 20
169.6394424810179
 10
678.331984938585
 20
169.6998462441084
 10
678.348611928242
 20
169.7630251592607
 10
678.3652389178988
 20
169.828976095908
 10
678.3818659075558
 20
169.8976934098595
 10
678.3984928972126
 20
169.9691663709241
 10
678.4151198868695
 20
170.0433836350223
 10
678.4317468765265
 20
170.1203338580742
 10
678.4483738661834
 20
170.2000056960002
 10
678.4650008558403
 20
170.2823878047205
 10
678.481627845497
 20
170.3674688401553
 10
678.498254835154
 20
170.4552374582248
  0
LWPOLYLINE
  5
C6
330
1F
100
AcDbEntity
  8
0
  6
CONTINUOUS
 62
     7
100
AcDbPolyline
 90
      105
 70
     0
 43
0.0
 10
-729.4666746936546
 20
221.0170830041437
 10
-729.5096360741732
 20
221.0076816741692
 10
-729.5525974546921
 20
220.9792971632558
 10
-729.5955588352109
 20
220.9318960655302
 10
-729.6385202157298
 20
220.8655305489175
 10
-729.6814815962485
 20
220.7803046734467
 10
-729.7244429767675
 20
220.6763232265077
 10
-729.7674043572863
 20
220.5536909954903
 10
-729.8103657378052
 20
220.4125127677841
 10
-729.853327118324
 20
220.2528933307792
 10
-729.896288498843
 20
220.074937471865
 10
-729.9392498793618
 20
219.8787499784317
 10
-729.9822112598806
 20
219.6644356378688
 10
-730.0251726403994
 20
219.4320992487023
 10
-730.0681340209185
 20
219.1818743520754
 10
-730.1110954014373
 20
218.913985439961
 10
-730.1540567819563
 20
218.6286749511702
 10
-730.197018162475
 20
218.3261853245139
 10
-730.239979542994
 20
218.0067589988034
 10
-730.2829409235129
 20
217.6706384128496
 10
-730.3259023040316
 20
217.3180660054635
 10
-730.3688636845507
 20
216.9492842154564
 10
-730.4118250650696
 20
216.5645354816392
 10
-730.4547864455884
 20
216.1640622428229
 10
-730.4977478261075
 20
215.7481089441363
 10
-730.5407092066263
 20
215.3169740909158
 10
-730.5836705871452
 20
214.8710150497481
 10
-730.6266319676638
 20
214.4105921559253
 10
-730.6695933481827
 20
213.9360657447397
 10
-730.7125547287017
 20
213.4477961514836
 10
-730.7555161092204
 20
212.9461437114492
 10
-730.7984774897392
 20
212.4314687599288
 10
-730.841438870258
 20
211.9041316322145
 10
-730.8844002507768
 20
211.3644926635988
 10
-730.9273616312958
 20
210.8129121893738
 10
-730.9703230118147
 20
210.2497598064321
 10
-731.0132843923335
 20
209.6754624357223
 10
-731.0562457728522
 20
209.0904689034947
 10
-731.099207153371
 20
208.4952280798786
 10
-731.1421685338898
 20
207.8901888350032
 10
-731.1851299144088
 20
207.2758000389979
 10
-731.2280912949275
 20
206.6525105619919
 10
-731.2710526754464
 20
206.0207692741143
 10
-731.3140140559651
 20
205.3810250454946
 10
-731.356975436484
 20
204.7337267462619
 10
-731.3999368170028
 20
204.0793233739018
 10
-731.4428981975218
 20
203.4182801281528
 10
-731.4858595780406
 20
202.7510941112565
 10
-731.5288209585595
 20
202.0782661523417
 10
-731.5717823390784
 20
201.4002970805373
 10
-731.6147437195973
 20
200.7176877249724
 10
-731.6577051001161
 20
200.030938914776
 10
-731.700666480635
 20
199.340551479077
 10
-731.7436278611539
 20
198.6470262470043
 10
-731.7865892416728
 20
197.950864047687
 10
-731.8295506221917
 20
197.2525657102541
 10
-731.8725120027106
 20
196.5526325369499
 10
-731.9154733832293
 20
195.8515720415501
 10
-731.9584347637483
 20
195.1498961112575
 10
-732.0013961442672
 20
194.4481167245246
 10
-732.0443575247858
 20
193.7467458598035
 10
-732.0873189053048
 20
193.0462954955465
 10
-732.1302802858237
 20
192.3472776102059
 10
-732.1732416663424
 20
191.6502041822338
 10
-732.2162030468613
 20
190.9555871900827
 10
-732.2591644273801
 20
190.2639386122048
 10
-732.3021258078992
 20
189.5757704269934
 10
-732.3450871884179
 20
188.8915891648084
 10
-732.3880485689367
 20
188.2118809922297
 10
-732.4310099494556
 20
187.5371273188623
 10
-732.4739713299743
 20
186.8678095543113
 10
-732.5169327104934
 20
186.2044091081818
 10
-732.5598940910122
 20
185.5474073900789
 10
-732.6028554715309
 20
184.8972858096076
 10
-732.64581685205
 20
184.2545257763732
 10
-732.6887782325688
 20
183.6196086999806
 10
-732.7317396130875
 20
182.993015990035
 10
-732.7747009936064
 20
182.3752282460779
 10
-732.8176623741252
 20
181.7666966006637
 10
-732.8606237546442
 20
181.1678350392264
 10
-732.9035851351631
 20
180.5790551752323
 10
-732.9465465156818
 20
180.0007686221478
 10
-732.9895078962006
 20
179.4333869934397
 10
-733.0324692767198
 20
178.8773219025742
 10
-733.0754306572385
 20
178.3329849630178
 10
-733.1183920377573
 20
177.800787788237
 10
-733.1613534182762
 20
177.2811419916984
 10
-733.2043147987952
 20
176.7744591868683
 10
-733.2472761793141
 20
176.2811421619647
 10
-733.2902375598328
 20
175.801528526866
 10
-733.3331989403516
 20
175.3359266962233
 10
-733.3761603208707
 20
174.8846449473579
 10
-733.4191217013895
 20
174.4479915575908
 10
-733.4620830819084
 20
174.0262748042431
 10
-733.5050444624271
 20
173.6198029646357
 10
-733.548005842946
 20
173.2288843160899
 10
-733.5909672234649
 20
172.8538271359267
 10
-733.6339286039837
 20
172.4949397014671
 10
-733.6768899845025
 20
172.1525301454403
 10
-733.7198513650212
 20
171.8268711896631
 10
-733.7628127455403
 20
171.5181540745928
 10
-733.8057741260591
 20
171.2265586216645
 10
-733.8487355065778
 20
170.9522646523134
 10
-733.8916968870966
 20
170.6954519879749
 10
-733.9346582676166
 20
170.4563004500782
210
0.0
220
0.0
230
-1.0
  0
LWPOLYLINE
  5
C7
330
1F
100
AcDbEntity
  8
0
  6
CONTINUOUS
 62
     7
100
AcDbPolyline
 90
        4
 70
     0
 43
0.0
 10
638.1161481346087
 20
171.2124844634982
 10
638.1824203641903
 20
171.1059286447384
 10
638.3188285267831
 20
171.0175336272023
 10
638.3191245764816
 20
171.0173716406936
  0
LWPOLYLINE
  5
C8
330
1F
100
AcDbEntity
  8
0
  6
CONTINUOUS
 62
     7
100
AcDbPolyline
 90
       33
 70
     0
 43
0.0
 10
617.9673699933776
 20
169.0179039012361
 10
617.9839674287227
 20
169.0194481364879
 10
618.0005648640679
 20
169.0238103812526
 10
618.0171622994128
 20
169.0309907880792
 10
618.0337597347578
 20
169.0409895095168
 10
618.0503571701031
 20
169.0538066981144
 10
618.0669546054481
 20
169.0694425064208
 10
618.0835520407933
 20
169.0878970869851
 10
618.1001494761383
 20
169.1091705923563
 10
618.1167469114835
 20
169.1332631750834
 10
618.1333443468284
 20
169.1601749877154
 10
618.1499417821736
 20
169.1899061828013
 10
618.1665392175186
 20
169.2224569128901
 10
618.1831366528639
 20
169.2578273305307
 10
618.1997340882089
 20
169.2960168447483
 10
618.216331523554
 20
169.3370195582412
 10
618.232928958899
 20
169.3808272673088
 10
618.2495263942441
 20
169.4274317588266
 10
618.2661238295893
 20
169.4768248196698
 10
618.2827212649343
 20
169.5289982367138
 10
618.2993187002795
 20
169.5839437968338
 10
618.3159161356245
 20
169.6416532869053
 10
618.3325135709696
 20
169.7021184938036
 10
618.3491110063148
 20
169.765331204404
 10
618.3657084416598
 20
169.8312832055818
 10
618.3823058770048
 20
169.8999662842125
 10
618.39890331235
 20
169.9713722271713
 10
618.415500747695
 20
170.0454928213335
 10
618.4320981830401
 20
170.1223198535746
 10
618.4486956183853
 20
170.2018451107698
 10
618.4652930537304
 20
170.2840603797945
 10
618.4818904890755
 20
170.3689574475239
 10
618.4984879244206
 20
170.4565281008335
  0
LWPOLYLINE
  5
C9
330
1F
100
AcDbEntity
  8
0
  6
CONTINUOUS
 62
     7
100
AcDbPolyline
 90
        3
 70
     0
 43
0.0
 10
618.139125114207
 20
171.1709182578801
 10
618.2054313842913
 20
171.0786840907618
 10
618.3191187304823
 20
171.0173716407257
  0
LWPOLYLINE
  5
CA
330
1F
100
AcDbEntity
  8
0
  6
CONTINUOUS
 62
     7
100
AcDbPolyline
 90
       33
 70
     0
 43
0.0
 10
-672.9672698115445
 20
221.0171594867438
 10
-672.9838708729133
 20
221.0155705785725
 10
-673.0004719342817
 20
221.0111525306934
 10
-673.0170729956502
 20
221.0039081712874
 10
-673.0336740570187
 20
220.9938403285351
 10
-673.0502751183874
 20
220.9809518306173
 10
-673.066876179756
 20
220.9652455057145
 10
-673.0834772411246
 20
220.9467241820077
 10
-673.1000783024933
 20
220.9253906876774
 10
-673.1166793638617
 20
220.9012478509043
 10
-673.1332804252303
 20
220.8742984998692
 10
-673.1498814865989
 20
220.8445454627528
 10
-673.1664825479676
 20
220.8119915677357
 10
-673.1830836093362
 20
220.7766396429987
 10
-673.1996846707048
 20
220.7384925167225
 10
-673.2162857320733
 20
220.6975530170877
 10
-673.2328867934419
 20
220.6538239722752
 10
-673.2494878548106
 20
220.6073082104656
 10
-673.2660889161789
 20
220.5580085598395
 10
-673.2826899775478
 20
220.5059278485779
 10
-673.2992910389161
 20
220.4510689048611
 10
-673.3158921002848
 20
220.3934345568701
 10
-673.3324931616532
 20
220.3330276327855
 10
-673.349094223022
 20
220.2698509646833
 10
-673.3656952843905
 20
220.2039094058612
 10
-673.3822963457592
 20
220.1352131307683
 10
-673.3988974071277
 20
220.063773179158
 10
-673.4154984684963
 20
219.9896005907834
 10
-673.4320995298649
 20
219.9127064053976
 10
-673.4487005912333
 20
219.8331016627536
 10
-673.4653016526021
 20
219.7507974026048
 10
-673.4819027139705
 20
219.6658046647042
 10
-673.4985037753394
 20
219.5781344888042
210
0.0
220
0.0
230
-1.0
  0
LWPOLYLINE
  5
CB
330
1F
100
AcDbEntity
  8
0
  6
CONTINUOUS
 62
     7
100
AcDbPolyline
 90
       33
 70
     0
 43
0.0
 10
667.9661652024162
 20
169.0176234742743
 10
667.9827916323032
 20
169.019029119064
 10
667.9994180621906
 20
169.0232706230568
 10
668.0160444920779
 20
169.0303454165787
 10
668.032670921965
 20
169.0402509299559
 10
668.0492973518521
 20
169.0529845935145
 10
668.0659237817395
 20
169.0685438375806
 10
668.0825502116267
 20
169.0869260924803
 10
668.0991766415137
 20
169.1081287885399
 10
668.1158030714009
 20
169.1321493560853
 10
668.1324295012882
 20
169.1589852254427
 10
668.1490559311754
 20
169.1886338269382
 10
668.1656823610629
 20
169.2210925908981
 10
668.1823087909498
 20
169.2563589476482
 10
668.1989352208373
 20
169.2944303275149
 10
668.2155616507245
 20
169.3353041608241
 10
668.2321880806115
 20
169.3789778779022
 10
668.2488145104988
 20
169.425448909075
 10
668.2654409403859
 20
169.4747146846689
 10
668.2820673702731
 20
169.5267726350098
 10
668.2986938001605
 20
169.5816201904241
 10
668.3153202300476
 20
169.6392547812376
 10
668.331946659935
 20
169.6996738377766
 10
668.348573089822
 20
169.762873463313
 10
668.3651995197094
 20
169.8288442508315
 10
668.3818259495965
 20
169.8975753633184
 10
668.3984523794837
 20
169.9690559637577
 10
668.415078809371
 20
170.0432752151332
 10
668.4317052392582
 20
170.1202222804289
 10
668.4483316691455
 20
170.1998863226285
 10
668.4649580990327
 20
170.282256504716
 10
668.4815845289197
 20
170.3673219896753
 10
668.498210958807
 20
170.4550719404898
  0
LWPOLYLINE
  5
CC
330
1F
100
AcDbEntity
  8
0
  6
CONTINUOUS
 62
     7
100
AcDbPolyline
 90
       33
 70
     0
 43
0.0
 10
627.9665932986993
 20
169.0178940479751
 10
627.9832171572765
 20
169.0193280766503
 10
627.9998410158536
 20
169.0235887517229
 10
628.0164648744308
 20
169.0306756814903
 10
628.0330887330077
 20
169.0405884742499
 10
628.0497125915849
 20
169.0533267382988
 10
628.0663364501619
 20
169.0688900819343
 10
628.0829603087391
 20
169.0872781134538
 10
628.099584167316
 20
169.1084904411545
 10
628.1162080258931
 20
169.1325266733338
 10
628.1328318844704
 20
169.1593864182889
 10
628.1494557430475
 20
169.189069284317
 10
628.1660796016247
 20
169.2215748797157
 10
628.1827034602018
 20
169.256902812782
 10
628.1993273187788
 20
169.2950526918133
 10
628.2159511773559
 20
169.3360241250687
 10
628.232575035933
 20
169.3798151937542
 10
628.2491988945102
 20
169.426418397983
 10
628.2658227530874
 20
169.4758249631815
 10
628.2824466116646
 20
169.5280261147762
 10
628.2990704702415
 20
169.5830130781935
 10
628.3156943288186
 20
169.6407770788602
 10
628.3323181873958
 20
169.7013093422027
 10
628.3489420459728
 20
169.7646010936474
 10
628.3655659045497
 20
169.8306435586209
 10
628.3821897631269
 20
169.8994279625498
 10
628.3988136217042
 20
169.9709455308604
 10
628.4154374802813
 20
170.0451874889794
 10
628.4320613388584
 20
170.1221450623332
 10
628.4486851974355
 20
170.2018094763483
 10
628.4653090560126
 20
170.2841719564514
 10
628.4819329145896
 20
170.3692237280687
 10
628.4985567731668
 20
170.4569560166268
  0
LWPOLYLINE
  5
CD
330
1F
100
AcDbEntity
  8
0
  6
CONTINUOUS
 62
     7
100
AcDbPolyline
 90
       33
 70
     0
 43
0.0
 10
687.9663991043427
 20
169.0174679313993
 10
687.9830221148522
 20
169.0188965437484
 10
687.9996451253618
 20
169.023169690725
 10
688.0162681358711
 20
169.0302837204642
 10
688.0328911463806
 20
169.0402349811012
 10
688.0495141568902
 20
169.0530198207709
 10
688.0661371673996
 20
169.0686345876083
 10
688.082760177909
 20
169.0870756297486
 10
688.0993831884184
 20
169.1083392953267
 10
688.1160061989282
 20
169.1324219324777
 10
688.1326292094374
 20
169.1593198893367
 10
688.1492522199468
 20
169.1890295140387
 10
688.1658752304564
 20
169.2215471547186
 10
688.1824982409659
 20
169.2568691595118
 10
688.1991212514753
 20
169.2949918765529
 10
688.2157442619846
 20
169.3359116539773
 10
688.2323672724942
 20
169.3796248399199
 10
688.2489902830038
 20
169.4261277825157
 10
688.2656132935131
 20
169.4754168298998
 10
688.2822363040225
 20
169.5274883302073
 10
688.298859314532
 20
169.5823386315732
 10
688.3154823250416
 20
169.6399640821325
 10
688.332105335551
 20
169.7003610300203
 10
688.3487283460604
 20
169.7635258233717
 10
688.3653513565698
 20
169.8294548103215
 10
688.3819743670792
 20
169.898144339005
 10
688.3985973775889
 20
169.96959060017
 10
688.4152203880982
 20
170.0437859300407
 10
688.4318433986076
 20
170.1207186752874
 10
688.4484664091171
 20
170.2003769981762
 10
688.4650894196267
 20
170.2827490609737
 10
688.4817124301362
 20
170.3678230259462
 10
688.4983354406456
 20
170.4555870553604
  0
LWPOLYLINE
  5
CE
330
1F
100
AcDbEntity
  8
0
  6
CONTINUOUS
 62
     7
100
AcDbPolyline
 90
       33
 70
     0
 43
0.0
 10
-592.9667963200885
 20
221.016952463265
 10
-592.9834106457265
 20
221.0155376136763
 10
-593.0000249713644
 20
221.0112939612287
 10
-593.0166392970023
 20
221.0042199934209
 10
-593.0332536226402
 20
220.9943141977512
 10
-593.0498679482782
 20
220.9815750617183
 10
-593.0664822739162
 20
220.9660010728209
 10
-593.083096599554
 20
220.9475907185575
 10
-593.099710925192
 20
220.9263424864267
 10
-593.11632525083
 20
220.9022548721215
 10
-593.132939576468
 20
220.8753286483885
 10
-593.1495539021058
 20
220.84556996325
 10
-593.1661682277438
 20
220.8129857400479
 10
-593.1827825533818
 20
220.7775829021239
 10
-593.1993968790196
 20
220.7393683728199
 10
-593.2160112046577
 20
220.6983490754777
 10
-593.2326255302956
 20
220.654531933439
 10
-593.2492398559336
 20
220.6079238700459
 10
-593.2658541815715
 20
220.5585318086399
 10
-593.2824685072094
 20
220.5063626725629
 10
-593.2990828328474
 20
220.4514233851569
 10
-593.3156971584854
 20
220.3937208697636
 10
-593.3323114841234
 20
220.3332620497247
 10
-593.3489258097612
 20
220.2700538483822
 10
-593.3655401353991
 20
220.2041031890778
 10
-593.3821544610371
 20
220.1354169951534
 10
-593.3987687866751
 20
220.0640021899508
 10
-593.415383112313
 20
219.9898656968118
 10
-593.4319974379509
 20
219.9130144390781
 10
-593.4486117635889
 20
219.8334553400917
 10
-593.4652260892269
 20
219.7511953231944
 10
-593.4818404148648
 20
219.6662413117279
 10
-593.4984547405028
 20
219.5786002290341
210
0.0
220
0.0
230
-1.0
  0
LWPOLYLINE
  5
CF
330
1F
100
AcDbEntity
  8
0
  6
CONTINUOUS
 62
     7
100
AcDbPolyline
 90
       33
 70
     0
 43
0.0
 10
-662.9667618217925
 20
221.0170726912048
 10
-662.9833737043493
 20
221.0155689780949
 10
-662.9999855869064
 20
221.011236322861
 10
-663.0165974694632
 20
221.0040770174422
 10
-663.0332093520202
 20
220.9940933537781
 10
-663.0498212345772
 20
220.9812876238079
 10
-663.0664331171342
 20
220.965662119471
 10
-663.0830449996911
 20
220.9472191327067
 10
-663.099656882248
 20
220.9259609554543
 10
-663.116268764805
 20
220.9018898796531
 10
-663.1328806473622
 20
220.8750081972427
 10
-663.149492529919
 20
220.8453182001621
 10
-663.1661044124759
 20
220.8128221803508
 10
-663.182716295033
 20
220.7775224297482
 10
-663.1993281775899
 20
220.7394212402935
 10
-663.2159400601469
 20
220.6985209039261
 10
-663.2325519427039
 20
220.6548237125854
 10
-663.2491638252608
 20
220.6083319582107
 10
-663.2657757078179
 20
220.5590479327412
 10
-663.2823875903748
 20
220.5069739281165
 10
-663.2989994729317
 20
220.4521122362756
 10
-663.3156113554887
 20
220.3944651491582
 10
-663.3322232380457
 20
220.3340359047288
 10
-663.3488351206028
 20
220.270833141959
 10
-663.3654470031597
 20
220.2048674135333
 10
-663.3820588857166
 20
220.1361492743787
 10
-663.3986707682735
 20
220.0646892794225
 10
-663.4152826508306
 20
219.9904979835917
 10
-663.4318945333875
 20
219.9135859418136
 10
-663.4485064159445
 20
219.8339637090151
 10
-663.4651182985015
 20
219.7516418401236
 10
-663.4817301810585
 20
219.6666308900662
 10
-663.4983420636155
 20
219.5789414137693
210
0.0
220
0.0
230
-1.0
  0
LWPOLYLINE
  5
D0
330
1F
100
AcDbEntity
  8
0
  6
CONTINUOUS
 62
     7
100
AcDbPolyline
 90
      105
 70
     0
 43
0.0
 10
-719.4668987975933
 20
221.0171729861064
 10
-719.5098591484606
 20
221.0076471609202
 10
-719.5528194993277
 20
220.9790992547875
 10
-719.595779850195
 20
220.9315379403166
 10
-719.6387402010622
 20
220.8650527924116
 10
-719.6817005519296
 20
220.7797393661787
 10
-719.7246609027968
 20
220.6756932167241
 10
-719.767621253664
 20
220.5530098991539
 10
-719.8105816045313
 20
220.4117849685744
 10
-719.8535419553986
 20
220.2521139800915
 10
-719.8965023062657
 20
220.0740924888116
 10
-719.939462657133
 20
219.8778160498407
 10
-719.9824230080003
 20
219.6633802182851
 10
-720.0253833588675
 20
219.4308907905092
 10
-720.0683437097348
 20
219.1805390409882
 10
-720.111304060602
 20
218.9125587521897
 10
-720.1542644114693
 20
218.6271840153908
 10
-720.1972247623364
 20
218.3246489218683
 10
-720.2401851132039
 20
218.0051875628992
 10
-720.283145464071
 20
217.6690340297604
 10
-720.3261058149384
 20
217.3164224137287
 10
-720.3690661658056
 20
216.9475868060812
 10
-720.4120265166729
 20
216.5627612980948
 10
-720.4549868675399
 20
216.162180049841
 10
-720.4979472184074
 20
215.7461073204696
 10
-720.5409075692746
 20
215.3148844861406
 10
-720.5838679201419
 20
214.8688650995541
 10
-720.6268282710091
 20
214.4084027134102
 10
-720.6697886218763
 20
213.9338508804087
 10
-720.7127489727435
 20
213.4455631532497
 10
-720.7557093236109
 20
212.9438930846332
 10
-720.7986696744782
 20
212.4291942272591
 10
-720.8416300253454
 20
211.9018201338276
 10
-720.8845903762126
 20
211.3621243570385
 10
-720.9275507270797
 20
210.810462825099
 10
-720.970511077947
 20
210.2472371162106
 10
-721.0134714288142
 20
209.6728899623044
 10
-721.0564317796815
 20
209.0878655685335
 10
-721.0993921305487
 20
208.4926081400512
 10
-721.1423524814157
 20
207.8875618820107
 10
-721.1853128322831
 20
207.2731709995651
 10
-721.2282731831503
 20
206.6498796978678
 10
-721.2712335340176
 20
206.0181321820718
 10
-721.3141938848848
 20
205.3783726573305
 10
-721.3571542357521
 20
204.7310453287969
 10
-721.4001145866195
 20
204.0766016616144
 10
-721.4430749374865
 20
203.4155291553434
 10
-721.4860352883538
 20
202.7483264685269
 10
-721.528995639221
 20
202.0754922630556
 10
-721.5719559900883
 20
201.3975252008211
 10
-721.6149163409556
 20
200.7149239437141
 10
-721.6578766918228
 20
200.028187153626
 10
-721.7008370426902
 20
199.3378134924477
 10
-721.7437973935573
 20
198.6443016220704
 10
-721.7867577444247
 20
197.9481502043852
 10
-721.8297180952918
 20
197.2498579745566
 10
-721.8726784461592
 20
196.5499286355508
 10
-721.9156387970263
 20
195.8488739383002
 10
-721.9585991478937
 20
195.1472063683532
 10
-722.0015594987609
 20
194.4454384112579
 10
-722.044519849628
 20
193.7440825525628
 10
-722.0874802004954
 20
193.043651277816
 10
-722.1304405513628
 20
192.3446570725661
 10
-722.1734009022299
 20
191.647612422361
 10
-722.2163612530973
 20
190.9530298127494
 10
-722.2593216039644
 20
190.2614217292794
 10
-722.3022819548319
 20
189.5732990234052
 10
-722.345242305699
 20
188.8891559903618
 10
-722.3882026565661
 20
188.2094772989343
 10
-722.4311630074334
 20
187.5347474988375
 10
-722.4741233583006
 20
186.865451139786
 10
-722.5170837091678
 20
186.2020727714945
 10
-722.5600440600351
 20
185.5450969436778
 10
-722.6030044109023
 20
184.8950082060506
 10
-722.6459647617696
 20
184.2522911083275
 10
-722.6889251126368
 20
183.6174302002232
 10
-722.731885463504
 20
182.990910022141
 10
-722.7748458143714
 20
182.3732004422425
 10
-722.8178061652385
 20
181.7647269495637
 10
-722.8607665161057
 20
181.1659066748249
 10
-722.903726866973
 20
180.5771567487463
 10
-722.9466872178402
 20
179.9988943020481
 10
-722.9896475687075
 20
179.4315364654507
 10
-723.0326079195747
 20
178.8755003696741
 10
-723.075568270442
 20
178.3312031454386
 10
-723.1185286213092
 20
177.7990619234646
 10
-723.1614889721764
 20
177.2794938344722
 10
-723.2044493230437
 20
176.7729141109206
 10
-723.247409673911
 20
176.279690511724
 10
-723.2903700247781
 20
175.8001411016955
 10
-723.3333303756455
 20
175.3345816029851
 10
-723.3762907265128
 20
174.8833277377424
 10
-723.41925107738
 20
174.4466952281172
 10
-723.4622114282472
 20
174.0249997962596
 10
-723.5051717791147
 20
173.618557164319
 10
-723.5481321299818
 20
173.2276830544455
 10
-723.5910924808489
 20
172.8526931887888
 10
-723.6340528317163
 20
172.4939032894988
 10
-723.6770131825836
 20
172.1516150760943
 10
-723.7199735334508
 20
171.8260474898344
 10
-723.762933884318
 20
171.517389163379
 10
-723.8058942351854
 20
171.2258286839311
 10
-723.8488545860525
 20
170.9515546386935
 10
-723.8918149369197
 20
170.6947556148688
 10
-723.9347752877873
 20
170.4556201996583
210
0.0
220
0.0
230
-1.0
  0
LWPOLYLINE
  5
D1
330
1F
100
AcDbEntity
  8
0
  6
CONTINUOUS
 62
     7
100
AcDbPolyline
 90
      105
 70
     0
 43
0.0
 10
-639.4658618117505
 20
221.0169046380811
 10
-639.508829827212
 20
221.0076668617268
 10
-639.5517978426735
 20
220.9795486496573
 10
-639.594765858135
 20
220.932570876568
 10
-639.6377338735964
 20
220.8667544171544
 10
-639.6807018890579
 20
220.7821201461121
 10
-639.7236699045195
 20
220.6786889381364
 10
-639.7666379199809
 20
220.5564817917601
 10
-639.8096059354423
 20
220.4155579422613
 10
-639.8525739509039
 20
220.2560687441917
 10
-639.8955419663653
 20
220.0781791447894
 10
-639.9385099818269
 20
219.8820540912927
 10
-639.9814779972884
 20
219.6678585309395
 10
-640.0244460127499
 20
219.4357574109683
 10
-640.0674140282113
 20
219.1859156786171
 10
-640.1103820436726
 20
218.9184982811241
 10
-640.1533500591341
 20
218.6336701657274
 10
-640.1963180745956
 20
218.3315962796653
 10
-640.2392860900571
 20
218.0124454599139
 10
-640.2822541055185
 20
217.6764541520897
 10
-640.3252221209801
 20
217.323916121105
 10
-640.3681901364415
 20
216.9551269461419
 10
-640.4111581519029
 20
216.5703822063823
 10
-640.4541261673644
 20
216.1699774810083
 10
-640.4970941828259
 20
215.7542083492019
 10
-640.5400621982875
 20
215.3233703901453
 10
-640.5830302137489
 20
214.8777591830201
 10
-640.6259982292104
 20
214.4176703070087
 10
-640.6689662446718
 20
213.9433993412929
 10
-640.7119342601331
 20
213.4552572666871
 10
-640.7549022755946
 20
212.953625871751
 10
-640.7978702910561
 20
212.438907280801
 10
-640.8408383065176
 20
211.9115036199205
 10
-640.8838063219791
 20
211.3718170151931
 10
-640.9267743374406
 20
210.8202495927024
 10
-640.9697423529019
 20
210.2572034785317
 10
-641.0127103683635
 20
209.6830807987648
 10
-641.055678383825
 20
209.0982836794851
 10
-641.0986463992865
 20
208.5032142467761
 10
-641.141614414748
 20
207.8982751277255
 10
-641.1845824302095
 20
207.2838968048653
 10
-641.2275504456709
 20
206.6605517144808
 10
-641.2705184611323
 20
206.0287157626223
 10
-641.3134864765939
 20
205.3888648553403
 10
-641.3564544920554
 20
204.7414748986851
 10
-641.3994225075168
 20
204.087021798707
 10
-641.4423905229783
 20
203.4259814614565
 10
-641.4853585384398
 20
202.7588297929839
 10
-641.5283265539011
 20
202.0860426993396
 10
-641.5712945693627
 20
201.408096086574
 10
-641.6142625848242
 20
200.7254681727051
 10
-641.6572306002857
 20
200.0386583707585
 10
-641.7001986157471
 20
199.3481774787901
 10
-641.7431666312085
 20
198.6545364039786
 10
-641.7861346466701
 20
197.9582460535026
 10
-641.8291026621317
 20
197.2598173345408
 10
-641.8720706775931
 20
196.5597611542719
 10
-641.9150386930545
 20
195.8585884198747
 10
-641.9580067085159
 20
195.1568100385277
 10
-642.0009747239774
 20
194.4549369174096
 10
-642.0439427394389
 20
193.7534799615418
 10
-642.0869107549003
 20
193.0529485113664
 10
-642.1298787703619
 20
192.3538475845849
 10
-642.1728467858233
 20
191.656681458626
 10
-642.2158148012849
 20
190.9619544109179
 10
-642.2587828167462
 20
190.2701707188892
 10
-642.3017508322077
 20
189.5818346599683
 10
-642.3447188476691
 20
188.8974505115836
 10
-642.3876868631306
 20
188.2175225511635
 10
-642.4306548785921
 20
187.5425550561366
 10
-642.4736228940536
 20
186.8730523039312
 10
-642.5165909095151
 20
186.2095174829041
 10
-642.5595589249765
 20
185.5524304581721
 10
-642.6025269404379
 20
184.9022486917129
 10
-642.6454949558995
 20
184.2594287405462
 10
-642.688462971361
 20
183.6244271616916
 10
-642.7314309868224
 20
182.997700512169
 10
-642.7743990022839
 20
182.3797053489981
 10
-642.8173670177454
 20
181.7708982291986
 10
-642.8603350332069
 20
181.1717357097902
 10
-642.9033030486682
 20
180.5826743477927
 10
-642.9462710641297
 20
180.0041707002258
 10
-642.9892390795914
 20
179.4366708027883
 10
-643.0322070950527
 20
178.880564793141
 10
-643.0751751105142
 20
178.3362243175019
 10
-643.1181431259756
 20
177.8040210102844
 10
-643.1611111414373
 20
177.2843265059018
 10
-643.2040791568987
 20
176.7775124387675
 10
-643.2470471723601
 20
176.283950443295
 10
-643.2900151878216
 20
175.8040121538975
 10
-643.332983203283
 20
175.3380692049885
 10
-643.3759512187446
 20
174.8864932309814
 10
-643.4189192342061
 20
174.4496553667476
 10
-643.4618872496676
 20
174.0278869190197
 10
-643.5048552651289
 20
173.6214510077591
 10
-643.5478232805905
 20
173.2306040624285
 10
-643.5907912960519
 20
172.8556025124903
 10
-643.6337593115134
 20
172.4967027874074
 10
-643.6767273269751
 20
172.1541613166424
 10
-643.7196953424364
 20
171.8282345296578
 10
-643.762663357898
 20
171.5191788559166
 10
-643.8056313733592
 20
171.227250724881
 10
-643.848599388821
 20
170.9527065660141
 10
-643.8915674042825
 20
170.6957954617248
 10
-643.9345354197437
 20
170.4566870239579
210
0.0
220
0.0
230
-1.0
  0
LWPOLYLINE
  5
D2
330
1F
100
AcDbEntity
  8
0
  6
CONTINUOUS
 62
     7
100
AcDbPolyline
 90
       57
 70
     0
 43
0.0
 10
591.9666045345859
 20
195.0164298079627
 10
592.0017471051368
 20
194.442389747088
 10
592.0368896756877
 20
193.868625135895
 10
592.0720322462385
 20
193.2954155216863
 10
592.1071748167893
 20
192.7230404517647
 10
592.1423173873403
 20
192.151779473433
 10
592.1774599578911
 20
191.5819121339939
 10
592.212602528442
 20
191.01371798075
 10
592.2477450989928
 20
190.4474765610041
 10
592.2828876695436
 20
189.8834674220588
 10
592.3180302400945
 20
189.321970111217
 10
592.3531728106453
 20
188.7632641686212
 10
592.3883153811962
 20
188.2076245659097
 10
592.4234579517471
 20
187.6553138743579
 10
592.458600522298
 20
187.1065925814516
 10
592.4937430928487
 20
186.5617211746768
 10
592.5288856633995
 20
186.0209601415192
 10
592.5640282339504
 20
185.4845699694649
 10
592.5991708045012
 20
184.9528111459997
 10
592.6343133750522
 20
184.4259441586094
 10
592.6694559456029
 20
183.90422949478
 10
592.7045985161536
 20
183.3879276419973
 10
592.7397410867046
 20
182.8772990877472
 10
592.7748836572556
 20
182.3726043195157
 10
592.8100262278062
 20
181.8741037977726
 10
592.8451687983572
 20
181.3820476364752
 10
592.880311368908
 20
180.8966600307053
 10
592.9154539394589
 20
180.4181611825095
 10
592.9505965100097
 20
179.9467712939344
 10
592.9857390805605
 20
179.4827105670266
 10
593.0208816511115
 20
179.0261992038326
 10
593.0560242216623
 20
178.5774574063991
 10
593.0911667922132
 20
178.1367053767726
 10
593.1263093627641
 20
177.7041633169997
 10
593.1614519333149
 20
177.280051429127
 10
593.1965945038658
 20
176.8645899152011
 10
593.2317370744165
 20
176.4579989772686
 10
593.2668796449675
 20
176.0604987539249
 10
593.3020222155183
 20
175.6722934073225
 10
593.3371647860691
 20
175.2935501262792
 10
593.37230735662
 20
174.9244308844078
 10
593.4074499271709
 20
174.5650976553212
 10
593.4425924977216
 20
174.2157124126322
 10
593.4777350682725
 20
173.8764371299536
 10
593.5128776388234
 20
173.5474337808985
 10
593.5480202093743
 20
173.2288643390796
 10
593.583162779925
 20
172.9208907781097
 10
593.6183053504759
 20
172.6236750716018
 10
593.6534479210268
 20
172.3373791931687
 10
593.6885904915775
 20
172.0621651164232
 10
593.7237330621284
 20
171.7981946967872
 10
593.7588756326794
 20
171.5456089142819
 10
593.7940182032302
 20
171.3045040760089
 10
593.829160773781
 20
171.0749707288519
 10
593.8643033443318
 20
170.8570994196949
 10
593.8994459148827
 20
170.6509806954217
 10
593.9345884854336
 20
170.456705102916
  0
LWPOLYLINE
  5
D3
330
1F
100
AcDbEntity
  8
0
  6
CONTINUOUS
 62
     7
100
AcDbPolyline
 90
        3
 70
     0
 43
0.0
 10
598.1620966529865
 20
171.1342024762801
 10
598.2284093387314
 20
171.0564925194786
 10
598.3191249077823
 20
171.0173716407072
  0
LWPOLYLINE
  5
D4
330
1F
100
AcDbEntity
  8
0
  6
CONTINUOUS
 62
     7
100
AcDbPolyline
 90
        3
 70
     0
 43
0.0
 10
718.164250099612
 20
171.1309905100171
 10
718.2306013007055
 20
171.0546447357766
 10
718.3191741050638
 20
171.017371640714
  0
LWPOLYLINE
  5
D5
330
1F
100
AcDbEntity
  8
0
  6
CONTINUOUS
 62
     7
100
AcDbPolyline
 90
        3
 70
     0
 43
0.0
 10
608.1155395787509
 20
171.2136555399761
 10
608.1837709772632
 20
171.1043084610913
 10
608.3191194971031
 20
171.0173716406941
  0
LWPOLYLINE
  5
D6
330
1F
100
AcDbEntity
  8
0
  6
CONTINUOUS
 62
     7
100
AcDbPolyline
 90
        3
 70
     0
 43
0.0
 10
738.1412724954498
 20
171.1672317740976
 10
738.2075864116786
 20
171.0763611965329
 10
738.3191491175818
 20
171.0173716407173
  0
LWPOLYLINE
  5
D7
330
1F
100
AcDbEntity
  8
0
  6
CONTINUOUS
 62
     7
100
AcDbPolyline
 90
      105
 70
     0
 43
0.0
 10
-629.4658023750153
 20
221.0168538896342
 10
-629.5087715474461
 20
221.0076835144259
 10
-629.551740719877
 20
220.9796334669247
 10
-629.5947098923078
 20
220.9327152166469
 10
-629.6376790647386
 20
220.8669402331089
 10
-629.6806482371693
 20
220.7823199858274
 10
-629.7236174096001
 20
220.6788659443187
 10
-629.7665865820311
 20
220.5566044031033
 10
-629.8095557544619
 20
220.415655037454
 10
-629.8525249268928
 20
220.2561737876978
 10
-629.8954940993237
 20
220.0783166745544
 10
-629.9384632717545
 20
219.8822397187435
 10
-629.9814324441853
 20
219.6680989409851
 10
-630.0244016166163
 20
219.4360503619988
 10
-630.067370789047
 20
219.1862500025044
 10
-630.110339961478
 20
218.9188538832218
 10
-630.1533091339087
 20
218.6340180248705
 10
-630.1962783063395
 20
218.3318987568666
 10
-630.2392474787704
 20
218.0126931994225
 10
-630.2822166512012
 20
217.6766796148177
 10
-630.3251858236321
 20
217.3241458617468
 10
-630.3681549960629
 20
216.9553797989046
 10
-630.4111241684936
 20
216.5706692849858
 10
-630.4540933409247
 20
216.1703021786852
 10
-630.4970625133553
 20
215.7545663386973
 10
-630.5400316857862
 20
215.3237496237171
 10
-630.5830008582171
 20
214.8781398924392
 10
-630.625970030648
 20
214.4180250035583
 10
-630.6689392030788
 20
213.9436973761816
 10
-630.7119083755097
 20
213.455509708553
 10
-630.7548775479404
 20
212.9538573413431
 10
-630.7978467203714
 20
212.439136515277
 10
-630.8408158928021
 20
211.91174347108
 10
-630.8837850652329
 20
211.3720744494776
 10
-630.9267542376639
 20
210.820525691195
 10
-630.9697234100946
 20
210.2574934369575
 10
-631.0126925825255
 20
209.6833739274904
 10
-631.0556617549564
 20
209.098563403519
 10
-631.0986309273871
 20
208.503458105918
 10
-631.141600099818
 20
207.8984678428656
 10
-631.184569272249
 20
207.2840531133737
 10
-631.2275384446798
 20
206.6606862528276
 10
-631.2705076171106
 20
206.0288395966122
 10
-631.3134767895414
 20
205.388985480113
 10
-631.3564459619722
 20
204.7415962387147
 10
-631.3994151344032
 20
204.0871442078028
 10
-631.4423843068339
 20
203.4261017227621
 10
-631.4853534792649
 20
202.7589411189779
 10
-631.5283226516957
 20
202.0861347318352
 10
-631.5712918241264
 20
201.408155339793
 10
-631.6142609965574
 20
200.7254916494179
 10
-631.6572301689883
 20
200.0386523382351
 10
-631.7001993414192
 20
199.3481473484038
 10
-631.74316851385
 20
198.6544866220833
 10
-631.7861376862808
 20
197.9581801014328
 10
-631.8291068587116
 20
197.2597377286119
 10
-631.8720760311425
 20
196.5596694457796
 10
-631.9150452035733
 20
195.8584851950953
 10
-631.9580143760043
 20
195.1566949187184
 10
-632.000983548435
 20
194.4548085588081
 10
-632.0439527208658
 20
193.7533357155033
 10
-632.0869218932967
 20
193.0527834950712
 10
-632.1298910657275
 20
192.353657899136
 10
-632.1728602381583
 20
191.6564649243865
 10
-632.2158294105891
 20
190.9617105675115
 10
-632.2587985830199
 20
190.2699008251999
 10
-632.3017677554509
 20
189.5815416941405
 10
-632.3447369278816
 20
188.8971391710219
 10
-632.3877061003126
 20
188.217199252533
 10
-632.4306752727434
 20
187.5422279353626
 10
-632.4736444451742
 20
186.8727311604254
 10
-632.5166136176051
 20
186.2092022450095
 10
-632.559582790036
 20
185.5521059382946
 10
-632.6025519624668
 20
184.9019030607479
 10
-632.6455211348975
 20
184.2590544328365
 10
-632.6884903073284
 20
183.6240208750277
 10
-632.7314594797592
 20
182.9972632077887
 10
-632.7744286521902
 20
182.3792422515868
 10
-632.817397824621
 20
181.770418826889
 10
-632.8603669970516
 20
181.1712537541628
 10
-632.9033361694827
 20
180.5822078538752
 10
-632.9463053419136
 20
180.0037391767757
 10
-632.9892745143443
 20
179.4362618827823
 10
-633.0322436867751
 20
178.8801550472656
 10
-633.075212859206
 20
178.3357967648697
 10
-633.1181820316369
 20
177.803565130239
 10
-633.1611512040677
 20
177.2838382380175
 10
-633.2041203764986
 20
176.7769941828497
 10
-633.2470895489295
 20
176.2834110593798
 10
-633.2900587213603
 20
175.803466962252
 10
-633.3330278937912
 20
175.3375399861107
 10
-633.375997066222
 20
174.8860082256
 10
-633.4189662386528
 20
174.4492321616905
 10
-633.4619354110836
 20
174.027496648165
 10
-633.5049045835144
 20
173.6210662453425
 10
-633.5478737559453
 20
173.2302055132928
 10
-633.5908429283762
 20
172.8551790120861
 10
-633.6338121008071
 20
172.4962513017921
 10
-633.6767812732379
 20
172.1536869424811
 10
-633.7197504456685
 20
171.8277504942229
 10
-633.7627196180995
 20
171.5187065170875
 10
-633.8056887905302
 20
171.2268195711448
 10
-633.8486579629612
 20
170.9523531024148
 10
-633.891627135392
 20
170.6955174825048
 10
-633.9345963078225
 20
170.4564478868794
210
0.0
220
0.0
230
-1.0
  0
LWPOLYLINE
  5
D8
330
1F
100
AcDbEntity
  8
0
  6
CONTINUOUS
 62
     7
100
AcDbPolyline
 90
       33
 70
     0
 43
0.0
 10
607.9672433070014
 20
169.0178786939148
 10
607.9838465872664
 20
169.0193863107789
 10
608.0004498675318
 20
169.0237152373242
 10
608.0170531477967
 20
169.0308661691694
 10
608.0336564280618
 20
169.0408398019337
 10
608.0502597083271
 20
169.053636831236
 10
608.066862988592
 20
169.0692579526953
 10
608.0834662688571
 20
169.0877038619306
 10
608.1000695491222
 20
169.1089752545608
 10
608.1166728293873
 20
169.1330728262049
 10
608.1332761096525
 20
169.1599972724819
 10
608.1498793899175
 20
169.1897492890107
 10
608.1664826701826
 20
169.222329318843
 10
608.1830859504478
 20
169.2577334508551
 10
608.1996892307128
 20
169.2959541012555
 10
608.216292510978
 20
169.3369835712262
 10
608.2328957912431
 20
169.3808141619488
 10
608.2494990715082
 20
169.4274381746053
 10
608.2661023517733
 20
169.4768479103772
 10
608.2827056320384
 20
169.5290356704464
 10
608.2993089123036
 20
169.5839937559946
 10
608.3159121925687
 20
169.6417144682038
 10
608.3325154728337
 20
169.7021901082555
 10
608.3491187530988
 20
169.7654129773316
 10
608.3657220333638
 20
169.8313753766137
 10
608.382325313629
 20
169.9000696072839
 10
608.3989285938942
 20
169.9714879705238
 10
608.4155318741591
 20
170.0456227675151
 10
608.4321351544243
 20
170.1224662994396
 10
608.4487384346895
 20
170.2020108674791
 10
608.4653417149545
 20
170.2842487728155
 10
608.4819449952197
 20
170.3691723166303
 10
608.4985482754847
 20
170.4567738001057
  0
LWPOLYLINE
  5
D9
330
1F
100
AcDbEntity
  8
0
  6
CONTINUOUS
 62
     7
100
AcDbPolyline
 90
      105
 70
     0
 43
0.0
 10
-659.4667618026732
 20
221.0170646308158
 10
-659.509718966587
 20
221.0073761711137
 10
-659.5526761305013
 20
220.9787947929429
 10
-659.595633294415
 20
220.931360128964
 10
-659.6385904583291
 20
220.8651118118381
 10
-659.6815476222431
 20
220.7800894742259
 10
-659.7245047861571
 20
220.6763327487883
 10
-659.7674619500712
 20
220.5538812681861
 10
-659.810419113985
 20
220.4127746650801
 10
-659.8533762778991
 20
220.2530663683227
 10
-659.896333441813
 20
220.0749014377202
 10
-659.939290605727
 20
219.8784622814669
 10
-659.982247769641
 20
219.663931417416
 10
-660.0252049335551
 20
219.4314913634206
 10
-660.068162097469
 20
219.1813246373341
 10
-660.111119261383
 20
218.9136137570096
 10
-660.1540764252969
 20
218.6285412403004
 10
-660.197033589211
 20
218.3262896050597
 10
-660.239990753125
 20
218.0070413691407
 10
-660.2829479170389
 20
217.6709792819244
 10
-660.3259050809529
 20
217.3183240416716
 10
-660.3688622448669
 20
216.9493761085159
 10
-660.4118194087808
 20
216.5644460131761
 10
-660.4547765726949
 20
216.163844286371
 10
-660.4977337366089
 20
215.7478814588192
 10
-660.5406909005228
 20
215.3168680612394
 10
-660.5836480644369
 20
214.8711146243503
 10
-660.6266052283509
 20
214.4109316788706
 10
-660.6695623922647
 20
213.936629755519
 10
-660.7125195561788
 20
213.4485193850143
 10
-660.7554767200928
 20
212.9469149675067
 10
-660.798433884007
 20
212.4321867525388
 10
-660.8413910479209
 20
211.9047469583015
 10
-660.8843482118348
 20
211.3650088250224
 10
-660.9273053757488
 20
210.8133855929287
 10
-660.9702625396627
 20
210.2502905022478
 10
-661.0132197035767
 20
209.6761367932071
 10
-661.0561768674906
 20
209.0913377060338
 10
-661.0991340314046
 20
208.4963064809555
 10
-661.1420911953187
 20
207.8914563581995
 10
-661.1850483592326
 20
207.2772005779931
 10
-661.2280055231466
 20
206.6539637807148
 10
-661.2709626870607
 20
206.0222166307203
 10
-661.3139198509746
 20
205.3824414051829
 10
-661.3568770148886
 20
204.7351203812766
 10
-661.3998341788025
 20
204.0807358361754
 10
-661.4427913427164
 20
203.4197700470531
 10
-661.4857485066306
 20
202.7527052910835
 10
-661.5287056705445
 20
202.0800238454407
 10
-661.5716628344584
 20
201.4022079872984
 10
-661.6146199983724
 20
200.7197399938306
 10
-661.6575771622864
 20
200.0331024243612
 10
-661.7005343262003
 20
199.3427898686685
 10
-661.7434914901144
 20
198.649313188177
 10
-661.7864486540284
 20
197.9531843990224
 10
-661.8294058179424
 20
197.2549155173407
 10
-661.8723629818564
 20
196.5550185592674
 10
-661.9153201457705
 20
195.8540055409386
 10
-661.9582773096844
 20
195.1523884784898
 10
-662.0012344735985
 20
194.450679388057
 10
-662.0441916375123
 20
193.7493902857759
 10
-662.0871488014265
 20
193.0490331877823
 10
-662.1301059653405
 20
192.3501191897836
 10
-662.1730631292545
 20
191.6531519491671
 10
-662.2160202931683
 20
190.9586315233208
 10
-662.2589774570823
 20
190.2670579461017
 10
-662.3019346209963
 20
189.578931251366
 10
-662.3448917849103
 20
188.8947514729705
 10
-662.3878489488243
 20
188.2150186447719
 10
-662.4308061127383
 20
187.5402328006267
 10
-662.4737632766522
 20
186.8708939743914
 10
-662.5167204405662
 20
186.2075021999229
 10
-662.5596776044804
 20
185.5505574749428
 10
-662.6026347683941
 20
184.9005462174354
 10
-662.6455919323082
 20
184.2579209388543
 10
-662.6885490962221
 20
183.6231289459025
 10
-662.7315062601361
 20
182.9966175452833
 10
-662.7744634240502
 20
182.3788340436999
 10
-662.8174205879639
 20
181.7702257478553
 10
-662.860377751878
 20
181.1712399644529
 10
-662.903334915792
 20
180.5823240001957
 10
-662.9462920797059
 20
180.003925161787
 10
-662.98924924362
 20
179.4364907559299
 10
-663.0322064075342
 20
178.8804656438494
 10
-663.0751635714481
 20
178.3362493394542
 10
-663.118120735362
 20
177.8042013466224
 10
-663.1610778992759
 20
177.2846797964612
 10
-663.2040350631902
 20
176.7780428200775
 10
-663.2469922271042
 20
176.2846485485784
 10
-663.2899493910181
 20
175.8048551130707
 10
-663.3329065549319
 20
175.3390206446617
 10
-663.3758637188461
 20
174.8875032744583
 10
-663.4188208827601
 20
174.4506611335674
 10
-663.461778046674
 20
174.0288523530961
 10
-663.504735210588
 20
173.622418901993
 10
-663.5476923745019
 20
173.2316243172708
 10
-663.590649538416
 20
172.8567083776389
 10
-663.6336067023298
 20
172.4979108565703
 10
-663.6765638662438
 20
172.155471527538
 10
-663.7195210301579
 20
171.829630164015
 10
-663.7624781940718
 20
171.5206265394744
 10
-663.8054353579857
 20
171.2287004273891
 10
-663.8483925218997
 20
170.9540916012322
 10
-663.8913496858136
 20
170.6970398344766
 10
-663.9343068497271
 20
170.4577841225646
210
0.0
220
0.0
230
-1.0
  0
LWPOLYLINE
  5
DA
330
1F
100
AcDbEntity
  8
0
  6
CONTINUOUS
 62
     7
100
AcDbPolyline
 90
        3
 70
     0
 43
0.0
 10
628.1627254510104
 20
171.1333160401399
 10
628.2309033720372
 20
171.0542542260776
 10
628.3191159719331
 20
171.0173716407155
  0
LWPOLYLINE
  5
DB
330
1F
100
AcDbEntity
  8
0
  6
CONTINUOUS
 62
     7
100
AcDbPolyline
 90
      105
 70
     0
 43
0.0
 10
753.4985324245982
 20
219.5781520124575
 10
753.5414946564251
 20
219.3390946633467
 10
753.5844568882519
 20
219.0822513924799
 10
753.6274191200788
 20
218.8077754025069
 10
753.6703813519056
 20
218.5159090869065
 10
753.7133435837322
 20
218.2069113141819
 10
753.7563058155591
 20
217.8810409528363
 10
753.7992680473858
 20
217.538556871373
 10
753.8422302792128
 20
217.1797179382951
 10
753.8851925110393
 20
216.8047830221059
 10
753.9281547428661
 20
216.4140109913085
 10
753.9711169746929
 20
216.0076607144062
 10
754.0140792065197
 20
215.5859910599021
 10
754.0570414383465
 20
215.149263134688
 10
754.1000036701732
 20
214.697792207375
 10
754.1429659019999
 20
214.2319492396818
 10
754.1859281338268
 20
213.7521077380673
 10
754.2288903656535
 20
213.2586412089906
 10
754.2718525974802
 20
212.7519231589107
 10
754.3148148293069
 20
212.2323270942867
 10
754.3577770611338
 20
211.7002265215775
 10
754.4007392929605
 20
211.1559949472423
 10
754.4437015247873
 20
210.6000058777401
 10
754.4866637566141
 20
210.0326328195299
 10
754.529625988441
 20
209.4542587882873
 10
754.5725882202678
 20
208.8653217643273
 10
754.6155504520947
 20
208.2662794318987
 10
754.6585126839216
 20
207.6575895005301
 10
754.7014749157483
 20
207.0397096797496
 10
754.7444371475752
 20
206.4130976790855
 10
754.7873993794019
 20
205.7782112080662
 10
754.8303616112288
 20
205.1355079762199
 10
754.8733238430556
 20
204.4854456930749
 10
754.9162860748826
 20
203.8284820681595
 10
754.9592483067092
 20
203.1650749603785
 10
755.0022105385361
 20
202.4956975446556
 10
755.0451727703628
 20
201.8208513628562
 10
755.0881350021896
 20
201.1410410314691
 10
755.1310972340165
 20
200.4567711669828
 10
755.1740594658432
 20
199.7685463858859
 10
755.2170216976701
 20
199.0768713046672
 10
755.2599839294967
 20
198.382250539815
 10
755.3029461613236
 20
197.6851887078182
 10
755.3459083931504
 20
196.9861904251653
 10
755.388870624977
 20
196.285760308345
 10
755.4318328568037
 20
195.584403246646
 10
755.4747950886306
 20
194.8826274223353
 10
755.5177573204572
 20
194.1809432014232
 10
755.560719552284
 20
193.4798609890719
 10
755.6036817841108
 20
192.779891190444
 10
755.6466440159376
 20
192.0815442107019
 10
755.6896062477642
 20
191.3853304550079
 10
755.7325684795911
 20
190.6917603285247
 10
755.7755307114179
 20
190.0013442364146
 10
755.8184929432446
 20
189.3145925838399
 10
755.8614551750715
 20
188.6320157754059
 10
755.9044174068981
 20
187.9541174015157
 10
755.9473796387249
 20
187.2813772570615
 10
755.9903418705518
 20
186.6142699459073
 10
756.0333041023787
 20
185.9532700719173
 10
756.0762663342055
 20
185.2988522389555
 10
756.1192285660323
 20
184.6514910508861
 10
756.1621907978592
 20
184.0116611115733
 10
756.2051530296859
 20
183.379837024881
 10
756.2481152615128
 20
182.7564933946734
 10
756.2910774933397
 20
182.1421048248146
 10
756.3340397251665
 20
181.5371449018087
 10
756.3770019569932
 20
180.9420546505154
 10
756.4199641888201
 20
180.3572364468174
 10
756.4629264206468
 20
179.7830904205494
 10
756.5058886524736
 20
179.2200167015464
 10
756.5488508843005
 20
178.6684154196432
 10
756.5918131161272
 20
178.1286867046747
 10
756.634775347954
 20
177.6012306864758
 10
756.6777375797808
 20
177.0864474948815
 10
756.7206998116076
 20
176.5847372597266
 10
756.7636620434344
 20
176.0965001108459
 10
756.8066242752611
 20
175.6221262153081
 10
756.8495865070878
 20
175.1619373993391
 10
756.8925487389147
 20
174.7162268127687
 10
756.9355109707415
 20
174.2852875071308
 10
756.9784732025682
 20
173.869412533959
 10
757.0214354343949
 20
173.4688949447872
 10
757.064397666222
 20
173.0840277911492
 10
757.1073598980486
 20
172.7151041245786
 10
757.1503221298753
 20
172.3624169966094
 10
757.1932843617021
 20
172.0262594587752
 10
757.2362465935289
 20
171.7069243534305
 10
757.2792088253556
 20
171.4046664614069
 10
757.3221710571823
 20
171.1196585397537
 10
757.3651332890092
 20
170.8520626826246
 10
757.408095520836
 20
170.6020409841736
 10
757.4510577526628
 20
170.3697555385544
 10
757.4940199844895
 20
170.1553684399207
 10
757.5369822163163
 20
169.9590417824266
 10
757.5799444481431
 20
169.7809376602256
 10
757.6229066799699
 20
169.6212181674718
 10
757.6658689117968
 20
169.4800453983189
 10
757.7088311436235
 20
169.3575762198485
 10
757.7517933754503
 20
169.2538897269198
 10
757.7947556072772
 20
169.1690053695571
 10
757.8377178391039
 20
169.1029410764166
 10
757.8806800709306
 20
169.0557147761548
 10
757.9236423027576
 20
169.027344397428
 10
757.9666045345856
 20
169.0178478688927
  0
LWPOLYLINE
  5
DC
330
1F
100
AcDbEntity
  8
0
  6
CONTINUOUS
 62
     7
100
AcDbPolyline
 90
        4
 70
     0
 43
0.0
 10
668.118520792409
 20
171.2078801003227
 10
668.1848753080214
 20
171.1029018787859
 10
668.3174757561782
 20
171.0173851543662
 10
668.3191631390199
 20
171.0173716406955
  0
LWPOLYLINE
  5
DD
330
1F
100
AcDbEntity
  8
0
  6
CONTINUOUS
 62
     7
100
AcDbPolyline
 90
      105
 70
     0
 43
0.0
 10
-749.4663796673052
 20
221.0169171549013
 10
-749.5093437515741
 20
221.0076329747733
 10
-749.5523078358431
 20
220.9794259431513
 10
-749.5952719201118
 20
220.9322734285936
 10
-749.6382360043809
 20
220.8661536331034
 10
-749.6812000886499
 20
220.7810979348977
 10
-749.7241641729188
 20
220.6772220113818
 10
-749.7671282571878
 20
220.554649015293
 10
-749.810092341457
 20
220.4135020993684
 10
-749.8530564257259
 20
220.2539044163452
 10
-749.896020509995
 20
220.0759791189606
 10
-749.938984594264
 20
219.8798493599517
 10
-749.9819486785331
 20
219.6656382920559
 10
-750.0249127628019
 20
219.4334690680102
 10
-750.0678768470709
 20
219.1834648405518
 10
-750.1108409313397
 20
218.9157570112046
 10
-750.1538050156088
 20
218.6305579887463
 10
-750.1967690998778
 20
218.3281261479647
 10
-750.2397331841466
 20
218.00872039077
 10
-750.2826972684157
 20
217.6725996190721
 10
-750.3256613526843
 20
217.320022734781
 10
-750.3686254369535
 20
216.9512486398069
 10
-750.4115895212224
 20
216.5665362360595
 10
-750.4545536054912
 20
216.166144425449
 10
-750.4975176897602
 20
215.7503321098854
 10
-750.540481774029
 20
215.3193582126871
 10
-750.583445858298
 20
214.8735072740818
 10
-750.6264099425671
 20
214.4131390969235
 10
-750.669374026836
 20
213.938627235872
 10
-750.7123381111047
 20
213.450345245587
 10
-750.7553021953739
 20
212.9486666807286
 10
-750.7982662796426
 20
212.4339650959561
 10
-750.8412303639117
 20
211.9066140459296
 10
-750.8841944481808
 20
211.3669870853089
 10
-750.9271585324497
 20
210.8154577687536
 10
-750.9701226167185
 20
210.2523996509236
 10
-751.0130867009876
 20
209.6781879716811
 10
-751.0560507852564
 20
209.0932379715445
 10
-751.0990148695254
 20
208.4980055935258
 10
-751.1419789537945
 20
207.8929486062206
 10
-751.1849430380635
 20
207.2785247782239
 10
-751.2279071223326
 20
206.6551918781314
 10
-751.2708712066014
 20
206.0234076745383
 10
-751.3138352908703
 20
205.38362993604
 10
-751.3567993751393
 20
204.736316431232
 10
-751.3997634594084
 20
204.0819249287095
 10
-751.4427275436774
 20
203.420913197068
 10
-751.4856916279462
 20
202.753744384324
 10
-751.5286557122153
 20
202.0809123072524
 10
-751.5716197964844
 20
201.4029216348765
 10
-751.6145838807532
 20
200.7202770488053
 10
-751.6575479650222
 20
200.0334832306479
 10
-751.7005120492912
 20
199.3430448620132
 10
-751.7434761335601
 20
198.6494666245104
 10
-751.7864402178291
 20
197.9532531997482
 10
-751.8294043020978
 20
197.2549092693359
 10
-751.8723683863668
 20
196.5549395148825
 10
-751.9153324706358
 20
195.8538486374734
 10
-751.9582965549047
 20
195.1521432474264
 10
-752.0012606391736
 20
194.4503334439078
 10
-752.0442247234424
 20
193.7489296979474
 10
-752.0871888077113
 20
193.0484424805751
 10
-752.1301528919804
 20
192.3493822628207
 10
-752.1731169762492
 20
191.6522595157142
 10
-752.2160810605181
 20
190.9575847102853
 10
-752.2590451447869
 20
190.2658683175638
 10
-752.302009229056
 20
189.5776208085798
 10
-752.3449733133249
 20
188.8933526543628
 10
-752.3879373975938
 20
188.2135725965983
 10
-752.4309014818627
 20
187.5387689102101
 10
-752.4738655661317
 20
186.8694164912633
 10
-752.5168296504007
 20
186.2059900048691
 10
-752.5597937346698
 20
185.5489641161391
 10
-752.6027578189388
 20
184.8988134901845
 10
-752.6457219032077
 20
184.2560127921168
 10
-752.6886859874768
 20
183.6210366870474
 10
-752.7316500717458
 20
182.9943598400876
 10
-752.7746141560148
 20
182.3764569163489
 10
-752.8175782402838
 20
181.7678025792745
 10
-752.8605423245527
 20
181.1688570781473
 10
-752.9035064088217
 20
180.5800311968918
 10
-752.9464704930906
 20
180.0017251169794
 10
-752.9894345773596
 20
179.4343390198814
 10
-753.0323986616286
 20
178.8782730870691
 10
-753.0753627458975
 20
178.333927500014
 10
-753.1183268301667
 20
177.8017024401874
 10
-753.1612909144355
 20
177.2819980890607
 10
-753.2042549987045
 20
176.7752146281051
 10
-753.2472190829735
 20
176.2817522387922
 10
-753.2901831672424
 20
175.8020095749886
 10
-753.3331472515111
 20
175.3363380282468
 10
-753.3761113357804
 20
174.8850338108327
 10
-753.4190754200492
 20
174.4483900120981
 10
-753.4620395043181
 20
174.0266997213948
 10
-753.505003588587
 20
173.6202560280748
 10
-753.5479676728559
 20
173.2293520214899
 10
-753.5909317571247
 20
172.8542807909921
 10
-753.6338958413937
 20
172.4953354259331
 10
-753.6768599256627
 20
172.1528090156649
 10
-753.7198240099317
 20
171.8269946495394
 10
-753.7627880942006
 20
171.5181729279637
 10
-753.8057521784696
 20
171.2265405922259
 10
-753.8487162627383
 20
170.9522598643344
 10
-753.8916803470072
 20
170.6954928593615
 10
-753.9346444312753
 20
170.4564016923841
210
0.0
220
0.0
230
-1.0
  0
LWPOLYLINE
  5
DE
330
1F
100
AcDbEntity
  8
0
  6
CONTINUOUS
 62
     7
100
AcDbPolyline
 90
        3
 70
     0
 43
0.0
 10
659.2796735794096
 20
218.887422571854
 10
659.2134006788746
 20
218.970477301095
 10
659.113948740118
 20
219.0173716406931
  0
LWPOLYLINE
  5
DF
330
1F
100
AcDbEntity
  8
0
  6
CONTINUOUS
 62
     7
100
AcDbPolyline
 90
       33
 70
     0
 43
0.0
 10
633.9345963078225
 20
170.4564478868794
 10
633.9512214569611
 20
170.3687440921426
 10
633.9678466060996
 20
170.2837267224772
 10
633.9844717552382
 20
170.2014032766216
 10
634.0010969043767
 20
170.121781253314
 10
634.0177220535155
 20
170.0448681512926
 10
634.0343472026539
 20
169.9706714692956
 10
634.0509723517926
 20
169.8991987060614
 10
634.0675975009311
 20
169.830457360328
 10
634.0842226500696
 20
169.7644549308339
 10
634.1008477992083
 20
169.7011989163171
 10
634.1174729483469
 20
169.640696815516
 10
634.1340980974854
 20
169.5829561271689
 10
634.1507232466241
 20
169.5279843500138
 10
634.1673483957625
 20
169.4757889827891
 10
634.1839735449012
 20
169.426377524233
 10
634.2005986940396
 20
169.3797574730838
 10
634.2172238431782
 20
169.3359363280797
 10
634.2338489923168
 20
169.2949215879589
 10
634.2504741414554
 20
169.2567207514597
 10
634.2670992905938
 20
169.2213413173202
 10
634.2837244397324
 20
169.1887907842789
 10
634.3003495888709
 20
169.1590761741372
 10
634.3169747380095
 20
169.1321995404547
 10
634.333599887148
 20
169.1081599854051
 10
634.3502250362865
 20
169.0869565722179
 10
634.3668501854252
 20
169.0685883641229
 10
634.3834753345636
 20
169.0530544243496
 10
634.4001004837022
 20
169.0403538161277
 10
634.4167256328408
 20
169.0304856026868
 10
634.4333507819795
 20
169.0234488472566
 10
634.4499759311179
 20
169.0192426130666
 10
634.4666010802564
 20
169.0178659633465
  0
LWPOLYLINE
  5
E0
330
1F
100
AcDbEntity
  8
0
  6
CONTINUOUS
 62
     7
100
AcDbPolyline
 90
        4
 70
     0
 43
0.0
 10
709.3254246608067
 20
218.8058717069067
 10
709.2591282997587
 20
218.9175156727116
 10
709.1264356790127
 20
219.0165489389389
 10
709.1139178000616
 20
219.0173716406555
  0
LWPOLYLINE
  5
E1
330
1F
100
AcDbEntity
  8
0
  6
CONTINUOUS
 62
     7
100
AcDbPolyline
 90
       33
 70
     0
 43
0.0
 10
653.9343787072735
 20
170.4574494143242
 10
653.9510009273091
 20
170.369718560922
 10
653.9676231473447
 20
170.2846817793091
 10
653.9842453673803
 20
170.2023455050118
 10
654.0008675874158
 20
170.1227161735562
 10
654.0174898074514
 20
170.0458002204686
 10
654.034112027487
 20
169.9716040812753
 10
654.0507342475225
 20
169.9001341915024
 10
654.067356467558
 20
169.8313969866762
 10
654.0839786875936
 20
169.7653989023228
 10
654.1006009076292
 20
169.7021463739686
 10
654.1172231276648
 20
169.6416458371398
 10
654.1338453477003
 20
169.5839037273625
 10
654.1504675677359
 20
169.528926480163
 10
654.1670897877714
 20
169.4767205310675
 10
654.183712007807
 20
169.4272923156023
 10
654.2003342278424
 20
169.3806482692935
 10
654.2169564478781
 20
169.3367948276675
 10
654.2335786679138
 20
169.2957384262504
 10
654.2502008879494
 20
169.2574855005684
 10
654.2668231079849
 20
169.2220424861477
 10
654.2834453280204
 20
169.1894158185146
 10
654.300067548056
 20
169.1596119331954
 10
654.3166897680916
 20
169.1326372657163
 10
654.3333119881272
 20
169.1084982516034
 10
654.3499342081626
 20
169.0872013194398
 10
654.3665564281982
 20
169.0687506665472
 10
654.383178648234
 20
169.0531450742495
 10
654.3998008682695
 20
169.0403825180208
 10
654.416423088305
 20
169.0304609733358
 10
654.4330453083408
 20
169.0233784156688
 10
654.4496675283762
 20
169.0191328204941
 10
654.4662897484117
 20
169.0177221632862
  0
LWPOLYLINE
  5
E2
330
1F
100
AcDbEntity
  8
0
  6
CONTINUOUS
 62
     7
100
AcDbPolyline
 90
       33
 70
     0
 43
0.0
 10
-638.934287007998
 20
219.5766820982953
 10
-638.9508987206151
 20
219.6643648111709
 10
-638.9675104332326
 20
219.7493637703112
 10
-638.9841221458497
 20
219.831671758568
 10
-639.0007338584671
 20
219.9112815587928
 10
-639.0173455710843
 20
219.9881859538377
 10
-639.0339572837016
 20
220.0623777265542
 10
-639.0505689963188
 20
220.1338496597942
 10
-639.067180708936
 20
220.2025945364092
 10
-639.0837924215532
 20
220.2686051392513
 10
-639.1004041341706
 20
220.3318742511721
 10
-639.1170158467879
 20
220.3923946550232
 10
-639.1336275594052
 20
220.4501591336565
 10
-639.1502392720224
 20
220.5051604699237
 10
-639.1668509846398
 20
220.5573914466766
 10
-639.1834626972568
 20
220.6068448467669
 10
-639.2000744098741
 20
220.6535134530464
 10
-639.2166861224914
 20
220.6973900483668
 10
-639.2332978351087
 20
220.7384674155799
 10
-639.2499095477261
 20
220.7767383375374
 10
-639.2665212603433
 20
220.812195597091
 10
-639.2831329729605
 20
220.8448319770926
 10
-639.2997446855777
 20
220.8746402603937
 10
-639.3163563981951
 20
220.901613904844
 10
-639.3329681108123
 20
220.925751631516
 10
-639.3495798234296
 20
220.947054632368
 10
-639.3661915360469
 20
220.965524113623
 10
-639.382803248664
 20
220.9811612815033
 10
-639.3994149612813
 20
220.9939673422318
 10
-639.4160266738986
 20
221.0039435020312
 10
-639.432638386516
 20
221.0110909671241
 10
-639.4492500991332
 20
221.0154109437332
 10
-639.4658618117505
 20
221.0169046380811
210
0.0
220
0.0
230
-1.0
  0
LWPOLYLINE
  5
E3
330
1F
100
AcDbEntity
  8
0
  6
CONTINUOUS
 62
     7
100
AcDbPolyline
 90
        3
 70
     0
 43
0.0
 10
699.305740265407
 20
218.8432771993159
 10
699.2374499151089
 20
218.944984490002
 10
699.1139056644122
 20
219.0173716406504
  0
LWPOLYLINE
  5
E4
330
1F
100
AcDbEntity
  8
0
  6
CONTINUOUS
 62
     7
100
AcDbPolyline
 90
       33
 70
     0
 43
0.0
 10
703.9349264680468
 20
170.4546535631693
 10
703.951511984367
 20
170.3671124726086
 10
703.9680975006871
 20
170.2822502294875
 10
703.9846830170073
 20
170.2000786846311
 10
704.0012685333273
 20
170.1206096888646
 10
704.0178540496476
 20
170.043855093013
 10
704.0344395659677
 20
169.9698267479014
 10
704.0510250822879
 20
169.8985357054485
 10
704.0676105986079
 20
169.8299877964136
 10
704.0841961149282
 20
169.7641867543695
 10
704.1007816312484
 20
169.7011363072152
 10
704.1173671475685
 20
169.6408401828495
 10
704.1339526638885
 20
169.5833021091714
 10
704.1505381802087
 20
169.5285258140799
 10
704.1671236965288
 20
169.4765150254739
 10
704.1837092128492
 20
169.4272734712525
 10
704.2002947291693
 20
169.3808048793145
 10
704.2168802454894
 20
169.3371129775589
 10
704.2334657618097
 20
169.2962014938847
 10
704.2500512781298
 20
169.2580741561909
 10
704.2666367944499
 20
169.2227346923763
 10
704.2832223107703
 20
169.19018683034
 10
704.2998078270905
 20
169.1604342979809
 10
704.3163933434105
 20
169.1334808231978
 10
704.3329788597309
 20
169.10933013389
 10
704.3495643760509
 20
169.0879859579562
 10
704.3661498923711
 20
169.0694520232955
 10
704.3827354086914
 20
169.0537320578067
 10
704.3993209250115
 20
169.0408297893889
 10
704.4159064413318
 20
169.030748945941
 10
704.4324919576518
 20
169.023493255362
 10
704.4490774739721
 20
169.0190664455507
 10
704.4656629902926
 20
169.0174722444063
  0
LWPOLYLINE
  5
E5
330
1F
100
AcDbEntity
  8
0
  6
CONTINUOUS
 62
     7
100
AcDbPolyline
 90
       33
 70
     0
 43
0.0
 10
-658.9347803770085
 20
219.5794755367505
 10
-658.9514047965606
 20
219.6671601548874
 10
-658.9680292161125
 20
219.7521470651637
 10
-658.9846536356646
 20
219.8344300958236
 10
-659.0012780552165
 20
219.914003075111
 10
-659.0179024747686
 20
219.9908598312702
 10
-659.0345268943206
 20
220.0649941925451
 10
-659.0511513138727
 20
220.1363999871801
 10
-659.0677757334246
 20
220.205071043419
 10
-659.0844001529766
 20
220.2710011895062
 10
-659.1010245725287
 20
220.3341842536856
 10
-659.1176489920806
 20
220.3946140642014
 10
-659.1342734116326
 20
220.4522844492977
 10
-659.1508978311848
 20
220.5071892372187
 10
-659.1675222507367
 20
220.5593222562082
 10
-659.1841466702889
 20
220.6086773345108
 10
-659.2007710898407
 20
220.6552483003702
 10
-659.2173955093928
 20
220.6990289820307
 10
-659.2340199289449
 20
220.7400132077364
 10
-659.250644348497
 20
220.7781948057313
 10
-659.2672687680489
 20
220.8135676042596
 10
-659.2838931876009
 20
220.8461254315654
 10
-659.300517607153
 20
220.8758621158929
 10
-659.317142026705
 20
220.9027714854861
 10
-659.3337664462571
 20
220.9268473685891
 10
-659.350390865809
 20
220.9480835934461
 10
-659.3670152853609
 20
220.9664740345862
 10
-659.3836397049131
 20
220.9820156283322
 10
-659.4002641244651
 20
220.9947102281529
 10
-659.4168885440172
 20
221.0045601311798
 10
-659.4335129635692
 20
221.0115676345448
 10
-659.4501373831213
 20
221.0157350353796
 10
-659.4667618026732
 20
221.0170646308158
210
0.0
220
0.0
230
-1.0
  0
LWPOLYLINE
  5
E6
330
1F
100
AcDbEntity
  8
0
  6
CONTINUOUS
 62
     7
100
AcDbPolyline
 90
       33
 70
     0
 43
0.0
 10
-628.9343274784061
 20
219.5768124554675
 10
-628.950936068925
 20
219.6644763338271
 10
-628.9675446594442
 20
219.7494608408956
 10
-628.9841532499634
 20
219.8317582376725
 10
-629.0007618404821
 20
219.9113607851566
 10
-629.0173704310013
 20
219.9882607443472
 10
-629.0339790215202
 20
220.0624503762434
 10
-629.0505876120394
 20
220.1339219418442
 10
-629.0671962025583
 20
220.2026677021487
 10
-629.0838047930774
 20
220.2686799181562
 10
-629.1004133835964
 20
220.3319508508655
 10
-629.1170219741155
 20
220.3924727612761
 10
-629.1336305646346
 20
220.4502379103867
 10
-629.1502391551535
 20
220.5052385591967
 10
-629.1668477456726
 20
220.5574669687051
 10
-629.1834563361915
 20
220.6069153999111
 10
-629.2000649267106
 20
220.6535761138137
 10
-629.2166735172298
 20
220.697441371412
 10
-629.2332821077487
 20
220.7385034337052
 10
-629.2498906982678
 20
220.7767545616924
 10
-629.2664992887868
 20
220.8121870163726
 10
-629.2831078793058
 20
220.8447932772009
 10
-629.299716469825
 20
220.8745700472556
 10
-629.316325060344
 20
220.9015178510898
 10
-629.332933650863
 20
220.9256373510305
 10
-629.349542241382
 20
220.9469292094048
 10
-629.366150831901
 20
220.9653940885396
 10
-629.3827594224201
 20
220.9810326507621
 10
-629.3993680129391
 20
220.9938455583992
 10
-629.4159766034581
 20
221.0038334737779
 10
-629.4325851939772
 20
221.0109970592253
 10
-629.4491937844962
 20
221.0153369770684
 10
-629.4658023750153
 20
221.0168538896342
210
0.0
220
0.0
230
-1.0
  0
LWPOLYLINE
  5
E7
330
1F
100
AcDbEntity
  8
0
  6
CONTINUOUS
 62
     7
100
AcDbPolyline
 90
        3
 70
     0
 43
0.0
 10
639.3026857880598
 20
218.8487162731728
 10
639.2363808654571
 20
218.9462694399032
 10
639.1139715767977
 20
219.0173716406606
  0
LWPOLYLINE
  5
E8
330
1F
100
AcDbEntity
  8
0
  6
CONTINUOUS
 62
     7
100
AcDbPolyline
 90
        4
 70
     0
 43
0.0
 10
619.3256718566872
 20
218.8051408420653
 10
619.259355204363
 20
218.9171905460923
 10
619.1249175697216
 20
219.0167139685535
 10
619.1139870791737
 20
219.0173716406522
  0
LWPOLYLINE
  5
E9
330
1F
100
AcDbEntity
  8
0
  6
CONTINUOUS
 62
     7
100
AcDbPolyline
 90
        4
 70
     0
 43
0.0
 10
679.3268018782112
 20
218.8029400608536
 10
679.2585464140243
 20
218.9183345491973
 10
679.1240340323037
 20
219.0168075094616
 10
679.1139227971719
 20
219.0173716406575
  0
LWPOLYLINE
  5
EA
330
1F
100
AcDbEntity
  8
0
  6
CONTINUOUS
 62
     7
100
AcDbPolyline
 90
        3
 70
     0
 43
0.0
 10
599.3035176926873
 20
218.8472420688547
 10
599.2418783946065
 20
218.9398219529238
 10
599.1802799150058
 20
218.9965292572566
  0
LWPOLYLINE
  5
EB
330
1F
100
AcDbEntity
  8
0
  6
CONTINUOUS
 62
     7
100
AcDbPolyline
 90
        3
 70
     0
 43
0.0
 10
689.2821387251786
 20
218.8833775198472
 10
689.2157878616958
 20
218.9681770739854
 10
689.1139103202082
 20
219.0173716406927
  0
LWPOLYLINE
  5
EC
330
1F
100
AcDbEntity
  8
0
  6
CONTINUOUS
 62
     7
100
AcDbPolyline
 90
        3
 70
     0
 43
0.0
 10
729.3042570161206
 20
218.8458868645162
 10
729.236034887494
 20
218.9467524323364
 10
729.1139382193795
 20
219.0173716406573
  0
LWPOLYLINE
  5
ED
330
1F
100
AcDbEntity
  8
0
  6
CONTINUOUS
 62
     7
100
AcDbPolyline
 90
        4
 70
     0
 43
0.0
 10
739.3278577242319
 20
218.8007631414394
 10
739.2615031606634
 20
218.9141720091185
 10
739.1270614687212
 20
219.0164656358192
 10
739.11395855881
 20
219.0173716406485
  0
LWPOLYLINE
  5
EE
330
1F
100
AcDbEntity
  8
0
  6
CONTINUOUS
 62
     7
100
AcDbPolyline
 90
      105
 70
     0
 43
0.0
 10
613.4987124732949
 20
219.5770491751259
 10
613.5416803340651
 20
219.3378958811716
 10
613.5846481948349
 20
219.0810085913816
 10
613.627616055605
 20
218.80652527993
 10
613.670583916375
 20
218.5146063581236
 10
613.7135517771452
 20
218.205501625961
 10
613.7565196379151
 20
217.8794831410144
 10
613.7994874986852
 20
217.5368229608558
 10
613.8424553594552
 20
217.1777931430572
 10
613.8854232202251
 20
216.8026657451909
 10
613.9283910809952
 20
216.4117128248289
 10
613.9713589417653
 20
216.0052064395432
 10
614.0143268025353
 20
215.5834186469061
 10
614.0572946633052
 20
215.1466215044895
 10
614.1002625240752
 20
214.6950881912193
 10
614.1432303848453
 20
214.2291376828556
 10
614.1861982456153
 20
213.7491497544039
 10
614.2291661063854
 20
213.2555083784324
 10
614.2721339671552
 20
212.7485975275089
 10
614.3151018279252
 20
212.2288011742016
 10
614.3580696886953
 20
211.6965032910787
 10
614.4010375494654
 20
211.1520878507083
 10
614.4440054102354
 20
210.5959388256582
 10
614.4869732710056
 20
210.0284401884968
 10
614.5299411317753
 20
209.4499759117919
 10
614.5729089925454
 20
208.860936397913
 10
614.6158768533156
 20
208.2617623910311
 10
614.6588447140856
 20
207.6529183520644
 10
614.7018125748556
 20
207.0348688808677
 10
614.7447804356258
 20
206.4080785772956
 10
614.7877482963958
 20
205.7730120412027
 10
614.8307161571657
 20
205.1301338724437
 10
614.8736840179358
 20
204.4799086708732
 10
614.9166518787059
 20
203.8228010363457
 10
614.959619739476
 20
203.1592755687161
 10
615.002587600246
 20
202.4897969044613
 10
615.0455554610161
 20
201.8148410252067
 10
615.088523321786
 20
201.1349112621555
 10
615.131491182556
 20
200.450514984887
 10
615.174459043326
 20
199.7621595629806
 10
615.217426904096
 20
199.0703523660156
 10
615.2603947648662
 20
198.3756007635714
 10
615.3033626256362
 20
197.6784121252272
 10
615.3463304864063
 20
196.9792938205623
 10
615.3892983471761
 20
196.2787532191561
 10
615.4322662079462
 20
195.577297690588
 10
615.4752340687162
 20
194.8754346468728
 10
615.5182019294863
 20
194.1736722384078
 10
615.5611697902563
 20
193.4725192420218
 10
615.6041376510263
 20
192.7724844543988
 10
615.6471055117963
 20
192.0740766722228
 10
615.6900733725665
 20
191.3778046921778
 10
615.7330412333364
 20
190.6841773109478
 10
615.7760090941065
 20
189.993703325217
 10
615.8189769548765
 20
189.3068915316692
 10
615.8619448156464
 20
188.6242507269886
 10
615.9049126764165
 20
187.9462897078592
 10
615.9478805371865
 20
187.273511489655
 10
615.9908483979565
 20
186.606392484928
 10
616.0338162587266
 20
185.9454014592372
 10
616.0767841194967
 20
185.2910071774649
 10
616.1197519802668
 20
184.6436784044933
 10
616.1627198410367
 20
184.0038839052045
 10
616.2056877018067
 20
183.3720924444808
 10
616.2486555625767
 20
182.7487727872044
 10
616.2916234233469
 20
182.1343936982576
 10
616.3345912841168
 20
181.5294239425224
 10
616.3775591448868
 20
180.9343317552149
 10
616.4205270056568
 20
180.3495558539185
 10
616.4634948664268
 20
179.775490459383
 10
616.5064627271969
 20
179.2125261077428
 10
616.549430587967
 20
178.6610533351326
 10
616.592398448737
 20
178.1214626776867
 10
616.6353663095072
 20
177.5941446715395
 10
616.6783341702771
 20
177.0794898528255
 10
616.721302031047
 20
176.5778887576792
 10
616.764269891817
 20
176.089731922235
 10
616.8072377525871
 20
175.6154098826274
 10
616.8502056133573
 20
175.155305916711
 10
616.8931734741273
 20
174.7097366779996
 10
616.9361413348972
 20
174.2789829958962
 10
616.9791091956672
 20
173.8633253552509
 10
617.0220770564373
 20
173.463044240914
 10
617.0650449172073
 20
173.0784201377354
 10
617.1080127779773
 20
172.7097335305653
 10
617.1509806387473
 20
172.3572649042538
 10
617.1939484995173
 20
172.021294743651
 10
617.2369163602874
 20
171.7021035336071
 10
617.2798842210574
 20
171.3999717161487
 10
617.3228520818275
 20
171.1151484010743
 10
617.3658199425975
 20
170.8477960280049
 10
617.4087878033673
 20
170.598062175414
 10
617.4517556641375
 20
170.3660944217751
 10
617.4947235249074
 20
170.1520403455615
 10
617.5376913856776
 20
169.9560475252468
 10
617.5806592464476
 20
169.7782635393044
 10
617.6236271072175
 20
169.6188359662078
 10
617.6665949679877
 20
169.4779123844305
 10
617.7095628287577
 20
169.3556403724458
 10
617.7525306895277
 20
169.2521642097442
 10
617.7954985502978
 20
169.1675573809406
 10
617.8384664110677
 20
169.1018252889095
 10
617.8814342718379
 20
169.0549705804296
 10
617.9244021326078
 20
169.0269959022789
 10
617.9673699933776
 20
169.0179039012361
  0
LWPOLYLINE
  5
EF
330
1F
100
AcDbEntity
  8
0
  6
CONTINUOUS
 62
     7
100
AcDbPolyline
 90
       33
 70
     0
 43
0.0
 10
-728.9348148167571
 20
219.5793054835707
 10
-728.9514354379103
 20
219.6670318262643
 10
-728.9680560590632
 20
219.7520763701974
 10
-728.9846766802162
 20
219.8344284483993
 10
-729.0012973013695
 20
219.9140773938994
 10
-729.0179179225223
 20
219.991012539727
 10
-729.0345385436755
 20
220.0652232189112
 10
-729.0511591648284
 20
220.1366987644814
 10
-729.0677797859815
 20
220.205428509467
 10
-729.0844004071346
 20
220.271401786897
 10
-729.1010210282878
 20
220.334607929801
 10
-729.1176416494408
 20
220.395036402391
 10
-729.1342622705938
 20
220.4526804034111
 10
-729.1508828917468
 20
220.5075373143163
 10
-729.1675035128999
 20
220.5596047377413
 10
-729.1841241340529
 20
220.6088802763213
 10
-729.200744755206
 20
220.6553615326911
 10
-729.217365376359
 20
220.6990461094857
 10
-729.233985997512
 20
220.73993160934
 10
-729.2506066186652
 20
220.778015634889
 10
-729.2672272398181
 20
220.8132957887677
 10
-729.2838478609712
 20
220.8457696736109
 10
-729.3004684821241
 20
220.8754348920536
 10
-729.3170891032771
 20
220.9022890467309
 10
-729.3337097244304
 20
220.9263297402776
 10
-729.3503303455834
 20
220.9475545753286
 10
-729.3669509667363
 20
220.9659611545189
 10
-729.3835715878894
 20
220.9815470804835
 10
-729.4001922090425
 20
220.9943099558574
 10
-729.4168128301956
 20
221.0042473832753
 10
-729.4334334513485
 20
221.0113569653724
 10
-729.4500540725015
 20
221.0156363047835
 10
-729.4666746936545
 20
221.0170830041437
210
0.0
220
0.0
230
-1.0
  0
LWPOLYLINE
  5
F0
330
1F
100
AcDbEntity
  8
0
  6
CONTINUOUS
 62
     7
100
AcDbPolyline
 90
       33
 70
     0
 43
0.0
 10
723.9347752877873
 20
170.4556201996583
 10
723.9513949362596
 20
170.3678869320952
 10
723.9680145847318
 20
170.2828363570117
 10
723.9846342332044
 20
170.2004793931913
 10
724.0012538816767
 20
170.1208269594177
 10
724.0178735301491
 20
170.0438899744746
 10
724.0344931786212
 20
169.9696793571454
 10
724.0511128270936
 20
169.898206026214
 10
724.0677324755659
 20
169.829480900464
 10
724.0843521240383
 20
169.7635148986791
 10
724.1009717725105
 20
169.7003188896255
 10
724.1175914209828
 20
169.6399006973215
 10
724.1342110694553
 20
169.5822634011232
 10
724.1508307179275
 20
169.5274096692723
 10
724.1674503664
 20
169.4753421700104
 10
724.1840700148722
 20
169.426063571579
 10
724.2006896633446
 20
169.3795765422197
 10
724.217309311817
 20
169.3358837501739
 10
724.2339289602892
 20
169.2949878636834
 10
724.2505486087616
 20
169.2568915509897
 10
724.2671682572338
 20
169.2215974803343
 10
724.2837879057063
 20
169.1891083199587
 10
724.3004075541786
 20
169.1594267381047
 10
724.3170272026507
 20
169.1325554030135
 10
724.3336468511231
 20
169.1084969829271
 10
724.3502664995956
 20
169.0872541460868
 10
724.366886148068
 20
169.0688295607341
 10
724.3835057965402
 20
169.0532258951108
 10
724.4001254450125
 20
169.0404458174582
 10
724.4167450934847
 20
169.0304919960181
 10
724.4333647419571
 20
169.023367099032
 10
724.4499843904294
 20
169.0190737947413
 10
724.4666040389014
 20
169.0176147513878
  0
LWPOLYLINE
  5
F1
330
1F
100
AcDbEntity
  8
0
  6
CONTINUOUS
 62
     7
100
AcDbPolyline
 90
       33
 70
     0
 43
0.0
 10
-698.9347289383214
 20
219.5790737131646
 10
-698.9513590167443
 20
219.6668766022082
 10
-698.967989095167
 20
219.7519840255652
 10
-698.98461917359
 20
219.8343837872746
 10
-699.0012492520126
 20
219.9140636913754
 10
-699.0178793304356
 20
219.9910115419066
 10
-699.0345094088584
 20
220.065215652271
 10
-699.0511394872813
 20
220.1366692323556
 10
-699.067769565704
 20
220.2053682239857
 10
-699.0843996441268
 20
220.2713085986755
 10
-699.1010297225498
 20
220.3344863279393
 10
-699.1176598009725
 20
220.394897383291
 10
-699.1342898793954
 20
220.4525377362451
 10
-699.1509199578182
 20
220.5074033583157
 10
-699.1675500362411
 20
220.5594902210168
 10
-699.1841801146638
 20
220.6087942958628
 10
-699.2008101930868
 20
220.6553115543679
 10
-699.2174402715096
 20
220.6990379680462
 10
-699.2340703499326
 20
220.7399695084118
 10
-699.2507004283552
 20
220.778102146979
 10
-699.2673305067781
 20
220.813431855262
 10
-699.2839605852009
 20
220.8459546047749
 10
-699.3005906636238
 20
220.875666367032
 10
-699.3172207420467
 20
220.9025631135475
 10
-699.3338508204695
 20
220.9266408158354
 10
-699.3504808988923
 20
220.9478954454101
 10
-699.3671109773152
 20
220.9663229737856
 10
-699.383741055738
 20
220.9819193724763
 10
-699.400371134161
 20
220.9946806129962
 10
-699.4170012125837
 20
221.0046026668596
 10
-699.4336312910066
 20
221.0116815055806
 10
-699.4502613694295
 20
221.0159131006735
 10
-699.4668914478523
 20
221.0172934236523
210
0.0
220
0.0
230
-1.0
  0
LWPOLYLINE
  5
F2
330
1F
100
AcDbEntity
  8
0
  6
CONTINUOUS
 62
     7
100
AcDbPolyline
 90
      105
 70
     0
 43
0.0
 10
593.4984547405028
 20
219.5786002290341
 10
593.5414196670736
 20
219.3395487050649
 10
593.5843845936442
 20
219.0826944689231
 10
593.627349520215
 20
218.8082104798328
 10
593.6703144467859
 20
218.516346464708
 10
593.7132793733567
 20
218.2073582881852
 10
593.7562442999274
 20
217.8815018149004
 10
593.7992092264982
 20
217.53903290949
 10
593.842174153069
 20
217.1802074365902
 10
593.8851390796399
 20
216.8052812608372
 10
593.9281040062106
 20
216.4145102468673
 10
593.9710689327812
 20
216.0081502593166
 10
594.014033859352
 20
215.5864571628215
 10
594.056998785923
 20
215.149694701038
 10
594.0999637124936
 20
214.6981968345275
 10
594.1429286390645
 20
214.2323343853476
 10
594.1858935656352
 20
213.7524785019469
 10
594.228858492206
 20
213.2590003327739
 10
594.2718234187769
 20
212.7522710262773
 10
594.3147883453477
 20
212.2326617309056
 10
594.3577532719183
 20
211.7005435951074
 10
594.4007181984891
 20
211.1562877673314
 10
594.44368312506
 20
210.6002653960261
 10
594.4866480516307
 20
210.0328476626974
 10
594.5296129782016
 20
209.4544262099214
 10
594.5725779047724
 20
208.8654479778647
 10
594.615542831343
 20
208.2663691560425
 10
594.6585077579139
 20
207.6576459339697
 10
594.7014726844848
 20
207.0397345011613
 10
594.7444376110556
 20
206.4130910471325
 10
594.7874025376262
 20
205.7781717613983
 10
594.8303674641971
 20
205.1354328334736
 10
594.8733323907678
 20
204.4853304528736
 10
594.9162973173386
 20
203.8283208091132
 10
594.9592622439095
 20
203.1648612284237
 10
595.0022271704802
 20
202.4954326350199
 10
595.0451920970509
 20
201.8205382175153
 10
595.0881570236218
 20
201.1406820342398
 10
595.1311219501923
 20
200.4563681435228
 10
595.1740868767633
 20
199.7681006036941
 10
595.217051803334
 20
199.0763834730834
 10
595.2600167299048
 20
198.3817208100203
 10
595.3029816564757
 20
197.6846166728346
 10
595.3459465830465
 20
196.9855751198557
 10
595.3889115096172
 20
196.2851002094135
 10
595.4318764361878
 20
195.583696858956
 10
595.4748413627586
 20
194.8818744662645
 10
595.5178062893295
 20
194.1801438849057
 10
595.5607712159003
 20
193.4790159692183
 10
595.6037361424711
 20
192.7790015735413
 10
595.646701069042
 20
192.0806115522137
 10
595.6896659956127
 20
191.3843567595744
 10
595.7326309221835
 20
190.6907480499623
 10
595.7755958487544
 20
190.0002962777165
 10
595.8185607753251
 20
189.3135122971757
 10
595.8615257018959
 20
188.6309068033318
 10
595.9044906284668
 20
187.9529783259764
 10
595.9474555550374
 20
187.2802048659351
 10
595.9904204816085
 20
186.613062446983
 10
596.033385408179
 20
185.9520270928954
 10
596.0763503347499
 20
185.2975748274477
 10
596.1193152613207
 20
184.6501816744151
 10
596.1622801878914
 20
184.0103236575728
 10
596.2052451144622
 20
183.3784768006961
 10
596.248210041033
 20
182.7551171275603
 10
596.2911749676038
 20
182.1407206619406
 10
596.3341398941744
 20
181.5357593734082
 10
596.3771048207453
 20
180.9406620836757
 10
596.4200697473161
 20
180.3558315583494
 10
596.4630346738869
 20
179.7816702022098
 10
596.5059996004576
 20
179.2185804200369
 10
596.5489645270285
 20
178.6669646166115
 10
596.5919294535993
 20
178.1272251967136
 10
596.63489438017
 20
177.5997645651235
 10
596.6778593067407
 20
177.0849851266218
 10
596.7208242333116
 20
176.5832892859887
 10
596.7637891598823
 20
176.0950794385741
 10
596.8067540864531
 20
175.6207356136606
 10
596.849719013024
 20
175.1605675715624
 10
596.8926839395947
 20
174.7148713084207
 10
596.9356488661655
 20
174.283942820377
 10
596.9786137927363
 20
173.8680781035725
 10
597.0215787193072
 20
173.4675731541486
 10
597.064543645878
 20
173.0827239682466
 10
597.1075085724488
 20
172.7138265420079
 10
597.1504734990195
 20
172.3611768715737
 10
597.1934384255903
 20
172.0250709530856
 10
597.236403352161
 20
171.7058025140155
 10
597.2793682787318
 20
171.4036051543773
 10
597.3223332053026
 20
171.1186475686844
 10
597.3652981318733
 20
170.8510952254213
 10
597.4082630584442
 20
170.6011135930724
 10
597.451227985015
 20
170.368868140122
 10
597.4941929115857
 20
170.1545243350546
 10
597.5371578381565
 20
169.9582476463546
 10
597.5801227647272
 20
169.7802035425061
 10
597.623087691298
 20
169.6205574919939
 10
597.6660526178688
 20
169.4794749633022
 10
597.7090175444396
 20
169.3571061384418
 10
597.7519824710104
 20
169.2535078037722
 10
597.7949473975813
 20
169.1687014823816
 10
597.8379123241518
 20
169.1027086320252
 10
597.8808772507227
 20
169.0555507104582
 10
597.9238421772936
 20
169.0272491754358
 10
597.9668071038643
 20
169.0178254847133
  0
LWPOLYLINE
  5
F3
330
1F
100
AcDbEntity
  8
0
  6
CONTINUOUS
 62
     7
100
AcDbPolyline
 90
       33
 70
     0
 43
0.0
 10
-738.9347137211346
 20
219.5787227342186
 10
-738.9513310540726
 20
219.6664345150044
 10
-738.9679483870107
 20
219.7514674255349
 10
-738.9845657199487
 20
219.8338113149938
 10
-739.0011830528866
 20
219.9134560325648
 10
-739.0178003858247
 20
219.9903914274316
 10
-739.0344177187628
 20
220.0646073487781
 10
-739.0510350517009
 20
220.1360936457878
 10
-739.0676523846388
 20
220.2048401676445
 10
-739.0842697175767
 20
220.270836763532
 10
-739.100887050515
 20
220.3340732826339
 10
-739.1175043834529
 20
220.394539574134
 10
-739.134121716391
 20
220.452225487216
 10
-739.150739049329
 20
220.5071213306636
 10
-739.1673563822668
 20
220.5592222818071
 10
-739.183973715205
 20
220.6085264475063
 10
-739.200591048143
 20
220.6550319747675
 10
-739.2172083810812
 20
220.6987370105976
 10
-739.2338257140191
 20
220.739639702003
 10
-739.250443046957
 20
220.7777381959904
 10
-739.2670603798952
 20
220.8130306395664
 10
-739.2836777128331
 20
220.8455151797378
 10
-739.300295045771
 20
220.875189963511
 10
-739.3169123787092
 20
220.9020531378928
 10
-739.3335297116471
 20
220.9261028498896
 10
-739.3501470445851
 20
220.9473372465083
 10
-739.3667643775234
 20
220.9657544747554
 10
-739.3833817104612
 20
220.9813526816373
 10
-739.3999990433992
 20
220.994130014161
 10
-739.4166163763373
 20
221.004084619333
 10
-739.4332337092753
 20
221.0112146441597
 10
-739.4498510422134
 20
221.0155182356481
 10
-739.4664683751515
 20
221.0169935408045
210
0.0
220
0.0
230
-1.0
  0
LWPOLYLINE
  5
F4
330
1F
100
AcDbEntity
  8
0
  6
CONTINUOUS
 62
     7
100
AcDbPolyline
 90
       33
 70
     0
 43
0.0
 10
663.9343068497271
 20
170.4577841225646
 10
663.950927422651
 20
170.3700326064962
 10
663.9675479955752
 20
170.2849803869986
 10
663.9841685684992
 20
170.2026333648859
 10
664.0007891414232
 20
170.1229974409721
 10
664.0174097143472
 20
170.0460785160712
 10
664.0340302872711
 20
169.9718824909972
 10
664.0506508601953
 20
169.9004152665643
 10
664.0672714331192
 20
169.8316827435862
 10
664.0838920060434
 20
169.7656908228773
 10
664.1005125789674
 20
169.7024454052513
 10
664.1171331518914
 20
169.6419523915224
 10
664.1337537248154
 20
169.5842176825047
 10
664.1503742977393
 20
169.5292471790121
 10
664.1669948706633
 20
169.4770467818587
 10
664.1836154435875
 20
169.4276223918585
 10
664.2002360165114
 20
169.3809799098254
 10
664.2168565894355
 20
169.3371252365737
 10
664.2334771623596
 20
169.2960642729172
 10
664.2500977352835
 20
169.2578029196701
 10
664.2667183082075
 20
169.2223470776462
 10
664.2833388811316
 20
169.1897026476598
 10
664.2999594540556
 20
169.1598755305247
 10
664.3165800269796
 20
169.1328716270551
 10
664.3332005999036
 20
169.108696838065
 10
664.3498211728277
 20
169.0873570643683
 10
664.3664417457517
 20
169.0688582067791
 10
664.3830623186757
 20
169.0532060703004
 10
664.3996828915997
 20
169.0404029042968
 10
664.4163034645237
 20
169.0304464347028
 10
664.4329240374477
 20
169.0233340945601
 10
664.4495446103718
 20
169.0190633169103
 10
664.466165183296
 20
169.0176315347948
  0
LWPOLYLINE
  5
F5
330
1F
100
AcDbEntity
  8
0
  6
CONTINUOUS
 62
     7
100
AcDbPolyline
 90
       41
 70
     0
 43
0.0
 10
693.9349169840095
 20
170.4546206078515
 10
693.9481819968336
 20
170.3843943926875
 10
693.9614470096576
 20
170.3158832566339
 10
693.9747120224816
 20
170.2490935152289
 10
693.9879770353058
 20
170.1840314840102
 10
694.0012420481297
 20
170.120703478516
 10
694.0145070609537
 20
170.0591157306002
 10
694.0277720737778
 20
169.9992725035954
 10
694.0410370866018
 20
169.9411760676759
 10
694.054302099426
 20
169.8848286044042
 10
694.0675671122498
 20
169.8302322953431
 10
694.0808321250738
 20
169.7773893220549
 10
694.0940971378978
 20
169.7263018661023
 10
694.107362150722
 20
169.6769721090477
 10
694.120627163546
 20
169.6294022324536
 10
694.1338921763701
 20
169.5835944178827
 10
694.147157189194
 20
169.5395508468975
 10
694.1604222020181
 20
169.4972737010605
 10
694.173687214842
 20
169.4567651619342
 10
694.1869522276662
 20
169.4180274110812
 10
694.2002172404902
 20
169.381062630064
 10
694.2134822533142
 20
169.3458730004452
 10
694.2267472661383
 20
169.3124607037873
 10
694.2400122789622
 20
169.2808279216528
 10
694.2532772917863
 20
169.2509768356043
 10
694.2665423046103
 20
169.2229096272043
 10
694.2798073174345
 20
169.1966284780153
 10
694.2930723302584
 20
169.1721355696
 10
694.3063373430823
 20
169.1494330835207
 10
694.3196023559065
 20
169.1285232013402
 10
694.3328673687305
 20
169.1094081046208
 10
694.3461323815545
 20
169.0920899749252
 10
694.3593973943784
 20
169.0765709938159
 10
694.3726624072026
 20
169.0628533428554
 10
694.3859274200266
 20
169.0509392036062
 10
694.3991924328507
 20
169.040830757631
 10
694.4124574456746
 20
169.0325301864922
 10
694.4257224584987
 20
169.0260396717523
 10
694.4389874713227
 20
169.021361394974
 10
694.4522524841467
 20
169.0184975377197
 10
694.4655174969708
 20
169.0174502800178
  0
LWPOLYLINE
  5
F6
330
1F
100
AcDbEntity
  8
0
  6
CONTINUOUS
 62
     7
100
AcDbPolyline
 90
       33
 70
     0
 43
0.0
 10
733.9346582676166
 20
170.4563004500782
 10
733.9512961030839
 20
170.3684659311744
 10
733.9679339385511
 20
170.2833176660496
 10
733.9845717740185
 20
170.2008660994345
 10
734.0012096094858
 20
170.1211216760599
 10
734.017847444953
 20
170.0440948406566
 10
734.0344852804205
 20
169.9697960379553
 10
734.0511231158877
 20
169.8982357126869
 10
734.0677609513551
 20
169.829424309582
 10
734.0843987868222
 20
169.7633722733715
 10
734.1010366222896
 20
169.7000900487861
 10
734.1176744577567
 20
169.6395880805565
 10
734.1343122932241
 20
169.5818765413055
 10
734.1509501286914
 20
169.5269612143405
 10
734.1675879641589
 20
169.4748443337919
 10
734.184225799626
 20
169.4255280320906
 10
734.2008636350934
 20
169.3790144416672
 10
734.2175014705607
 20
169.3353056949524
 10
734.234139306028
 20
169.2944039243769
 10
734.2507771414953
 20
169.2563112623716
 10
734.2674149769625
 20
169.2210298413671
 10
734.28405281243
 20
169.1885617937941
 10
734.3006906478971
 20
169.1589092520833
 10
734.3173284833643
 20
169.1320743486656
 10
734.3339663188317
 20
169.1080592159716
 10
734.350604154299
 20
169.086865986432
 10
734.3672419897664
 20
169.0684967924776
 10
734.3838798252339
 20
169.0529537665391
 10
734.4005176607011
 20
169.0402390410472
 10
734.4171554961686
 20
169.0303547484327
 10
734.4337933316358
 20
169.0233030211263
 10
734.450431167103
 20
169.0190859915586
 10
734.4670690025706
 20
169.0177057921604
  0
LWPOLYLINE
  5
F7
330
1F
100
AcDbEntity
  8
0
  6
CONTINUOUS
 62
     7
100
AcDbPolyline
 90
       33
 70
     0
 43
0.0
 10
-648.9345171561936
 20
219.5779992595767
 10
-648.951131238366
 20
219.6656604800119
 10
-648.9677453205381
 20
219.7506327428719
 10
-648.9843594027105
 20
219.8329093567889
 10
-649.0009734848827
 20
219.9124836303951
 10
-649.017587567055
 20
219.9893488723228
 10
-649.0342016492273
 20
220.063498391204
 10
-649.0508157313996
 20
220.134925495671
 10
-649.067429813572
 20
220.2036234943561
 10
-649.0840438957442
 20
220.2695856958913
 10
-649.1006579779165
 20
220.3328054089089
 10
-649.1172720600888
 20
220.393275942041
 10
-649.1338861422612
 20
220.45099060392
 10
-649.1505002244334
 20
220.5059427031779
 10
-649.1671143066056
 20
220.558125548447
 10
-649.183728388778
 20
220.6075324483594
 10
-649.2003424709502
 20
220.6541567115474
 10
-649.2169565531225
 20
220.6979916466431
 10
-649.2335706352949
 20
220.7390305622789
 10
-649.2501847174672
 20
220.7772667670867
 10
-649.2667987996394
 20
220.8126935696989
 10
-649.2834128818117
 20
220.8453042787476
 10
-649.3000269639841
 20
220.8750922028651
 10
-649.3166410461563
 20
220.9020506506833
 10
-649.3332551283287
 20
220.9261729309576
 10
-649.349869210501
 20
220.947453954446
 10
-649.3664832926733
 20
220.9658942433135
 10
-649.3830973748456
 20
220.9814955476481
 10
-649.3997114570178
 20
220.994259617538
 10
-649.4163255391902
 20
221.0041882030712
 10
-649.4329396213625
 20
221.011283054336
 10
-649.4495537035348
 20
221.0155459214204
 10
-649.466167785707
 20
221.0169785544124
210
0.0
220
0.0
230
-1.0
  0
LWPOLYLINE
  5
F8
330
1F
100
AcDbEntity
  8
0
  6
CONTINUOUS
 62
     7
100
AcDbPolyline
 90
       33
 70
     0
 43
0.0
 10
643.9345354197437
 20
170.4566870239579
 10
643.9511585277145
 20
170.3689845468824
 10
643.9677816356852
 20
170.2839716708672
 10
643.9844047436559
 20
170.20165536335
 10
644.0010278516265
 20
170.1220425917687
 10
644.0176509595973
 20
170.0451403235609
 10
644.0342740675679
 20
169.9709555261645
 10
644.0508971755387
 20
169.8994951670172
 10
644.0675202835095
 20
169.8307662135568
 10
644.0841433914801
 20
169.764775633221
 10
644.1007664994507
 20
169.7015303934477
 10
644.1173896074215
 20
169.6410374616746
 10
644.1340127153921
 20
169.5833038053395
 10
644.150635823363
 20
169.5283363918801
 10
644.1672589313338
 20
169.4761421887343
 10
644.1838820393044
 20
169.4267281633397
 10
644.2005051472751
 20
169.3801012831342
 10
644.2171282552457
 20
169.3362685155556
 10
644.2337513632165
 20
169.2952368280415
 10
644.2503744711871
 20
169.2570131880299
 10
644.266997579158
 20
169.2216045629584
 10
644.2836206871285
 20
169.1890179202647
 10
644.3002437950994
 20
169.1592602273868
 10
644.3168669030699
 20
169.1323384517623
 10
644.3334900110407
 20
169.108258406127
 10
644.3501131190114
 20
169.0870203044799
 10
644.3667362269821
 20
169.0686226663035
 10
644.3833593349527
 20
169.0530640107111
 10
644.3999824429234
 20
169.0403428568163
 10
644.4166055508942
 20
169.0304577237326
 10
644.4332286588649
 20
169.0234071305733
 10
644.4498517668354
 20
169.019189596452
 10
644.4664748748062
 20
169.0178036404822
  0
LWPOLYLINE
  5
F9
330
1F
100
AcDbEntity
  8
0
  6
CONTINUOUS
 62
     7
100
AcDbPolyline
 90
      105
 70
     0
 43
0.0
 10
603.4986561399292
 20
219.5774345708482
 10
603.541623324228
 20
219.3383080757026
 10
603.5845905085266
 20
219.0814154621322
 10
603.6275576928256
 20
218.8068926619525
 10
603.6705248771242
 20
218.5149540097203
 10
603.7134920614232
 20
218.2058627797081
 10
603.7564592457219
 20
217.8798829911248
 10
603.7994264300206
 20
217.5372786631795
 10
603.8423936143193
 20
217.1783138150813
 10
603.8853607986182
 20
216.8032524660393
 10
603.9283279829169
 20
216.4123586352624
 10
603.9712951672157
 20
216.0058963419598
 10
604.0142623515145
 20
215.5841296053405
 10
604.0572295358132
 20
215.1473224509006
 10
604.100196720112
 20
214.6957620290265
 10
604.1431639044107
 20
214.2298107141398
 10
604.1861310887095
 20
213.7498461503894
 10
604.2290982730083
 20
213.2562459819246
 10
604.2720654573071
 20
212.7493878528943
 10
604.3150326416059
 20
212.2296494074477
 10
604.3579998259046
 20
211.6974082897338
 10
604.4009670102034
 20
211.1530421439018
 10
604.4439341945023
 20
210.5969286141007
 10
604.4869013788009
 20
210.0294453444796
 10
604.5298685630996
 20
209.450971318733
 10
604.5728357473985
 20
208.8619230914217
 10
604.6158029316973
 20
208.2627589789175
 10
604.6587701159959
 20
207.6539394782666
 10
604.7017373002948
 20
207.0359250865149
 10
604.7447044845935
 20
206.4091763007085
 10
604.7876716688922
 20
205.7741536178935
 10
604.8306388531911
 20
205.1313175351158
 10
604.8736060374898
 20
204.4811285494216
 10
604.9165732217884
 20
203.8240471578569
 10
604.9595404060873
 20
203.1605338574677
 10
605.0025075903861
 20
202.4910537803584
 10
605.0454747746849
 20
201.8161013315676
 10
605.0884419589837
 20
201.1361823121482
 10
605.1314091432824
 20
200.4518025487958
 10
605.1743763275813
 20
199.7634678682056
 10
605.21734351188
 20
199.071684097073
 10
605.2603106961789
 20
198.3769570620933
 10
605.3032778804777
 20
197.6797925899619
 10
605.3462450647763
 20
196.9806965073739
 10
605.3892122490752
 20
196.280174641025
 10
605.4321794333739
 20
195.5787328270807
 10
605.4751466176727
 20
194.8768781705945
 10
605.5181138019715
 20
194.1751203100587
 10
605.5610809862703
 20
193.4739691849188
 10
605.6040481705691
 20
192.7739347346199
 10
605.6470153548677
 20
192.0755268986075
 10
605.6899825391666
 20
191.3792556163269
 10
605.7329497234654
 20
190.6856308272235
 10
605.7759169077641
 20
189.9951624707426
 10
605.8188840920628
 20
189.3083604863296
 10
605.8618512763617
 20
188.6257348134298
 10
605.9048184606603
 20
187.9477938297949
 10
605.9477856449593
 20
187.2750251270391
 10
605.9907528292579
 20
186.6079015209095
 10
606.0337200135568
 20
185.9468955115781
 10
606.0766871978554
 20
185.2924795992167
 10
606.1196543821543
 20
184.6451262839971
 10
606.162621566453
 20
184.0053080660911
 10
606.2055887507518
 20
183.3734974456705
 10
606.2485559350506
 20
182.7501669229072
 10
606.2915231193493
 20
182.1357889979729
 10
606.3344903036482
 20
181.5308361709317
 10
606.3774574879469
 20
180.9357674938306
 10
606.4204246722458
 20
180.3509914230315
 10
606.4633918565445
 20
179.7769045181195
 10
606.5063590408432
 20
179.2139033386797
 10
606.549326225142
 20
178.6623844442973
 10
606.5922934094408
 20
178.1227443945576
 10
606.6352605937398
 20
177.5953797490455
 10
606.6782277780385
 20
177.0806870673463
 10
606.7211949623371
 20
176.579062909045
 10
606.764162146636
 20
176.090903833727
 10
606.8071293309346
 20
175.6166051514014
 10
606.8500965152334
 20
175.1565165219272
 10
606.8930636995321
 20
174.7109299439068
 10
606.936030883831
 20
174.2801337229858
 10
606.9789980681296
 20
173.8644161648098
 10
607.0219652524285
 20
173.4640655750247
 10
607.0649324367272
 20
173.0793702592759
 10
607.107899621026
 20
172.7106185232092
 10
607.1508668053249
 20
172.3580986724701
 10
607.1938339896237
 20
172.0220990127044
 10
607.2368011739225
 20
171.7029078495577
 10
607.2797683582211
 20
171.4008022081447
 10
607.3227355425199
 20
171.1159759851336
 10
607.3657027268187
 20
170.8485859131558
 10
607.4086699111175
 20
170.5987885515536
 10
607.4516370954162
 20
170.3667404596692
 10
607.4946042797151
 20
170.1525981968451
 10
607.5375714640137
 20
169.9565183224235
 10
607.5805386483125
 20
169.7786573957468
 10
607.6235058326113
 20
169.6191719761573
 10
607.6664730169101
 20
169.4782186229973
 10
607.7094402012088
 20
169.3559537274212
 10
607.7524073855076
 20
169.2524936511763
 10
607.7953745698063
 20
169.1678631953005
 10
607.8383417541053
 20
169.1020744157151
 10
607.881308938404
 20
169.0551393683413
 10
607.9242761227026
 20
169.0270701091008
 10
607.9672433070014
 20
169.0178786939148
  0
LWPOLYLINE
  5
FA
330
1F
100
AcDbEntity
  8
0
  6
CONTINUOUS
 62
     7
100
AcDbPolyline
 90
        4
 70
     0
 43
0.0
 10
649.3281594012003
 20
218.8003105375033
 10
649.2599850045871
 20
218.9163473310021
 10
649.123455667319
 20
219.0168538408961
 10
649.1139656003696
 20
219.0173716406575
  0
LWPOLYLINE
  5
FB
330
1F
100
AcDbEntity
  8
0
  6
CONTINUOUS
 62
     7
100
AcDbPolyline
 90
        3
 70
     0
 43
0.0
 10
629.2810172408032
 20
218.885084828025
 10
629.2127875232933
 20
218.9710343931691
 10
629.113982086885
 20
219.0173716406916
  0
LWPOLYLINE
  5
FC
330
1F
100
AcDbEntity
  8
0
  6
CONTINUOUS
 62
     7
100
AcDbPolyline
 90
        3
 70
     0
 43
0.0
 10
669.3051359472714
 20
218.8443811591356
 10
669.2388709145698
 20
218.9435199209095
 10
669.1139307273263
 20
219.0173716406501
  0
LWPOLYLINE
  5
FD
330
1F
100
AcDbEntity
  8
0
  6
CONTINUOUS
 62
     7
100
AcDbPolyline
 90
        3
 70
     0
 43
0.0
 10
719.2845859158501
 20
218.8795607466284
 10
719.216368058648
 20
218.967582632791
 10
719.1139266986796
 20
219.0173716406931
  0
LWPOLYLINE
  5
FE
330
1F
100
AcDbEntity
  8
0
  6
CONTINUOUS
 62
     7
100
AcDbPolyline
 90
       33
 70
     0
 43
0.0
 10
-718.9349067411649
 20
219.5798618992847
 10
-718.9515314929283
 20
219.6676050243609
 10
-718.9681562446916
 20
219.7526622636961
 10
-718.9847809964549
 20
219.835022435444
 10
-719.0014057482184
 20
219.9146743577585
 10
-719.0180304999817
 20
219.9916068487932
 10
-719.0346552517453
 20
220.0658087267021
 10
-719.0512800035085
 20
220.1372688096387
 10
-719.0679047552719
 20
220.2059759157569
 10
-719.0845295070353
 20
220.2719188777711
 10
-719.1011542587987
 20
220.3350889619472
 10
-719.117779010562
 20
220.3954825737735
 10
-719.1344037623254
 20
220.4530967712268
 10
-719.1510285140887
 20
220.507928612284
 10
-719.1676532658521
 20
220.5599751549215
 10
-719.1842780176155
 20
220.6092334571163
 10
-719.200902769379
 20
220.6557005768449
 10
-719.2175275211423
 20
220.6993735720841
 10
-719.2341522729056
 20
220.7402495008105
 10
-719.250777024669
 20
220.7783254210011
 10
-719.2674017764325
 20
220.8135983906323
 10
-719.2840265281959
 20
220.8460654676809
 10
-719.3006512799593
 20
220.8757237101238
 10
-719.3172760317225
 20
220.9025701759374
 10
-719.333900783486
 20
220.9266019230986
 10
-719.3505255352493
 20
220.9478160095841
 10
-719.3671502870128
 20
220.9662094933707
 10
-719.3837750387761
 20
220.9817794324348
 10
-719.4003997905395
 20
220.9945228847535
 10
-719.4170245423029
 20
221.0044369083033
 10
-719.4336492940664
 20
221.0115185610609
 10
-719.4502740458297
 20
221.015764901003
 10
-719.4668987975933
 20
221.0171729861064
210
0.0
220
0.0
230
-1.0
  0
LWPOLYLINE
  5
FF
330
1F
100
AcDbEntity
  8
0
  6
CONTINUOUS
 62
     7
100
AcDbPolyline
 90
       33
 70
     0
 43
0.0
 10
713.9348096865688
 20
170.4553631752707
 10
713.9514098350669
 20
170.3677290660277
 10
713.968009983565
 20
170.2827744835143
 10
713.9846101320632
 20
170.2005108109498
 10
714.0012102805614
 20
170.1209494315536
 10
714.0178104290598
 20
170.0441017285452
 10
714.0344105775578
 20
169.9699790851438
 10
714.051010726056
 20
169.8985928845689
 10
714.0676108745542
 20
169.8299545093518
 10
714.0842110230524
 20
169.7640736283225
 10
714.1008111715506
 20
169.7009545038715
 10
714.1174113200487
 20
169.6406003348536
 10
714.134011468547
 20
169.583014320124
 10
714.1506116170452
 20
169.5281996585372
 10
714.1672117655435
 20
169.4761595489483
 10
714.1838119140417
 20
169.426897190212
 10
714.2004120625398
 20
169.3804157811832
 10
714.2170122110381
 20
169.3367185207169
 10
714.2336123595363
 20
169.2958086076679
 10
714.2502125080343
 20
169.2576892408909
 10
714.2668126565328
 20
169.222363619241
 10
714.283412805031
 20
169.1898349415729
 10
714.300012953529
 20
169.1601064067416
 10
714.3166131020273
 20
169.1331812136019
 10
714.3332132505254
 20
169.1090625610086
 10
714.3498133990237
 20
169.0877536478167
 10
714.3664135475219
 20
169.069257672881
 10
714.38301369602
 20
169.0535778350563
 10
714.3996138445182
 20
169.0407173331975
 10
714.4162139930165
 20
169.0306793661596
 10
714.4328141415145
 20
169.0234671327972
 10
714.4494142900128
 20
169.0190838319654
 10
714.466014438511
 20
169.0175326625191
  0
LWPOLYLINE
  5
100
330
1F
100
AcDbEntity
  8
0
  6
CONTINUOUS
 62
     7
100
AcDbPolyline
 90
       33
 70
     0
 43
0.0
 10
-708.9347394205998
 20
219.5790445948062
 10
-708.9513720980485
 20
219.6668609117824
 10
-708.9680047754975
 20
219.7519853279647
 10
-708.9846374529462
 20
219.8344061416236
 10
-709.001270130395
 20
219.9141116510299
 10
-709.0179028078439
 20
219.9910901544543
 10
-709.0345354852926
 20
220.0653299501672
 10
-709.0511681627415
 20
220.1368193364395
 10
-709.0678008401904
 20
220.205547852856
 10
-709.0844335176391
 20
220.2715105059193
 10
-709.101066195088
 20
220.3347038066943
 10
-709.117698872537
 20
220.3951242662907
 10
-709.1343315499857
 20
220.4527683958185
 10
-709.1509642274345
 20
220.5076327063873
 10
-709.1675969048835
 20
220.5597137091071
 10
-709.1842295823323
 20
220.6090079150876
 10
-709.200862259781
 20
220.6555118354388
 10
-709.2174949372301
 20
220.6992219812705
 10
-709.2341276146788
 20
220.7401348636924
 10
-709.2507602921277
 20
220.7782469938146
 10
-709.2673929695765
 20
220.8135548827466
 10
-709.2840256470253
 20
220.8460550415986
 10
-709.3006583244739
 20
220.8757439814801
 10
-709.3172910019229
 20
220.9026182135011
 10
-709.3339236793718
 20
220.9266742487715
 10
-709.3505563568207
 20
220.9479085984011
 10
-709.3671890342694
 20
220.9663177734996
 10
-709.3838217117182
 20
220.9818982851769
 10
-709.4004543891672
 20
220.994646644543
 10
-709.4170870666159
 20
221.0045593627075
 10
-709.4337197440648
 20
221.0116329507804
 10
-709.4503524215136
 20
221.0158639198714
 10
-709.4669850989624
 20
221.0172487810905
210
0.0
220
0.0
230
-1.0
  0
LWPOLYLINE
  5
101
330
1F
100
AcDbEntity
  8
0
  6
CONTINUOUS
 62
     7
100
AcDbPolyline
 90
        3
 70
     0
 43
0.0
 10
609.3020624737497
 20
218.8497835873097
 10
609.2338781988926
 20
218.949248448629
 10
609.1802940415695
 20
218.9965292572556
  0
LWPOLYLINE
  5
102
330
1F
100
AcDbEntity
  8
0
  6
CONTINUOUS
 62
     7
100
AcDbPolyline
 90
       41
 70
     0
 43
0.0
 10
-688.9346528245429
 20
219.5787446500859
 10
-688.9479510656212
 20
219.6491742780356
 10
-688.9612493066994
 20
219.7178786197335
 10
-688.9745475477775
 20
219.7848511856178
 10
-688.9878457888558
 20
219.8500854861265
 10
-689.0011440299342
 20
219.9135751710763
 10
-689.0144422710123
 20
219.9753160950621
 10
-689.0277405120906
 20
220.0353058730655
 10
-689.0410387531689
 20
220.0935421691536
 10
-689.054336994247
 20
220.1500226473939
 10
-689.0676352353253
 20
220.2047449718535
 10
-689.0809334764036
 20
220.2577068066001
 10
-689.0942317174819
 20
220.3089058157007
 10
-689.10752995856
 20
220.3583396632228
 10
-689.1208281996384
 20
220.4060060132337
 10
-689.1341264407165
 20
220.4519025298009
 10
-689.1474246817949
 20
220.4960268769916
 10
-689.1607229228731
 20
220.538376718873
 10
-689.1740211639512
 20
220.5789497195127
 10
-689.1873194050295
 20
220.617743542978
 10
-689.2006176461077
 20
220.654755853336
 10
-689.2139158871861
 20
220.6899843146544
 10
-689.2272141282644
 20
220.7234265910003
 10
-689.2405123693426
 20
220.755080346441
 10
-689.2538106104207
 20
220.784943245044
 10
-689.267108851499
 20
220.8130129508766
 10
-689.2804070925772
 20
220.8392871280061
 10
-689.2937053336555
 20
220.8637634404999
 10
-689.3070035747337
 20
220.8864395524253
 10
-689.320301815812
 20
220.9073131278496
 10
-689.3336000568902
 20
220.9263818308403
 10
-689.3468982979684
 20
220.9436433254645
 10
-689.3601965390469
 20
220.9590952757898
 10
-689.3734947801249
 20
220.9727353458833
 10
-689.3867930212032
 20
220.9845611998125
 10
-689.4000912622814
 20
220.9945705016447
 10
-689.4133895033598
 20
221.0027609154472
 10
-689.4266877444381
 20
221.0091301052875
 10
-689.4399859855164
 20
221.0136757352327
 10
-689.4532842265946
 20
221.0163954899943
 10
-689.4665824676729
 20
221.0172885826211
210
0.0
220
0.0
230
-1.0
  0
LWPOLYLINE
  5
103
330
1F
100
AcDbEntity
  8
0
  6
CONTINUOUS
 62
     7
100
AcDbPolyline
 90
        3
 70
     0
 43
0.0
 10
749.3079984750294
 20
218.8390455703009
 10
749.2440968150936
 20
218.9370681089734
 10
749.1802707021205
 20
218.9965292572566
  0
ARC
  5
104
330
1F
100
AcDbEntity
  8
0
  6
CONTINUOUS
 62
     7
100
AcDbCircle
 10
1227.148722419841
 20
239.0405823206278
 30
0.0
 40
617.1989809200255
100
AcDbArc
 50
182.9757977434026
 51
186.1839792410038
  0
ARC
  5
105
330
1F
100
AcDbEntity
  8
0
  6
CONTINUOUS
 62
     7
100
AcDbCircle
 10
687.7304751455691
 20
184.862207370404
 30
0.0
 40
61.12936496342667
100
AcDbArc
 50
181.2862501201936
 51
192.9786229463088
  0
ARC
  5
106
330
1F
100
AcDbEntity
  8
0
  6
CONTINUOUS
 62
     7
100
AcDbCircle
 10
1.018180314871997
 20
151.9301897306009
 30
0.0
 40
606.4268399909491
100
AcDbArc
 50
2.956812930687477
 51
6.205348336705695
  0
ARC
  5
107
330
1F
100
AcDbEntity
  8
0
  6
CONTINUOUS
 62
     7
100
AcDbCircle
 10
698.9936753484226
 20
184.8093568926205
 30
0.0
 40
62.37746595945113
100
AcDbArc
 50
181.4502791254469
 51
192.5902585859027
  0
ARC
  5
108
330
1F
100
AcDbEntity
  8
0
  6
CONTINUOUS
 62
     7
100
AcDbCircle
 10
682.9329939721334
 20
185.5189342643258
 30
0.0
 40
66.3634764377168
100
AcDbArc
 50
181.4597778150486
 51
192.4861436914275
  0
ARC
  5
109
330
1F
100
AcDbEntity
  8
0
  6
CONTINUOUS
 62
     7
100
AcDbCircle
 10
148.1525259847709
 20
151.6989350226585
 30
0.0
 40
609.300839294505
100
AcDbArc
 50
2.963723759149218
 51
6.197688240538583
  0
ARC
  5
10A
330
1F
100
AcDbEntity
  8
0
  6
CONTINUOUS
 62
     7
100
AcDbCircle
 10
839.0886626032171
 20
186.7688894574125
 30
0.0
 40
82.52737170063465
100
AcDbArc
 50
182.4771158142768
 51
190.588720043911
  0
LINE
  5
10B
330
1F
100
AcDbEntity
  8
0
  6
CONTINUOUS
 62
     7
100
AcDbLine
 10
757.9666045345859
 20
171.6038383686642
 30
0.0
 11
757.9666045345859
 21
169.0178478688927
 31
0.0
  0
ARC
  5
10C
330
1F
100
AcDbEntity
  8
0
  6
CONTINUOUS
 62
     7
100
AcDbCircle
 10
551.2182920424252
 20
205.5783879996459
 30
0.0
 40
59.58065397730265
100
AcDbArc
 50
1.366492413972979
 51
12.87041281797729
  0
ARC
  5
10D
330
1F
100
AcDbEntity
  8
0
  6
CONTINUOUS
 62
     7
100
AcDbCircle
 10
684.7028898575103
 20
204.6284201122203
 30
0.0
 40
66.14954221603736
100
AcDbArc
 50
1.513589438549756
 51
12.40530503436704
  0
ARC
  5
10E
330
1F
100
AcDbEntity
  8
0
  6
CONTINUOUS
 62
     7
100
AcDbCircle
 10
1328.369464337748
 20
235.6636572488729
 30
0.0
 40
578.2822548621589
100
AcDbArc
 50
182.9030714880064
 51
186.2651228895373
  0
ARC
  5
10F
330
1F
100
AcDbEntity
  8
0
  6
CONTINUOUS
 62
     7
100
AcDbCircle
 10
39.43294918863516
 20
153.5294564289542
 30
0.0
 40
587.9474234545977
100
AcDbArc
 50
2.920936574992651
 51
6.244110947967158
  0
ARC
  5
110
330
1F
100
AcDbEntity
  8
0
  6
CONTINUOUS
 62
     7
100
AcDbCircle
 10
1218.166317262934
 20
237.3759224791438
 30
0.0
 40
598.1477783326802
100
AcDbArc
 50
182.9430481589314
 51
186.2214146897064
  0
ARC
  5
111
330
1F
100
AcDbEntity
  8
0
  6
CONTINUOUS
 62
     7
100
AcDbCircle
 10
556.268366507715
 20
204.9480631139882
 30
0.0
 40
64.56192655919965
100
AcDbArc
 50
1.523922503329712
 51
12.39395872490894
  0
ARC
  5
112
330
1F
100
AcDbEntity
  8
0
  6
CONTINUOUS
 62
     7
100
AcDbCircle
 10
581.141004149158
 20
205.5624113444767
 30
0.0
 40
59.65992884443683
100
AcDbArc
 50
1.349707751340492
 51
12.86770485214868
  0
ARC
  5
113
330
1F
100
AcDbEntity
  8
0
  6
CONTINUOUS
 62
     7
100
AcDbCircle
 10
1248.568510288568
 20
237.4125939773871
 30
0.0
 40
598.5517838242142
100
AcDbArc
 50
182.9428349340567
 51
186.2205168759758
  0
ARC
  5
114
330
1F
100
AcDbEntity
  8
0
  6
CONTINUOUS
 62
     7
100
AcDbCircle
 10
586.0578527763695
 20
204.9346482739386
 30
0.0
 40
64.7718170997801
100
AcDbArc
 50
1.546917448061415
 51
12.36093519085951
  0
ARC
  5
115
330
1F
100
AcDbEntity
  8
0
  6
CONTINUOUS
 62
     7
100
AcDbCircle
 10
1238.666786472405
 20
235.6967526158556
 30
0.0
 40
578.5814448049998
100
AcDbArc
 50
182.902778336223
 51
186.2652079872388
  0
ARC
  5
116
330
1F
100
AcDbEntity
  8
0
  6
CONTINUOUS
 62
     7
100
AcDbCircle
 10
597.4262524609934
 20
204.8803082404401
 30
0.0
 40
63.41959441643753
100
AcDbArc
 50
1.370005246057595
 51
12.75979329318968
  0
ARC
  5
117
330
1F
100
AcDbEntity
  8
0
  6
CONTINUOUS
 62
     7
100
AcDbCircle
 10
157.7459183592433
 20
153.3807063146797
 30
0.0
 40
589.640600171989
100
AcDbArc
 50
2.924212559192711
 51
6.240738127607584
  0
ARC
  5
118
330
1F
100
AcDbEntity
  8
0
  6
CONTINUOUS
 62
     7
100
AcDbCircle
 10
813.5558058824668
 20
185.3694248649899
 30
0.0
 40
66.96425919453404
100
AcDbArc
 50
181.6329213091209
 51
192.1706545555703
  0
ARC
  5
119
330
1F
100
AcDbEntity
  8
0
  6
CONTINUOUS
 62
     7
100
AcDbCircle
 10
610.994461526897
 20
205.549157609591
 30
0.0
 40
59.80717114687246
100
AcDbArc
 50
1.351506144727222
 51
12.84424691801782
  0
ARC
  5
11A
330
1F
100
AcDbEntity
  8
0
  6
CONTINUOUS
 62
     7
100
AcDbCircle
 10
14.10999545050073
 20
152.4397276502698
 30
0.0
 40
603.2981609253765
100
AcDbArc
 50
2.982349295528651
 51
6.188873811739199
  0
ARC
  5
11B
330
1F
100
AcDbEntity
  8
0
  6
CONTINUOUS
 62
     7
100
AcDbCircle
 10
1210.212727904142
 20
235.823196714758
 30
0.0
 40
580.131989118951
100
AcDbArc
 50
182.9067237550682
 51
186.260894025041
  0
ARC
  5
11C
330
1F
100
AcDbEntity
  8
0
  6
CONTINUOUS
 62
     7
100
AcDbCircle
 10
669.1630326533084
 20
184.8232101074427
 30
0.0
 40
62.54611407763874
100
AcDbArc
 50
181.4764550464495
 51
192.5676580769506
  0
ARC
  5
11D
330
1F
100
AcDbEntity
  8
0
  6
CONTINUOUS
 62
     7
100
AcDbCircle
 10
567.5262752555392
 20
204.8987495190125
 30
0.0
 40
63.31876288307163
100
AcDbArc
 50
1.36275964941705
 51
12.76117667698025
  0
ARC
  5
11E
330
1F
100
AcDbEntity
  8
0
  6
CONTINUOUS
 62
     7
100
AcDbCircle
 10
1287.275581773393
 20
239.0364051702187
 30
0.0
 40
617.3245127348017
100
AcDbArc
 50
182.9784718850155
 51
186.1825323406695
  0
ARC
  5
11F
330
1F
100
AcDbEntity
  8
0
  6
CONTINUOUS
 62
     7
100
AcDbCircle
 10
1257.217823852536
 20
239.0308433397931
 30
0.0
 40
617.2667467339348
100
AcDbArc
 50
182.9774988145437
 51
186.1823013824392
  0
ARC
  5
120
330
1F
100
AcDbEntity
  8
0
  6
CONTINUOUS
 62
     7
100
AcDbCircle
 10
1277.440253626346
 20
237.3333737950726
 30
0.0
 40
597.4213876682118
100
AcDbArc
 50
182.9390428524553
 51
186.2249051199735
  0
ARC
  5
121
330
1F
100
AcDbEntity
  8
0
  6
CONTINUOUS
 62
     7
100
AcDbCircle
 10
1180.925272957573
 20
235.8727121806085
 30
0.0
 40
580.8456179202836
100
AcDbArc
 50
182.9099353321608
 51
186.2581162489835
  0
ARC
  5
122
330
1F
100
AcDbEntity
  8
0
  6
CONTINUOUS
 62
     7
100
AcDbCircle
 10
681.0014361049167
 20
219.6312746463812
 30
0.0
 40
2.067281228922263
100
AcDbArc
 50
137.9002367033621
 51
181.4324432341928
  0
ARC
  5
123
330
1F
100
AcDbEntity
  8
0
  6
CONTINUOUS
 62
     7
100
AcDbCircle
 10
657.0117241357807
 20
204.8338340817203
 30
0.0
 40
63.8372285725574
100
AcDbArc
 50
1.366757502082098
 51
12.71044657620095
  0
ARC
  5
124
330
1F
100
AcDbEntity
  8
0
  6
CONTINUOUS
 62
     7
100
AcDbCircle
 10
601.0444943741413
 20
219.6158486004697
 30
0.0
 40
2.110074549165601
100
AcDbArc
 50
138.3964289814314
 51
181.0039879935751
  0
ARC
  5
125
330
1F
100
AcDbEntity
  8
0
  6
CONTINUOUS
 62
     7
100
AcDbCircle
 10
596.1565962269549
 20
170.4607290073085
 30
0.0
 40
2.222011385026573
100
AcDbArc
 50
180.1037586334733
 51
220.4937101077921
  0
ARC
  5
126
330
1F
100
AcDbEntity
  8
0
  6
CONTINUOUS
 62
     7
100
AcDbCircle
 10
797.2148710138885
 20
199.8792349316724
 30
0.0
 40
205.4984382211162
100
AcDbArc
 50
182.8274606026358
 51
187.6407200249465
  0
LINE
  5
127
330
1F
100
AcDbEntity
  8
0
  6
CONTINUOUS
 62
     7
100
AcDbLine
 10
758.9666045345859
 20
171.0173716406931
 30
0.0
 11
758.9666045345859
 21
172.2193454103371
 31
0.0
  0
ARC
  5
128
330
1F
100
AcDbEntity
  8
0
  6
CONTINUOUS
 62
     7
100
AcDbCircle
 10
627.169819568615
 20
204.8477233632269
 30
0.0
 40
63.67840904585371
100
AcDbArc
 50
1.364901021630143
 51
12.7333884638693
  0
LINE
  5
129
330
1F
100
AcDbEntity
  8
0
  6
CONTINUOUS
 62
     7
100
AcDbLine
 10
743.6073865675068
 20
218.9965292572566
 30
0.0
 11
749.1802707021204
 21
218.9965292572566
 31
0.0
  0
ARC
  5
12A
330
1F
100
AcDbEntity
  8
0
  6
CONTINUOUS
 62
     7
100
AcDbCircle
 10
756.0750582754584
 20
170.430066523472
 30
0.0
 40
2.140575849039798
100
AcDbArc
 50
179.2950812282349
 51
221.2795719036294
  0
ARC
  5
12B
330
1F
100
AcDbEntity
  8
0
  6
CONTINUOUS
 62
     7
100
AcDbCircle
 10
746.2963677657921
 20
170.5127794277063
 30
0.0
 40
2.362330001219327
100
AcDbArc
 50
181.3773628502718
 51
219.2603390151122
  0
ARC
  5
12C
330
1F
100
AcDbEntity
  8
0
  6
CONTINUOUS
 62
     7
100
AcDbCircle
 10
645.9967161718542
 20
204.9153516442814
 30
0.0
 40
64.8341874822914
100
AcDbArc
 50
1.549809433622573
 51
12.37134506936912
  0
ARC
  5
12D
330
1F
100
AcDbEntity
  8
0
  6
CONTINUOUS
 62
     7
100
AcDbCircle
 10
1345.063910321605
 20
238.862671760444
 30
0.0
 40
615.1070210199815
100
AcDbArc
 50
182.9719869069654
 51
186.1885278529734
  0
ARC
  5
12E
330
1F
100
AcDbEntity
  8
0
  6
CONTINUOUS
 62
     7
100
AcDbCircle
 10
670.7391445952122
 20
205.5173667631466
 30
0.0
 40
60.06264930026186
100
AcDbArc
 50
1.386602578391956
 51
12.82125850713525
  0
ARC
  5
12F
330
1F
100
AcDbEntity
  8
0
  6
CONTINUOUS
 62
     7
100
AcDbCircle
 10
1298.720121440148
 20
235.6882713087305
 30
0.0
 40
578.6332446946931
100
AcDbArc
 50
182.9056537830372
 51
186.2640824794051
  0
ARC
  5
130
330
1F
100
AcDbEntity
  8
0
  6
CONTINUOUS
 62
     7
100
AcDbCircle
 10
751.1889790771328
 20
219.5625747981766
 30
0.0
 40
2.25443128467065
100
AcDbArc
 50
139.8265359249469
 51
179.6052623360728
  0
ARC
  5
131
330
1F
100
AcDbEntity
  8
0
  6
CONTINUOUS
 62
     7
100
AcDbCircle
 10
1316.525263385484
 20
238.9833101557282
 30
0.0
 40
616.5728671340812
100
AcDbArc
 50
182.9754058921377
 51
186.1850559882828
  0
ARC
  5
132
330
1F
100
AcDbEntity
  8
0
  6
CONTINUOUS
 62
     7
100
AcDbCircle
 10
616.0609651551114
 20
204.9356685949886
 30
0.0
 40
64.7677953475484
100
AcDbArc
 50
1.562306871778727
 51
12.36317222407259
  0
ARC
  5
133
330
1F
100
AcDbEntity
  8
0
  6
CONTINUOUS
 62
     7
100
AcDbCircle
 10
1268.359412692271
 20
235.6612067056005
 30
0.0
 40
578.2718494286541
100
AcDbArc
 50
182.9039887337746
 51
186.2652129128356
  0
ARC
  5
134
330
1F
100
AcDbEntity
  8
0
  6
CONTINUOUS
 62
     7
100
AcDbCircle
 10
1306.433828357902
 20
237.2374122547294
 30
0.0
 40
596.4105405696282
100
AcDbArc
 50
182.9379377215412
 51
186.2261145501614
  0
ARC
  5
135
330
1F
100
AcDbEntity
  8
0
  6
CONTINUOUS
 62
     7
100
AcDbCircle
 10
1336.456697484955
 20
237.2246462704721
 30
0.0
 40
596.4319067444004
100
AcDbArc
 50
182.9397337322091
 51
186.2246268102245
  0
ARC
  5
136
330
1F
100
AcDbEntity
  8
0
  6
CONTINUOUS
 62
     7
100
AcDbCircle
 10
675.7665220295314
 20
204.8855266177505
 30
0.0
 40
65.06671347781914
100
AcDbArc
 50
1.541884677631587
 51
12.34871697023245
  0
ARC
  5
137
330
1F
100
AcDbEntity
  8
0
  6
CONTINUOUS
 62
     7
100
AcDbCircle
 10
535.539629842645
 20
204.7194813266923
 30
0.0
 40
65.31023669640574
100
AcDbArc
 50
1.461675182622638
 51
12.49284584613783
  0
ARC
  5
138
330
1F
100
AcDbEntity
  8
0
  6
CONTINUOUS
 62
     7
100
AcDbCircle
 10
685.9034821223448
 20
170.3660506304184
 30
0.0
 40
1.970751419158504
100
AcDbArc
 50
177.4012948874041
 51
223.1801600250494
  0
ARC
  5
139
330
1F
100
AcDbEntity
  8
0
  6
CONTINUOUS
 62
     7
100
AcDbCircle
 10
676.1258331895476
 20
170.4485061596347
 30
0.0
 40
2.191361107989538
100
AcDbArc
 50
179.7829053025975
 51
220.7682784658066
  0
ARC
  5
13A
330
1F
100
AcDbEntity
  8
0
  6
CONTINUOUS
 62
     7
100
AcDbCircle
 10
671.227913505007
 20
219.5477213654848
 30
0.0
 40
2.293270790531553
100
AcDbArc
 50
140.1516853624195
 51
179.1939065782134
  0
ARC
  5
13B
330
1F
100
AcDbEntity
  8
0
  6
CONTINUOUS
 62
     7
100
AcDbCircle
 10
640.817754225045
 20
205.5336800928634
 30
0.0
 40
59.98324671267532
100
AcDbArc
 50
1.380394669164587
 51
12.81998231529804
  0
LWPOLYLINE
  5
13C
330
1F
100
AcDbEntity
  8
0
  6
CONTINUOUS
 62
     7
100
AcDbPolyline
 90
       33
 70
     0
 43
0.0
 10
613.9343936115808
 20
170.4576849339709
 10
613.9510491247077
 20
170.3697719558287
 10
613.9677046378347
 20
170.2845502295813
 10
613.9843601509615
 20
170.2020283506218
 10
614.0010156640883
 20
170.1222149143429
 10
614.0176711772153
 20
170.0451185161378
 10
614.034326690342
 20
169.9707477513991
 10
614.0509822034691
 20
169.8991112155199
 10
614.0676377165959
 20
169.8302175038931
 10
614.0842932297227
 20
169.7640752119116
 10
614.1009487428496
 20
169.7006929349682
 10
614.1176042559764
 20
169.640079268456
 10
614.1342597691032
 20
169.5822428077678
 10
614.1509152822302
 20
169.5271921482965
 10
614.167570795357
 20
169.4749358854351
 10
614.1842263084839
 20
169.4254826145764
 10
614.2008818216108
 20
169.3788409311134
 10
614.2175373347377
 20
169.335019430439
 10
614.2341928478644
 20
169.2940266913733
 10
614.2508483609913
 20
169.2558687567397
 10
614.2675038741182
 20
169.2205464291685
 10
614.2841593872452
 20
169.188059862816
 10
614.3008149003718
 20
169.158409211838
 10
614.3174704134988
 20
169.1315946303905
 10
614.3341259266258
 20
169.1076162726294
 10
614.3507814397527
 20
169.0864742927107
 10
614.3674369528795
 20
169.0681688447903
 10
614.3840924660062
 20
169.0527000830241
 10
614.4007479791333
 20
169.0400681615683
 10
614.4174034922601
 20
169.0302732345787
 10
614.4340590053871
 20
169.0233154562112
 10
614.4507145185139
 20
169.0191949806218
 10
614.4673700316407
 20
169.0179119619664
  0
LWPOLYLINE
  5
13D
330
1F
100
AcDbEntity
  8
0
  6
CONTINUOUS
 62
     7
100
AcDbPolyline
 90
       33
 70
     0
 43
0.0
 10
623.9345502814907
 20
170.4567773320339
 10
623.9511766263763
 20
170.3690529154537
 10
623.9678029712621
 20
170.2840123740009
 10
623.984429316148
 20
170.2016637343589
 10
624.0010556610335
 20
170.1220150232114
 10
624.0176820059194
 20
170.0450742672419
 10
624.034308350805
 20
169.9708494931341
 10
624.0509346956908
 20
169.8993487275714
 10
624.0675610405765
 20
169.8305799972376
 10
624.0841873854623
 20
169.7645513288161
 10
624.1008137303479
 20
169.7012707489904
 10
624.1174400752336
 20
169.6407462844443
 10
624.1340664201194
 20
169.5829859618613
 10
624.150692765005
 20
169.5279978079249
 10
624.1673191098907
 20
169.4757898493188
 10
624.1839454547766
 20
169.4263701127265
 10
624.2005717996623
 20
169.3797466248315
 10
624.2171981445481
 20
169.3359274123175
 10
624.2338244894339
 20
169.2949205018681
 10
624.2504508343195
 20
169.2567339201667
 10
624.2670771792052
 20
169.2213755651983
 10
624.283703524091
 20
169.1888495635081
 10
624.3003298689767
 20
169.159155755405
 10
624.3169562138625
 20
169.1322937490106
 10
624.3335825587483
 20
169.1082631524465
 10
624.3502089036339
 20
169.0870635738343
 10
624.3668352485196
 20
169.0686946212957
 10
624.3834615934055
 20
169.0531559029523
 10
624.4000879382911
 20
169.0404470269257
 10
624.416714283177
 20
169.0305676013376
 10
624.4333406280629
 20
169.0235172343096
 10
624.4499669729485
 20
169.0192955339632
 10
624.466593317834
 20
169.0179021084203
  0
LWPOLYLINE
  5
13E
330
1F
100
AcDbEntity
  8
0
  6
CONTINUOUS
 62
     7
100
AcDbPolyline
 90
       33
 70
     0
 43
0.0
 10
-608.9345682271019
 20
219.5779679401768
 10
-608.951193351603
 20
219.6657019585328
 10
-608.9678184761043
 20
219.7507551000081
 10
-608.9844436006056
 20
219.8331185554808
 10
-609.0010687251068
 20
219.912783515829
 10
-609.0176938496082
 20
219.989741171931
 10
-609.0343189741095
 20
220.0639827146649
 10
-609.0509440986107
 20
220.1354993349086
 10
-609.0675692231121
 20
220.2042822235406
 10
-609.0841943476134
 20
220.270322571439
 10
-609.1008194721145
 20
220.3336115694816
 10
-609.1174445966159
 20
220.3941404085469
 10
-609.1340697211172
 20
220.451900279513
 10
-609.1506948456182
 20
220.5068823732579
 10
-609.1673199701197
 20
220.5590778806599
 10
-609.1839450946209
 20
220.608477992597
 10
-609.2005702191221
 20
220.6550738999474
 10
-609.2171953436233
 20
220.6988567943886
 10
-609.2338204681247
 20
220.7398196392501
 10
-609.2504455926257
 20
220.7779609313324
 10
-609.2670707171271
 20
220.813280244777
 10
-609.2836958416283
 20
220.845777153725
 10
-609.3003209661297
 20
220.8754512323179
 10
-609.316946090631
 20
220.9023020546967
 10
-609.3335712151322
 20
220.9263291950029
 10
-609.3501963396334
 20
220.9475322273776
 10
-609.3668214641348
 20
220.9659107259623
 10
-609.3834465886359
 20
220.9814642648981
 10
-609.4000717131373
 20
220.9941924183265
 10
-609.4166968376385
 20
221.0040947603883
 10
-609.4333219621398
 20
221.0111708652254
 10
-609.4499470866411
 20
221.0154203069786
 10
-609.4665722111423
 20
221.0168426597894
210
0.0
220
0.0
230
-1.0
  0
LWPOLYLINE
  5
13F
330
1F
100
AcDbEntity
  8
0
  6
CONTINUOUS
 62
     7
100
AcDbPolyline
 90
      369
 70
     0
 43
0.0
 10
-489.700235378116
 20
216.0505208307568
 10
-490.4088423747742
 20
216.5476871934027
 10
-491.1335571785963
 20
217.0210454123251
 10
-491.8736047930634
 20
217.4700241016749
 10
-492.6282102216572
 20
217.8940518756031
 10
-493.3965823351824
 20
218.2925874421971
 10
-494.1778445090691
 20
218.6652489928447
 10
-494.9710919046105
 20
219.0117073496586
 10
-495.7754196655196
 20
219.3316333675468
 10
-496.5899229355082
 20
219.6246979014174
 10
-497.413696858289
 20
219.8905718061786
 10
-498.2458365775747
 20
220.1289259367387
 10
-499.0854372370774
 20
220.3394311480057
 10
-499.9315937186146
 20
220.5217595503302
 10
-500.783381225939
 20
220.6756775844134
 10
-501.6398419333177
 20
220.8011100237557
 10
-502.5000148562129
 20
220.8979967841574
 10
-503.3629390100871
 20
220.9662777814184
 10
-504.2276534104028
 20
221.0058929313388
 10
-505.0931970726222
 20
221.0167821497189
 10
-505.958609012208
 20
220.9988853523585
 10
-506.8229282446223
 20
220.9521424550578
 10
-507.685195056339
 20
220.8765090747843
 10
-508.5444628279926
 20
220.7721025844247
 10
-509.3997926526783
 20
220.6391356311006
 10
-510.2502457226947
 20
220.4778220874191
 10
-511.09488323034
 20
220.2883758259868
 10
-511.9327663679125
 20
220.0710107194108
 10
-512.7629563277106
 20
219.8259406402975
 10
-513.5845143020329
 20
219.5533794612541
 10
-514.3965014984417
 20
219.2535410945702
 10
-515.1980008065963
 20
218.926695820478
 10
-515.9881600062904
 20
218.5732826170699
 10
-516.7661389646817
 20
218.1937718865145
 10
-517.5310975489283
 20
217.7886340309804
 10
-518.2821956261882
 20
217.3583394526365
 10
-519.0185930636192
 20
216.9033585536511
 10
-519.7394497283792
 20
216.4241617361932
 10
-520.4439254876262
 20
215.9212194024312
 10
-521.1311835767066
 20
215.395006351861
 10
-521.8004667390129
 20
214.8461011854462
 10
-522.4510983759461
 20
214.2751878069462
 10
-523.0824054871022
 20
213.6829548177326
 10
-523.693715072077
 20
213.0700908191768
 10
-524.284354130467
 20
212.4372844126505
 10
-524.853649661868
 20
211.7852241995252
 10
-525.4009286658762
 20
211.1145987811725
 10
-525.9255181420874
 20
210.4260967589637
 10
-526.4267712978823
 20
209.7204258718517
 10
-526.9041868478
 20
208.9984001117633
 10
-527.3573137154702
 20
208.2608701345621
 10
-527.7857008718477
 20
207.5086866306694
 10
-528.188897287887
 20
206.7427002905065
 10
-528.5664519345426
 20
205.9637618044944
 10
-528.9179137827689
 20
205.1727218630544
 10
-529.2428318035207
 20
204.3704311566078
 10
-529.5407560020633
 20
203.5577407464519
 10
-529.81132446787
 20
202.7355332785274
 10
-530.054329356857
 20
201.9047466428845
 10
-530.2695783630923
 20
201.0663243011391
 10
-530.4568791806437
 20
200.2212097149075
 10
-530.6160395035794
 20
199.3703463458058
 10
-530.746867025967
 20
198.5146776554501
 10
-530.8491694418749
 20
197.6551471054565
 10
-530.9227544453706
 20
196.7926981574411
 10
-530.9674444520074
 20
195.9282751257479
 10
-530.9832219132402
 20
195.062831594646
 10
-530.9701674914587
 20
194.1973268371782
 10
-530.9283632737454
 20
193.3327202089115
 10
-530.8578913471825
 20
192.4699710654125
 10
-530.7588337988524
 20
191.6100387622479
 10
-530.6312727158373
 20
190.7538826549847
 10
-530.4752901852198
 20
189.9024620991894
 10
-530.2909683189503
 20
189.0567364446437
 10
-530.0784456938152
 20
188.2176519052144
 10
-529.8380376176043
 20
187.3861135802713
 10
-529.5700938816115
 20
186.5630185469809
 10
-529.2749642771311
 20
185.7492638825104
 10
-528.9529985954566
 20
184.9457466640264
 10
-528.6045466278822
 20
184.1533639686959
 10
-528.2299581657019
 20
183.3730128736856
 10
-527.8295830002095
 20
182.6055904561625
 10
-527.4037753109352
 20
181.8519913097743
 10
-526.9530007675538
 20
181.1130469304055
 10
-526.4778427330808
 20
180.389522205483
 10
-525.9788902005469
 20
179.6821788361307
 10
-525.4567321629833
 20
178.9917785234724
 10
-524.9119576134207
 20
178.3190829686321
 10
-524.3451555448902
 20
177.6648538727335
 10
-523.7569149504228
 20
177.0298529369005
 10
-523.1478248230493
 20
176.4148418622568
 10
-522.5184955925994
 20
175.8205602141542
 10
-521.8696624116851
 20
175.2476187684181
 10
-521.2021054209592
 20
174.696581845942
 10
-520.5166048215451
 20
174.1680137051767
 10
-519.8139408145668
 20
173.6624786045726
 10
-519.094893601148
 20
173.1805408025803
 10
-518.3602433824125
 20
172.7227645576503
 10
-517.6107703594843
 20
172.2897141282331
 10
-516.8472551670021
 20
171.8819529459885
 10
-516.0705206041533
 20
171.4999640272526
 10
-515.2814663373279
 20
171.1440837888792
 10
-514.4810002016538
 20
170.8146330684797
 10
-513.6700300322592
 20
170.5119327036654
 10
-512.8494636642723
 20
170.2363035320475
 10
-512.0202089328209
 20
169.9880663912375
 10
-511.1831736730331
 20
169.7675421188465
 10
-510.3392657200371
 20
169.5750515524859
 10
-509.4893955999432
 20
169.4109020114047
 10
-508.6345047352602
 20
169.2752456043422
 10
-507.7755542997621
 20
169.1681352179922
 10
-506.9135057883336
 20
169.089622125921
 10
-506.0493206958599
 20
169.0397576016945
 10
-505.1839605172266
 20
169.0185929188788
 10
-504.3183867473181
 20
169.0261793510399
 10
-503.4535608810199
 20
169.0625681717439
 10
-502.5904444119766
 20
169.1278106408058
 10
-501.7299938399831
 20
169.2219026434927
 10
-500.8731493141476
 20
169.3446587596974
 10
-500.0208476424401
 20
169.4958565209537
 10
-499.1740256328322
 20
169.6752734587952
 10
-498.333620093294
 20
169.8826871047556
 10
-497.5005678317967
 20
170.1178749903688
 10
-496.6758056563108
 20
170.3806146471684
 10
-495.8602703748073
 20
170.670683606688
 10
-495.0548971133113
 20
170.9878551446611
 10
-494.260574895001
 20
171.3317858835099
 10
-493.4781420986306
 20
171.7020043008657
 10
-492.7084345101799
 20
172.0980323139018
 10
-491.9522879156281
 20
172.5193918397914
 10
-491.2105381009544
 20
172.9656047957077
 10
-490.4840208521385
 20
173.436193098824
 10
-489.7735719551598
 20
173.9306786663136
 10
-489.0800271959975
 20
174.4485834153498
 10
-488.4042043724182
 20
174.9894062192954
 10
-487.7468115747077
 20
175.552505410684
 10
-487.1085155392623
 20
176.1371863456259
 10
-486.4899829266928
 20
176.7427542831454
 10
-485.891880397609
 20
177.3685144822668
 10
-485.3148746126212
 20
178.0137722020144
 10
-484.7596322323399
 20
178.6778327014123
 10
-484.2268199173749
 20
179.360001239485
 10
-483.7171036895309
 20
180.0595826177025
 10
-483.2310780014741
 20
180.7758303750822
 10
-482.7692012861428
 20
181.5079006245008
 10
-482.3319167564508
 20
182.2549385772677
 10
-481.919667625312
 20
183.0160894446923
 10
-481.5328971056405
 20
183.7904984380841
 10
-481.1720484103502
 20
184.5773107687526
 10
-480.8375647523549
 20
185.3756716480071
 10
-480.5298893445686
 20
186.1847262871572
 10
-480.2494532516794
 20
187.0036156667403
 10
-479.9965400819594
 20
187.8314294137482
 10
-479.7713352645373
 20
188.6672229630551
 10
-479.5740224497673
 20
189.5100511300548
 10
-479.4047852880035
 20
190.3589687301409
 10
-479.2638074296002
 20
191.2130305787072
 10
-479.1512725249116
 20
192.0712914911473
 10
-479.0673642242916
 20
192.932806282855
 10
-479.0122661717356
 20
193.7966297689139
 10
-478.9861087974521
 20
194.6618141711904
 10
-478.9888402310402
 20
195.5274028276662
 10
-479.0203695956864
 20
196.3924371754598
 10
-479.0806060145772
 20
197.2559586516902
 10
-479.1694586108992
 20
198.1170086934759
 10
-479.2868365078388
 20
198.9746287379357
 10
-479.4326488285828
 20
199.8278602221884
 10
-479.6068046963175
 20
200.6757445833526
 10
-479.8092092110604
 20
201.5173242334481
 10
-480.0396481907081
 20
202.3516704891381
 10
-480.2977710940511
 20
203.1778877098523
 10
-480.5832199221355
 20
203.9950820621937
 10
-480.8956366760075
 20
204.8023597127653
 10
-481.2346633567133
 20
205.5988268281701
 10
-481.599941965299
 20
206.3835895750111
 10
-481.9911145028108
 20
207.1557541198911
 10
-482.4078229702947
 20
207.9144266294132
 10
-482.8496853813858
 20
208.658727137647
 10
-483.3161663440515
 20
209.3878643646782
 10
-483.8066700541617
 20
210.101081955693
 10
-484.3206005618914
 20
210.7976236401056
 10
-484.857361917416
 20
211.4767331473303
 10
-485.4163581709105
 20
212.1376542067812
 10
-485.9969933725504
 20
212.7796305478726
 10
-486.5986715725106
 20
213.4019059000187
 10
-487.2207963700016
 20
214.0037244669258
 10
-487.8627125988447
 20
214.5843922574413
 10
-488.5236486307688
 20
215.1433377667319
 10
-489.2028191255908
 20
215.6800039111504
 10
-489.8994387431284
 20
216.193833607049
 10
-490.6127221431991
 20
216.6842697707804
 10
-491.3418839856203
 20
217.1507553186972
 10
-492.0861389302093
 20
217.5927331671517
 10
-492.8447016367838
 20
218.0096462324967
 10
-493.6167812967427
 20
218.4009480969128
 10
-494.4015168558001
 20
218.7662293526514
 10
-495.197998554607
 20
219.1051755883213
 10
-496.005315655464
 20
219.4174743007462
 10
-496.8225574206711
 20
219.7028129867494
 10
-497.6488131125292
 20
219.9608791431544
 10
-498.4831719933389
 20
220.1913602667846
 10
-499.3247233254005
 20
220.3939438544635
 10
-500.1725563705982
 20
220.5683174052122
 10
-501.0257508913228
 20
220.7142185342639
 10
-501.8833525925909
 20
220.8315645324008
 10
-502.7443995499469
 20
220.9203129409984
 10
-503.6079298389358
 20
220.9804213014321
 10
-504.4729815351021
 20
221.0118471550773
 10
-505.3385927139904
 20
221.0145480433094
 10
-506.2038014511455
 20
220.9884815075039
 10
-507.0676458221118
 20
220.933605089036
 10
-507.9291642716693
 20
220.8498800427481
 10
-508.7874071191375
 20
220.7373870478895
 10
-509.6414388109613
 20
220.5963488627961
 10
-510.490324617604
 20
220.4269965331035
 10
-511.3331298095287
 20
220.2295611044474
 10
-512.168919657199
 20
220.0042736224636
 10
-512.9967594310781
 20
219.7513651327879
 10
-513.8157144016293
 20
219.4710666810559
 10
-514.6248498393159
 20
219.1636093129034
 10
-515.423240880676
 20
218.8292483836958
 10
-516.2100288499043
 20
218.4684023333122
 10
-516.9843822941359
 20
218.0815566781861
 10
-517.7454698444695
 20
217.6691971416375
 10
-518.4924601320051
 20
217.2318094469864
 10
-519.2245217878416
 20
216.7698793175529
 10
-519.9408234430787
 20
216.2838924766573
 10
-520.6405337288156
 20
215.7743346476195
 10
-521.3228216114892
 20
215.2416919753199
 10
-521.9869074473979
 20
214.6865152080176
 10
-522.6321178203065
 20
214.1094886349646
 10
-523.2577924654056
 20
213.5113130783743
 10
-523.8632711178865
 20
212.8926893604599
 10
-524.4478935129401
 20
212.2543183034346
 10
-525.0109993857575
 20
211.5969007295118
 10
-525.5519284715294
 20
210.9211374609046
 10
-526.0700205054474
 20
210.2277293198264
 10
-526.5646243456174
 20
209.5173835372163
 10
-527.0352130110125
 20
208.7908945653591
 10
-527.4813491550896
 20
208.049119823564
 10
-527.9025974183012
 20
207.2929181269785
 10
-528.2985224411005
 20
206.5231482907496
 10
-528.66868886394
 20
205.740669130025
 10
-529.0126613272729
 20
204.9463394599518
 10
-529.3300044715519
 20
204.1410180956775
 10
-529.6202829376491
 20
203.325563852491
 10
-529.8831075940842
 20
202.5008511714314
 10
-530.1182627792956
 20
201.6678131293913
 10
-530.3255735139358
 20
200.8273965545604
 10
-530.5048648186573
 20
199.9805482751281
 10
-530.6559617141127
 20
199.128215119284
 10
-530.7786892209548
 20
198.2713439152178
 10
-530.872872359836
 20
197.4108814911191
 10
-530.9383361514086
 20
196.5477746751772
 10
-530.974908965366
 20
195.6829704280307
 10
-530.9825363529271
 20
194.8174203446477
 10
-530.9613089610891
 20
193.9520817582875
 10
-530.9113264487615
 20
193.0879123586148
 10
-530.8326884748545
 20
192.2258698352946
 10
-530.7254946982779
 20
191.3669118779918
 10
-530.5898447779416
 20
190.5119961763714
 10
-530.4258383727553
 20
189.6620804200981
 10
-530.2335751416288
 20
188.818122298837
 10
-530.0131788075357
 20
187.9810734369633
 10
-529.7649425111185
 20
187.151842757534
 10
-529.4892321485823
 20
186.3313208457405
 10
-529.1864138964647
 20
185.5203982161173
 10
-528.8568539313035
 20
184.7199653831987
 10
-528.5009184296359
 20
183.9309128615192
 10
-528.1189735679994
 20
183.1541311656131
 10
-527.7113855229318
 20
182.3905108100148
 10
-527.2785208476286
 20
181.6409420868762
 10
-526.8208148442372
 20
180.9062746983461
 10
-526.338851079019
 20
180.1872708100984
 10
-525.8332324085253
 20
179.4846811986449
 10
-525.3045616893078
 20
178.7992566404977
 10
-524.753441777918
 20
178.1317479121685
 10
-524.1804755309076
 20
177.4829057901691
 10
-523.5862658048284
 20
176.8534810510115
 10
-522.9714154562316
 20
176.2442244712076
 10
-522.3365344056651
 20
175.6558792601765
 10
-521.6823345538904
 20
175.0890793841097
 10
-521.0096044470465
 20
174.5443767051505
 10
-520.3191344983964
 20
174.0223210853416
 10
-519.6117151212035
 20
173.5234623867256
 10
-518.8881367287306
 20
173.0483504713451
 10
-518.1491897342415
 20
172.5975352012428
 10
-517.3956645509992
 20
172.1715664384613
 10
-516.6283515922714
 20
171.7709940450342
 10
-515.8480621712879
 20
171.396326181746
 10
-515.0556896971126
 20
171.0479072053166
 10
-514.2521477335029
 20
170.7260412582337
 10
-513.438349844217
 20
170.431032482985
 10
-512.6152095930128
 20
170.1631850220584
 10
-511.7836405436478
 20
169.9228030179414
 10
-510.9445562598805
 20
169.7101906131219
 10
-510.0988703054683
 20
169.5256519500875
 10
-509.2474967755228
 20
169.3694882205152
 10
-508.3913700598063
 20
169.2418879120656
 10
-507.5314507041792
 20
169.1428942575026
 10
-506.6687009818548
 20
169.0725408969424
 10
-505.8040831660445
 20
169.0308614705012
 10
-504.938559529961
 20
169.0178896182949
 10
-504.0730923468166
 20
169.0336589804396
 10
-503.2086438898236
 20
169.0782031970515
 10
-502.3461764321945
 20
169.1515559082466
 10
-501.4866497131414
 20
169.2537274415415
 10
-500.631004741157
 20
169.3845558033202
 10
-499.7801741284439
 20
169.5438017547743
 10
-498.9350904475769
 20
169.7312256925091
 10
-498.0966862711301
 20
169.9465880131304
 10
-497.2658941716771
 20
170.1896491132433
 10
-496.4436467217924
 20
170.4601693894535
 10
-495.6308764940498
 20
170.7579092383664
 10
-494.8285159265495
 20
171.0826287337708
 10
-494.0374677915054
 20
171.4340167338761
 10
-493.258568094995
 20
171.8116018188848
 10
-492.4926437189953
 20
172.2148906657902
 10
-491.7405215454827
 20
172.6433899515854
 10
-491.0030284564342
 20
173.0966063532636
 10
-490.2809913338266
 20
173.574046547818
 10
-489.5752370596367
 20
174.0752172122418
 10
-488.8865925158412
 20
174.5996250235281
 10
-488.2158785435025
 20
175.1467692057487
 10
-487.563823355873
 20
175.7160347042815
 10
-486.9310826989813
 20
176.3067170587464
 10
-486.3183103863649
 20
176.9181094245701
 10
-485.7261602315615
 20
177.5495049571794
 10
-485.1552860481087
 20
178.200196812001
 10
-484.6063416495435
 20
178.8694781444617
 10
-484.0799808494039
 20
179.556642109988
 10
-483.5768574612273
 20
180.260981864007
 10
-483.0975886058785
 20
180.9817652849231
 10
-482.6426405273257
 20
181.7181563143501
 10
-482.2124406952031
 20
182.4692921828548
 10
-481.8074165791154
 20
183.234310120984
 10
-481.4279956486678
 20
184.0123473592846
 10
-481.0746053734651
 20
184.8025411283031
 10
-480.7476732231123
 20
185.6040286585864
 10
-480.4476266672141
 20
186.4159471806813
 10
-480.1748906376326
 20
187.2374330931719
 10
-479.9297838800195
 20
188.0675879830245
 10
-479.7124826779307
 20
188.9054667330612
 10
-479.5231533250063
 20
189.750120951054
 10
-479.361962114887
 20
190.6006022447752
 10
-479.2290753412128
 20
191.4559622219969
 10
-479.1246592976244
 20
192.3152524904914
 10
-479.0488802777617
 20
193.1775246580308
 10
-479.0019045752651
 20
194.0418303323872
 10
-478.9838763596885
 20
194.9072204493982
 10
-478.9947680132074
 20
195.7727407275144
 10
-479.0344715601306
 20
196.6374344446226
 10
-479.1028785678241
 20
197.5003448647319
 10
-479.1998806036544
 20
198.3605152518511
 10
-479.3253692349879
 20
199.2169888699893
 10
-479.4792360291907
 20
200.0688089831553
 10
-479.6613725536293
 20
200.9150188553583
 10
-479.8716701100361
 20
201.754661820155
 10
-480.1099479450037
 20
202.5868000764771
 10
-480.3758560216008
 20
203.4105401448288
 10
-480.6690200164697
 20
204.2249949043524
 10
-480.9890656062523
 20
205.0292772341901
 10
-481.335618467591
 20
205.8225000134843
 10
-481.7083042771274
 20
206.6037761213769
 10
-482.106748711504
 20
207.3722184370104
 10
-482.5305774473627
 20
208.1269398395268
 10
-482.9794085619495
 20
208.8670577892697
 10
-483.4527361985221
 20
209.5917644586455
 10
-483.9499535801394
 20
210.3003128585828
210
0.0
220
0.0
230
-1.0
  0
LWPOLYLINE
  5
140
330
1F
100
AcDbEntity
  8
0
  6
CONTINUOUS
 62
     7
100
AcDbPolyline
 90
       33
 70
     0
 43
0.0
 10
-618.9344393132783
 20
219.5773349608107
 10
-618.9510678425842
 20
219.6650939815551
 10
-618.96769637189
 20
219.7501695812583
 10
-618.9843249011959
 20
219.8325534678061
 10
-619.0009534305019
 20
219.9122373490843
 10
-619.0175819598079
 20
219.9892129329787
 10
-619.0342104891137
 20
220.0634719273752
 10
-619.0508390184197
 20
220.1350060401594
 10
-619.0674675477254
 20
220.2038069792174
 10
-619.0840960770313
 20
220.2698664524349
 10
-619.1007246063374
 20
220.3331761676976
 10
-619.117353135643
 20
220.3937278328914
 10
-619.1339816649491
 20
220.4515131559022
 10
-619.1506101942549
 20
220.5065238446158
 10
-619.167238723561
 20
220.5587516069179
 10
-619.1838672528668
 20
220.6081881506944
 10
-619.2004957821728
 20
220.6548251838312
 10
-619.2171243114786
 20
220.6986544142138
 10
-619.2337528407845
 20
220.7396675497284
 10
-619.2503813700904
 20
220.7778563460138
 10
-619.2670098993964
 20
220.8132156226235
 10
-619.2836384287024
 20
220.8457450661141
 10
-619.3002669580081
 20
220.8754447958031
 10
-619.3168954873141
 20
220.902314931008
 10
-619.3335240166199
 20
220.9263555910463
 10
-619.3501525459258
 20
220.9475668952354
 10
-619.3667810752316
 20
220.9659489628928
 10
-619.3834096045376
 20
220.9815019133359
 10
-619.4000381338435
 20
220.9942258658824
 10
-619.4166666631495
 20
221.0041209398496
 10
-619.4332951924553
 20
221.011187254555
 10
-619.4499237217613
 20
221.0154249293161
 10
-619.4665522510671
 20
221.0168340834503
210
0.0
220
0.0
230
-1.0
  0
LWPOLYLINE
  5
141
330
1F
100
AcDbEntity
  8
0
  6
CONTINUOUS
 62
     7
100
AcDbPolyline
 90
       33
 70
     0
 43
0.0
 10
603.9345044040267
 20
170.457137017085
 10
603.9511524953426
 20
170.3692656856279
 10
603.9678005866587
 20
170.2840822137724
 10
603.9844486779745
 20
170.201595708229
 10
604.0010967692905
 20
170.1218152757078
 10
604.0177448606063
 20
170.0447500229191
 10
604.0343929519224
 20
169.970409056573
 10
604.0510410432382
 20
169.8988014833799
 10
604.0676891345543
 20
169.8299364100499
 10
604.0843372258702
 20
169.7638229432932
 10
604.1009853171861
 20
169.7004701898202
 10
604.117633408502
 20
169.6398872563409
 10
604.134281499818
 20
169.5820832495657
 10
604.150929591134
 20
169.5270672762048
 10
604.16757768245
 20
169.4748484429683
 10
604.1842257737659
 20
169.4254358565666
 10
604.2008738650818
 20
169.3788386237098
 10
604.2175219563978
 20
169.3350645375597
 10
604.2341700477137
 20
169.2941157913982
 10
604.2508181390298
 20
169.2559930865051
 10
604.2674662303456
 20
169.2206971241464
 10
604.2841143216617
 20
169.1882286055886
 10
604.3007624129775
 20
169.1585882320979
 10
604.3174105042934
 20
169.1317767049404
 10
604.3340585956095
 20
169.1077947253826
 10
604.3507066869252
 20
169.0866429946904
 10
604.3673547782413
 20
169.0683222141304
 10
604.3840028695573
 20
169.0528330849687
 10
604.4006509608731
 20
169.0401763084715
 10
604.4172990521893
 20
169.0303525859051
 10
604.4339471435052
 20
169.0233626185357
 10
604.4505952348211
 20
169.0192071076296
 10
604.4672433261371
 20
169.0178867544531
  0
LINE
  5
142
330
1F
100
AcDbEntity
  8
0
  6
CONTINUOUS
 62
     7
100
AcDbLine
 10
634.46660106113
 20
169.017865963303
 30
0.0
 11
637.9666010611206
 21
169.0178579028702
 31
0.0
  0
LINE
  5
143
330
1F
100
AcDbEntity
  8
0
  6
CONTINUOUS
 62
     7
100
AcDbLine
 10
624.4665932987077
 20
169.0179021083966
 30
0.0
 11
627.9665932986984
 21
169.0178940479751
 31
0.0
  0
LINE
  5
144
330
1F
100
AcDbEntity
  8
0
  6
CONTINUOUS
 62
     7
100
AcDbLine
 10
614.4673700125135
 20
169.0179119618105
 30
0.0
 11
617.9673700125043
 21
169.017903901392
 31
0.0
  0
LINE
  5
145
330
1F
100
AcDbEntity
  8
0
  6
CONTINUOUS
 62
     7
100
AcDbLine
 10
753.6073729109885
 20
218.9965292572566
 30
0.0
 11
758.9666045345859
 21
218.9965292572566
 31
0.0
  0
LINE
  5
146
330
1F
100
AcDbEntity
  8
0
  6
CONTINUOUS
 62
     7
100
AcDbLine
 10
758.9666045345859
 20
187.5173716406931
 30
0.0
 11
758.9666045345859
 21
202.5173716406931
 31
0.0
  0
LINE
  5
147
330
1F
100
AcDbEntity
  8
0
  6
CONTINUOUS
 62
     7
100
AcDbLine
 10
758.9666045345859
 20
217.815397871049
 30
0.0
 11
758.9666045345859
 21
218.9965292572566
 31
0.0
  0
LINE
  5
148
330
1F
100
AcDbEntity
  8
0
  6
CONTINUOUS
 62
     7
100
AcDbLine
 10
704.4656629719243
 20
169.0174722446019
 30
0.0
 11
707.965662971915
 21
169.0174641840471
 31
0.0
  0
LINE
  5
149
330
1F
100
AcDbEntity
  8
0
  6
CONTINUOUS
 62
     7
100
AcDbLine
 10
759.9666045345859
 20
172.2193454103371
 30
0.0
 11
759.9666045345859
 21
187.5173716406931
 31
0.0
  0
LINE
  5
14A
330
1F
100
AcDbEntity
  8
0
  6
CONTINUOUS
 62
     7
100
AcDbLine
 10
603.6073642970571
 20
218.9965292572566
 30
0.0
 11
609.1802940415695
 21
218.9965292572556
 31
0.0
  0
LINE
  5
14B
330
1F
100
AcDbEntity
  8
0
  6
CONTINUOUS
 62
     7
100
AcDbLine
 10
724.466604038901
 20
169.0176147513878
 30
0.0
 11
727.9666040388914
 21
169.0176066908772
 31
0.0
  0
LINE
  5
14C
330
1F
100
AcDbEntity
  8
0
  6
CONTINUOUS
 62
     7
100
AcDbLine
 10
754.4664168259784
 20
169.0178563439512
 30
0.0
 11
757.9664168259692
 21
169.0178482835154
 31
0.0
  0
LINE
  5
14D
330
1F
100
AcDbEntity
  8
0
  6
CONTINUOUS
 62
     7
100
AcDbLine
 10
589.9666045345859
 20
171.0173716406931
 30
0.0
 11
589.9666045345859
 21
218.9965292572566
 31
0.0
  0
LINE
  5
14E
330
1F
100
AcDbEntity
  8
0
  6
CONTINUOUS
 62
     7
100
AcDbLine
 10
758.9666045345859
 20
202.5173716406931
 30
0.0
 11
759.9666045345859
 21
202.5173716406931
 31
0.0
  0
LINE
  5
14F
330
1F
100
AcDbEntity
  8
0
  6
CONTINUOUS
 62
     7
100
AcDbLine
 10
694.4655174587173
 20
169.0174502804165
 30
0.0
 11
697.9655174587081
 21
169.0174422198549
 31
0.0
  0
LINE
  5
150
330
1F
100
AcDbEntity
  8
0
  6
CONTINUOUS
 62
     7
100
AcDbLine
 10
758.9666045345859
 20
217.815397871049
 30
0.0
 11
759.9666045345859
 21
217.815397871049
 31
0.0
  0
LINE
  5
151
330
1F
100
AcDbEntity
  8
0
  6
CONTINUOUS
 62
     7
100
AcDbLine
 10
734.467069021699
 20
169.0177057922052
 30
0.0
 11
737.9670690216894
 21
169.0176977317228
 31
0.0
  0
LINE
  5
152
330
1F
100
AcDbEntity
  8
0
  6
CONTINUOUS
 62
     7
100
AcDbLine
 10
758.9666045345859
 20
172.2193454103371
 30
0.0
 11
759.9666045345859
 21
172.2193454103371
 31
0.0
  0
LINE
  5
153
330
1F
100
AcDbEntity
  8
0
  6
CONTINUOUS
 62
     7
100
AcDbLine
 10
759.9666045345859
 20
187.5173716406931
 30
0.0
 11
758.9666045345859
 21
187.5173716406931
 31
0.0
  0
LINE
  5
154
330
1F
100
AcDbEntity
  8
0
  6
CONTINUOUS
 62
     7
100
AcDbLine
 10
593.6073784364967
 20
218.9965292572566
 30
0.0
 11
599.1802799150058
 21
218.9965292572566
 31
0.0
  0
LINE
  5
155
330
1F
100
AcDbEntity
  8
0
  6
CONTINUOUS
 62
     7
100
AcDbLine
 10
744.4672665498234
 20
169.0177905628124
 30
0.0
 11
747.9672665498141
 21
169.0177825023563
 31
0.0
  0
LINE
  5
156
330
1F
100
AcDbEntity
  8
0
  6
CONTINUOUS
 62
     7
100
AcDbLine
 10
759.9666045345859
 20
202.5173716406931
 30
0.0
 11
759.9666045345859
 21
217.8153978710491
 31
0.0
  0
LINE
  5
157
330
1F
100
AcDbEntity
  8
0
  6
CONTINUOUS
 62
     7
100
AcDbLine
 10
684.4663990852238
 20
169.017475991947
 30
0.0
 11
687.9663990852144
 21
169.0174679313934
 31
0.0
  0
LINE
  5
158
330
1F
100
AcDbEntity
  8
0
  6
CONTINUOUS
 62
     7
100
AcDbLine
 10
674.4661911661432
 20
169.0175442943991
 30
0.0
 11
677.9661911661339
 21
169.0175362338667
 31
0.0
  0
LINE
  5
159
330
1F
100
AcDbEntity
  8
0
  6
CONTINUOUS
 62
     7
100
AcDbLine
 10
664.4661651641668
 20
169.01763153481
 30
0.0
 11
667.9661651641574
 21
169.0176234743045
 31
0.0
  0
LINE
  5
15A
330
1F
100
AcDbEntity
  8
0
  6
CONTINUOUS
 62
     7
100
AcDbLine
 10
654.4662897292835
 20
169.0177221632791
 30
0.0
 11
657.9662897292743
 21
169.0177141028018
 31
0.0
  0
LINE
  5
15B
330
1F
100
AcDbEntity
  8
0
  6
CONTINUOUS
 62
     7
100
AcDbLine
 10
644.466474855679
 20
169.0178036404484
 30
0.0
 11
647.9664748556698
 21
169.0177955799963
 31
0.0
  0
LINE
  5
15C
330
1F
100
AcDbEntity
  8
0
  6
CONTINUOUS
 62
     7
100
AcDbLine
 10
589.9666045345859
 20
218.9965292572566
 30
0.0
 11
591.9666045345859
 21
218.9965292572566
 31
0.0
  0
LINE
  5
15D
330
1F
100
AcDbEntity
  8
0
  6
CONTINUOUS
 62
     7
100
AcDbLine
 10
714.4660144385109
 20
169.0175326625191
 30
0.0
 11
717.9660144385019
 21
169.017524601983
 31
0.0
  0
LINE
  5
15E
330
1F
100
AcDbEntity
  8
0
  6
CONTINUOUS
 62
     7
100
AcDbLine
 10
748.4987192837593
 20
170.4575498068401
 30
0.0
 11
748.6033594735909
 21
171.0174984917009
 31
0.0
  0
LINE
  5
15F
330
1F
100
AcDbEntity
  8
0
  6
CONTINUOUS
 62
     7
100
AcDbLine
 10
742.9664683751422
 20
221.0170016012733
 30
0.0
 11
739.4664683751513
 21
221.0169935408045
 31
0.0
  0
LINE
  5
160
330
1F
100
AcDbEntity
  8
0
  6
CONTINUOUS
 62
     7
100
AcDbLine
 10
738.4983623492507
 20
170.455564019337
 30
0.0
 11
738.6034915441893
 21
171.0181410633867
 31
0.0
  0
LINE
  5
161
330
1F
100
AcDbEntity
  8
0
  6
CONTINUOUS
 62
     7
100
AcDbLine
 10
718.4981355712641
 20
170.4543095586219
 30
0.0
 11
718.6034929185201
 21
171.0181426748621
 31
0.0
  0
LINE
  5
162
330
1F
100
AcDbEntity
  8
0
  6
CONTINUOUS
 62
     7
100
AcDbLine
 10
698.4984596403038
 20
170.4561681188334
 30
0.0
 11
698.6034675656593
 21
171.0181451352052
 31
0.0
  0
LINE
  5
163
330
1F
100
AcDbEntity
  8
0
  6
CONTINUOUS
 62
     7
100
AcDbLine
 10
708.4981621119067
 20
170.4544994307598
 30
0.0
 11
708.6034823154654
 21
171.0181441980646
 31
0.0
  0
LINE
  5
164
330
1F
100
AcDbEntity
  8
0
  6
CONTINUOUS
 62
     7
100
AcDbLine
 10
678.4981862527452
 20
170.4548699289281
 30
0.0
 11
678.6034382664931
 21
171.0181469335057
 31
0.0
  0
LINE
  5
165
330
1F
100
AcDbEntity
  8
0
  6
CONTINUOUS
 62
     7
100
AcDbLine
 10
668.4981575714183
 20
170.4547858912864
 30
0.0
 11
668.6034269263113
 21
171.0181475095829
 31
0.0
  0
LINE
  5
166
330
1F
100
AcDbEntity
  8
0
  6
CONTINUOUS
 62
     7
100
AcDbLine
 10
728.4982169393472
 20
170.4547413536716
 30
0.0
 11
728.6034965822358
 21
171.0181405412594
 31
0.0
  0
LINE
  5
167
330
1F
100
AcDbEntity
  8
0
  6
CONTINUOUS
 62
     7
100
AcDbLine
 10
688.498216281463
 20
170.4549483895238
 30
0.0
 11
688.6033221911423
 21
171.0174474597695
 31
0.0
  0
LINE
  5
168
330
1F
100
AcDbEntity
  8
0
  6
CONTINUOUS
 62
     7
100
AcDbLine
 10
702.9668914458528
 20
221.0173014842197
 30
0.0
 11
699.4668914458623
 21
221.0172934236579
 31
0.0
  0
LINE
  5
169
330
1F
100
AcDbEntity
  8
0
  6
CONTINUOUS
 62
     7
100
AcDbLine
 10
602.9666719922923
 20
221.0168888068836
 30
0.0
 11
599.4666719923015
 21
221.0168807464497
 31
0.0
  0
LINE
  5
16A
330
1F
100
AcDbEntity
  8
0
  6
CONTINUOUS
 62
     7
100
AcDbLine
 10
652.9661677856977
 20
221.0169866148766
 30
0.0
 11
649.4661677857071
 21
221.0169785544124
 31
0.0
  0
LINE
  5
16B
330
1F
100
AcDbEntity
  8
0
  6
CONTINUOUS
 62
     7
100
AcDbLine
 10
642.9658617926133
 20
221.0169126984292
 30
0.0
 11
639.4658617926226
 21
221.0169046379879
 31
0.0
  0
LINE
  5
16C
330
1F
100
AcDbEntity
  8
0
  6
CONTINUOUS
 62
     7
100
AcDbLine
 10
672.9672698115448
 20
221.0171594867438
 30
0.0
 11
669.4672698115539
 21
221.0171514262261
 31
0.0
  0
LINE
  5
16D
330
1F
100
AcDbEntity
  8
0
  6
CONTINUOUS
 62
     7
100
AcDbLine
 10
712.966985098953
 20
221.0172568416385
 30
0.0
 11
709.4669850989626
 21
221.0172487810906
 31
0.0
  0
LINE
  5
16E
330
1F
100
AcDbEntity
  8
0
  6
CONTINUOUS
 62
     7
100
AcDbLine
 10
594.4668071230004
 20
169.017833545166
 30
0.0
 11
597.9668071229912
 21
169.0178254847232
 31
0.0
  0
LINE
  5
16F
330
1F
100
AcDbEntity
  8
0
  6
CONTINUOUS
 62
     7
100
AcDbLine
 10
604.4672433261371
 20
169.0178867544531
 30
0.0
 11
607.9672433261278
 21
169.0178786940268
 31
0.0
  0
LINE
  5
170
330
1F
100
AcDbEntity
  8
0
  6
CONTINUOUS
 62
     7
100
AcDbLine
 10
592.9667963392164
 20
221.0169524632639
 30
0.0
 11
591.9666045258172
 21
221.0169501598354
 31
0.0
  0
LINE
  5
171
330
1F
100
AcDbEntity
  8
0
  6
CONTINUOUS
 62
     7
100
AcDbLine
 10
612.9665722302594
 20
221.0168507202214
 30
0.0
 11
609.4665722302686
 21
221.0168426597994
 31
0.0
  0
LINE
  5
172
330
1F
100
AcDbEntity
  8
0
  6
CONTINUOUS
 62
     7
100
AcDbLine
 10
622.966552270185
 20
221.0168421438638
 30
0.0
 11
619.4665522701943
 21
221.0168340834445
 31
0.0
  0
LINE
  5
173
330
1F
100
AcDbEntity
  8
0
  6
CONTINUOUS
 62
     7
100
AcDbLine
 10
632.9658023750058
 20
221.0168619500597
 30
0.0
 11
629.4658023750151
 21
221.0168538896342
 31
0.0
  0
LINE
  5
174
330
1F
100
AcDbEntity
  8
0
  6
CONTINUOUS
 62
     7
100
AcDbLine
 10
662.9667618026638
 20
221.0170726913067
 30
0.0
 11
659.4667618026732
 21
221.0170646308158
 31
0.0
  0
LINE
  5
175
330
1F
100
AcDbEntity
  8
0
  6
CONTINUOUS
 62
     7
100
AcDbLine
 10
682.9675576508047
 20
221.0172367348381
 30
0.0
 11
679.4675576508141
 21
221.0172286742964
 31
0.0
  0
LINE
  5
176
330
1F
100
AcDbEntity
  8
0
  6
CONTINUOUS
 62
     7
100
AcDbLine
 10
692.966582486793
 20
221.0172966431531
 30
0.0
 11
689.4665824868026
 21
221.0172885825928
 31
0.0
  0
LINE
  5
177
330
1F
100
AcDbEntity
  8
0
  6
CONTINUOUS
 62
     7
100
AcDbLine
 10
722.9668987975839
 20
221.0171810466308
 30
0.0
 11
719.4668987975932
 21
221.0171729861064
 31
0.0
  0
LINE
  5
178
330
1F
100
AcDbEntity
  8
0
  6
CONTINUOUS
 62
     7
100
AcDbLine
 10
732.9666746936451
 20
221.0170910646402
 30
0.0
 11
729.4666746936546
 21
221.0170830041437
 31
0.0
  0
LINE
  5
179
330
1F
100
AcDbEntity
  8
0
  6
CONTINUOUS
 62
     7
100
AcDbLine
 10
752.9663796864239
 20
221.016925215422
 30
0.0
 11
749.4663796864336
 21
221.0169171549769
 31
0.0
  0
LINE
  5
17A
330
1F
100
AcDbEntity
  8
0
  6
CONTINUOUS
 62
     7
100
AcDbLine
 10
753.5400148760152
 20
172.5611700589708
 30
0.0
 11
753.9346965635325
 21
170.4561223837378
 31
0.0
  0
LINE
  5
17B
330
1F
100
AcDbEntity
  8
0
  6
CONTINUOUS
 62
     7
100
AcDbLine
 10
743.5401102643458
 20
172.5606997226664
 30
0.0
 11
743.9347896090868
 21
170.4556244116715
 31
0.0
  0
LINE
  5
17C
330
1F
100
AcDbEntity
  8
0
  6
CONTINUOUS
 62
     7
100
AcDbLine
 10
598.4985978322065
 20
170.4569525367425
 30
0.0
 11
598.6034706491071
 21
171.0181444661523
 31
0.0
  0
LINE
  5
17D
330
1F
100
AcDbEntity
  8
0
  6
CONTINUOUS
 62
     7
100
AcDbLine
 10
648.4984462261218
 20
170.4564039847903
 30
0.0
 11
648.6034171768124
 21
171.0181479750534
 31
0.0
  0
LINE
  5
17E
330
1F
100
AcDbEntity
  8
0
  6
CONTINUOUS
 62
     7
100
AcDbLine
 10
753.8928914095598
 20
217.474907943004
 30
0.0
 11
753.498490337382
 21
219.5783774402533
 31
0.0
  0
LINE
  5
17F
330
1F
100
AcDbEntity
  8
0
  6
CONTINUOUS
 62
     7
100
AcDbLine
 10
733.5413375625762
 20
172.5541952685904
 30
0.0
 11
733.934778089256
 21
170.4556583088553
 31
0.0
  0
LINE
  5
180
330
1F
100
AcDbEntity
  8
0
  6
CONTINUOUS
 62
     7
100
AcDbLine
 10
603.8927802677888
 20
217.4754573475476
 30
0.0
 11
603.4985409931287
 21
219.5780514157178
 31
0.0
  0
LINE
  5
181
330
1F
100
AcDbEntity
  8
0
  6
CONTINUOUS
 62
     7
100
AcDbLine
 10
723.5407954406357
 20
172.5570571004479
 30
0.0
 11
723.9349059250148
 21
170.4549201479476
 31
0.0
  0
LINE
  5
182
330
1F
100
AcDbEntity
  8
0
  6
CONTINUOUS
 62
     7
100
AcDbLine
 10
638.498401860945
 20
170.4561602684931
 30
0.0
 11
638.6032925678004
 21
171.0174629897444
 31
0.0
  0
LINE
  5
183
330
1F
100
AcDbEntity
  8
0
  6
CONTINUOUS
 62
     7
100
AcDbLine
 10
713.8925712805711
 20
217.4765473375955
 30
0.0
 11
713.4983794486159
 21
219.579107435215
 31
0.0
  0
LINE
  5
184
330
1F
100
AcDbEntity
  8
0
  6
CONTINUOUS
 62
     7
100
AcDbLine
 10
653.893056695405
 20
217.4736828165028
 30
0.0
 11
653.4983022254271
 21
219.5791187137113
 31
0.0
  0
LINE
  5
185
330
1F
100
AcDbEntity
  8
0
  6
CONTINUOUS
 62
     7
100
AcDbLine
 10
673.892657799998
 20
217.4758208713571
 30
0.0
 11
673.4983749778896
 21
219.5788249454095
 31
0.0
  0
LINE
  5
186
330
1F
100
AcDbEntity
  8
0
  6
CONTINUOUS
 62
     7
100
AcDbLine
 10
703.892327327729
 20
217.4777647544989
 30
0.0
 11
703.4981766673723
 21
219.5801311487922
 31
0.0
  0
LINE
  5
187
330
1F
100
AcDbEntity
  8
0
  6
CONTINUOUS
 62
     7
100
AcDbLine
 10
593.893024082103
 20
217.4742248197429
 30
0.0
 11
593.4983921747352
 21
219.5789352971518
 31
0.0
  0
LINE
  5
188
330
1F
100
AcDbEntity
  8
0
  6
CONTINUOUS
 62
     7
100
AcDbLine
 10
613.8926169367934
 20
217.4762463978265
 30
0.0
 11
613.4985717630282
 21
219.5778030655087
 31
0.0
  0
LINE
  5
189
330
1F
100
AcDbEntity
  8
0
  6
CONTINUOUS
 62
     7
100
AcDbLine
 10
658.4982274705719
 20
170.4552092210857
 30
0.0
 11
658.6034196475358
 21
171.018147733897
 31
0.0
  0
LINE
  5
18A
330
1F
100
AcDbEntity
  8
0
  6
CONTINUOUS
 62
     7
100
AcDbLine
 10
623.8934590399645
 20
217.4716966963188
 30
0.0
 11
623.498546804546
 21
219.5778674453603
 31
0.0
  0
LINE
  5
18B
330
1F
100
AcDbEntity
  8
0
  6
CONTINUOUS
 62
     7
100
AcDbLine
 10
723.8924064724885
 20
217.4774875247898
 30
0.0
 11
723.4987169080622
 21
219.5773271529817
 31
0.0
  0
LINE
  5
18C
330
1F
100
AcDbEntity
  8
0
  6
CONTINUOUS
 62
     7
100
AcDbLine
 10
693.8922972126609
 20
217.477848296157
 30
0.0
 11
693.4980751541865
 21
219.5805939660035
 31
0.0
  0
LINE
  5
18D
330
1F
100
AcDbEntity
  8
0
  6
CONTINUOUS
 62
     7
100
AcDbLine
 10
628.4984597814738
 20
170.4564363865159
 30
0.0
 11
628.6032978738489
 21
171.0174499579454
 31
0.0
  0
LINE
  5
18E
330
1F
100
AcDbEntity
  8
0
  6
CONTINUOUS
 62
     7
100
AcDbLine
 10
608.4985357745245
 20
170.4567068376495
 30
0.0
 11
608.6034549505047
 21
171.0181451573556
 31
0.0
  0
LINE
  5
18F
330
1F
100
AcDbEntity
  8
0
  6
CONTINUOUS
 62
     7
100
AcDbLine
 10
633.892920650701
 20
217.4744854435603
 30
0.0
 11
633.4984412599289
 21
219.5783856406819
 31
0.0
  0
LINE
  5
190
330
1F
100
AcDbEntity
  8
0
  6
CONTINUOUS
 62
     7
100
AcDbLine
 10
643.8926577609045
 20
217.4758291889692
 30
0.0
 11
643.4983099386842
 21
219.5790688719075
 31
0.0
  0
LINE
  5
191
330
1F
100
AcDbEntity
  8
0
  6
CONTINUOUS
 62
     7
100
AcDbLine
 10
663.8922563794516
 20
217.4779298166019
 30
0.0
 11
663.498223579339
 21
219.5795763184242
 31
0.0
  0
LINE
  5
192
330
1F
100
AcDbEntity
  8
0
  6
CONTINUOUS
 62
     7
100
AcDbLine
 10
733.8927234928901
 20
217.4758434225731
 30
0.0
 11
733.4985473333029
 21
219.5782151486241
 31
0.0
  0
LINE
  5
193
330
1F
100
AcDbEntity
  8
0
  6
CONTINUOUS
 62
     7
100
AcDbLine
 10
683.8928324751313
 20
217.4749416012081
 30
0.0
 11
683.4980801392581
 21
219.5804821678295
 31
0.0
  0
LINE
  5
194
330
1F
100
AcDbEntity
  8
0
  6
CONTINUOUS
 62
     7
100
AcDbLine
 10
618.4984251340152
 20
170.456191781035
 30
0.0
 11
618.6034401756633
 21
171.0181459752723
 31
0.0
  0
LINE
  5
195
330
1F
100
AcDbEntity
  8
0
  6
CONTINUOUS
 62
     7
100
AcDbLine
 10
743.8933317762111
 20
217.4726137956894
 30
0.0
 11
743.4984960269094
 21
219.5784289827753
 31
0.0
  0
LINE
  5
196
330
1F
100
AcDbEntity
  8
0
  6
CONTINUOUS
 62
     7
100
AcDbLine
 10
658.9347810227948
 20
219.5794789952316
 30
0.0
 11
658.8295992535518
 21
219.0166023636587
 31
0.0
  0
LINE
  5
197
330
1F
100
AcDbEntity
  8
0
  6
CONTINUOUS
 62
     7
100
AcDbLine
 10
738.9348221059793
 20
219.5793034827785
 30
0.0
 11
738.8296749096035
 21
219.0165953005148
 31
0.0
  0
LINE
  5
198
330
1F
100
AcDbEntity
  8
0
  6
CONTINUOUS
 62
     7
100
AcDbLine
 10
728.3191626275384
 20
171.0173716406931
 30
0.0
 11
733.8297030257077
 21
171.0173716406931
 31
0.0
  0
LINE
  5
199
330
1F
100
AcDbEntity
  8
0
  6
CONTINUOUS
 62
     7
100
AcDbLine
 10
608.9346199703645
 20
219.5782451492836
 30
0.0
 11
608.8257656796305
 21
218.9957502092676
 31
0.0
  0
LINE
  5
19A
330
1F
100
AcDbEntity
  8
0
  6
CONTINUOUS
 62
     7
100
AcDbLine
 10
718.3191765481397
 20
171.0173716406931
 30
0.0
 11
723.8296311385694
 21
171.0173716406931
 31
0.0
  0
LINE
  5
19B
330
1F
100
AcDbEntity
  8
0
  6
CONTINUOUS
 62
     7
100
AcDbLine
 10
618.3191240359837
 20
171.0173716406931
 30
0.0
 11
623.8296814028275
 21
171.0173716406931
 31
0.0
  0
LINE
  5
19C
330
1F
100
AcDbEntity
  8
0
  6
CONTINUOUS
 62
     7
100
AcDbLine
 10
748.9347302220319
 20
219.5787973349858
 30
0.0
 11
748.8257756033174
 21
218.995749666359
 31
0.0
  0
LINE
  5
19D
330
1F
100
AcDbEntity
  8
0
  6
CONTINUOUS
 62
     7
100
AcDbLine
 10
653.5398612824519
 20
172.5616314464117
 30
0.0
 11
653.934522785724
 21
170.456677422561
 31
0.0
  0
LINE
  5
19E
330
1F
100
AcDbEntity
  8
0
  6
CONTINUOUS
 62
     7
100
AcDbLine
 10
698.3191710867762
 20
171.0173716406931
 30
0.0
 11
703.8296377541319
 21
171.0173716406931
 31
0.0
  0
LINE
  5
19F
330
1F
100
AcDbEntity
  8
0
  6
CONTINUOUS
 62
     7
100
AcDbLine
 10
628.3191265481452
 20
171.0173716406931
 30
0.0
 11
633.8296313823752
 21
171.0173716406931
 31
0.0
  0
LINE
  5
1A0
330
1F
100
AcDbEntity
  8
0
  6
CONTINUOUS
 62
     7
100
AcDbLine
 10
728.9348947481475
 20
219.5797337750782
 30
0.0
 11
728.8296691407859
 21
219.0165957127579
 31
0.0
  0
LINE
  5
1A1
330
1F
100
AcDbEntity
  8
0
  6
CONTINUOUS
 62
     7
100
AcDbLine
 10
619.1139767565926
 20
219.0173716406931
 30
0.0
 11
613.6034471975958
 21
219.0173716406931
 31
0.0
  0
LINE
  5
1A2
330
1F
100
AcDbEntity
  8
0
  6
CONTINUOUS
 62
     7
100
AcDbLine
 10
623.5404668186414
 20
172.5585889659437
 30
0.0
 11
623.9345988183632
 21
170.4565173420685
 31
0.0
  0
LINE
  5
1A3
330
1F
100
AcDbEntity
  8
0
  6
CONTINUOUS
 62
     7
100
AcDbLine
 10
603.5400174045284
 20
172.5611223817534
 30
0.0
 11
603.9346332651744
 21
170.456446568334
 31
0.0
  0
LINE
  5
1A4
330
1F
100
AcDbEntity
  8
0
  6
CONTINUOUS
 62
     7
100
AcDbLine
 10
738.3191438528777
 20
171.0173716406931
 30
0.0
 11
743.8296759373233
 21
171.0173716406931
 31
0.0
  0
LINE
  5
1A5
330
1F
100
AcDbEntity
  8
0
  6
CONTINUOUS
 62
     7
100
AcDbLine
 10
718.9349216106065
 20
219.5799415748729
 30
0.0
 11
718.8296589287307
 21
219.0165961807596
 31
0.0
  0
LINE
  5
1A6
330
1F
100
AcDbEntity
  8
0
  6
CONTINUOUS
 62
     7
100
AcDbLine
 10
629.1139774338576
 20
219.0173716406931
 30
0.0
 11
623.6034336054342
 21
219.0173716406931
 31
0.0
  0
LINE
  5
1A7
330
1F
100
AcDbEntity
  8
0
  6
CONTINUOUS
 62
     7
100
AcDbLine
 10
698.9348617215261
 20
219.5797854201531
 30
0.0
 11
698.8297524401315
 21
219.0172539320064
 31
0.0
  0
LINE
  5
1A8
330
1F
100
AcDbEntity
  8
0
  6
CONTINUOUS
 62
     7
100
AcDbLine
 10
649.1139585192054
 20
219.0173716406931
 30
0.0
 11
643.6034181543324
 21
219.0173716406931
 31
0.0
  0
LINE
  5
1A9
330
1F
100
AcDbEntity
  8
0
  6
CONTINUOUS
 62
     7
100
AcDbLine
 10
638.9344114747155
 20
219.5773490404233
 30
0.0
 11
638.8297413176822
 21
219.0172297518219
 31
0.0
  0
LINE
  5
1AA
330
1F
100
AcDbEntity
  8
0
  6
CONTINUOUS
 62
     7
100
AcDbLine
 10
648.3191409310465
 20
171.0173716406931
 30
0.0
 11
653.8296036112679
 21
171.0173716406931
 31
0.0
  0
LINE
  5
1AB
330
1F
100
AcDbEntity
  8
0
  6
CONTINUOUS
 62
     7
100
AcDbLine
 10
639.1139711444728
 20
219.0173716406931
 30
0.0
 11
633.6034235428049
 21
219.0173716406931
 31
0.0
  0
LINE
  5
1AC
330
1F
100
AcDbEntity
  8
0
  6
CONTINUOUS
 62
     7
100
AcDbLine
 10
668.9349138735696
 20
219.5802210360602
 30
0.0
 11
668.8295969107836
 21
219.0166021356661
 31
0.0
  0
LINE
  5
1AD
330
1F
100
AcDbEntity
  8
0
  6
CONTINUOUS
 62
     7
100
AcDbLine
 10
643.5407568788895
 20
172.5569093358046
 30
0.0
 11
643.9346187711482
 21
170.4562405694507
 31
0.0
  0
LINE
  5
1AE
330
1F
100
AcDbEntity
  8
0
  6
CONTINUOUS
 62
     7
100
AcDbLine
 10
613.5410151892049
 20
172.5557569702614
 30
0.0
 11
613.9344901232575
 21
170.4571677796316
 31
0.0
  0
LINE
  5
1AF
330
1F
100
AcDbEntity
  8
0
  6
CONTINUOUS
 62
     7
100
AcDbLine
 10
618.9345729294865
 20
219.5780508086303
 30
0.0
 11
618.8296540243974
 21
219.016597169849
 31
0.0
  0
LINE
  5
1B0
330
1F
100
AcDbEntity
  8
0
  6
CONTINUOUS
 62
     7
100
AcDbLine
 10
673.539429903103
 20
172.5639828700105
 30
0.0
 11
673.9346027173812
 21
170.4561933256681
 31
0.0
  0
LINE
  5
1B1
330
1F
100
AcDbEntity
  8
0
  6
CONTINUOUS
 62
     7
100
AcDbLine
 10
703.5411932917522
 20
172.554845260351
 30
0.0
 11
703.9350070865537
 21
170.4542215854598
 31
0.0
  0
LINE
  5
1B2
330
1F
100
AcDbEntity
  8
0
  6
CONTINUOUS
 62
     7
100
AcDbLine
 10
693.5404494885825
 20
172.5587198520795
 30
0.0
 11
693.934961259882
 21
170.4543833615082
 31
0.0
  0
LINE
  5
1B3
330
1F
100
AcDbEntity
  8
0
  6
CONTINUOUS
 62
     7
100
AcDbLine
 10
713.5401858558456
 20
172.5602542259251
 30
0.0
 11
713.9349323574902
 21
170.4547057816269
 31
0.0
  0
LINE
  5
1B4
330
1F
100
AcDbEntity
  8
0
  6
CONTINUOUS
 62
     7
100
AcDbLine
 10
678.9349088281941
 20
219.58017444905
 30
0.0
 11
678.8296031399794
 21
219.0166002067935
 31
0.0
  0
LINE
  5
1B5
330
1F
100
AcDbEntity
  8
0
  6
CONTINUOUS
 62
     7
100
AcDbLine
 10
628.9344708672064
 20
219.577580738044
 30
0.0
 11
628.8296394065759
 21
219.0165983867695
 31
0.0
  0
LINE
  5
1B6
330
1F
100
AcDbEntity
  8
0
  6
CONTINUOUS
 62
     7
100
AcDbLine
 10
678.3191788200702
 20
171.0173716406931
 30
0.0
 11
683.8296088063391
 21
171.0173716406931
 31
0.0
  0
LINE
  5
1B7
330
1F
100
AcDbEntity
  8
0
  6
CONTINUOUS
 62
     7
100
AcDbLine
 10
658.3191439174087
 20
171.0173716406931
 30
0.0
 11
663.8295973983498
 21
171.0173716406931
 31
0.0
  0
LINE
  5
1B8
330
1F
100
AcDbEntity
  8
0
  6
CONTINUOUS
 62
     7
100
AcDbLine
 10
708.9348374887416
 20
219.5795702360026
 30
0.0
 11
708.8297725974357
 21
219.0172761572645
 31
0.0
  0
LINE
  5
1B9
330
1F
100
AcDbEntity
  8
0
  6
CONTINUOUS
 62
     7
100
AcDbLine
 10
598.9347918240402
 20
219.5791332946608
 30
0.0
 11
598.8257732868525
 21
218.9957503907461
 31
0.0
  0
LINE
  5
1BA
330
1F
100
AcDbEntity
  8
0
  6
CONTINUOUS
 62
     7
100
AcDbLine
 10
648.9345862994263
 20
219.5783696442651
 30
0.0
 11
648.8297413657466
 21
219.0173084415111
 31
0.0
  0
LINE
  5
1BB
330
1F
100
AcDbEntity
  8
0
  6
CONTINUOUS
 62
     7
100
AcDbLine
 10
757.966604534586
 20
171.0173716406931
 30
0.0
 11
758.9666045345859
 21
171.0173716406931
 31
0.0
  0
LINE
  5
1BC
330
1F
100
AcDbEntity
  8
0
  6
CONTINUOUS
 62
     7
100
AcDbLine
 10
608.3191194630158
 20
171.0173716406931
 30
0.0
 11
613.8296263982548
 21
171.0173716406931
 31
0.0
  0
LINE
  5
1BD
330
1F
100
AcDbEntity
  8
0
  6
CONTINUOUS
 62
     7
100
AcDbLine
 10
688.9347983903604
 20
219.5795249061661
 30
0.0
 11
688.8296153261805
 21
219.0165985656902
 31
0.0
  0
LINE
  5
1BE
330
1F
100
AcDbEntity
  8
0
  6
CONTINUOUS
 62
     7
100
AcDbLine
 10
638.319133995998
 20
171.0173716406931
 30
0.0
 11
643.8296159851191
 21
171.0173716406931
 31
0.0
  0
LINE
  5
1BF
330
1F
100
AcDbEntity
  8
0
  6
CONTINUOUS
 62
     7
100
AcDbLine
 10
683.5403475942325
 20
172.5591829246508
 30
0.0
 11
683.9347886458427
 21
170.4552380389672
 31
0.0
  0
LINE
  5
1C0
330
1F
100
AcDbEntity
  8
0
  6
CONTINUOUS
 62
     7
100
AcDbLine
 10
659.1139409371117
 20
219.0173716406931
 30
0.0
 11
653.6033835806245
 21
219.0173716406931
 31
0.0
  0
LINE
  5
1C1
330
1F
100
AcDbEntity
  8
0
  6
CONTINUOUS
 62
     7
100
AcDbLine
 10
669.1139386620143
 20
219.0173716406931
 30
0.0
 11
663.6034569234038
 21
219.0173716406931
 31
0.0
  0
LINE
  5
1C2
330
1F
100
AcDbEntity
  8
0
  6
CONTINUOUS
 62
     7
100
AcDbLine
 10
679.1139350344332
 20
219.0173716406931
 30
0.0
 11
673.6034318983543
 21
219.0173716406931
 31
0.0
  0
LINE
  5
1C3
330
1F
100
AcDbEntity
  8
0
  6
CONTINUOUS
 62
     7
100
AcDbLine
 10
689.113918138209
 20
219.0173716406931
 30
0.0
 11
683.6034452721545
 21
219.0173716406931
 31
0.0
  0
LINE
  5
1C4
330
1F
100
AcDbEntity
  8
0
  6
CONTINUOUS
 62
     7
100
AcDbLine
 10
699.1139106274051
 20
219.0173716406931
 30
0.0
 11
693.6034603679979
 21
219.0173716406931
 31
0.0
  0
LINE
  5
1C5
330
1F
100
AcDbEntity
  8
0
  6
CONTINUOUS
 62
     7
100
AcDbLine
 10
663.5400426516902
 20
172.5606822914347
 30
0.0
 11
663.9344524297152
 21
170.4570038039252
 31
0.0
  0
LINE
  5
1C6
330
1F
100
AcDbEntity
  8
0
  6
CONTINUOUS
 62
     7
100
AcDbLine
 10
708.3191779553941
 20
171.0173716406931
 30
0.0
 11
713.8296524469012
 21
171.0173716406931
 31
0.0
  0
LINE
  5
1C7
330
1F
100
AcDbEntity
  8
0
  6
CONTINUOUS
 62
     7
100
AcDbLine
 10
668.3191638007961
 20
171.0173716406931
 30
0.0
 11
673.8295882322202
 21
171.0173716406931
 31
0.0
  0
LINE
  5
1C8
330
1F
100
AcDbEntity
  8
0
  6
CONTINUOUS
 62
     7
100
AcDbLine
 10
709.1139263656211
 20
219.0173716406931
 30
0.0
 11
703.6034754040805
 21
219.0173716406931
 31
0.0
  0
LINE
  5
1C9
330
1F
100
AcDbEntity
  8
0
  6
CONTINUOUS
 62
     7
100
AcDbLine
 10
719.1139408456679
 20
219.0173716406931
 30
0.0
 11
713.6034537294731
 21
219.0173716406931
 31
0.0
  0
LINE
  5
1CA
330
1F
100
AcDbEntity
  8
0
  6
CONTINUOUS
 62
     7
100
AcDbLine
 10
633.5398793433994
 20
172.5616301080774
 30
0.0
 11
633.9345984296941
 21
170.4564365221308
 31
0.0
  0
LINE
  5
1CB
330
1F
100
AcDbEntity
  8
0
  6
CONTINUOUS
 62
     7
100
AcDbLine
 10
593.5400812938435
 20
172.5608339036874
 30
0.0
 11
593.9347222521881
 21
170.4559883530907
 31
0.0
  0
LINE
  5
1CC
330
1F
100
AcDbEntity
  8
0
  6
CONTINUOUS
 62
     7
100
AcDbLine
 10
748.3191377186033
 20
171.0173716406931
 30
0.0
 11
753.8296740196779
 21
171.0173716406931
 31
0.0
  0
LINE
  5
1CD
330
1F
100
AcDbEntity
  8
0
  6
CONTINUOUS
 62
     7
100
AcDbLine
 10
688.319177849095
 20
171.0173716406931
 30
0.0
 11
693.8296224295661
 21
171.0173716406931
 31
0.0
  0
LINE
  5
1CE
330
1F
100
AcDbEntity
  8
0
  6
CONTINUOUS
 62
     7
100
AcDbLine
 10
530.9795060064546
 20
195.4668861533895
 30
0.0
 11
530.983003830794
 21
194.8944655532923
 31
0.0
  0
LINE
  5
1CF
330
1F
100
AcDbEntity
  8
0
  6
CONTINUOUS
 62
     7
100
AcDbLine
 10
503.983518995408
 20
218.7173716406931
 30
0.0
 11
503.983518995408
 21
218.9965292572567
 31
0.0
  0
LINE
  5
1D0
330
1F
100
AcDbEntity
  8
0
  6
CONTINUOUS
 62
     7
100
AcDbLine
 10
842.8145072349479
 20
202.5173716406931
 30
0.0
 11
839.9391893570797
 21
202.5173716406931
 31
0.0
  0
LINE
  5
1D1
330
1F
100
AcDbEntity
  8
0
  6
CONTINUOUS
 62
     7
100
AcDbLine
 10
739.1139493931921
 20
219.0173716406931
 30
0.0
 11
733.6034948973987
 21
219.0173716406931
 31
0.0
  0
CIRCLE
  5
1D2
330
1F
100
AcDbEntity
  8
0
  6
CONTINUOUS
 62
     7
100
AcDbCircle
 10
504.9835099166058
 20
195.0169591846042
 30
0.0
 40
25.99979902481377
  0
CIRCLE
  5
1D3
330
1F
100
AcDbEntity
  8
0
  6
CONTINUOUS
 62
     7
100
AcDbCircle
 10
820.0164810045919
 20
195.0173716406931
 30
0.0
 40
23.99999999999999
  0
CIRCLE
  5
1D4
330
1F
100
AcDbEntity
  8
0
  6
CONTINUOUS
 62
     7
100
AcDbCircle
 10
820.0164810045919
 20
195.0173716406931
 30
0.0
 40
17.49999999999999
  0
LINE
  5
1D5
330
1F
100
AcDbEntity
  8
0
  6
CONTINUOUS
 62
     7
100
AcDbLine
 10
552.9666045345859
 20
216.0
 30
0.0
 11
589.9666045345859
 21
216.0
 31
0.0
  0
LINE
  5
1D6
330
1F
100
AcDbEntity
  8
0
  6
CONTINUOUS
 62
     7
100
AcDbLine
 10
820.8186568843694
 20
169.0300135465398
 30
0.0
 11
822.3701071938796
 21
169.1241860837352
 31
0.0
  0
ARC
  5
1D7
330
1F
100
AcDbEntity
  8
0
  6
CONTINUOUS
 62
     7
100
AcDbCircle
 10
509.1640859010438
 20
202.4336895723158
 30
0.0
 40
23.75336111543491
100
AcDbArc
 50
145.0179598811544
 51
159.2219278693073
  0
ARC
  5
1D8
330
1F
100
AcDbEntity
  8
0
  6
CONTINUOUS
 62
     7
100
AcDbCircle
 10
827.4064517221179
 20
190.7876615799892
 30
0.0
 40
23.80947786483931
100
AcDbArc
 50
55.03806606480742
 51
69.2098879777437
  0
ARC
  5
1D9
330
1F
100
AcDbEntity
  8
0
  6
CONTINUOUS
 62
     7
100
AcDbCircle
 10
508.4145202804058
 20
202.813866719102
 30
0.0
 40
23.87781907472764
100
AcDbArc
 50
326.8087753161299
 51
340.9401492958357
  0
LINE
  5
1DA
330
1F
100
AcDbEntity
  8
0
  6
CONTINUOUS
 62
     7
100
AcDbLine
 10
800.0937726520986
 20
187.5173716406931
 30
0.0
 11
797.2184547742359
 21
187.5173716406931
 31
0.0
  0
ARC
  5
1DB
330
1F
100
AcDbEntity
  8
0
  6
CONTINUOUS
 62
     7
100
AcDbCircle
 10
827.7904978774851
 20
191.5424996729608
 30
0.0
 40
23.82812709868687
100
AcDbArc
 50
236.8005923612379
 51
250.9610052649782
  0
LINE
  5
1DC
330
1F
100
AcDbEntity
  8
0
  6
CONTINUOUS
 62
     7
100
AcDbLine
 10
552.9666045345859
 20
174.0
 30
0.0
 11
589.9666045345859
 21
174.0
 31
0.0
  0
LINE
  5
1DD
330
1F
100
AcDbEntity
  8
0
  6
CONTINUOUS
 62
     7
100
AcDbLine
 10
812.5164810045919
 20
214.9400799931855
 30
0.0
 11
812.5164810045919
 21
217.815397871049
 31
0.0
  0
LINE
  5
1DE
330
1F
100
AcDbEntity
  8
0
  6
CONTINUOUS
 62
     7
100
AcDbLine
 10
505.983518995408
 20
218.7173716406931
 30
0.0
 11
503.983518995408
 21
218.7173716406931
 31
0.0
  0
LINE
  5
1DF
330
1F
100
AcDbEntity
  8
0
  6
CENTER
 62
     1
100
AcDbLine
 10
545.0
 20
195.0
 30
0.0
 11
770.0
 21
195.0
 31
0.0
  0
LINE
  5
1E0
330
1F
100
AcDbEntity
  8
0
  6
CONTINUOUS
 62
     7
100
AcDbLine
 10
842.8145072349479
 20
187.5173716406931
 30
0.0
 11
839.9391893570852
 21
187.5173716406931
 31
0.0
  0
LINE
  5
1E1
330
1F
100
AcDbEntity
  8
0
  6
CONTINUOUS
 62
     7
100
AcDbLine
 10
819.0164810045919
 20
218.7173716406931
 30
0.0
 11
821.0164810045919
 21
218.7173716406931
 31
0.0
  0
LINE
  5
1E2
330
1F
100
AcDbEntity
  8
0
  6
CONTINUOUS
 62
     7
100
AcDbLine
 10
598.3191312338124
 20
171.0173716406931
 30
0.0
 11
603.8296702509936
 21
171.0173716406931
 31
0.0
  0
CIRCLE
  5
1E3
330
1F
100
AcDbEntity
  8
0
  6
CONTINUOUS
 62
     7
100
AcDbCircle
 10
820.0163434043732
 20
195.0174893316494
 30
0.0
 40
25.99964148789583
  0
LINE
  5
1E4
330
1F
100
AcDbEntity
  8
0
  6
CONTINUOUS
 62
     7
100
AcDbLine
 10
821.0164810045919
 20
218.7173716406931
 30
0.0
 11
821.0164810045919
 21
218.9965292572567
 31
0.0
  0
LINE
  5
1E5
330
1F
100
AcDbEntity
  8
0
  6
CONTINUOUS
 62
     7
100
AcDbLine
 10
505.983518995408
 20
218.7173716406931
 30
0.0
 11
505.983518995408
 21
218.9965292572567
 31
0.0
  0
LINE
  5
1E6
330
1F
100
AcDbEntity
  8
0
  6
CONTINUOUS
 62
     7
100
AcDbLine
 10
800.0937726520986
 20
202.5173716406931
 30
0.0
 11
797.2184547742359
 21
202.5173716406931
 31
0.0
  0
CIRCLE
  5
1E7
330
1F
100
AcDbEntity
  8
0
  6
CONTINUOUS
 62
     7
100
AcDbCircle
 10
504.983518995408
 20
195.0173716406931
 30
0.0
 40
17.50000000000001
  0
CIRCLE
  5
1E8
330
1F
100
AcDbEntity
  8
0
  6
CONTINUOUS
 62
     7
100
AcDbCircle
 10
820.0164810045919
 20
195.0173716406931
 30
0.0
 40
21.28749999999998
  0
LINE
  5
1E9
330
1F
100
AcDbEntity
  8
0
  6
CONTINUOUS
 62
     7
100
AcDbLine
 10
591.9666045345859
 20
189.7423114063031
 30
0.0
 11
591.9666045345859
 21
221.0169501599709
 31
0.0
  0
LINE
  5
1EA
330
1F
100
AcDbEntity
  8
0
  6
CONTINUOUS
 62
     7
100
AcDbLine
 10
819.0164810045919
 20
218.7173716406931
 30
0.0
 11
819.0164810045919
 21
218.9965292572567
 31
0.0
  0
LINE
  5
1EB
330
1F
100
AcDbEntity
  8
0
  6
CONTINUOUS
 62
     7
100
AcDbLine
 10
729.1139356976818
 20
219.0173716406931
 30
0.0
 11
723.6035291642238
 21
219.0173716406931
 31
0.0
  0
ARC
  5
1EC
330
1F
100
AcDbEntity
  8
0
  6
CONTINUOUS
 62
     7
100
AcDbCircle
 10
504.983518995408
 20
195.0173716406931
 30
0.0
 40
23.99999999999998
100
AcDbArc
 50
92.3880154632688
 51
87.61198453673131
  0
LINE
  5
1ED
330
1F
100
AcDbEntity
  8
0
  6
CONTINUOUS
 62
     7
100
AcDbLine
 10
552.9666045345859
 20
174.0
 30
0.0
 11
552.9666045345859
 21
216.0
 31
0.0
  0
LINE
  5
1EE
330
1F
100
AcDbEntity
  8
0
  6
CONTINUOUS
 62
     7
100
AcDbLine
 10
589.9666045345859
 20
171.0173716406931
 30
0.0
 11
593.829675357289
 21
171.0173716406931
 31
0.0
  0
LINE
  5
1EF
330
1F
100
AcDbEntity
  8
0
  6
CONTINUOUS
 62
     7
100
AcDbLine
 10
821.1506205979358
 20
218.9905593174041
 30
0.0
 11
818.614794448775
 21
218.9764049016417
 31
0.0
  0
LINE
  5
1F0
330
1F
100
AcDbEntity
  8
0
  6
CONTINUOUS
 62
     7
100
AcDbLine
 10
827.5164810045919
 20
214.9400799931864
 30
0.0
 11
827.5164810045919
 21
217.815397871049
 31
0.0
  0
LINE
  5
1F1
330
1F
100
AcDbEntity
  8
0
  6
CONTINUOUS
 62
     7
100
AcDbLine
 10
812.5164810045919
 20
175.0946632881997
 30
0.0
 11
812.5164810045919
 21
172.2193454103371
 31
0.0
  0
LINE
  5
1F2
330
1F
100
AcDbEntity
  8
0
  6
CONTINUOUS
 62
     7
100
AcDbLine
 10
841.1728104135386
 20
210.1298539027937
 30
0.0
 11
841.0403740861748
 21
210.3135055203215
 31
0.0
  0
LINE
  5
1F3
330
1F
100
AcDbEntity
  8
0
  6
CONTINUOUS
 62
     7
100
AcDbLine
 10
827.5164810045919
 20
175.0946632882069
 30
0.0
 11
827.5164810045919
 21
172.2193454103371
 31
0.0
  0
CIRCLE
  5
1F4
330
1F
100
AcDbEntity
  8
0
  6
CONTINUOUS
 62
     7
100
AcDbCircle
 10
504.983518995408
 20
195.0173716406931
 30
0.0
 40
21.29999999999999
  0
CIRCLE
  5
1F5
330
1F
100
AcDbEntity
  8
0
  6
CONTINUOUS
 62
     7
100
AcDbCircle
 10
820.0164810045919
 20
195.0173716406931
 30
0.0
 40
20.7
  0
ENDSEC
  0
SECTION
  2
OBJECTS
  0
DICTIONARY
  5
C
330
0
100
AcDbDictionary
  3
ACAD_GROUP
350
D
  3
ACAD_LAYOUT
350
1A
  3
ACAD_MATERIAL
350
43
  3
ACAD_MLEADERSTYLE
350
6B
  3
ACAD_MLINESTYLE
350
17
  3
ACAD_PLOTSETTINGS
350
19
  3
ACAD_SCALELIST
350
47
  3
ACAD_VISUALSTYLE
350
2A
  3
ACDBHEADERROUNDTRIPXREC
350
1F6
  3
ACDBVARIABLEDICTIONARY
350
217
  0
DICTIONARY
  5
21E
330
8
100
AcDbDictionary
280
     1
  3
ACAD_XREC_ROUNDTRIP
360
21F
  0
DICTIONARY
  5
D
102
{ACAD_REACTORS
330
C
102
}
330
C
100
AcDbDictionary
  0
DICTIONARY
  5
1A
102
{ACAD_REACTORS
330
C
102
}
330
C
100
AcDbDictionary
  0
DICTIONARY
  5
43
102
{ACAD_REACTORS
330
C
102
}
330
C
100
AcDbDictionary
  3
BYBLOCK
350
45
  3
BYLAYER
350
44
  3
GLOBAL
350
46
  0
DICTIONARY
  5
6B
102
{ACAD_REACTORS
330
C
102
}
330
C
100
AcDbDictionary
  3
STANDARD
350
6C
  0
DICTIONARY
  5
17
102
{ACAD_REACTORS
330
C
102
}
330
C
100
AcDbDictionary
  3
STANDARD
350
18
  0
DICTIONARY
  5
19
102
{ACAD_REACTORS
330
C
102
}
330
C
100
AcDbDictionary
  0
DICTIONARY
  5
47
102
{ACAD_REACTORS
330
C
102
}
330
C
100
AcDbDictionary
  3
A0
350
48
  3
A1
350
49
  3
A2
350
4A
  3
A3
350
4B
  3
A4
350
4C
  3
A5
350
4D
  3
A6
350
4E
  3
A7
350
4F
  3
A8
350
50
  3
A9
350
51
  3
B0
350
52
  3
B1
350
53
  3
B2
350
54
  3
B3
350
55
  3
B4
350
56
  3
B5
350
57
  3
B6
350
58
  3
B7
350
59
  3
B8
350
5A
  3
B9
350
5B
  3
C0
350
5C
  3
C1
350
5D
  3
C2
350
5E
  3
C3
350
5F
  3
C4
350
60
  3
C5
350
61
  3
C6
350
62
  3
C7
350
63
  3
C8
350
64
  3
C9
350
65
  3
D0
350
66
  3
D1
350
67
  3
D2
350
68
  0
DICTIONARY
  5
2A
102
{ACAD_REACTORS
330
C
102
}
330
C
100
AcDbDictionary
  3
2DWIREFRAME
350
2F
  3
BASIC
350
32
  3
BRIGHTEN
350
36
  3
COLORCHANGE
350
3A
  3
CONCEPTUAL
350
34
  3
DIM
350
35
  3
EDGECOLOROFF
350
3D
  3
FACEPATTERN
350
39
  3
FLAT
350
2B
  3
FLATWITHEDGES
350
2C
  3
GOURAUD
350
2D
  3
GOURAUDWITHEDGES
350
2E
  3
HIDDEN
350
31
  3
JITTEROFF
350
3B
  3
LINEPATTERN
350
38
  3
OVERHANGOFF
350
3C
  3
REALISTIC
350
33
  3
SHADED
350
42
  3
SHADED_WITH_EDGES
350
41
  3
SHADES_OF_GRAY
350
3E
  3
SKETCHY
350
3F
  3
THICKEN
350
37
  3
WIREFRAME
350
30
  3
X-RAY
350
40
  0
DICTIONARY
  5
1F6
102
{ACAD_REACTORS
330
C
102
}
330
C
100
AcDbDictionary
  3
CEPSNID
350
200
  3
CEPSNTYPE
350
1FF
  3
DIMSTYLEDATA
350
216
  3
FINGERPRINTGUID
350
201
  3
HYPERLINKBASE
350
1F9
  3
INSUNITS
350
1FE
  3
LAYOUTDICT
350
1FB
  3
LWETCUNION
350
1FD
  3
PLOTSETDICT
350
1FC
  3
PSVPSCALE
350
203
  3
PUCSBASE
350
206
  3
PUCSORGBACK
350
20C
  3
PUCSORGBOTTOM
350
208
  3
PUCSORGFRONT
350
20B
  3
PUCSORGLEFT
350
209
  3
PUCSORGRIGHT
350
20A
  3
PUCSORGTOP
350
207
  3
PUCSORTHOREF
350
204
  3
PUCSORTHOVIEW
350
205
  3
STYLESHEET
350
1FA
  3
TSTACKALIGN
350
1F7
  3
TSTACKSIZE
350
1F8
  3
UCSBASE
350
20F
  3
UCSORGBACK
350
215
  3
UCSORGBOTTOM
350
211
  3
UCSORGFRONT
350
214
  3
UCSORGLEFT
350
212
  3
UCSORGRIGHT
350
213
  3
UCSORGTOP
350
210
  3
UCSORTHOREF
350
20D
  3
UCSORTHOVIEW
350
20E
  3
VERSIONGUID
350
202
  0
DICTIONARY
  5
217
102
{ACAD_REACTORS
330
C
102
}
330
C
100
AcDbDictionary
  3
CANNOSCALE
350
220
  3
CMLEADERSTYLE
350
219
  3
CTABLESTYLE
350
218
  3
DIMASSOC
350
21C
  3
HIDETEXT
350
21D
  3
MSLTSCALE
350
221
  0
XRECORD
  5
21F
102
{ACAD_REACTORS
330
21E
102
}
330
21E
100
AcDbXrecord
102
VTR_0.000_0.000_1.000_1.000_VISUALSTYLE
340
2F
102
VTR_0.000_0.000_1.000_1.000_GRIDDISPLAY
 70
     3
102
VTR_0.000_0.000_1.000_1.000_GRIDMAJOR
 70
     5
102
VTR_0.000_0.000_1.000_1.000_DEFAULTLIGHTING
280
     1
102
VTR_0.000_0.000_1.000_1.000_DEFAULTLIGHTINGTYPE
 70
     1
102
VTR_0.000_0.000_1.000_1.000_BRIGHTNESS
141
0.0
102
VTR_0.000_0.000_1.000_1.000_CONTRAST
142
0.0
  0
MATERIAL
  5
45
102
{ACAD_REACTORS
330
43
102
}
102
{ACAD_XDICTIONARY
360
224
102
}
330
43
100
AcDbMaterial
  1
BYBLOCK
  0
MATERIAL
  5
44
102
{ACAD_REACTORS
330
43
102
}
102
{ACAD_XDICTIONARY
360
222
102
}
330
43
100
AcDbMaterial
  1
BYLAYER
  0
MATERIAL
  5
46
102
{ACAD_REACTORS
330
43
102
}
102
{ACAD_XDICTIONARY
360
226
102
}
330
43
100
AcDbMaterial
  1
GLOBAL
  0
ACAD_PROXY_OBJECT
  5
6C
102
{ACAD_REACTORS
330
6B
102
}
330
6B
100
AcDbProxyObject
 90
      499
 91
      505
 93
      610
310
40901902A4063FBFFFFFE056BD1B81E855B9FC0AD7A3703D0AD73F4214DD185B99185C9900AD7A3703D0AC73F90141901A02B5E8DC0F42B1CFC02B5E8DC0F42B1CFE5764000000000000300FC0
340
14
340
0
340
11
340
0
 94
        0
1001
ACAD_MLEADERVER
1070
     2
  0
MLINESTYLE
  5
18
102
{ACAD_REACTORS
330
17
102
}
330
17
100
AcDbMlineStyle
  2
Standard
 70
     0
  3

 62
   256
 51
90.0
 52
90.0
 71
     2
 49
0.5
 62
   256
  6
BYLAYER
 49
-0.5
 62
   256
  6
BYLAYER
  0
ACAD_PROXY_OBJECT
  5
48
102
{ACAD_REACTORS
330
47
102
}
330
47
100
AcDbProxyObject
 90
      499
 91
      503
 93
       41
310
903313A31580
  0
ACAD_PROXY_OBJECT
  5
49
102
{ACAD_REACTORS
330
47
102
}
330
47
100
AcDbProxyObject
 90
      499
 91
      503
 93
      105
310
903313A324000000000000004000
  0
ACAD_PROXY_OBJECT
  5
4A
102
{ACAD_REACTORS
330
47
102
}
330
47
100
AcDbProxyObject
 90
      499
 91
      503
 93
      105
310
903313A344000000000000104000
  0
ACAD_PROXY_OBJECT
  5
4B
102
{ACAD_REACTORS
330
47
102
}
330
47
100
AcDbProxyObject
 90
      499
 91
      503
 93
      105
310
903313A354000000000000144000
  0
ACAD_PROXY_OBJECT
  5
4C
102
{ACAD_REACTORS
330
47
102
}
330
47
100
AcDbProxyObject
 90
      499
 91
      503
 93
      105
310
903313A384000000000000204000
  0
ACAD_PROXY_OBJECT
  5
4D
102
{ACAD_REACTORS
330
47
102
}
330
47
100
AcDbProxyObject
 90
      499
 91
      503
 93
      113
310
904313A31304000000000000244000
  0
ACAD_PROXY_OBJECT
  5
4E
102
{ACAD_REACTORS
330
47
102
}
330
47
100
AcDbProxyObject
 90
      499
 91
      503
 93
      113
310
904313A31364000000000000304000
  0
ACAD_PROXY_OBJECT
  5
4F
102
{ACAD_REACTORS
330
47
102
}
330
47
100
AcDbProxyObject
 90
      499
 91
      503
 93
      113
310
904313A32304000000000000344000
  0
ACAD_PROXY_OBJECT
  5
50
102
{ACAD_REACTORS
330
47
102
}
330
47
100
AcDbProxyObject
 90
      499
 91
      503
 93
      113
310
904313A333040000000000003E4000
  0
ACAD_PROXY_OBJECT
  5
51
102
{ACAD_REACTORS
330
47
102
}
330
47
100
AcDbProxyObject
 90
      499
 91
      503
 93
      113
310
904313A34304000000000000444000
  0
ACAD_PROXY_OBJECT
  5
52
102
{ACAD_REACTORS
330
47
102
}
330
47
100
AcDbProxyObject
 90
      499
 91
      503
 93
      113
310
904313A35304000000000000494000
  0
ACAD_PROXY_OBJECT
  5
53
102
{ACAD_REACTORS
330
47
102
}
330
47
100
AcDbProxyObject
 90
      499
 91
      503
 93
      121
310
905313A3130304000000000000594000
  0
ACAD_PROXY_OBJECT
  5
54
102
{ACAD_REACTORS
330
47
102
}
330
47
100
AcDbProxyObject
 90
      499
 91
      503
 93
      105
310
903323A310000000000000010100
  0
ACAD_PROXY_OBJECT
  5
55
102
{ACAD_REACTORS
330
47
102
}
330
47
100
AcDbProxyObject
 90
      499
 91
      503
 93
      105
310
903343A310000000000000410100
  0
ACAD_PROXY_OBJECT
  5
56
102
{ACAD_REACTORS
330
47
102
}
330
47
100
AcDbProxyObject
 90
      499
 91
      503
 93
      105
310
903383A310000000000000810100
  0
ACAD_PROXY_OBJECT
  5
57
102
{ACAD_REACTORS
330
47
102
}
330
47
100
AcDbProxyObject
 90
      499
 91
      503
 93
      113
310
90431303A310000000000000910100
  0
ACAD_PROXY_OBJECT
  5
58
102
{ACAD_REACTORS
330
47
102
}
330
47
100
AcDbProxyObject
 90
      499
 91
      503
 93
      121
310
9053130303A310000000000001650100
  0
ACAD_PROXY_OBJECT
  5
59
102
{ACAD_REACTORS
330
47
102
}
330
47
100
AcDbProxyObject
 90
      499
 91
      503
 93
      257
310
90E312F31323822203D2031272D3022000000000000200FC000000000000284000
  0
ACAD_PROXY_OBJECT
  5
5A
102
{ACAD_REACTORS
330
47
102
}
330
47
100
AcDbProxyObject
 90
      499
 91
      503
 93
      249
310
90D312F363422203D2031272D3022000000000000240FC000000000000284000
  0
ACAD_PROXY_OBJECT
  5
5B
102
{ACAD_REACTORS
330
47
102
}
330
47
100
AcDbProxyObject
 90
      499
 91
      503
 93
      249
310
90D312F333222203D2031272D3022000000000000280FC000000000000284000
  0
ACAD_PROXY_OBJECT
  5
5C
102
{ACAD_REACTORS
330
47
102
}
330
47
100
AcDbProxyObject
 90
      499
 91
      503
 93
      249
310
90D312F313622203D2031272D30220000000000002C0FC000000000000284000
  0
ACAD_PROXY_OBJECT
  5
5D
102
{ACAD_REACTORS
330
47
102
}
330
47
100
AcDbProxyObject
 90
      499
 91
      503
 93
      249
310
90D332F333222203D2031272D30220000000000002E0FC000000000000284000
  0
ACAD_PROXY_OBJECT
  5
5E
102
{ACAD_REACTORS
330
47
102
}
330
47
100
AcDbProxyObject
 90
      499
 91
      503
 93
      241
310
90C312F3822203D2031272D3022000000000000300FC000000000000284000
  0
ACAD_PROXY_OBJECT
  5
5F
102
{ACAD_REACTORS
330
47
102
}
330
47
100
AcDbProxyObject
 90
      499
 91
      503
 93
      249
310
90D332F313622203D2031272D3022000000000000320FC000000000000284000
  0
ACAD_PROXY_OBJECT
  5
60
102
{ACAD_REACTORS
330
47
102
}
330
47
100
AcDbProxyObject
 90
      499
 91
      503
 93
      241
310
90C312F3422203D2031272D3022000000000000340FC000000000000284000
  0
ACAD_PROXY_OBJECT
  5
61
102
{ACAD_REACTORS
330
47
102
}
330
47
100
AcDbProxyObject
 90
      499
 91
      503
 93
      241
310
90C332F3822203D2031272D3022000000000000360FC000000000000284000
  0
ACAD_PROXY_OBJECT
  5
62
102
{ACAD_REACTORS
330
47
102
}
330
47
100
AcDbProxyObject
 90
      499
 91
      503
 93
      241
310
90C312F3222203D2031272D3022000000000000380FC000000000000284000
  0
ACAD_PROXY_OBJECT
  5
63
102
{ACAD_REACTORS
330
47
102
}
330
47
100
AcDbProxyObject
 90
      499
 91
      503
 93
      241
310
90C332F3422203D2031272D30220000000000003A0FC000000000000284000
  0
ACAD_PROXY_OBJECT
  5
64
102
{ACAD_REACTORS
330
47
102
}
330
47
100
AcDbProxyObject
 90
      499
 91
      503
 93
      161
310
90A3122203D2031272D30224000000000000284000
  0
ACAD_PROXY_OBJECT
  5
65
102
{ACAD_REACTORS
330
47
102
}
330
47
100
AcDbProxyObject
 90
      499
 91
      503
 93
      257
310
90E312D312F3222203D2031272D30220000000000003E0FC000000000000284000
  0
ACAD_PROXY_OBJECT
  5
66
102
{ACAD_REACTORS
330
47
102
}
330
47
100
AcDbProxyObject
 90
      499
 91
      503
 93
      225
310
90A3322203D2031272D302200000000000002100000000000000284000
  0
ACAD_PROXY_OBJECT
  5
67
102
{ACAD_REACTORS
330
47
102
}
330
47
100
AcDbProxyObject
 90
      499
 91
      503
 93
      225
310
90A3622203D2031272D302200000000000006100000000000000284000
  0
ACAD_PROXY_OBJECT
  5
68
102
{ACAD_REACTORS
330
47
102
}
330
47
100
AcDbProxyObject
 90
      499
 91
      503
 93
      249
310
90D31272D3022203D2031272D30220000000000000A100000000000000284000
  0
ACAD_PROXY_OBJECT
  5
2F
102
{ACAD_REACTORS
330
2A
102
}
330
2A
100
AcDbProxyObject
 90
      499
 91
      501
 93
      436
310
42CC9915DA5C99599C985B595049028333333333333E33F0000000000000F90107901411070040501600405405064090741402480A0340
1001
ACAD
1000
AcDbSavedByObjectVersion
1070
     0
  0
ACAD_PROXY_OBJECT
  5
32
102
{ACAD_REACTORS
330
2A
102
}
330
2A
100
AcDbProxyObject
 90
      499
 91
      501
 93
      388
310
4150985CDA58D07406404333333333333E33F0000000000000F90107A41107004050150841D405064090741402480A0350
1001
ACAD
1000
AcDbSavedByObjectVersion
1070
     0
  0
ACAD_PROXY_OBJECT
  5
36
102
{ACAD_REACTORS
330
2A
102
}
330
2A
100
AcDbProxyObject
 90
      499
 91
      501
 93
      428
310
42109C9A59DA1D195B90C409028333333333333E33F0000000000000F9010790141107004050150841D405064090741402480A029950
1001
ACAD
1000
AcDbSavedByObjectVersion
1070
     0
  0
ACAD_PROXY_OBJECT
  5
3A
102
{ACAD_REACTORS
330
2A
102
}
330
2A
100
AcDbProxyObject
 90
      499
 91
      501
 93
      452
310
42D0DBDB1BDC90DA185B99D95104090240C333333333333E33F0000000000000F90108901411070040501508421405064090741402480A0350
1001
ACAD
1000
AcDbSavedByObjectVersion
1070
     0
  0
ACAD_PROXY_OBJECT
  5
34
102
{ACAD_REACTORS
330
2A
102
}
330
2A
100
AcDbProxyObject
 90
      499
 91
      501
 93
      500
310
4290DBDB98D95C1D1D585B10940D028333333333333E33F0000000000000F90107902409070040501000000000018199010841D405064090740C02480A0340
1001
ACAD
1000
AcDbSavedByObjectVersion
1070
     0
  0
ACAD_PROXY_OBJECT
  5
35
102
{ACAD_REACTORS
330
2A
102
}
330
2A
100
AcDbProxyObject
 90
      499
 91
      501
 93
      412
310
40D11A5B50B409028333333333333E33F0000000000000F9010790141107004050150841D405064090741402480A02677FFFFFD0
1001
ACAD
1000
AcDbSavedByObjectVersion
1070
     0
  0
ACAD_PROXY_OBJECT
  5
3D
102
{ACAD_REACTORS
330
2A
102
}
330
2A
100
AcDbProxyObject
 90
      499
 91
      501
 93
      452
310
43115919D950DBDB1BDC93D999916409028333333333333E33F0000000000000F9010790141107004050150841D405064090741402480A0350
1001
ACAD
1000
AcDbSavedByObjectVersion
1070
     0
  0
ACAD_PROXY_OBJECT
  5
39
102
{ACAD_REACTORS
330
2A
102
}
330
2A
100
AcDbProxyObject
 90
      499
 91
      501
 93
      444
310
42D19858D95C185D1D195C9B90F409028333333333333E33F0000000000000F9010790141107004050150841D405064090741402480A0350
1001
ACAD
1000
AcDbSavedByObjectVersion
1070
     0
  0
ACAD_PROXY_OBJECT
  5
2B
102
{ACAD_REACTORS
330
2A
102
}
330
2A
100
AcDbProxyObject
 90
      499
 91
      501
 93
      380
310
41119B185D240901404333333333333E33F0000000000000F9010740A907004050150841D405064090741402480A1B50
1001
ACAD
1000
AcDbSavedByObjectVersion
1070
     0
  0
ACAD_PROXY_OBJECT
  5
2C
102
{ACAD_REACTORS
330
2A
102
}
330
2A
100
AcDbProxyObject
 90
      499
 91
      501
 93
      468
310
43519B185D15DA5D1A115919D95CD0140901404333333333333E33F0000000000000F90107409019070040501600405405064090741402480A1B50
1001
ACAD
1000
AcDbSavedByObjectVersion
1070
     0
  0
ACAD_PROXY_OBJECT
  5
2D
102
{ACAD_REACTORS
330
2A
102
}
330
2A
100
AcDbProxyObject
 90
      499
 91
      501
 93
      404
310
41D1DBDD5C985D5910240902404333333333333E33F0000000000000F9010740A9070040501641D405064090741402480A1B50
1001
ACAD
1000
AcDbSavedByObjectVersion
1070
     0
  0
ACAD_PROXY_OBJECT
  5
2E
102
{ACAD_REACTORS
330
2A
102
}
330
2A
100
AcDbProxyObject
 90
      499
 91
      501
 93
      492
310
4411DBDD5C985D5915DA5D1A115919D95CD0340902404333333333333E33F0000000000000F90107409019070040501600405405064090741402480A1B50
1001
ACAD
1000
AcDbSavedByObjectVersion
1070
     0
  0
ACAD_PROXY_OBJECT
  5
31
102
{ACAD_REACTORS
330
2A
102
}
330
2A
100
AcDbProxyObject
 90
      499
 91
      501
 93
      476
310
41921A5919195B90640502408333333333333E33F0000000000000F901079024090700405020000000000001110200405405064090740C02480A0340
1001
ACAD
1000
AcDbSavedByObjectVersion
1070
     0
  0
ACAD_PROXY_OBJECT
  5
3B
102
{ACAD_REACTORS
330
2A
102
}
330
2A
100
AcDbProxyObject
 90
      499
 91
      501
 93
      428
310
42529A5D1D195C93D999914409028333333333333E33F0000000000000F9010790141107004050150A41D405064090741402480A0350
1001
ACAD
1000
AcDbSavedByObjectVersion
1070
     0
  0
ACAD_PROXY_OBJECT
  5
38
102
{ACAD_REACTORS
330
2A
102
}
330
2A
100
AcDbProxyObject
 90
      499
 91
      501
 93
      444
310
42D31A5B995C185D1D195C9B90E409028333333333333E33F0000000000000F9010790141107004050750841D405064090741402483A0350
1001
ACAD
1000
AcDbSavedByObjectVersion
1070
     0
  0
ACAD_PROXY_OBJECT
  5
3C
102
{ACAD_REACTORS
330
2A
102
}
330
2A
100
AcDbProxyObject
 90
      499
 91
      501
 93
      444
310
42D3DD995C9A185B99D3D999915409028333333333333E33F0000000000000F9010790141107004050150941D405064090741402480A0350
1001
ACAD
1000
AcDbSavedByObjectVersion
1070
     0
  0
ACAD_PROXY_OBJECT
  5
33
102
{ACAD_REACTORS
330
2A
102
}
330
2A
100
AcDbProxyObject
 90
      499
 91
      501
 93
      428
310
425499585B1A5CDD1A58D08409038333333333333E33F0000000000000F9010740A907004050150800405405064090740C02480A1B40
1001
ACAD
1000
AcDbSavedByObjectVersion
1070
     0
  0
ACAD_PROXY_OBJECT
  5
42
102
{ACAD_REACTORS
330
2A
102
}
330
2A
100
AcDbProxyObject
 90
      499
 91
      501
 93
      420
310
4194DA1859195911B40902404333333333333E33F0000000000000F9010740A41107004050150800405405064090840C02480A0B40
1001
ACAD
1000
AcDbSavedByObjectVersion
1070
     0
  0
ACAD_PROXY_OBJECT
  5
41
102
{ACAD_REACTORS
330
2A
102
}
330
2A
100
AcDbProxyObject
 90
      499
 91
      501
 93
      516
310
4454DA18591959081DDA5D1A08195919D95CD1A40902404333333333333E33F0000000000000F901074090142907004050250800405405064090740C02480A0B40
1001
ACAD
1000
AcDbSavedByObjectVersion
1070
     0
  0
ACAD_PROXY_OBJECT
  5
3E
102
{ACAD_REACTORS
330
2A
102
}
330
2A
100
AcDbProxyObject
 90
      499
 91
      501
 93
      532
310
4394DA1859195CC81BD98811DC985E5174090240C333333333333E33F0000000000000F901079024090741D01000000000000111010841D405064090740C02480A0340
1001
ACAD
1000
AcDbSavedByObjectVersion
1070
     0
  0
ACAD_PROXY_OBJECT
  5
3F
102
{ACAD_REACTORS
330
2A
102
}
330
2A
100
AcDbProxyObject
 90
      499
 91
      501
 93
      476
310
41D4DAD95D18DA1E51840502408333333333333E33F0000000000000F901079024090741D01000000000000111010B41D405064090741802480A0340
1001
ACAD
1000
AcDbSavedByObjectVersion
1070
     0
  0
ACAD_PROXY_OBJECT
  5
37
102
{ACAD_REACTORS
330
2A
102
}
330
2A
100
AcDbProxyObject
 90
      499
 91
      501
 93
      412
310
41D51A1A58DAD95B90D409028333333333333E33F0000000000000F9010790141107004050150C41D405064090741402480A0350
1001
ACAD
1000
AcDbSavedByObjectVersion
1070
     0
  0
ACAD_PROXY_OBJECT
  5
30
102
{ACAD_REACTORS
330
2A
102
}
330
2A
100
AcDbProxyObject
 90
      499
 91
      501
 93
      420
310
4255DA5C99599C985B595059028333333333333E33F0000000000000F90107901411070040501600405405064090740C02480A0340
1001
ACAD
1000
AcDbSavedByObjectVersion
1070
     0
  0
ACAD_PROXY_OBJECT
  5
40
102
{ACAD_REACTORS
330
2A
102
}
330
2A
100
AcDbProxyObject
 90
      499
 91
      501
 93
      404
310
41560B54985E51940902404000000000000E03F0000000000000F9010740501907004050150841D405064090740C02480A1B40
1001
ACAD
1000
AcDbSavedByObjectVersion
1070
     0
  0
XRECORD
  5
200
102
{ACAD_REACTORS
330
1F6
102
}
330
1F6
100
AcDbXrecord
340
0
  0
XRECORD
  5
1FF
102
{ACAD_REACTORS
330
1F6
102
}
330
1F6
100
AcDbXrecord
 90
        0
  0
XRECORD
  5
216
102
{ACAD_REACTORS
330
1F6
102
}
330
1F6
100
AcDbXrecord
1000
DSTYLE
1002
{
1070
   179
 70
     2
1070
   171
 70
     2
1070
   143
 40
25.4
1070
   274
 70
     2
1070
    41
 40
3.0
1070
   141
 40
0.09
1070
    43
 40
0.38
1070
   278
 70
    46
1070
    44
 40
1.5
1070
    42
 40
0.0625
1070
   147
 40
1.5
1070
   272
 70
     4
1070
    73
 70
     1
1070
   172
 70
     0
1070
    74
 70
     1
1070
   283
 70
     1
1070
   340
340
6E
1070
   140
 40
3.0
1070
   284
 70
     0
1070
    78
 70
     0
1002
}
  0
XRECORD
  5
201
102
{ACAD_REACTORS
330
1F6
102
}
330
1F6
100
AcDbXrecord
  1
{CD7490AA-2FEA-4727-9B42-14BED04A4A3D}
  0
XRECORD
  5
1F9
102
{ACAD_REACTORS
330
1F6
102
}
330
1F6
100
AcDbXrecord
  1

  0
XRECORD
  5
1FE
102
{ACAD_REACTORS
330
1F6
102
}
330
1F6
100
AcDbXrecord
 90
        4
  0
XRECORD
  5
1FB
102
{ACAD_REACTORS
330
1F6
102
}
330
1F6
100
AcDbXrecord
340
1A
  0
XRECORD
  5
1FD
102
{ACAD_REACTORS
330
1F6
102
}
330
1F6
100
AcDbXrecord
 90
    10269
  0
XRECORD
  5
1FC
102
{ACAD_REACTORS
330
1F6
102
}
330
1F6
100
AcDbXrecord
340
19
  0
XRECORD
  5
203
102
{ACAD_REACTORS
330
1F6
102
}
330
1F6
100
AcDbXrecord
 40
0.0
  0
XRECORD
  5
206
102
{ACAD_REACTORS
330
1F6
102
}
330
1F6
100
AcDbXrecord
340
0
  0
XRECORD
  5
20C
102
{ACAD_REACTORS
330
1F6
102
}
330
1F6
100
AcDbXrecord
 10
0.0
 20
0.0
 30
0.0
  0
XRECORD
  5
208
102
{ACAD_REACTORS
330
1F6
102
}
330
1F6
100
AcDbXrecord
 10
0.0
 20
0.0
 30
0.0
  0
XRECORD
  5
20B
102
{ACAD_REACTORS
330
1F6
102
}
330
1F6
100
AcDbXrecord
 10
0.0
 20
0.0
 30
0.0
  0
XRECORD
  5
209
102
{ACAD_REACTORS
330
1F6
102
}
330
1F6
100
AcDbXrecord
 10
0.0
 20
0.0
 30
0.0
  0
XRECORD
  5
20A
102
{ACAD_REACTORS
330
1F6
102
}
330
1F6
100
AcDbXrecord
 10
0.0
 20
0.0
 30
0.0
  0
XRECORD
  5
207
102
{ACAD_REACTORS
330
1F6
102
}
330
1F6
100
AcDbXrecord
 10
0.0
 20
0.0
 30
0.0
  0
XRECORD
  5
204
102
{ACAD_REACTORS
330
1F6
102
}
330
1F6
100
AcDbXrecord
340
0
  0
XRECORD
  5
205
102
{ACAD_REACTORS
330
1F6
102
}
330
1F6
100
AcDbXrecord
 70
     0
  0
XRECORD
  5
1FA
102
{ACAD_REACTORS
330
1F6
102
}
330
1F6
100
AcDbXrecord
  1

  0
XRECORD
  5
1F7
102
{ACAD_REACTORS
330
1F6
102
}
330
1F6
100
AcDbXrecord
 90
        1
  0
XRECORD
  5
1F8
102
{ACAD_REACTORS
330
1F6
102
}
330
1F6
100
AcDbXrecord
 90
       70
  0
XRECORD
  5
20F
102
{ACAD_REACTORS
330
1F6
102
}
330
1F6
100
AcDbXrecord
340
0
  0
XRECORD
  5
215
102
{ACAD_REACTORS
330
1F6
102
}
330
1F6
100
AcDbXrecord
 10
0.0
 20
0.0
 30
0.0
  0
XRECORD
  5
211
102
{ACAD_REACTORS
330
1F6
102
}
330
1F6
100
AcDbXrecord
 10
0.0
 20
0.0
 30
0.0
  0
XRECORD
  5
214
102
{ACAD_REACTORS
330
1F6
102
}
330
1F6
100
AcDbXrecord
 10
0.0
 20
0.0
 30
0.0
  0
XRECORD
  5
212
102
{ACAD_REACTORS
330
1F6
102
}
330
1F6
100
AcDbXrecord
 10
0.0
 20
0.0
 30
0.0
  0
XRECORD
  5
213
102
{ACAD_REACTORS
330
1F6
102
}
330
1F6
100
AcDbXrecord
 10
0.0
 20
0.0
 30
0.0
  0
XRECORD
  5
210
102
{ACAD_REACTORS
330
1F6
102
}
330
1F6
100
AcDbXrecord
 10
0.0
 20
0.0
 30
0.0
  0
XRECORD
  5
20D
102
{ACAD_REACTORS
330
1F6
102
}
330
1F6
100
AcDbXrecord
340
0
  0
XRECORD
  5
20E
102
{ACAD_REACTORS
330
1F6
102
}
330
1F6
100
AcDbXrecord
 70
     0
  0
XRECORD
  5
202
102
{ACAD_REACTORS
330
1F6
102
}
330
1F6
100
AcDbXrecord
  1
{FAEB1C32-E019-11D5-929B-00C0DF256EC4}
  0
DICTIONARYVAR
  5
220
102
{ACAD_REACTORS
330
217
102
}
330
217
100
DictionaryVariables
280
     0
  1
1:1
  0
DICTIONARYVAR
  5
219
102
{ACAD_REACTORS
330
217
102
}
330
217
100
DictionaryVariables
280
     0
  1
Standard
  0
DICTIONARYVAR
  5
218
102
{ACAD_REACTORS
330
217
102
}
330
217
100
DictionaryVariables
280
     0
  1
Standard
  0
DICTIONARYVAR
  5
21C
102
{ACAD_REACTORS
330
217
102
}
330
217
100
DictionaryVariables
280
     0
  1
2
  0
DICTIONARYVAR
  5
21D
102
{ACAD_REACTORS
330
217
102
}
330
217
100
DictionaryVariables
280
     0
  1
1
  0
DICTIONARYVAR
  5
221
102
{ACAD_REACTORS
330
217
102
}
330
217
100
DictionaryVariables
280
     0
  1
1
  0
DICTIONARY
  5
224
330
45
100
AcDbDictionary
280
     1
  3
ACAD_XREC_ROUNDTRIP
360
225
  0
DICTIONARY
  5
222
330
44
100
AcDbDictionary
280
     1
  3
ACAD_XREC_ROUNDTRIP
360
223
  0
DICTIONARY
  5
226
330
46
100
AcDbDictionary
280
     1
  3
ACAD_XREC_ROUNDTRIP
360
227
  0
XRECORD
  5
225
102
{ACAD_REACTORS
330
224
102
}
330
224
100
AcDbXrecord
102
MATERIAL
148
0.0
149
0.0
149
0.0
 93
        0
 94
      127
282
     0
 72
     1
 77
     1
171
     1
175
     1
179
     1
273
     0
  0
XRECORD
  5
223
102
{ACAD_REACTORS
330
222
102
}
330
222
100
AcDbXrecord
102
MATERIAL
148
0.0
149
0.0
149
0.0
 93
        0
 94
      127
282
     0
 72
     1
 77
     1
171
     1
175
     1
179
     1
273
     0
  0
XRECORD
  5
227
102
{ACAD_REACTORS
330
226
102
}
330
226
100
AcDbXrecord
102
MATERIAL
148
0.0
149
0.0
149
0.0
 93
        0
 94
      127
282
     0
 72
     1
 77
     1
171
     1
175
     1
179
     1
273
     0
  0
ENDSEC
  0
EOF
