  0
SECTION
  2
HEADER
  9
$ACADVER
  1
AC1014
  9
$ACADMAINTVER
 70
     9
  9
$DWGCODEPAGE
  3
ANSI_932
  9
$INSBASE
 10
0.0
 20
0.0
 30
0.0
  9
$EXTMIN
 10
438.9972544629711
 20
139.7789093319452
 30
0.0
  9
$EXTMAX
 10
841.0024375128719
 20
243.5038045996674
 30
0.0
  9
$LIMMIN
 10
0.0
 20
0.0
  9
$LIMMAX
 10
12.0
 20
9.0
  9
$ORTHOMODE
 70
     0
  9
$REGENMODE
 70
     1
  9
$FILLMODE
 70
     1
  9
$QTEXTMODE
 70
     0
  9
$MIRRTEXT
 70
     1
  9
$DRAGMODE
 70
     2
  9
$LTSCALE
 40
1.0
  9
$OSMODE
 70
    37
  9
$ATTMODE
 70
     1
  9
$TEXTSIZE
 40
0.2
  9
$TRACEWID
 40
0.05
  9
$TEXTSTYLE
  7
STANDARD
  9
$CLAYER
  8
0
  9
$CELTYPE
  6
BYLAYER
  9
$CECOLOR
 62
   256
  9
$CELTSCALE
 40
1.0
  9
$DELOBJ
 70
     1
  9
$DISPSILH
 70
     0
  9
$DIMSCALE
 40
1.0
  9
$DIMASZ
 40
3.0
  9
$DIMEXO
 40
0.0625
  9
$DIMDLI
 40
0.38
  9
$DIMRND
 40
0.0
  9
$DIMDLE
 40
0.0
  9
$DIMEXE
 40
1.5
  9
$DIMTP
 40
0.0
  9
$DIMTM
 40
0.0
  9
$DIMTXT
 40
3.0
  9
$DIMCEN
 40
0.09
  9
$DIMTSZ
 40
0.0
  9
$DIMTOL
 70
     0
  9
$DIMLIM
 70
     0
  9
$DIMTIH
 70
     1
  9
$DIMTOH
 70
     1
  9
$DIMSE1
 70
     0
  9
$DIMSE2
 70
     0
  9
$DIMTAD
 70
     1
  9
$DIMZIN
 70
     0
  9
$DIMBLK
  1

  9
$DIMASO
 70
     1
  9
$DIMSHO
 70
     1
  9
$DIMPOST
  1

  9
$DIMAPOST
  1

  9
$DIMALT
 70
     0
  9
$DIMALTD
 70
     2
  9
$DIMALTF
 40
25.4
  9
$DIMLFAC
 40
1.0
  9
$DIMTOFL
 70
     0
  9
$DIMTVP
 40
0.0
  9
$DIMTIX
 70
     0
  9
$DIMSOXD
 70
     0
  9
$DIMSAH
 70
     0
  9
$DIMBLK1
  1

  9
$DIMBLK2
  1

  9
$DIMSTYLE
  2
STANDARD
  9
$DIMCLRD
 70
     0
  9
$DIMCLRE
 70
     0
  9
$DIMCLRT
 70
     0
  9
$DIMTFAC
 40
1.0
  9
$DIMGAP
 40
1.5
  9
$DIMJUST
 70
     0
  9
$DIMSD1
 70
     0
  9
$DIMSD2
 70
     0
  9
$DIMTOLJ
 70
     1
  9
$DIMTZIN
 70
     0
  9
$DIMALTZ
 70
     0
  9
$DIMALTTZ
 70
     0
  9
$DIMFIT
 70
     3
  9
$DIMUPT
 70
     0
  9
$DIMUNIT
 70
     2
  9
$DIMDEC
 70
     2
  9
$DIMTDEC
 70
     4
  9
$DIMALTU
 70
     2
  9
$DIMALTTD
 70
     2
  9
$DIMTXSTY
  7
ＭＳ_ゴシック
  9
$DIMAUNIT
 70
     0
  9
$LUNITS
 70
     2
  9
$LUPREC
 70
     4
  9
$SKETCHINC
 40
0.1
  9
$FILLETRAD
 40
0.5
  9
$AUNITS
 70
     0
  9
$AUPREC
 70
     0
  9
$MENU
  1
.
  9
$ELEVATION
 40
0.0
  9
$PELEVATION
 40
0.0
  9
$THICKNESS
 40
0.0
  9
$LIMCHECK
 70
     0
  9
$CHAMFERA
 40
0.0
  9
$CHAMFERB
 40
0.0
  9
$CHAMFERC
 40
0.0
  9
$CHAMFERD
 40
0.0
  9
$SKPOLY
 70
     0
  9
$TDCREATE
 40
2459548.62173941
  9
$TDUPDATE
 40
2459548.621739722
  9
$TDINDWG
 40
0.0000000116
  9
$TDUSRTIMER
 40
0.0000000116
  9
$USRTIMER
 70
     1
  9
$ANGBASE
 50
0.0
  9
$ANGDIR
 70
     0
  9
$PDMODE
 70
     0
  9
$PDSIZE
 40
0.0
  9
$PLINEWID
 40
0.0
  9
$COORDS
 70
     1
  9
$SPLFRAME
 70
     0
  9
$SPLINETYPE
 70
     6
  9
$SPLINESEGS
 70
     8
  9
$ATTDIA
 70
     0
  9
$ATTREQ
 70
     1
  9
$HANDLING
 70
     1
  9
$HANDSEED
  5
228
  9
$SURFTAB1
 70
     6
  9
$SURFTAB2
 70
     6
  9
$SURFTYPE
 70
     6
  9
$SURFU
 70
     6
  9
$SURFV
 70
     6
  9
$UCSNAME
  2

  9
$UCSORG
 10
0.0
 20
0.0
 30
0.0
  9
$UCSXDIR
 10
1.0
 20
0.0
 30
0.0
  9
$UCSYDIR
 10
0.0
 20
1.0
 30
0.0
  9
$PUCSNAME
  2

  9
$PUCSORG
 10
0.0
 20
0.0
 30
0.0
  9
$PUCSXDIR
 10
1.0
 20
0.0
 30
0.0
  9
$PUCSYDIR
 10
0.0
 20
1.0
 30
0.0
  9
$USERI1
 70
     0
  9
$USERI2
 70
     0
  9
$USERI3
 70
     0
  9
$USERI4
 70
     0
  9
$USERI5
 70
     0
  9
$USERR1
 40
0.0
  9
$USERR2
 40
0.0
  9
$USERR3
 40
0.0
  9
$USERR4
 40
0.0
  9
$USERR5
 40
0.0
  9
$WORLDVIEW
 70
     1
  9
$SHADEDGE
 70
     3
  9
$SHADEDIF
 70
    70
  9
$TILEMODE
 70
     1
  9
$MAXACTVP
 70
    64
  9
$PINSBASE
 10
0.0
 20
0.0
 30
0.0
  9
$PLIMCHECK
 70
     0
  9
$PEXTMIN
 10
1.000000000000000E+20
 20
1.000000000000000E+20
 30
1.000000000000000E+20
  9
$PEXTMAX
 10
-1.000000000000000E+20
 20
-1.000000000000000E+20
 30
-1.000000000000000E+20
  9
$PLIMMIN
 10
0.0
 20
0.0
  9
$PLIMMAX
 10
12.0
 20
9.0
  9
$UNITMODE
 70
     0
  9
$VISRETAIN
 70
     1
  9
$PLINEGEN
 70
     0
  9
$PSLTSCALE
 70
     1
  9
$TREEDEPTH
 70
  3020
  9
$PICKSTYLE
 70
     1
  9
$CMLSTYLE
  2
STANDARD
  9
$CMLJUST
 70
     0
  9
$CMLSCALE
 40
1.0
  9
$PROXYGRAPHICS
 70
     1
  9
$MEASUREMENT
 70
     1
  0
ENDSEC
  0
SECTION
  2
CLASSES
  0
CLASS
  1
ACDBDICTIONARYWDFLT
  2
AcDbDictionaryWithDefault
  3
ObjectDBX Classes
 90
        0
280
     0
281
     0
  0
CLASS
  1
VISUALSTYLE
  2
AcDbVisualStyle
  3
ObjectDBX Classes
 90
     4095
280
     0
281
     0
  0
CLASS
  1
MATERIAL
  2
AcDbMaterial
  3
ObjectDBX Classes
 90
     1153
280
     0
281
     0
  0
CLASS
  1
SCALE
  2
AcDbScale
  3
ObjectDBX Classes
 90
     1153
280
     0
281
     0
  0
CLASS
  1
TABLESTYLE
  2
AcDbTableStyle
  3
ObjectDBX Classes
 90
     4095
280
     0
281
     0
  0
CLASS
  1
MLEADERSTYLE
  2
AcDbMLeaderStyle
  3
ACDB_MLEADERSTYLE_CLASS
 90
     4095
280
     0
281
     0
  0
CLASS
  1
SUN
  2
AcDbSun
  3
SCENEOE
 90
     1153
280
     0
281
     0
  0
CLASS
  1
DICTIONARYVAR
  2
AcDbDictionaryVar
  3
ObjectDBX Classes
 90
        0
280
     0
281
     0
  0
CLASS
  1
XRECORD
  2
AcDbXrecord
  3
ObjectDBX Classes
 90
        0
280
     0
281
     0
  0
CLASS
  1
LWPOLYLINE
  2
AcDbPolyline
  3
ObjectDBX Classes
 90
        0
280
     0
281
     1
  0
CLASS
  1
HATCH
  2
AcDbHatch
  3
ObjectDBX Classes
 90
        0
280
     0
281
     1
  0
CLASS
  1
ACDBPLACEHOLDER
  2
AcDbPlaceHolder
  3
ObjectDBX Classes
 90
        0
280
     0
281
     0
  0
CLASS
  1
LAYOUT
  2
AcDbLayout
  3
ObjectDBX Classes
 90
        0
280
     0
281
     0
  0
ENDSEC
  0
SECTION
  2
TABLES
  0
TABLE
  2
VPORT
  5
8
102
{ACAD_XDICTIONARY
360
21D
102
}
330
0
100
AcDbSymbolTable
 70
     1
  0
VPORT
  5
29
330
8
100
AcDbSymbolTableRecord
100
AcDbViewportTableRecord
  2
*ACTIVE
 70
     0
 10
0.0
 20
0.0
 11
1.0
 21
1.0
 12
639.9998459879215
 22
191.6413569658063
 13
0.0
 23
0.0
 14
0.5
 24
0.5
 15
0.5
 25
0.5
 16
0.0
 26
0.0
 36
1.0
 17
0.0
 27
0.0
 37
0.0
 40
103.7248952677222
 41
1.6
 42
50.0
 43
0.0
 44
0.0
 50
0.0
 51
0.0
 71
     0
 72
   100
 73
     1
 74
     3
 75
     0
 76
     0
 77
     0
 78
     0
  0
ENDTAB
  0
TABLE
  2
LTYPE
  5
5
330
0
100
AcDbSymbolTable
 70
     2
  0
LTYPE
  5
14
330
5
100
AcDbSymbolTableRecord
100
AcDbLinetypeTableRecord
  2
BYBLOCK
 70
     0
  3

 72
    65
 73
     0
 40
0.0
  0
LTYPE
  5
15
330
5
100
AcDbSymbolTableRecord
100
AcDbLinetypeTableRecord
  2
BYLAYER
 70
     0
  3

 72
    65
 73
     0
 40
0.0
  0
LTYPE
  5
16
330
5
100
AcDbSymbolTableRecord
100
AcDbLinetypeTableRecord
  2
CONTINUOUS
 70
     0
  3
Solid line
 72
    65
 73
     0
 40
0.0
  0
LTYPE
  5
D0
330
5
100
AcDbSymbolTableRecord
100
AcDbLinetypeTableRecord
  2
CENTER
 70
     0
  3

 72
    65
 73
     0
 40
0.0
  0
ENDTAB
  0
TABLE
  2
LAYER
  5
2
330
0
100
AcDbSymbolTable
 70
     1
  0
LAYER
  5
10
330
2
100
AcDbSymbolTableRecord
100
AcDbLayerTableRecord
  2
0
 70
     0
 62
     7
  6
CONTINUOUS
  0
ENDTAB
  0
TABLE
  2
STYLE
  5
3
330
0
100
AcDbSymbolTable
 70
     2
  0
STYLE
  5
11
330
3
100
AcDbSymbolTableRecord
100
AcDbTextStyleTableRecord
  2
STANDARD
 70
     0
 40
0.0
 41
1.0
 50
0.0
 71
     0
 42
0.2
  3
txt
  4

  0
STYLE
  5
6E
330
3
100
AcDbSymbolTableRecord
100
AcDbTextStyleTableRecord
  2
ＭＳ_ゴシック
 70
     0
 40
0.0
 41
1.0
 50
0.0
 71
     0
 42
0.2
  3
ＭＳ ゴシック.shx
  4

  0
ENDTAB
  0
TABLE
  2
VIEW
  5
6
330
0
100
AcDbSymbolTable
 70
     0
  0
ENDTAB
  0
TABLE
  2
UCS
  5
7
330
0
100
AcDbSymbolTable
 70
     0
  0
ENDTAB
  0
TABLE
  2
APPID
  5
9
330
0
100
AcDbSymbolTable
 70
     2
  0
APPID
  5
12
330
9
100
AcDbSymbolTableRecord
100
AcDbRegAppTableRecord
  2
ACAD
 70
     0
  0
APPID
  5
227
330
9
100
AcDbSymbolTableRecord
100
AcDbRegAppTableRecord
  2
ACAD_MLEADERVER
 70
     0
  0
ENDTAB
  0
TABLE
  2
DIMSTYLE
  5
A
330
0
100
AcDbSymbolTable
 70
     1
  0
DIMSTYLE
105
27
330
A
100
AcDbSymbolTableRecord
100
AcDbDimStyleTableRecord
  2
STANDARD
 70
     0
  3

  4

  5

  6

  7

 40
1.0
 41
0.18
 42
0.0625
 43
0.38
 44
0.18
 45
0.0
 46
0.0
 47
0.0
 48
0.0
140
0.18
141
0.09
142
0.0
143
25.4
144
1.0
145
0.0
146
1.0
147
0.09
 71
     0
 72
     0
 73
     1
 74
     1
 75
     0
 76
     0
 77
     0
 78
     0
170
     0
171
     2
172
     0
173
     0
174
     0
175
     0
176
     0
177
     0
178
     0
270
     2
271
     4
272
     4
273
     2
274
     2
340
11
275
     0
280
     0
281
     0
282
     0
283
     1
284
     0
285
     0
286
     0
287
     3
288
     0
  0
ENDTAB
  0
TABLE
  2
BLOCK_RECORD
  5
1
330
0
100
AcDbSymbolTable
 70
     0
  0
BLOCK_RECORD
  5
1F
330
1
100
AcDbSymbolTableRecord
100
AcDbBlockTableRecord
  2
*MODEL_SPACE
  0
BLOCK_RECORD
  5
1B
330
1
100
AcDbSymbolTableRecord
100
AcDbBlockTableRecord
  2
*PAPER_SPACE
  0
ENDTAB
  0
ENDSEC
  0
SECTION
  2
BLOCKS
  0
BLOCK
  5
20
330
1F
100
AcDbEntity
  8
0
100
AcDbBlockBegin
  2
*MODEL_SPACE
 70
     0
 10
0.0
 20
0.0
 30
0.0
  3
*MODEL_SPACE
  1

  0
ENDBLK
  5
21
330
1F
100
AcDbEntity
  8
0
100
AcDbBlockEnd
  0
BLOCK
  5
1C
330
1B
100
AcDbEntity
 67
     1
  8
0
100
AcDbBlockBegin
  2
*PAPER_SPACE
 70
     0
 10
0.0
 20
0.0
 30
0.0
  3
*PAPER_SPACE
  1

  0
ENDBLK
  5
1D
330
1B
100
AcDbEntity
 67
     1
  8
0
100
AcDbBlockEnd
  0
ENDSEC
  0
SECTION
  2
ENTITIES
  0
LWPOLYLINE
  5
6F
330
1F
100
AcDbEntity
  8
0
  6
CONTINUOUS
 62
     7
100
AcDbPolyline
 90
      105
 70
     0
 43
0.0
 10
623.4481120671619
 20
240.193309183359
 10
623.4915719440684
 20
239.9476955835403
 10
623.5350318209747
 20
239.6816855399485
 10
623.5784916978812
 20
239.3954591061304
 10
623.6219515747875
 20
239.0891963356332
 10
623.665411451694
 20
238.763077282004
 10
623.7088713286005
 20
238.4172851219471
 10
623.7523312055068
 20
238.0520757012447
 10
623.7957910824133
 20
237.6677780025191
 10
623.8392509593198
 20
237.2647242251033
 10
623.8827108362261
 20
236.8432465683305
 10
623.9261707131327
 20
236.4036772315338
 10
623.969630590039
 20
235.946348414046
 10
624.0130904669454
 20
235.4715923152006
 10
624.0565503438518
 20
234.9797411343304
 10
624.1000102207581
 20
234.4711270707685
 10
624.1434700976646
 20
233.946082323859
 10
624.1869299745711
 20
233.4049604470221
 10
624.2303898514775
 20
232.848198370109
 10
624.2738497283839
 20
232.2762533692316
 10
624.3173096052902
 20
231.6895827205017
 10
624.3607694821967
 20
231.0886437000312
 10
624.4042293591033
 20
230.473893583932
 10
624.4476892360095
 20
229.8457896483159
 10
624.491149112916
 20
229.2047891692948
 10
624.5346089898223
 20
228.5513494229805
 10
624.5780688667288
 20
227.885927685485
 10
624.6215287436352
 20
227.2089832739867
 10
624.6649886205416
 20
226.5210185957936
 10
624.7084484974481
 20
225.8225771099216
 10
624.7519083743545
 20
225.1142039084692
 10
624.7953682512608
 20
224.3964440835345
 10
624.8388281281673
 20
223.6698427272159
 10
624.8822880050736
 20
222.9349449316116
 10
624.9257478819802
 20
222.1922957888202
 10
624.9692077588866
 20
221.4424403909397
 10
625.012667635793
 20
220.6859238300687
 10
625.0561275126994
 20
219.9232911984834
 10
625.0995873896059
 20
219.1550954708529
 10
625.1430472665123
 20
218.3819185186992
 10
625.1865071434188
 20
217.6043488336967
 10
625.2299670203251
 20
216.8229749075196
 10
625.2734268972316
 20
216.0383852318423
 10
625.3168867741381
 20
215.2511682983393
 10
625.3603466510444
 20
214.4619125986846
 10
625.4038065279509
 20
213.6712066245528
 10
625.4472664048571
 20
212.8796388676181
 10
625.4907262817637
 20
212.087797819555
 10
625.5341861586701
 20
211.296271852802
 10
625.5776460355767
 20
210.5056470472565
 10
625.6211059124829
 20
209.7165074154309
 10
625.6645657893894
 20
208.929436895784
 10
625.7080256662957
 20
208.1450194267745
 10
625.7514855432021
 20
207.3638389468613
 10
625.7949454201084
 20
206.5864793945033
 10
625.838405297015
 20
205.8135247081594
 10
625.8818651739214
 20
205.0455588262882
 10
625.925325050828
 20
204.2831656873489
 10
625.9687849277342
 20
203.5269292287054
 10
626.0122448046407
 20
202.7774233296552
 10
626.055704681547
 20
202.0351872405514
 10
626.0991645584535
 20
201.300752764861
 10
626.1426244353598
 20
200.574651706051
 10
626.1860843122663
 20
199.8574158675886
 10
626.2295441891729
 20
199.1495770529408
 10
626.2730040660791
 20
198.4516670655747
 10
626.3164639429856
 20
197.7642177089574
 10
626.3599238198922
 20
197.0877607865559
 10
626.4033836967984
 20
196.4228281018374
 10
626.4468435737048
 20
195.769948654311
 10
626.4903034506113
 20
195.1296021780282
 10
626.5337633275177
 20
194.5022263573217
 10
626.5772232044242
 20
193.8882575270703
 10
626.6206830813305
 20
193.2881320221527
 10
626.664142958237
 20
192.7022861774477
 10
626.7076028351435
 20
192.1311563278341
 10
626.7510627120497
 20
191.5751788081906
 10
626.7945225889563
 20
191.034789953396
 10
626.8379824658628
 20
190.5104260983292
 10
626.881442342769
 20
190.0025235699995
 10
626.9249022196756
 20
189.5114918882055
 10
626.968362096582
 20
189.037653863968
 10
627.0118219734885
 20
188.5813148091655
 10
627.0552818503946
 20
188.1427800356763
 10
627.0987417273011
 20
187.722354855379
 10
627.1422016042077
 20
187.3203445801519
 10
627.1856614811139
 20
186.9370545218733
 10
627.2291213580204
 20
186.5727899924219
 10
627.2725812349269
 20
186.227856303676
 10
627.3160411118332
 20
185.9025587675139
 10
627.3595009887397
 20
185.5971975819652
 10
627.4029608656463
 20
185.311990586299
 10
627.4464207425526
 20
185.047089093363
 10
627.489880619459
 20
184.8026425139316
 10
627.5333404963654
 20
184.5788002587793
 10
627.5768003732718
 20
184.3757117386805
 10
627.6202602501783
 20
184.1935263644097
 10
627.6637201270848
 20
184.0323935467413
 10
627.7071800039912
 20
183.8924626964499
 10
627.7506398808977
 20
183.7738832243098
 10
627.794099757804
 20
183.6768045191426
 10
627.8375596347106
 20
183.6013395606999
 10
627.8810195116168
 20
183.5474906410585
 10
627.9244793885234
 20
183.515239095267
 10
627.9679392654298
 20
183.5045662583735
  0
LWPOLYLINE
  5
70
330
1F
100
AcDbEntity
  8
0
  6
CONTINUOUS
 62
     7
100
AcDbPolyline
 90
      105
 70
     0
 43
0.0
 10
603.4482847173937
 20
240.1924037028209
 10
603.4917503278594
 20
239.9467616200534
 10
603.5352159383252
 20
239.6806904721939
 10
603.5786815487909
 20
239.39434956399
 10
603.6221471592567
 20
239.0878982001899
 10
603.6656127697223
 20
238.7615112375103
 10
603.7090783801882
 20
238.4154632977649
 10
603.7525439906539
 20
238.0500684015512
 10
603.7960096011195
 20
237.6656406660818
 10
603.8394752115853
 20
237.2624942085692
 10
603.882940822051
 20
236.8409431462258
 10
603.9264064325167
 20
236.4013015962639
 10
603.9698720429825
 20
235.9438836758961
 10
604.013337653448
 20
235.4690035023347
 10
604.0568032639139
 20
234.9769751927923
 10
604.1002688743796
 20
234.4681138412023
 10
604.1437344848454
 20
233.9427844044596
 10
604.187200095311
 20
233.4014244810444
 10
604.2306657057767
 20
232.8444774050342
 10
604.2741313162426
 20
232.2723865105065
 10
604.3175969267081
 20
231.6855951315387
 10
604.3610625371738
 20
231.0845466022082
 10
604.4045281476396
 20
230.4696842565925
 10
604.4479937581052
 20
229.841451428769
 10
604.491459368571
 20
229.2002914528153
 10
604.5349249790368
 20
228.5466476628087
 10
604.5783905895025
 20
227.8809735575768
 10
604.6218561999682
 20
227.2037831938119
 10
604.665321810434
 20
226.5156129624529
 10
604.7087874208996
 20
225.8169992897061
 10
604.7522530313654
 20
225.1084786017774
 10
604.7957186418312
 20
224.3905873248729
 10
604.839184252297
 20
223.6638618851987
 10
604.8826498627626
 20
222.928838708961
 10
604.9261154732284
 20
222.1860542223659
 10
604.9695810836943
 20
221.4360448516194
 10
605.01304669416
 20
220.679347476033
 10
605.0565123046256
 20
219.9165188120008
 10
605.0999779150914
 20
219.1481427100325
 10
605.143443525557
 20
218.3748049781858
 10
605.1869091360228
 20
217.5970914245187
 10
605.2303747464886
 20
216.8155878570888
 10
605.2738403569543
 20
216.0308800839541
 10
605.3173059674201
 20
215.2435539131725
 10
605.3607715778858
 20
214.4541951528019
 10
605.4042371883514
 20
213.6633896109001
 10
605.4477027988172
 20
212.8717230955249
 10
605.4911684092829
 20
212.0797816098516
 10
605.5346340197486
 20
211.2881522374666
 10
605.5780996302143
 20
210.4974224338178
 10
605.62156524068
 20
209.7081796546954
 10
605.6650308511458
 20
208.9210113558903
 10
605.7084964616116
 20
208.1365049931928
 10
605.7519620720773
 20
207.3552480223934
 10
605.7954276825432
 20
206.5778278992828
 10
605.8388932930088
 20
205.8048320796514
 10
605.8823589034746
 20
205.0368480192898
 10
605.9258245139404
 20
204.2744626651991
 10
605.969290124406
 20
203.518243669569
 10
606.0127557348717
 20
202.7687338966203
 10
606.0562213453376
 20
202.0264745814928
 10
606.0996869558031
 20
201.2920069593266
 10
606.1431525662689
 20
200.5658722652613
 10
606.1866181767346
 20
199.848611734437
 10
606.2300837872003
 20
199.1407666019936
 10
606.273549397666
 20
198.4428781030708
 10
606.3170150081316
 20
197.7554874728085
 10
606.3604806185974
 20
197.0791359463468
 10
606.4039462290632
 20
196.414353184266
 10
606.447411839529
 20
195.761609240792
 10
606.4908774499947
 20
195.1213550371689
 10
606.5343430604604
 20
194.4940414857567
 10
606.577808670926
 20
193.8801194989154
 10
606.6212742813918
 20
193.2800399890053
 10
606.6647398918575
 20
192.6942538683864
 10
606.7082055023233
 20
192.1232120494187
 10
606.7516711127892
 20
191.5673654444623
 10
606.7951367232547
 20
191.0271649658773
 10
606.8386023337205
 20
190.5030598653942
 10
606.8820679441862
 20
189.9954443664882
 10
606.9255335546519
 20
189.5046462793912
 10
606.9689991651176
 20
189.0309894514365
 10
607.0124647755835
 20
188.5747977299576
 10
607.0559303860491
 20
188.1363949622878
 10
607.0993959965148
 20
187.7161049957605
 10
607.1428616069805
 20
187.3142516777092
 10
607.1863272174462
 20
186.9311588554671
 10
607.2297928279121
 20
186.5671503763677
 10
607.2732584383778
 20
186.2225500877443
 10
607.3167240488435
 20
185.8976605994901
 10
607.3601896593092
 20
185.5926827563964
 10
607.4036552697748
 20
185.3077869578645
 10
607.4471208802405
 20
185.0431435977502
 10
607.4905864907064
 20
184.7989230699092
 10
607.534052101172
 20
184.5752957681974
 10
607.5775177116378
 20
184.3724320864704
 10
607.6209833221035
 20
184.1905024185841
 10
607.6644489325691
 20
184.0296771583942
 10
607.707914543035
 20
183.8901266997565
 10
607.7513801535007
 20
183.7720188640553
 10
607.7948457639665
 20
183.6754464162331
 10
607.8383113744322
 20
183.6004170063868
 10
607.8817769848979
 20
183.5469336904824
 10
607.9252425953637
 20
183.5149995244857
 10
607.9687082058297
 20
183.5046175643626
  0
LWPOLYLINE
  5
71
330
1F
100
AcDbEntity
  8
0
  6
CONTINUOUS
 62
     7
100
AcDbPolyline
 90
        4
 70
     0
 43
0.0
 10
619.3636618968262
 20
239.1757252448248
 10
619.2954566169575
 20
239.3310124741992
 10
619.2272612372386
 20
239.4371621558578
 10
619.1153266548242
 20
239.504031395818
  0
LWPOLYLINE
  5
72
330
1F
100
AcDbEntity
  8
0
  6
CONTINUOUS
 62
     7
100
AcDbPolyline
 90
        3
 70
     0
 43
0.0
 10
629.3124885574935
 20
239.296923855106
 10
629.24621890844
 20
239.4125831453081
 10
629.1153197281101
 20
239.5040313958388
  0
LWPOLYLINE
  5
73
330
1F
100
AcDbEntity
  8
0
  6
CONTINUOUS
 62
     7
100
AcDbPolyline
 90
        4
 70
     0
 43
0.0
 10
639.333328661105
 20
239.2510452365531
 10
639.2651895297257
 20
239.3843009972984
 10
639.1969669979592
 20
239.4683301575539
 10
639.1153105880086
 20
239.5040313957928
  0
LWPOLYLINE
  5
74
330
1F
100
AcDbEntity
  8
0
  6
CONTINUOUS
 62
     7
100
AcDbPolyline
 90
        3
 70
     0
 43
0.0
 10
739.3324152313176
 20
239.2530522065046
 10
739.2532868862651
 20
239.4024795746913
 10
739.1742429691017
 20
239.4855065223052
  0
LWPOLYLINE
  5
75
330
1F
100
AcDbEntity
  8
0
  6
CONTINUOUS
 62
     7
100
AcDbPolyline
 90
        4
 70
     0
 43
0.0
 10
609.3447170363117
 20
239.2237761733568
 10
609.2784256653766
 20
239.3622084490591
 10
609.212208339428
 20
239.4540002029017
 10
609.1153330012781
 20
239.5040313958334
  0
LWPOLYLINE
  5
76
330
1F
100
AcDbEntity
  8
0
  6
CONTINUOUS
 62
     7
100
AcDbPolyline
 90
      105
 70
     0
 43
0.0
 10
613.4478974592835
 20
240.1944694725456
 10
613.4913593253126
 20
239.9489915582215
 10
613.5348211913418
 20
239.6831041160511
 10
613.578283057371
 20
239.3969768454731
 10
613.6217449234
 20
239.0907794459262
 10
613.6652067894291
 20
238.7646817300036
 10
613.7086686554584
 20
238.4188934195707
 10
613.7521305214875
 20
238.0537227701981
 10
613.7955923875164
 20
237.6694929766829
 10
613.8390542535457
 20
237.2665272338221
 10
613.8825161195748
 20
236.8451487364126
 10
613.9259779856038
 20
236.4056806792514
 10
613.969439851633
 20
235.9484462571356
 10
614.0129017176621
 20
235.4737686648621
 10
614.0563635836911
 20
234.981971097228
 10
614.0998254497202
 20
234.4733767490303
 10
614.1432873157493
 20
233.9483153373009
 10
614.1867491817784
 20
233.4071901130067
 10
614.2302110478075
 20
232.8504507044888
 10
614.2736729138367
 20
232.2785474666229
 10
614.3171347798658
 20
231.6919307542847
 10
614.3605966458949
 20
231.0910509223501
 10
614.404058511924
 20
230.4763583256947
 10
614.4475203779532
 20
229.8483033191944
 10
614.4909822439822
 20
229.2073362577248
 10
614.5344441100113
 20
228.5539074961617
 10
614.5779059760404
 20
227.8884674866281
 10
614.6213678420696
 20
227.2114914536531
 10
614.6648297080986
 20
226.5235120877858
 10
614.7082915741278
 20
225.8250702071598
 10
614.7517534401569
 20
225.1167066299091
 10
614.7952153061859
 20
224.3989621741673
 10
614.8386771722152
 20
223.6723776580683
 10
614.8821390382443
 20
222.9374938997458
 10
614.9256009042733
 20
222.1948517173335
 10
614.9690627703026
 20
221.4449919289654
 10
615.0125246363316
 20
220.6884553527751
 10
615.0559865023607
 20
219.9257854268046
 10
615.0994483683897
 20
219.157552908093
 10
615.142910234419
 20
218.3843447950819
 10
615.186372100448
 20
217.6067483010135
 10
615.2298339664771
 20
216.8253506391298
 10
615.2732958325064
 20
216.040739022673
 10
615.3167576985354
 20
215.2535006648851
 10
615.3602195645645
 20
214.4642227790081
 10
615.4036814305936
 20
213.6734925782842
 10
615.4471432966227
 20
212.8818972759554
 10
615.490605162652
 20
212.0900240830795
 10
615.534067028681
 20
211.2984597922636
 10
615.5775288947101
 20
210.507790283524
 10
615.6209907607392
 20
209.7186013165917
 10
615.6644526267684
 20
208.9314786511974
 10
615.7079144927974
 20
208.1470080470721
 10
615.7513763588266
 20
207.3657752639468
 10
615.7948382248557
 20
206.5883660615524
 10
615.8383000908848
 20
205.8153661996198
 10
615.881761956914
 20
205.04736143788
 10
615.925223822943
 20
204.2849375360639
 10
615.9686856889721
 20
203.5286772052656
 10
616.0121475550012
 20
202.7791337024
 10
616.0556094210305
 20
202.0368437851207
 10
616.0990712870596
 20
201.3023440294661
 10
616.1425331530887
 20
200.5761710114748
 10
616.1859950191177
 20
199.8588613071854
 10
616.2294568851469
 20
199.1509514926364
 10
616.272918751176
 20
198.4529781438665
 10
616.3163806172051
 20
197.7654778369141
 10
616.3598424832343
 20
197.088987147818
 10
616.4033043492633
 20
196.4240424638867
 10
616.4467662152924
 20
195.7711521035274
 10
616.4902280813216
 20
195.1307668020086
 10
616.5336899473507
 20
194.5033302291906
 10
616.5771518133797
 20
193.8892860549338
 10
616.6206136794088
 20
193.2890779490987
 10
616.6640755454379
 20
192.7031495815454
 10
616.7075374114669
 20
192.1319446221344
 10
616.7509992774961
 20
191.575906740726
 10
616.7944611435253
 20
191.0354796071806
 10
616.8379230095544
 20
190.5111068913586
 10
616.8813848755836
 20
190.0032235067969
 10
616.9248467416126
 20
189.5121858572892
 10
616.9683086076418
 20
189.038308927557
 10
617.0117704736709
 20
188.5819073291853
 10
617.0552323397001
 20
188.1432956737586
 10
617.0986942057292
 20
187.722788572862
 10
617.1421560717582
 20
187.3207006380799
 10
617.1856179377875
 20
186.9373464809972
 10
617.2290798038165
 20
186.5730407131986
 10
617.2725416698457
 20
186.228097946269
 10
617.3160035358749
 20
185.9028323785606
 10
617.3594654019039
 20
185.5975092473662
 10
617.402927267933
 20
185.3122992546514
 10
617.4463891339622
 20
185.0473623178425
 10
617.4898509999913
 20
184.8028583543653
 10
617.5333128660202
 20
184.5789472816461
 10
617.5767747320496
 20
184.3757890171111
 10
617.6202365980785
 20
184.1935434781861
 10
617.6636984641077
 20
184.0323705822975
 10
617.7071603301367
 20
183.8924302468712
 10
617.750622196166
 20
183.7738823893336
 10
617.7940840621952
 20
183.6768745038145
 10
617.8375459282242
 20
183.6014505640956
 10
617.8810077942532
 20
183.5476031342249
 10
617.9244696602823
 20
183.5153244067215
 10
617.9679315263113
 20
183.5046065741043
  0
LWPOLYLINE
  5
77
330
1F
100
AcDbEntity
  8
0
  6
CONTINUOUS
 62
     7
100
AcDbPolyline
 90
      105
 70
     0
 43
0.0
 10
593.4484321253027
 20
240.1916655563625
 10
593.4918951005644
 20
239.9459992813172
 10
593.5353580758261
 20
239.6798821850743
 10
593.5788210510877
 20
239.3934630532281
 10
593.6222840263492
 20
239.0868943091624
 10
593.665747001611
 20
238.7604049816359
 10
593.7092099768726
 20
238.4142969745713
 10
593.7526729521342
 20
238.0488750830555
 10
593.7961359273959
 20
237.6644441021752
 10
593.8395989026575
 20
237.2613088270171
 10
593.8830618779192
 20
236.839774052668
 10
593.9265248531807
 20
236.4001445742148
 10
593.9699878284424
 20
235.9427251867442
 10
594.0134508037042
 20
235.4678206853431
 10
594.0569137789657
 20
234.9757358657121
 10
594.1003767542276
 20
234.4667994383263
 10
594.1438397294891
 20
233.9414274432866
 10
594.1873027047508
 20
233.4000558491788
 10
594.2307656800124
 20
232.8431206245886
 10
594.2742286552741
 20
232.2710577381018
 10
594.3176916305357
 20
231.6843031583042
 10
594.3611546057972
 20
231.0832928537815
 10
594.4046175810589
 20
230.4684627931196
 10
594.4480805563206
 20
229.8402489449042
 10
594.4915435315822
 20
229.199087277721
 10
594.535006506844
 20
228.5454162936419
 10
594.5784694821056
 20
227.879722772243
 10
594.6219324573672
 20
227.2025367961403
 10
594.6653954326289
 20
226.5143899828537
 10
594.7088584078905
 20
225.8158139499032
 10
594.7523213831521
 20
225.1073403148083
 10
594.7957843584138
 20
224.3895006950891
 10
594.8392473336755
 20
223.6628267082654
 10
594.8827103089371
 20
222.9278499718569
 10
594.9261732841986
 20
222.1851021033835
 10
594.9696362594603
 20
221.4351147216584
 10
595.0130992347221
 20
220.6784296215632
 10
595.0565622099836
 20
219.91562334225
 10
595.1000251852453
 20
219.1472798317279
 10
595.143488160507
 20
218.3739830380061
 10
595.1869511357686
 20
217.5963169090935
 10
595.2304141110302
 20
216.8148653929993
 10
595.2738770862917
 20
216.0302124377327
 10
595.3173400615535
 20
215.2429419913028
 10
595.3608030368152
 20
214.4536380017186
 10
595.4042660120768
 20
213.6628844169893
 10
595.4477289873385
 20
212.8712653272387
 10
595.4911919626002
 20
212.0793672826165
 10
595.5346549378618
 20
211.2877789135678
 10
595.5781179131235
 20
210.4970889160366
 10
595.6215808883851
 20
209.7078859859668
 10
595.6650438636467
 20
208.9207588193024
 10
595.7085068389083
 20
208.1362961119873
 10
595.7519698141699
 20
207.3550865599656
 10
595.7954327894315
 20
206.577718859181
 10
595.8388957646932
 20
205.8047817055776
 10
595.882358739955
 20
205.0368637920042
 10
595.9258217152167
 20
204.2745448632301
 10
595.9692846904783
 20
203.5183760865118
 10
596.0127476657399
 20
202.7689029362918
 10
596.0562106410015
 20
202.0266708870124
 10
596.0996736162631
 20
201.2922254131163
 10
596.1431365915248
 20
200.566111989046
 10
596.1865995667864
 20
199.8488760892438
 10
596.2300625420481
 20
199.1410631881525
 10
596.2735255173097
 20
198.4432187602143
 10
596.3169884925715
 20
197.7558882798719
 10
596.3604514678332
 20
197.0796142703783
 10
596.4039144430947
 20
196.4148926884324
 10
596.4473774183565
 20
195.7621823707815
 10
596.4908403936182
 20
195.1219411228011
 10
596.5343033688798
 20
194.4946267498668
 10
596.5777663441413
 20
193.8806970573541
 10
596.621229319403
 20
193.2806098506387
 10
596.6646922946645
 20
192.6948229350962
 10
596.7081552699264
 20
192.1237941161021
 10
596.751618245188
 20
191.5679811990321
 10
596.7950812204494
 20
191.0278419696643
 10
596.8385441957112
 20
190.5038067207446
 10
596.8820071709729
 20
189.99622357088
 10
596.9254701462345
 20
189.5054253524601
 10
596.9689331214961
 20
189.0317448978748
 10
597.0123960967577
 20
188.5755150395136
 10
597.0558590720195
 20
188.1370686097664
 10
597.0993220472811
 20
187.7167384410229
 10
597.1427850225426
 20
187.3148573656727
 10
597.1862479978042
 20
186.9317582161057
 10
597.2297109730661
 20
186.5677738247115
 10
597.2731739483277
 20
186.2232312912288
 10
597.3166369235893
 20
185.8983750047132
 10
597.3600998988509
 20
185.5933872162915
 10
597.4035628741126
 20
185.3084486647765
 10
597.4470258493741
 20
185.0437400889807
 10
597.4904888246358
 20
184.7994422277166
 10
597.5339517998975
 20
184.5757358197966
 10
597.5774147751591
 20
184.3728016040333
 10
597.6208777504207
 20
184.1908203192393
 10
597.6643407256826
 20
184.0299727042271
 10
597.707803700944
 20
183.8904394491381
 10
597.7512666762058
 20
183.7723623225256
 10
597.7947296514675
 20
183.6757741560313
 10
597.8381926267291
 20
183.6006888675272
 10
597.8816556019908
 20
183.5471203748858
 10
597.9251185772524
 20
183.5150825959791
 10
597.9685815525139
 20
183.5045894486794
  0
LWPOLYLINE
  5
78
330
1F
100
AcDbEntity
  8
0
  6
CONTINUOUS
 62
     7
100
AcDbPolyline
 90
        3
 70
     0
 43
0.0
 10
599.325737591415
 20
239.2681568940406
 10
599.2575800934667
 20
239.3961580959672
 10
599.174268686558
 20
239.4855065223044
  0
LWPOLYLINE
  5
79
330
1F
100
AcDbEntity
  8
0
  6
CONTINUOUS
 62
     7
100
AcDbPolyline
 90
      105
 70
     0
 43
0.0
 10
583.4484829868562
 20
240.1914731890113
 10
583.4919412793572
 20
239.9458247493521
 10
583.5353995718586
 20
239.6796980401985
 10
583.5788578643596
 20
239.3932314455706
 10
583.6223161568608
 20
239.0866068908715
 10
583.665774449362
 20
238.760105856501
 10
583.7092327418632
 20
238.4140236746463
 10
583.7526910343641
 20
238.0486556774944
 10
583.7961493268655
 20
237.6642971972325
 10
583.8396076193666
 20
237.2612435660476
 10
583.8830659118676
 20
236.839790116127
 10
583.9265242043688
 20
236.4002321796576
 10
583.96998249687
 20
235.9428650888268
 10
584.0134407893711
 20
235.4679841758215
 10
584.0568990818722
 20
234.9758924260317
 10
584.1003573743733
 20
234.4669714437042
 10
584.1438156668745
 20
233.9416490371956
 10
584.1872739593756
 20
233.4003536052278
 10
584.2307322518768
 20
232.8435135465222
 10
584.2741905443779
 20
232.2715572598005
 10
584.3176488368791
 20
231.6849131437842
 10
584.3611071293802
 20
231.0840095971951
 10
584.4045654218813
 20
230.4692750187547
 10
584.4480237143825
 20
229.8411378071846
 10
584.4914820068835
 20
229.2000265160945
 10
584.5349402993847
 20
228.5463981734553
 10
584.5783985918858
 20
227.8807713181521
 10
584.6218568843871
 20
227.2036725077006
 10
584.6653151768882
 20
226.5156282996166
 10
584.7087734693893
 20
225.8171652514158
 10
584.7522317618904
 20
225.1088099206138
 10
584.7956900543916
 20
224.3910888647266
 10
584.8391483468927
 20
223.6645286412696
 10
584.8826066393938
 20
222.9296558077587
 10
584.926064931895
 20
222.1869969217097
 10
584.9695232243962
 20
221.4370820019843
 10
585.0129815168973
 20
220.6804742182926
 10
585.0564398093983
 20
219.917755182287
 10
585.0998981018996
 20
219.149506704143
 10
585.1433563944007
 20
218.3763105940362
 10
585.1868146869018
 20
217.5987486621422
 10
585.2302729794028
 20
216.8174027186367
 10
585.273731271904
 20
216.0328545736952
 10
585.3171895644052
 20
215.2456860374934
 10
585.3606478569063
 20
214.4564789202067
 10
585.4041061494074
 20
213.6658150482984
 10
585.4475644419086
 20
212.8742786267646
 10
585.4910227344099
 20
212.0824587174441
 10
585.534481026911
 20
211.2909449748176
 10
585.577939319412
 20
210.5003270533658
 10
585.6213976119132
 20
209.7111946075695
 10
585.6648559044144
 20
208.9241372919095
 10
585.7083141969155
 20
208.1397447608664
 10
585.7517724894166
 20
207.3586066689212
 10
585.7952307819178
 20
206.5813126705544
 10
585.8386890744189
 20
205.8084524202467
 10
585.8821473669201
 20
205.0406128356852
 10
585.9256056594211
 20
204.278356364028
 10
585.9690639519223
 20
203.5222325716514
 10
586.0125222444235
 20
202.7727909097993
 10
586.0559805369246
 20
202.0305808297159
 10
586.0994388294257
 20
201.296151782645
 10
586.1428971219268
 20
200.5700532198306
 10
586.186355414428
 20
199.8528345925168
 10
586.2298137069291
 20
199.1450453519475
 10
586.2732719994302
 20
198.4472349493666
 10
586.3167302919314
 20
197.759952609134
 10
586.3601885844326
 20
197.0837206631044
 10
586.4036468769336
 20
196.4190095126645
 10
586.4471051694347
 20
195.7662836342095
 10
586.4905634619361
 20
195.1260075041345
 10
586.534021754437
 20
194.4986455988348
 10
586.577480046938
 20
193.8846623947052
 10
586.6209383394392
 20
193.2845223681413
 10
586.6643966319405
 20
192.698689995538
 10
586.7078549244416
 20
192.1276297532904
 10
586.7513132169428
 20
191.5718061177937
 10
586.794771509444
 20
191.0316745002938
 10
586.838229801945
 20
190.5076145489367
 10
586.8816880944463
 20
189.9999681929537
 10
586.9251463869473
 20
189.5090770863889
 10
586.9686046794485
 20
189.035282883287
 10
587.0120629719497
 20
188.5789272376923
 10
587.0555212644509
 20
188.1403518036493
 10
587.0989795569521
 20
187.7198982352024
 10
587.1424378494532
 20
187.3179081863962
 10
587.1858961419543
 20
186.9347233112749
 10
587.2293544344553
 20
186.5706847565665
 10
587.2728127269565
 20
186.2260839755571
 10
587.3162710194578
 20
185.9011216344437
 10
587.359729311959
 20
185.595988725503
 10
587.40318760446
 20
185.3108762410116
 10
587.446645896961
 20
185.0459751732463
 10
587.4901041894623
 20
184.8014765144837
 10
587.5335624819634
 20
184.5775712570005
 10
587.5770207744646
 20
184.3744503930734
 10
587.6204790669657
 20
184.1923049149789
 10
587.6639373594667
 20
184.0313258149939
 10
587.707395651968
 20
183.8916908118263
 10
587.7508539444691
 20
183.773473816422
 10
587.7943122369702
 20
183.6766998815041
 10
587.8377705294713
 20
183.6013937747227
 10
587.8812288219724
 20
183.5475802637279
 10
587.9246871144736
 20
183.5152841161697
 10
587.9681454069747
 20
183.5045300996984
  0
MTEXT
  5
7A
330
1F
100
AcDbEntity
  8
0
 62
     4
100
AcDbMText
 10
650.1498917539247
 20
142.4380002410361
 30
0.0
 40
3.0
 41
0.0
 71
     1
 72
     1
  1
{\fＭＳ ゴシック;BML-40}
  0
LINE
  5
7B
330
1F
100
AcDbEntity
  8
0
  6
CONTINUOUS
 62
     7
100
AcDbLine
 10
684.468068215801
 20
183.5041050473516
 30
0.0
 11
687.9680682157917
 21
183.5040969867884
 31
0.0
  0
LINE
  5
7C
330
1F
100
AcDbEntity
  8
0
  6
CONTINUOUS
 62
     7
100
AcDbLine
 10
694.467001229354
 20
183.5041351701945
 30
0.0
 11
697.9670012293448
 21
183.5041271096397
 31
0.0
  0
LWPOLYLINE
  5
7D
330
1F
100
AcDbEntity
  8
0
  6
CONTINUOUS
 62
     7
100
AcDbPolyline
 90
      105
 70
     0
 43
0.0
 10
-719.4680128762313
 20
241.5037178919895
 10
-719.5114715468889
 20
241.4929865445434
 10
-719.5549302175466
 20
241.4605880792465
 10
-719.5983888882041
 20
241.4064850294438
 10
-719.6418475588619
 20
241.330740788798
 10
-719.6853062295195
 20
241.2334756985709
 10
-719.7287649001772
 20
241.114810742898
 10
-719.7722235708349
 20
240.9748669059151
 10
-719.8156822414925
 20
240.813765171758
 10
-719.8591409121502
 20
240.6316265245623
 10
-719.9025995828079
 20
240.4285719484636
 10
-719.9460582534655
 20
240.2047224275978
 10
-719.9895169241231
 20
239.9601989461004
 10
-720.032975594781
 20
239.6951227956817
 10
-720.0764342654385
 20
239.4096629024851
 10
-720.1198929360964
 20
239.1040869177374
 10
-720.163351606754
 20
238.7786747534592
 10
-720.2068102774118
 20
238.4337063216713
 10
-720.2502689480693
 20
238.069461534394
 10
-720.2937276187272
 20
237.6862203036482
 10
-720.337186289385
 20
237.2842625414545
 10
-720.3806449600427
 20
236.8638681598335
 10
-720.4241036307004
 20
236.425317070806
 10
-720.467562301358
 20
235.9688891863924
 10
-720.5110209720158
 20
235.494873488337
 10
-720.5544796426734
 20
235.0036415087764
 10
-720.597938313331
 20
234.4956088649598
 10
-720.6413969839888
 20
233.9711915883767
 10
-720.6848556546463
 20
233.4308057105173
 10
-720.728314325304
 20
232.8748672628713
 10
-720.7717729959618
 20
232.3037922769286
 10
-720.8152316666193
 20
231.717996784179
 10
-720.858690337277
 20
231.1178968161123
 10
-720.9021490079347
 20
230.5039084042186
 10
-720.9456076785923
 20
229.8764478364026
 10
-720.9890663492499
 20
229.2359634024934
 10
-721.0325250199074
 20
228.5829660766353
 10
-721.0759836905652
 20
227.9179741097813
 10
-721.1194423612228
 20
227.2415057528845
 10
-721.1629010318806
 20
226.5540792568979
 10
-721.2063597025382
 20
225.8562128727745
 10
-721.2498183731956
 20
225.1484248514675
 10
-721.2932770438534
 20
224.4312334439298
 10
-721.3367357145112
 20
223.7051569011147
 10
-721.3801943851686
 20
222.9707134739749
 10
-721.4236530558263
 20
222.228425752897
 10
-721.4671117264841
 20
221.478853212757
 10
-721.5105703971418
 20
220.7225739514478
 10
-721.5540290677995
 20
219.9601662101053
 10
-721.5974877384572
 20
219.1922082298653
 10
-721.640946409115
 20
218.4192782518639
 10
-721.6844050797727
 20
217.6419545172367
 10
-721.7278637504304
 20
216.8608152671198
 10
-721.771322421088
 20
216.0764387426491
 10
-721.8147810917458
 20
215.2894031849603
 10
-721.8582397624035
 20
214.5002868761878
 10
-721.901698433061
 20
213.7096723017254
 10
-721.9451571037188
 20
212.9181497316287
 10
-721.9886157743765
 20
212.1263102796821
 10
-722.0320744450344
 20
211.3347450596701
 10
-722.0755331156918
 20
210.544045185377
 10
-722.1189917863495
 20
209.7548017705874
 10
-722.1624504570073
 20
208.9676059290857
 10
-722.2059091276649
 20
208.1830487746564
 10
-722.2493677983225
 20
207.4017214210839
 10
-722.29282646898
 20
206.6242149821526
 10
-722.3362851396379
 20
205.8511178061113
 10
-722.3797438102954
 20
205.0829962638656
 10
-722.4232024809531
 20
204.3204062401225
 10
-722.4666611516109
 20
203.5639035548628
 10
-722.5101198222685
 20
202.8140440280673
 10
-722.5535784929262
 20
202.0713834797171
 10
-722.5970371635838
 20
201.3364777297929
 10
-722.6404958342415
 20
200.6098825982755
 10
-722.6839545048991
 20
199.8921539051459
 10
-722.7274131755569
 20
199.1838474703849
 10
-722.7708718462146
 20
198.4855187937954
 10
-722.8143305168721
 20
197.7976959712711
 10
-722.8577891875299
 20
197.120859090167
 10
-722.9012478581875
 20
196.455483386097
 10
-722.9447065288451
 20
195.8020440946743
 10
-722.9881651995029
 20
195.1610164515128
 10
-723.0316238701606
 20
194.5328756922258
 10
-723.0750825408185
 20
193.9180970524271
 10
-723.118541211476
 20
193.3171557677302
 10
-723.1619998821337
 20
192.7305270737485
 10
-723.2054585527914
 20
192.1586862060958
 10
-723.248917223449
 20
191.6020982943985
 10
-723.2923758941067
 20
191.061153304561
 10
-723.3358345647645
 20
190.5362073274453
 10
-723.3792932354219
 20
190.0276162900893
 10
-723.4227519060798
 20
189.5357361195308
 10
-723.4662105767375
 20
189.0609227428074
 10
-723.5096692473951
 20
188.603532086957
 10
-723.5531279180528
 20
188.1639200790173
 10
-723.5965865887105
 20
187.7424426460262
 10
-723.640045259368
 20
187.3394557150213
 10
-723.683503930026
 20
186.9553144890063
 10
-723.7269626006836
 20
186.5903217192485
 10
-723.7704212713411
 20
186.2446932037277
 10
-723.8138799419986
 20
185.9186365584652
 10
-723.8573386126565
 20
185.6123593994817
 10
-723.9007972833139
 20
185.3260693427983
 10
-723.9442559539717
 20
185.0599740044362
 10
-723.9877146246289
 20
184.8142810004183
210
0.0
220
0.0
230
-1.0
  0
LWPOLYLINE
  5
7E
330
1F
100
AcDbEntity
  8
0
  6
CONTINUOUS
 62
     7
100
AcDbPolyline
 90
       33
 70
     0
 43
0.0
 10
-702.9683233251473
 20
241.50391085761
 10
-702.983326813294
 20
241.5025776610326
 10
-702.9983303014405
 20
241.4986553703672
 10
-703.0133337895873
 20
241.4921411590165
 10
-703.028337277734
 20
241.4830345981729
 10
-703.0433407658807
 20
241.4713393813226
 10
-703.0583442540272
 20
241.457059608619
 10
-703.0733477421741
 20
241.4401993802158
 10
-703.0883512303208
 20
241.4207627962666
 10
-703.1033547184675
 20
241.3987539569249
 10
-703.118358206614
 20
241.3741769623445
 10
-703.1333616947607
 20
241.3470359126788
 10
-703.1483651829075
 20
241.3173349080815
 10
-703.1633686710542
 20
241.2850780487061
 10
-703.1783721592008
 20
241.2502694347063
 10
-703.1933756473475
 20
241.2129131662356
 10
-703.208379135494
 20
241.1730133434477
 10
-703.2233826236409
 20
241.1305740664962
 10
-703.2383861117876
 20
241.0855994355346
 10
-703.2533895999342
 20
241.0380935507165
 10
-703.2683930880809
 20
240.9880605121956
 10
-703.2833965762277
 20
240.9355044201254
 10
-703.2984000643744
 20
240.8804293746595
 10
-703.3134035525211
 20
240.8228394759516
 10
-703.3284070406676
 20
240.7627388241551
 10
-703.3434105288145
 20
240.7001315194238
 10
-703.358414016961
 20
240.6350216619111
 10
-703.3734175051077
 20
240.5674133517708
 10
-703.3884209932544
 20
240.4973106891564
 10
-703.4034244814011
 20
240.4247177742215
 10
-703.4184279695478
 20
240.3496387071197
 10
-703.4334314576946
 20
240.2720775880046
 10
-703.448434945841
 20
240.1920385170309
210
0.0
220
0.0
230
-1.0
  0
LWPOLYLINE
  5
7F
330
1F
100
AcDbEntity
  8
0
  6
CONTINUOUS
 62
     7
100
AcDbPolyline
 90
      105
 70
     0
 43
0.0
 10
-739.4677178793244
 20
241.5035329063312
 10
-739.5111773477378
 20
241.4929350310911
 10
-739.554636816151
 20
241.4607410699371
 10
-739.5980962845646
 20
241.4069248968318
 10
-739.6415557529781
 20
241.3314617700674
 10
-739.6850152213913
 20
241.2343930321722
 10
-739.7284746898049
 20
241.1158537315657
 10
-739.7719341582182
 20
240.9759860374072
 10
-739.8153936266316
 20
240.814932118856
 10
-739.8588530950452
 20
240.6328341450716
 10
-739.9023125634585
 20
240.4298342852133
 10
-739.9457720318719
 20
240.2060747084404
 10
-739.9892315002854
 20
239.9616975839124
 10
-740.0326909686987
 20
239.6968450807884
 10
-740.0761504371122
 20
239.4116593682281
 10
-740.1196099055256
 20
239.1063002466759
 10
-740.1630693739389
 20
238.7810297732327
 10
-740.2065288423524
 20
238.4361467793764
 10
-740.2499883107658
 20
238.0719501449186
 10
-740.293447779179
 20
237.6887387496711
 10
-740.3369072475924
 20
237.2868114734457
 10
-740.3803667160059
 20
236.8664671960539
 10
-740.4238261844193
 20
236.4280047973076
 10
-740.4672856528327
 20
235.9717231570183
 10
-740.5107451212459
 20
235.4979211549977
 10
-740.5542045896594
 20
235.006898956052
 10
-740.5976640580727
 20
234.4990105278166
 10
-740.6411235264861
 20
233.9746820415037
 10
-740.6845829948995
 20
233.4343447335856
 10
-740.7280424633128
 20
232.8784298405348
 10
-740.7715019317262
 20
232.3073685988237
 10
-740.8149614001395
 20
231.7215922449247
 10
-740.858420868553
 20
231.1215320153102
 10
-740.9018803369665
 20
230.5076191464527
 10
-740.9453398053797
 20
229.8802848748247
 10
-740.9887992737932
 20
229.2399604368984
 10
-741.0322587422065
 20
228.5870888050691
 10
-741.07571821062
 20
227.9221768048443
 10
-741.1191776790334
 20
227.2457528732229
 10
-741.162637147447
 20
226.5583454643658
 10
-741.2060966158602
 20
225.8604830324338
 10
-741.2495560842736
 20
225.1526940315876
 10
-741.2930155526872
 20
224.4355069159882
 10
-741.3364750211007
 20
223.7094501397964
 10
-741.379934489514
 20
222.9750521571729
 10
-741.4233939579275
 20
222.2328414222787
 10
-741.4668534263408
 20
221.4833470044902
 10
-741.5103128947544
 20
220.7271207331194
 10
-741.5537723631676
 20
219.9647433512194
 10
-741.5972318315811
 20
219.1967974699583
 10
-741.6406912999945
 20
218.4238657005045
 10
-741.6841507684078
 20
217.6465306540265
 10
-741.7276102368211
 20
216.8653749416924
 10
-741.7710697052347
 20
216.0809811746707
 10
-741.8145291736481
 20
215.2939319641297
 10
-741.8579886420614
 20
214.5048099212376
 10
-741.9014481104748
 20
213.7141976571629
 10
-741.9449075788881
 20
212.9226786473515
 10
-741.9883670473014
 20
212.130840780666
 10
-742.0318265157148
 20
211.3392733510651
 10
-742.0752859841282
 20
210.5485656531016
 10
-742.1187454525416
 20
209.7593069813282
 10
-742.1622049209549
 20
208.9720866302979
 10
-742.2056643893683
 20
208.1874938945635
 10
-742.2491238577816
 20
207.4061180686777
 10
-742.292583326195
 20
206.6285484471935
 10
-742.3360427946083
 20
205.8553743246635
 10
-742.3795022630217
 20
205.0871844504965
 10
-742.4229617314352
 20
204.324549638092
 10
-742.4664211998485
 20
203.5680191275585
 10
-742.5098806682619
 20
202.8181408786199
 10
-742.5533401366753
 20
202.0754628509999
 10
-742.5967996050888
 20
201.3405330044225
 10
-742.6402590735022
 20
200.6138992986116
 10
-742.6837185419157
 20
199.8961096932909
 10
-742.7271780103292
 20
199.1877121481844
 10
-742.7706374787426
 20
198.489254623016
 10
-742.814096947156
 20
197.8012850775094
 10
-742.8575564155695
 20
197.1243395783232
 10
-742.9010158839828
 20
196.4588971716744
 10
-742.9444753523964
 20
195.8054198355168
 10
-742.9879348208096
 20
195.1643695446688
 10
-743.031394289223
 20
194.5362082739486
 10
-743.0748537576366
 20
193.9213979981743
 10
-743.11831322605
 20
193.3204006921641
 10
-743.1617726944634
 20
192.7336783307364
 10
-743.2052321628769
 20
192.1616928887091
 10
-743.2486916312902
 20
191.6049063409006
 10
-743.2921510997036
 20
191.0637787825355
 10
-743.3356105681169
 20
190.5387149904206
 10
-743.3790700365304
 20
190.0300567359603
 10
-743.4225295049437
 20
189.5381423654042
 10
-743.4659889733572
 20
189.0633102250019
 10
-743.5094484417704
 20
188.6058986610033
 10
-743.5529079101838
 20
188.1662460196581
 10
-743.5963673785972
 20
187.7446906472161
 10
-743.6398268470103
 20
187.3415708899268
 10
-743.6832863154239
 20
186.9572250940402
 10
-743.7267457838374
 20
186.5919916058059
 10
-743.7702052522507
 20
186.246186436115
 10
-743.8136647206641
 20
185.9200250272442
 10
-743.8571241890775
 20
185.613694528535
 10
-743.9005836574909
 20
185.3273820877846
 10
-743.9440431259042
 20
185.0612748527904
 10
-743.9875025943172
 20
184.8155599713513
210
0.0
220
0.0
230
-1.0
  0
LWPOLYLINE
  5
80
330
1F
100
AcDbEntity
  8
0
  6
CONTINUOUS
 62
     7
100
AcDbPolyline
 90
      105
 70
     0
 43
0.0
 10
-709.4682369966177
 20
241.5038182565492
 10
-709.5116943782206
 20
241.4929463149569
 10
-709.5551517598235
 20
241.460363228403
 10
-709.5986091414263
 20
241.4060813231611
 10
-709.642066523029
 20
241.3302046150413
 10
-709.6855239046319
 20
241.2328434269982
 10
-709.7289812862348
 20
241.114108081986
 10
-709.7724386678376
 20
240.9741089029592
 10
-709.8158960494407
 20
240.8129562128721
 10
-709.8593534310431
 20
240.630760334679
 10
-709.9028108126461
 20
240.4276315913345
 10
-709.9462681942489
 20
240.2036803057927
 10
-709.9897255758519
 20
239.9590168010082
 10
-710.0331829574548
 20
239.6937710017833
 10
-710.0766403390576
 20
239.4081780202871
 10
-710.1200977206604
 20
239.1025081014905
 10
-710.1635551022633
 20
238.7770315150036
 10
-710.207012483866
 20
238.4320185304361
 10
-710.250469865469
 20
238.0677394173978
 10
-710.2939272470718
 20
237.6844644454988
 10
-710.3373846286747
 20
237.2824638843487
 10
-710.3808420102774
 20
236.8620080035574
 10
-710.4242993918803
 20
236.4233670727349
 10
-710.4677567734832
 20
235.9668129750301
 10
-710.511214155086
 20
235.4926759221884
 10
-710.5546715366887
 20
235.0013594465552
 10
-710.5981289182915
 20
234.4932717416847
 10
-710.6415862998945
 20
233.9688210011308
 10
-710.6850436814973
 20
233.4284154184476
 10
-710.7285010631002
 20
232.8724631871891
 10
-710.7719584447029
 20
232.3013725009093
 10
-710.8154158263058
 20
231.7155515531623
 10
-710.8588732079087
 20
231.1154085375021
 10
-710.9023305895114
 20
230.5013516474828
 10
-710.9457879711143
 20
229.8738027674313
 10
-710.989245352717
 20
229.233252951269
 10
-711.0327027343199
 20
228.5802150470116
 10
-711.0761601159226
 20
227.9152019108195
 10
-711.1196174975254
 20
227.2387263988529
 10
-711.1630748791283
 20
226.5513013672724
 10
-711.206532260731
 20
225.8534396722382
 10
-711.2499896423341
 20
225.1456541699108
 10
-711.2934470239368
 20
224.4284577164505
 10
-711.3369044055396
 20
223.7023631680175
 10
-711.3803617871425
 20
222.9678842275648
 10
-711.4238191687454
 20
222.225562003533
 10
-711.4672765503482
 20
221.4759703081579
 10
-711.510733931951
 20
220.7196848705162
 10
-711.5541913135538
 20
219.9572814196848
 10
-711.5976486951566
 20
219.1893356847405
 10
-711.6411060767595
 20
218.4164233947604
 10
-711.6845634583625
 20
217.6391202788212
 10
-711.7280208399652
 20
216.8580020659997
 10
-711.771478221568
 20
216.0736444853729
 10
-711.814935603171
 20
215.2866232660177
 10
-711.8583929847738
 20
214.4975163622857
 10
-711.9018503663767
 20
213.7069123168901
 10
-711.9453077479794
 20
212.9154028184708
 10
-711.9887651295822
 20
212.1235795561801
 10
-712.0322225111853
 20
211.3320342191703
 10
-712.075679892788
 20
210.5413584965937
 10
-712.1191372743909
 20
209.7521440776027
 10
-712.1625946559939
 20
208.9649826513495
 10
-712.2060520375967
 20
208.1804659069864
 10
-712.2495094191995
 20
207.3991855336658
 10
-712.2929668008022
 20
206.6217327235855
 10
-712.336424182405
 20
205.8486841951903
 10
-712.3798815640079
 20
205.080600268203
 10
-712.4233389456107
 20
204.3180403785157
 10
-712.4667963272135
 20
203.5615639620206
 10
-712.5102537088162
 20
202.8117304546098
 10
-712.5537110904193
 20
202.0690992921755
 10
-712.5971684720218
 20
201.33422991061
 10
-712.6406258536247
 20
200.6076817458052
 10
-712.6840832352275
 20
199.8900142336536
 10
-712.7275406168303
 20
199.1817868100471
 10
-712.7709979984331
 20
198.4835473583219
 10
-712.8144553800361
 20
197.7957919793025
 10
-712.8579127616388
 20
197.1190022711248
 10
-712.9013701432416
 20
196.4536598312173
 10
-712.9448275248445
 20
195.8002462570088
 10
-712.9882849064475
 20
195.1592431459275
 10
-713.0317422880503
 20
194.5311320954024
 10
-713.0751996696531
 20
193.9163947028619
 10
-713.1186570512559
 20
193.3155125657345
 10
-713.1621144328587
 20
192.728967281449
 10
-713.2055718144616
 20
192.1572383955597
 10
-713.2490291960645
 20
191.6007514231504
 10
-713.2924865776673
 20
191.0598737530017
 10
-713.3359439592703
 20
190.5349699014827
 10
-713.3794013408731
 20
190.0264043849621
 10
-713.422858722476
 20
189.534541719809
 10
-713.4663161040788
 20
189.059746422392
 10
-713.5097734856815
 20
188.6023830090803
 10
-713.5532308672844
 20
188.1628159962427
 10
-713.5966882488871
 20
187.741409900248
 10
-713.6401456304901
 20
187.3385292374653
 10
-713.6836030120928
 20
186.9545153640669
 10
-713.7270603936956
 20
186.589611828222
 10
-713.7705177752985
 20
186.2440363630488
 10
-713.8139751569015
 20
185.9180067015206
 10
-713.8574325385043
 20
185.6117405766104
 10
-713.9008899201069
 20
185.3254557212915
 10
-713.9443473017099
 20
185.0593698685372
 10
-713.9878046833129
 20
184.8137007513194
210
0.0
220
0.0
230
-1.0
  0
LWPOLYLINE
  5
81
330
1F
100
AcDbEntity
  8
0
  6
CONTINUOUS
 62
     7
100
AcDbPolyline
 90
       33
 70
     0
 43
0.0
 10
-592.9680101853089
 20
241.5035003572677
 10
-592.9830233709337
 20
241.5022212699984
 10
-592.9980365565584
 20
241.4983684067804
 10
-593.0130497421833
 20
241.4919409701943
 10
-593.0280629278082
 20
241.4829381628209
 10
-593.043076113433
 20
241.4713591872404
 10
-593.0580892990578
 20
241.4572032460338
 10
-593.0731024846825
 20
241.4404695417814
 10
-593.0881156703073
 20
241.421157277064
 10
-593.1031288559321
 20
241.399265654462
 10
-593.1181420415571
 20
241.3747938765562
 10
-593.1331552271818
 20
241.3477411459271
 10
-593.1481684128065
 20
241.3181066926549
 10
-593.1631815984314
 20
241.2858921028268
 10
-593.1781947840562
 20
241.25110309129
 10
-593.193207969681
 20
241.213745790312
 10
-593.2082211553058
 20
241.1738263321603
 10
-593.2232343409305
 20
241.1313508491022
 10
-593.2382475265554
 20
241.0863254734054
 10
-593.2532607121801
 20
241.0387563373372
 10
-593.268273897805
 20
240.9886495731652
 10
-593.2832870834299
 20
240.9360113131569
 10
-593.2983002690546
 20
240.8808476895796
 10
-593.3133134546795
 20
240.8231648347009
 10
-593.3283266403042
 20
240.7629688807883
 10
-593.3433398259291
 20
240.7002659601092
 10
-593.3583530115538
 20
240.6350622049311
 10
-593.3733661971786
 20
240.5673637475215
 10
-593.3883793828036
 20
240.4971767201479
 10
-593.4033925684283
 20
240.4245072550777
 10
-593.4184057540531
 20
240.3493614845784
 10
-593.433418939678
 20
240.2717455409175
 10
-593.4484321253027
 20
240.1916655563625
210
0.0
220
0.0
230
-1.0
  0
LWPOLYLINE
  5
82
330
1F
100
AcDbEntity
  8
0
  6
CONTINUOUS
 62
     7
100
AcDbPolyline
 90
       33
 70
     0
 43
0.0
 10
677.9677373778954
 20
183.5041312900948
 10
677.9827473721964
 20
183.5054310722239
 10
677.9977573664974
 20
183.5093180649399
 10
678.0127673607983
 20
183.5157892694115
 10
678.0277773550993
 20
183.5248416868077
 10
678.0427873494002
 20
183.5364723182971
 10
678.0577973437012
 20
183.5506781650489
 10
678.0728073380019
 20
183.5674562282315
 10
678.0878173323031
 20
183.5868035090141
 10
678.1028273266039
 20
183.6087170085653
 10
678.1178373209048
 20
183.6331937280542
 10
678.1328473152059
 20
183.6602306686493
 10
678.1478573095067
 20
183.6898248315197
 10
678.1628673038077
 20
183.7219732178341
 10
678.1778772981086
 20
183.7566728287614
 10
678.1928872924095
 20
183.7939206654705
 10
678.2078972867106
 20
183.8337137291301
 10
678.2229072810114
 20
183.8760490209091
 10
678.2379172753126
 20
183.9209235419764
 10
678.2529272696133
 20
183.9683342935007
 10
678.2679372639143
 20
184.0182782766508
 10
678.2829472582154
 20
184.0707524925959
 10
678.2979572525162
 20
184.1257539425044
 10
678.3129672468172
 20
184.1832796275454
 10
678.3279772411181
 20
184.2433265488877
 10
678.3429872354191
 20
184.3058917077001
 10
678.35799722972
 20
184.3709721051514
 10
678.373007224021
 20
184.4385647424104
 10
678.3880172183217
 20
184.5086666206461
 10
678.4030272126228
 20
184.5812742776114
 10
678.4180372069236
 20
184.6563801508203
 10
678.4330472012247
 20
184.7339745379443
 10
678.4480571955257
 20
184.814047718098
  0
LWPOLYLINE
  5
83
330
1F
100
AcDbEntity
  8
0
  6
CONTINUOUS
 62
     7
100
AcDbPolyline
 90
       33
 70
     0
 43
0.0
 10
-612.9678905077536
 20
241.5034483100301
 10
-612.9828907249889
 20
241.5021596376702
 10
-612.9978909422242
 20
241.4983039006013
 10
-613.0128911594596
 20
241.4918811965157
 10
-613.0278913766948
 20
241.4828916231053
 10
-613.0428915939303
 20
241.4713352780628
 10
-613.0578918111655
 20
241.45721225908
 10
-613.0728920284008
 20
241.4405226638495
 10
-613.0878922456362
 20
241.4212665900633
 10
-613.1028924628714
 20
241.3994441354139
 10
-613.1178926801067
 20
241.3750553975932
 10
-613.1328928973419
 20
241.3481004742937
 10
-613.1478931145773
 20
241.3185794632076
 10
-613.1628933318126
 20
241.2864924620271
 10
-613.1778935490479
 20
241.2518395684445
 10
-613.1928937662832
 20
241.2146208801519
 10
-613.2078939835184
 20
241.1748365575217
 10
-613.2228942007537
 20
241.1324895202364
 10
-613.2378944179891
 20
241.0875864711053
 10
-613.2528946352244
 20
241.0401343867947
 10
-613.2678948524598
 20
240.9901402439708
 10
-613.282895069695
 20
240.9376110192997
 10
-613.2978952869304
 20
240.8825536894477
 10
-613.3128955041657
 20
240.824975231081
 10
-613.327895721401
 20
240.7648826208658
 10
-613.3428959386362
 20
240.7022828354684
 10
-613.3578961558715
 20
240.637182851555
 10
-613.3728963731069
 20
240.5695896457917
 10
-613.3878965903423
 20
240.4995101948448
 10
-613.4028968075775
 20
240.4269514753805
 10
-613.4178970248129
 20
240.3519204640651
 10
-613.4328972420482
 20
240.2744241375647
 10
-613.4478974592835
 20
240.1944694725456
210
0.0
220
0.0
230
-1.0
  0
LWPOLYLINE
  5
84
330
1F
100
AcDbEntity
  8
0
  6
CONTINUOUS
 62
     7
100
AcDbPolyline
 90
      105
 70
     0
 43
0.0
 10
-699.4683233251526
 20
241.503902797062
 10
-699.5117807906514
 20
241.4929277076145
 10
-699.5552382561499
 20
241.460219677194
 10
-699.5986957216486
 20
241.4058553882098
 10
-699.6421531871473
 20
241.3299344767043
 10
-699.6856106526459
 20
241.23255657872
 10
-699.7290681181445
 20
241.1138213302992
 10
-699.7725255836431
 20
240.9738283674847
 10
-699.8159830491418
 20
240.8126773263187
 10
-699.8594405146404
 20
240.6304678428438
 10
-699.9028979801391
 20
240.4272995531024
 10
-699.9463554456378
 20
240.2032720931369
 10
-699.9898129111364
 20
239.9584902236547
 10
-700.033270376635
 20
239.6931431891686
 10
-700.0767278421337
 20
239.407489507526
 10
-700.1201853076325
 20
239.1017897415208
 10
-700.1636427731311
 20
238.7763044539464
 10
-700.2071002386298
 20
238.4312942075964
 10
-700.2505577041284
 20
238.0670195652643
 10
-700.2940151696271
 20
237.6837410897439
 10
-700.3374726351258
 20
237.2817193438287
 10
-700.3809301006244
 20
236.8612148903122
 10
-700.4243875661231
 20
236.4224883067456
 10
-700.4678450316216
 20
235.9658299242252
 10
-700.5113024971203
 20
235.4916222173239
 10
-700.554759962619
 20
235.0002654438277
 10
-700.5982174281177
 20
234.4921598615221
 10
-700.6416748936163
 20
233.9677057281932
 10
-700.6851323591147
 20
233.4273033016267
 10
-700.7285898246134
 20
232.8713528396086
 10
-700.772047290112
 20
232.3002545999248
 10
-700.8155047556106
 20
231.714408840361
 10
-700.8589622211092
 20
231.1142158187031
 10
-700.9024196866078
 20
230.5000795679168
 10
-700.9458771521066
 20
229.872461551096
 10
-700.9893346176052
 20
229.2318679280845
 10
-701.0327920831038
 20
228.5788060369623
 10
-701.0762495486026
 20
227.9137832158099
 10
-701.1197070141012
 20
227.2373068027075
 10
-701.1631644795998
 20
226.5498841357352
 10
-701.2066219450985
 20
225.8520225529734
 10
-701.2500794105972
 20
225.1442293925022
 10
-701.2935368760958
 20
224.427011992402
 10
-701.3369943415945
 20
223.7008777037181
 10
-701.3804518070931
 20
222.9663486397419
 10
-701.4239092725918
 20
222.2239900440201
 10
-701.4673667380906
 20
221.4743749948741
 10
-701.5108242035892
 20
220.7180765706252
 10
-701.5542816690878
 20
219.9556678495947
 10
-701.5977391345865
 20
219.1877219101041
 10
-701.6411966000852
 20
218.4148118304745
 10
-701.6846540655839
 20
217.6375106890273
 10
-701.7281115310825
 20
216.8563915640839
 10
-701.7715689965811
 20
216.0720275339656
 10
-701.8150264620799
 20
215.2849924178151
 10
-701.8584839275785
 20
214.4958704583959
 10
-701.9019413930771
 20
213.7052535972953
 10
-701.9453988585758
 20
212.9137339562292
 10
-701.9888563240744
 20
212.1219036569138
 10
-702.032313789573
 20
211.3303548210652
 10
-702.0757712550716
 20
210.5396795703995
 10
-702.1192287205703
 20
209.7504700266328
 10
-702.162686186069
 20
208.9633183114813
 10
-702.2061436515675
 20
208.178816546661
 10
-702.2496011170662
 20
207.397556844234
 10
-702.2930585825649
 20
206.6201244124901
 10
-702.3365160480635
 20
205.8470854216578
 10
-702.379973513562
 20
205.0790027882653
 10
-702.4234309790605
 20
204.3164394288409
 10
-702.4668884445591
 20
203.5599582599126
 10
-702.5103459100578
 20
202.8101221980088
 10
-702.5538033755565
 20
202.0674941596576
 10
-702.5972608410551
 20
201.3326370613872
 10
-702.6407183065537
 20
200.6061138197257
 10
-702.6841757720522
 20
199.8884873512015
 10
-702.727633237551
 20
199.1803173598502
 10
-702.7710907030497
 20
198.4821216538471
 10
-702.8145481685483
 20
197.7943886812718
 10
-702.858005634047
 20
197.1176062846443
 10
-702.9014630995457
 20
196.4522623064844
 10
-702.9449205650445
 20
195.7988445893121
 10
-702.9883780305431
 20
195.1578409756472
 10
-703.0318354960417
 20
194.5297393080095
 10
-703.0752929615404
 20
193.9150274289192
 10
-703.1187504270392
 20
193.3141931808959
 10
-703.1622078925377
 20
192.7277243474961
 10
-703.2056653580363
 20
192.156080181709
 10
-703.2491228235349
 20
191.5996456405946
 10
-703.2925802890337
 20
191.0587937411917
 10
-703.3360377545323
 20
190.5338975005393
 10
-703.3794952200309
 20
190.0253299356766
 10
-703.4229526855295
 20
189.5334640636425
 10
-703.4664101510283
 20
189.058672901476
 10
-703.5098676165269
 20
188.6013294662161
 10
-703.5533250820255
 20
188.1618067749019
 10
-703.5967825475242
 20
187.7404778445724
 10
-703.6402400130229
 20
187.3377088768926
 10
-703.6836974785215
 20
186.9537835298999
 10
-703.72715494402
 20
186.588930590166
 10
-703.7706124095188
 20
186.2433778542429
 10
-703.8140698750173
 20
185.9173531186818
 10
-703.8575273405161
 20
185.6110841800345
 10
-703.9009848060148
 20
185.3247988348525
 10
-703.9444422715133
 20
185.0587248796873
 10
-703.9878997370123
 20
184.8130901110885
210
0.0
220
0.0
230
-1.0
  0
LWPOLYLINE
  5
85
330
1F
100
AcDbEntity
  8
0
  6
CONTINUOUS
 62
     7
100
AcDbPolyline
 90
       33
 70
     0
 43
0.0
 10
-662.9686080892702
 20
241.5038022685882
 10
-662.9835810962978
 20
241.5023434229657
 10
-662.9985541033254
 20
241.4983173278563
 10
-663.0135271103529
 20
241.4917262977294
 10
-663.0285001173805
 20
241.4825726470544
 10
-663.043473124408
 20
241.4708586903007
 10
-663.0584461314357
 20
241.4565867419375
 10
-663.0734191384634
 20
241.4397591164344
 10
-663.088392145491
 20
241.4203781282606
 10
-663.1033651525186
 20
241.3984460918855
 10
-663.1183381595462
 20
241.3739653217785
 10
-663.1333111665738
 20
241.346938132409
 10
-663.1482841736013
 20
241.3173668382464
 10
-663.1632571806289
 20
241.2852537537599
 10
-663.1782301876564
 20
241.250601193419
 10
-663.193203194684
 20
241.2134114716931
 10
-663.2081762017115
 20
241.1736869030515
 10
-663.2231492087392
 20
241.1314298019636
 10
-663.2381222157667
 20
241.0866424828987
 10
-663.2530952227943
 20
241.0393272603262
 10
-663.2680682298219
 20
240.9894864487156
 10
-663.2830412368494
 20
240.9371223625361
 10
-663.2980142438771
 20
240.8822373162572
 10
-663.3129872509047
 20
240.8248336243482
 10
-663.3279602579322
 20
240.7649136012784
 10
-663.3429332649598
 20
240.7024795615173
 10
-663.3579062719874
 20
240.6375341361162
 10
-663.3728792790149
 20
240.5700837786569
 10
-663.3878522860425
 20
240.5001374781479
 10
-663.4028252930701
 20
240.4277042690793
 10
-663.4177983000977
 20
240.3527931859412
 10
-663.4327713071251
 20
240.2754132632235
 10
-663.4477443141526
 20
240.1955735354175
210
0.0
220
0.0
230
-1.0
  0
LWPOLYLINE
  5
86
330
1F
100
AcDbEntity
  8
0
  6
CONTINUOUS
 62
     7
100
AcDbPolyline
 90
      105
 70
     0
 43
0.0
 10
-689.4682297055762
 20
241.5039525905913
 10
-689.5116858563288
 20
241.4929411356995
 10
-689.5551420070813
 20
241.4602277851907
 10
-689.598598157834
 20
241.4059009229546
 10
-689.6420543085864
 20
241.3300494559312
 10
-689.685510459339
 20
241.2327622910607
 10
-689.7289666100916
 20
241.1141283352831
 10
-689.772422760844
 20
240.9742364955382
 10
-689.8158789115965
 20
240.8131756787663
 10
-689.859335062349
 20
240.6310347919072
 10
-689.9027912131014
 20
240.4279027419012
 10
-689.946247363854
 20
240.203868831624
 10
-689.9897035146065
 20
239.9590728130551
 10
-690.033159665359
 20
239.6937538150681
 10
-690.0766158161114
 20
239.408162581756
 10
-690.1200719668639
 20
239.1025498572118
 10
-690.1635281176165
 20
238.7771663855285
 10
-690.206984268369
 20
238.4322629107992
 10
-690.2504404191212
 20
238.0680901771169
 10
-690.2938965698737
 20
237.6848989285747
 10
-690.3373527206262
 20
237.2829399092656
 10
-690.3808088713788
 20
236.8624638632826
 10
-690.4242650221314
 20
236.4237316560226
 10
-690.4677211728838
 20
235.9670909449465
 10
-690.5111773236363
 20
235.4929335307581
 10
-690.5546334743888
 20
235.0016515630138
 10
-690.5980896251411
 20
234.4936371912701
 10
-690.6415457758939
 20
233.9692825650835
 10
-690.6850019266465
 20
233.4289798340103
 10
-690.7284580773988
 20
232.8731211476069
 10
-690.7719142281516
 20
232.3020986554299
 10
-690.815370378904
 20
231.7163045070357
 10
-690.8588265296565
 20
231.1161311879526
 10
-690.9022826804091
 20
230.502006686596
 10
-690.9457388311616
 20
229.874425333675
 10
-690.989194981914
 20
229.2338887302041
 10
-691.0326511326666
 20
228.5808984771984
 10
-691.0761072834191
 20
227.9159561756727
 10
-691.1195634341716
 20
227.2395634266416
 10
-691.1630195849241
 20
226.5522218311202
 10
-691.2064757356766
 20
225.8544329901231
 10
-691.2499318864291
 20
225.1466985046652
 10
-691.2933880371817
 20
224.4295199757613
 10
-691.3368441879342
 20
223.7034042981635
 10
-691.3803003386867
 20
222.9689009713107
 10
-691.423756489439
 20
222.2265800426464
 10
-691.4672126401916
 20
221.4770116920709
 10
-691.5106687909441
 20
220.7207660994842
 10
-691.5541249416966
 20
219.9584134447868
 10
-691.597581092449
 20
219.1905239078787
 10
-691.6410372432015
 20
218.4176676686604
 10
-691.6844933939541
 20
217.6404149070319
 10
-691.7279495447065
 20
216.8593358028935
 10
-691.771405695459
 20
216.0750006199825
 10
-691.8148618462116
 20
215.2879870778968
 10
-691.858317996964
 20
214.4988861177738
 10
-691.9017741477167
 20
213.7082900377285
 10
-691.945230298469
 20
212.9167911358757
 10
-691.9886864492215
 20
212.1249817103307
 10
-692.0321425999741
 20
211.3334540592083
 10
-692.0755987507267
 20
210.5428004806234
 10
-692.1190549014793
 20
209.7536132726911
 10
-692.1625110522317
 20
208.9664847335263
 10
-692.2059672029842
 20
208.182007161244
 10
-692.2494233537367
 20
207.400770681496
 10
-692.2928795044894
 20
206.6233489949915
 10
-692.3363356552418
 20
205.8503082937875
 10
-692.3797918059944
 20
205.0822147312574
 10
-692.4232479567466
 20
204.3196344607743
 10
-692.4667041074993
 20
203.5631336357118
 10
-692.5101602582517
 20
202.8132784094429
 10
-692.5536164090041
 20
202.0706349353412
 10
-692.5970725597567
 20
201.3357693667797
 10
-692.6405287105092
 20
200.609247857132
 10
-692.6839848612617
 20
199.891636226136
 10
-692.7274410120141
 20
199.1834750060602
 10
-692.7708971627667
 20
198.4852621597053
 10
-692.8143533135192
 20
197.7974915631306
 10
-692.8578094642718
 20
197.1206570923956
 10
-692.9012656150242
 20
196.4552526235595
 10
-692.9447217657768
 20
195.8017720326818
 10
-692.9881779165291
 20
195.1607091958219
 10
-693.0316340672819
 20
194.5325579890393
 10
-693.0750902180345
 20
193.9178122883932
 10
-693.1185463687871
 20
193.316965969943
 10
-693.1620025195394
 20
192.7305028629289
 10
-693.205458670292
 20
192.1588353797163
 10
-693.2489148210445
 20
191.6023450002029
 10
-693.2923709717971
 20
191.0614130800231
 10
-693.3358271225496
 20
190.5364209748118
 10
-693.3792832733022
 20
190.0277500402034
 10
-693.4227394240547
 20
189.5357816318326
 10
-693.4661955748073
 20
189.0608971053339
 10
-693.5096517255597
 20
188.6034778163418
 10
-693.5531078763123
 20
188.163905120491
 10
-693.5965640270647
 20
187.7425595759429
 10
-693.6400201778171
 20
187.3397696622417
 10
-693.6834763285696
 20
186.9557806059073
 10
-693.726932479322
 20
186.5908301676786
 10
-693.7703886300745
 20
186.2451561082949
 10
-693.8138447808269
 20
185.9189961884954
 10
-693.8573009315794
 20
185.6125881690191
 10
-693.9007570823318
 20
185.3261698106054
 10
-693.9442132330843
 20
185.0599788739932
 10
-693.9876693838362
 20
184.8142531199255
210
0.0
220
0.0
230
-1.0
  0
LWPOLYLINE
  5
87
330
1F
100
AcDbEntity
  8
0
  6
CONTINUOUS
 62
     7
100
AcDbPolyline
 90
       97
 70
     0
 43
0.0
 10
-679.4679207459208
 20
241.5039471910303
 10
-679.5149990592448
 20
241.4911307847433
 10
-679.5620773725686
 20
241.4529034029295
 10
-679.6091556858927
 20
241.389364420516
 10
-679.6562339992165
 20
241.3006132124299
 10
-679.7033123125404
 20
241.1867491535985
 10
-679.7503906258647
 20
241.0478716189489
 10
-679.7974689391883
 20
240.884079983408
 10
-679.8445472525125
 20
240.6954736219034
 10
-679.8916255658365
 20
240.482151909362
 10
-679.9387038791604
 20
240.2442253278416
 10
-679.9857821924844
 20
239.9819250349369
 10
-680.0328605058083
 20
239.6955562124635
 10
-680.0799388191324
 20
239.3854251147401
 10
-680.1270171324561
 20
239.0518379960853
 10
-680.1740954457803
 20
238.6951011108177
 10
-680.2211737591041
 20
238.315520713256
 10
-680.2682520724281
 20
237.9134030577189
 10
-680.315330385752
 20
237.4890543985248
 10
-680.3624086990759
 20
237.0427809899928
 10
-680.4094870123998
 20
236.5749196119
 10
-680.4565653257239
 20
236.0859283261033
 10
-680.5036436390477
 20
235.5762953114148
 10
-680.5507219523716
 20
235.0465087466474
 10
-680.5978002656956
 20
234.4970568106132
 10
-680.6448785790196
 20
233.9284276821248
 10
-680.6919568923435
 20
233.3411095399947
 10
-680.7390352056675
 20
232.7355905630354
 10
-680.7861135189914
 20
232.1123589300591
 10
-680.8331918323152
 20
231.4719035888108
 10
-680.8802701456392
 20
230.8147647739542
 10
-680.927348458963
 20
230.1415653272853
 10
-680.9744267722871
 20
229.4529355732353
 10
-681.021505085611
 20
228.7495058362353
 10
-681.0685833989348
 20
228.0319064407165
 10
-681.1156617122588
 20
227.3007677111102
 10
-681.1627400255827
 20
226.5567199718475
 10
-681.2098183389066
 20
225.8003935473595
 10
-681.2568966522307
 20
225.0324187620775
 10
-681.3039749655545
 20
224.253429827845
 10
-681.3510532788786
 20
223.4641116265564
 10
-681.3981315922024
 20
222.6651845353568
 10
-681.4452099055263
 20
221.8573696627945
 10
-681.4922882188503
 20
221.0413881174179
 10
-681.5393665321744
 20
220.2179610077752
 10
-681.5864448454981
 20
219.3878094424148
 10
-681.6335231588222
 20
218.5516545298852
 10
-681.680601472146
 20
217.7102173787347
 10
-681.7276797854701
 20
216.8642190975116
 10
-681.7747580987941
 20
216.0143854066729
 10
-681.821836412118
 20
215.1614633061131
 10
-681.868914725442
 20
214.3062059289489
 10
-681.9159930387659
 20
213.4493664088703
 10
-681.96307135209
 20
212.5916978795672
 10
-682.010149665414
 20
211.7339534747298
 10
-682.0572279787378
 20
210.8768863280481
 10
-682.1043062920619
 20
210.021249573212
 10
-682.1513846053858
 20
209.1677963439117
 10
-682.1984629187098
 20
208.3172796784305
 10
-682.2455412320337
 20
207.4704429978796
 10
-682.2926195453576
 20
206.6280120013545
 10
-682.3396978586817
 20
205.7907104791671
 10
-682.3867761720055
 20
204.9592622216296
 10
-682.4338544853293
 20
204.1343910190543
 10
-682.4809327986533
 20
203.3168206617532
 10
-682.5280111119773
 20
202.5072749400385
 10
-682.5750894253013
 20
201.7064776442223
 10
-682.6221677386252
 20
200.9151525646167
 10
-682.6692460519491
 20
200.1340205303513
 10
-682.7163243652731
 20
199.3637554974528
 10
-682.7634026785969
 20
198.6049939803455
 10
-682.8104809919209
 20
197.8583714484668
 10
-682.8575593052449
 20
197.1245233712539
 10
-682.9046376185688
 20
196.4040852181441
 10
-682.9517159318927
 20
195.6976924585747
 10
-682.9987942452167
 20
195.005980561983
 10
-683.0458725585404
 20
194.3295849978062
 10
-683.0929508718644
 20
193.6691412354817
 10
-683.1400291851883
 20
193.0252675698392
 10
-683.1871074985124
 20
192.3984901571069
 10
-683.2341858118364
 20
191.7893043866346
 10
-683.2812641251603
 20
191.1982056262463
 10
-683.3283424384841
 20
190.6256892437661
 10
-683.3754207518082
 20
190.0722506070178
 10
-683.4224990651321
 20
189.5383850838256
 10
-683.469577378456
 20
189.0245880420135
 10
-683.51665569178
 20
188.5313548494055
 10
-683.563734005104
 20
188.0591805561113
 10
-683.610812318428
 20
187.6085069452308
 10
-683.6578906317521
 20
187.1796632239519
 10
-683.7049689450758
 20
186.7729642938193
 10
-683.7520472583998
 20
186.3887250563773
 10
-683.7991255717237
 20
186.0272604131707
 10
-683.8462038850477
 20
185.688885265744
 10
-683.8932821983716
 20
185.3739145156417
 10
-683.9403605116955
 20
185.0826630644084
 10
-683.9874388250192
 20
184.8154458135899
210
0.0
220
0.0
230
-1.0
  0
LWPOLYLINE
  5
88
330
1F
100
AcDbEntity
  8
0
  6
CONTINUOUS
 62
     7
100
AcDbPolyline
 90
       33
 70
     0
 43
0.0
 10
-732.9678065467017
 20
241.5036261663173
 10
-732.9828190590405
 20
241.5023987151244
 10
-732.9978315713795
 20
241.4985933190008
 10
-733.0128440837183
 20
241.4922084539816
 10
-733.0278565960573
 20
241.4832425961022
 10
-733.0428691083962
 20
241.4716942213977
 10
-733.0578816207349
 20
241.4575618059033
 10
-733.0728941330739
 20
241.4408438256543
 10
-733.0879066454127
 20
241.4215387566859
 10
-733.1029191577517
 20
241.3996451681894
 10
-733.1179316700905
 20
241.3751646551545
 10
-733.1329441824294
 20
241.3481024296193
 10
-733.1479566947684
 20
241.3184639162097
 10
-733.1629692071072
 20
241.2862545395521
 10
-733.1779817194459
 20
241.2514797242724
 10
-733.1929942317848
 20
241.2141448949968
 10
-733.2080067441238
 20
241.1742554763516
 10
-733.2230192564626
 20
241.1318168929627
 10
-733.2380317688016
 20
241.0868345694564
 10
-733.2530442811404
 20
241.0393139304587
 10
-733.2680567934793
 20
240.9892604005959
 10
-733.2830693058181
 20
240.936679404494
 10
-733.2980818181572
 20
240.8815763667793
 10
-733.3130943304961
 20
240.8239567120777
 10
-733.3281068428347
 20
240.7638258650155
 10
-733.3431193551738
 20
240.7011892502189
 10
-733.3581318675128
 20
240.636052292314
 10
-733.3731443798515
 20
240.5684204159267
 10
-733.3881568921904
 20
240.4982990456834
 10
-733.4031694045294
 20
240.4256936062103
 10
-733.4181819168683
 20
240.3506095221333
 10
-733.4331944292071
 20
240.2730522180786
 10
-733.4482069415458
 20
240.1930271186739
210
0.0
220
0.0
230
-1.0
  0
LWPOLYLINE
  5
89
330
1F
100
AcDbEntity
  8
0
  6
CONTINUOUS
 62
     7
100
AcDbPolyline
 90
       33
 70
     0
 43
0.0
 10
727.9684072701768
 20
183.5043876060092
 10
727.9834101090237
 20
183.505714442857
 10
727.9984129478704
 20
183.5096177898875
 10
728.0134157867171
 20
183.5160993910334
 10
728.028418625564
 20
183.5251609902272
 10
728.0434214644107
 20
183.5368043314014
 10
728.0584243032578
 20
183.5510311584887
 10
728.0734271421044
 20
183.5678432154215
 10
728.0884299809513
 20
183.5872421485859
 10
728.1034328197982
 20
183.6092265513103
 10
728.1184356586449
 20
183.6337914322374
 10
728.1334384974917
 20
183.6609315952783
 10
728.1484413363385
 20
183.6906418443437
 10
728.1634441751853
 20
183.7229169833446
 10
728.1784470140323
 20
183.7577518161918
 10
728.193449852879
 20
183.7951411467962
 10
728.2084526917257
 20
183.8350797790685
 10
728.2234555305727
 20
183.8775625169198
 10
728.2384583694193
 20
183.9225841642607
 10
728.2534612082663
 20
183.9701395250025
 10
728.2684640471131
 20
184.0202234030556
 10
728.28346688596
 20
184.0728306023311
 10
728.2984697248065
 20
184.1279559267398
 10
728.3134725636535
 20
184.1855941801926
 10
728.3284754025002
 20
184.2457401666004
 10
728.343478241347
 20
184.3083886898741
 10
728.3584810801938
 20
184.3735345539243
 10
728.3734839190407
 20
184.4411725626622
 10
728.3884867578874
 20
184.5112975199985
 10
728.4034895967343
 20
184.5839042298441
 10
728.4184924355811
 20
184.6589874961099
 10
728.4334952744279
 20
184.7365421227067
 10
728.4484981132747
 20
184.8165629135458
  0
LWPOLYLINE
  5
8A
330
1F
100
AcDbEntity
  8
0
  6
CONTINUOUS
 62
     7
100
AcDbPolyline
 90
       33
 70
     0
 43
0.0
 10
687.968068215804
 20
183.5040969867884
 10
687.9830626115025
 20
183.5054271295275
 10
687.9980570072009
 20
183.5093448511627
 10
688.0130514028995
 20
183.515846720034
 10
688.0280457985979
 20
183.5249293044817
 10
688.0430401942963
 20
183.5365891728459
 10
688.0580345899948
 20
183.5508228934666
 10
688.0730289856934
 20
183.5676270346842
 10
688.0880233813917
 20
183.5869981648384
 10
688.1030177770901
 20
183.6089328522698
 10
688.1180121727888
 20
183.6334276653182
 10
688.1330065684873
 20
183.6604791723238
 10
688.1480009641857
 20
183.6900839416268
 10
688.1629953598841
 20
183.7222385415672
 10
688.1779897555828
 20
183.7569395404852
 10
688.192984151281
 20
183.7941835067211
 10
688.2079785469796
 20
183.8339670086147
 10
688.2229729426781
 20
183.8762866145064
 10
688.2379673383766
 20
183.9211388927361
 10
688.252961734075
 20
183.9685204116441
 10
688.2679561297734
 20
184.0184277395705
 10
688.282950525472
 20
184.0708574448553
 10
688.2979449211705
 20
184.1258060958388
 10
688.3129393168689
 20
184.183270260861
 10
688.3279337125673
 20
184.2432465082621
 10
688.342928108266
 20
184.3057314063822
 10
688.3579225039643
 20
184.3707215235614
 10
688.3729168996629
 20
184.4382134281399
 10
688.3879112953613
 20
184.5082036884578
 10
688.4029056910597
 20
184.5806888728551
 10
688.4179000867583
 20
184.6556655496722
 10
688.4328944824567
 20
184.7331297353186
 10
688.447888878155
 20
184.8130732603603
  0
LWPOLYLINE
  5
8B
330
1F
100
AcDbEntity
  8
0
  6
CONTINUOUS
 62
     7
100
AcDbPolyline
 90
       33
 70
     0
 43
0.0
 10
667.9675294138516
 20
183.5042074735624
 10
667.9825487548436
 20
183.505486200087
 10
667.9975680958357
 20
183.509350417707
 10
668.0125874368276
 20
183.5157975673741
 10
668.0276067778198
 20
183.5248250900399
 10
668.0426261188117
 20
183.5364304266561
 10
668.0576454598037
 20
183.5506110181743
 10
668.0726648007957
 20
183.5673643055463
 10
668.0876841417878
 20
183.5866877297235
 10
668.1027034827797
 20
183.6085787316577
 10
668.1177228237717
 20
183.6330347523006
 10
668.1327421647637
 20
183.6600532326038
 10
668.1477615057559
 20
183.6896316135189
 10
668.1627808467478
 20
183.7217673359976
 10
668.1778001877398
 20
183.7564578409916
 10
668.1928195287318
 20
183.7937005694525
 10
668.2078388697238
 20
183.8334929623319
 10
668.2228582107159
 20
183.8758324605815
 10
668.2378775517077
 20
183.920716505153
 10
668.2528968926997
 20
183.968142536998
 10
668.267916233692
 20
184.0181079970682
 10
668.2829355746838
 20
184.0706103263151
 10
668.297954915676
 20
184.1256469656906
 10
668.312974256668
 20
184.1832153561461
 10
668.3279935976599
 20
184.2433129386334
 10
668.3430129386519
 20
184.3059371541042
 10
668.3580322796439
 20
184.37108544351
 10
668.373051620636
 20
184.4387548750767
 10
668.388070961628
 20
184.5089385506974
 10
668.4030903026198
 20
184.5816271773056
 10
668.4181096436121
 20
184.6568114286789
 10
668.433128984604
 20
184.7344819785941
 10
668.4481483255962
 20
184.8146295008297
  0
LWPOLYLINE
  5
8C
330
1F
100
AcDbEntity
  8
0
  6
CONTINUOUS
 62
     7
100
AcDbPolyline
 90
       33
 70
     0
 43
0.0
 10
607.9687082058297
 20
183.5046175643626
 10
607.9836960443536
 20
183.5060353189229
 10
607.9986838828777
 20
183.5100161464913
 10
608.0136717214017
 20
183.5165601723612
 10
608.0286595599257
 20
183.5256675218261
 10
608.0436473984497
 20
183.5373383201792
 10
608.0586352369736
 20
183.551572692714
 10
608.0736230754976
 20
183.5683707647239
 10
608.0886109140216
 20
183.5877326615022
 10
608.1035987525456
 20
183.6096585083423
 10
608.1185865910696
 20
183.6341484305378
 10
608.1335744295935
 20
183.6612025533818
 10
608.1485622681175
 20
183.6908210021679
 10
608.1635501066415
 20
183.7230039021894
 10
608.1785379451655
 20
183.7577513787397
 10
608.1935257836896
 20
183.7950634867997
 10
608.2085136222134
 20
183.8349374571083
 10
608.2235014607375
 20
183.8773667981744
 10
608.2384892992616
 20
183.9223447642945
 10
608.2534771377855
 20
183.9698646097653
 10
608.2684649763095
 20
184.0199195888835
 10
608.2834528148335
 20
184.0725029559459
 10
608.2984406533576
 20
184.127607965249
 10
608.3134284918815
 20
184.1852278710896
 10
608.3284163304053
 20
184.2453559277643
 10
608.3434041689295
 20
184.3079853895698
 10
608.3583920074534
 20
184.3731095108028
 10
608.3733798459773
 20
184.44072154576
 10
608.3883676845013
 20
184.5108147487381
 10
608.4033555230254
 20
184.5833823740336
 10
608.4183433615492
 20
184.6584176759434
 10
608.4333312000733
 20
184.7359139087641
 10
608.4483190385972
 20
184.8158643267921
  0
LWPOLYLINE
  5
8D
330
1F
100
AcDbEntity
  8
0
  6
CONTINUOUS
 62
     7
100
AcDbPolyline
 90
       33
 70
     0
 43
0.0
 10
707.9673527259239
 20
183.50419449879
 10
707.982378053303
 20
183.5053550900791
 10
707.997403380682
 20
183.5091092381297
 10
708.012428708061
 20
183.5154595887315
 10
708.0274540354403
 20
183.5244087664459
 10
708.0424793628196
 20
183.535957134151
 10
708.0575046901986
 20
183.5501008183428
 10
708.0725300175778
 20
183.5668354798894
 10
708.087555344957
 20
183.5861567796592
 10
708.1025806723361
 20
183.6080603785207
 10
708.1176059997152
 20
183.6325419373422
 10
708.1326313270945
 20
183.6595971169919
 10
708.1476566544734
 20
183.6892215783383
 10
708.1626819818526
 20
183.7214109822496
 10
708.1777073092317
 20
183.7561609895944
 10
708.1927326366108
 20
183.7934672612408
 10
708.2077579639899
 20
183.8333254580572
 10
708.2227832913691
 20
183.875731240912
 10
708.2378086187484
 20
183.9206802706736
 10
708.2528339461275
 20
183.9681682082102
 10
708.2678592735066
 20
184.0181907143903
 10
708.2828846008857
 20
184.0707434500821
 10
708.297909928265
 20
184.1258220761541
 10
708.3129352556441
 20
184.1834222534745
 10
708.327960583023
 20
184.2435396429117
 10
708.3429859104023
 20
184.3061699053341
 10
708.3580112377815
 20
184.37130870161
 10
708.3730365651608
 20
184.4389516926078
 10
708.3880618925398
 20
184.5090945391956
 10
708.4030872199189
 20
184.5817329022421
 10
708.418112547298
 20
184.6568624426155
 10
708.4331378746771
 20
184.7344788211841
 10
708.4481632020563
 20
184.8145776988162
  0
LWPOLYLINE
  5
8E
330
1F
100
AcDbEntity
  8
0
  6
CONTINUOUS
 62
     7
100
AcDbPolyline
 90
       33
 70
     0
 43
0.0
 10
657.9675034206006
 20
183.5043047802274
 10
657.9825204992843
 20
183.5055825476951
 10
657.9975375779682
 20
183.5094409135336
 10
658.0125546566519
 20
183.5158777658977
 10
658.0275717353356
 20
183.5248909929417
 10
658.0425888140193
 20
183.5364784828204
 10
658.057605892703
 20
183.5506381236884
 10
658.0726229713869
 20
183.5673678037001
 10
658.0876400500705
 20
183.5866654110102
 10
658.1026571287543
 20
183.6085288337733
 10
658.1176742074381
 20
183.6329559601439
 10
658.1326912861218
 20
183.6599446782767
 10
658.1477083648056
 20
183.6894928763262
 10
658.1627254434893
 20
183.721598442447
 10
658.1777425221732
 20
183.7562592647937
 10
658.1927596008567
 20
183.7934732315208
 10
658.2077766795404
 20
183.833238230783
 10
658.2227937582243
 20
183.8755521507349
 10
658.237810836908
 20
183.920412879531
 10
658.2528279155918
 20
183.967818305326
 10
658.2678449942756
 20
184.0177663162743
 10
658.2828620729592
 20
184.0702548005306
 10
658.297879151643
 20
184.1252816462494
 10
658.3128962303267
 20
184.1828447415855
 10
658.3279133090105
 20
184.2429419746932
 10
658.3429303876941
 20
184.3055709525698
 10
658.3579474663778
 20
184.3707255160909
 10
658.3729645450617
 20
184.4383968170798
 10
658.3879816237454
 20
184.508575949308
 10
658.4029987024293
 20
184.581254006547
 10
658.4180157811129
 20
184.6564220825681
 10
658.4330328597966
 20
184.734071271143
 10
658.4480499384804
 20
184.8141926660427
  0
LWPOLYLINE
  5
8F
330
1F
100
AcDbEntity
  8
0
  6
CONTINUOUS
 62
     7
100
AcDbPolyline
 90
       33
 70
     0
 43
0.0
 10
-652.9681001222106
 20
241.5037054584666
 10
-652.9830964614788
 20
241.502329887851
 10
-652.9980928007471
 20
241.4983826436144
 10
-653.0130891400155
 20
241.4918656064896
 10
-653.0280854792837
 20
241.4827806572093
 10
-653.0430818185521
 20
241.4711296765065
 10
-653.0580781578203
 20
241.4569145451137
 10
-653.0730744970886
 20
241.4401371437639
 10
-653.0880708363569
 20
241.4207993531899
 10
-653.1030671756253
 20
241.3989030541244
 10
-653.1180635148935
 20
241.3744501273002
 10
-653.1330598541618
 20
241.3474424534501
 10
-653.1480561934302
 20
241.317881913307
 10
-653.1630525326984
 20
241.2857703876035
 10
-653.1780488719669
 20
241.2511097570725
 10
-653.193045211235
 20
241.2139019024467
 10
-653.2080415505034
 20
241.174148704459
 10
-653.2230378897717
 20
241.1318520438421
 10
-653.2380342290401
 20
241.0870138013288
 10
-653.2530305683083
 20
241.039635857652
 10
-653.2680269075765
 20
240.9897200935443
 10
-653.283023246845
 20
240.9372683897387
 10
-653.2980195861134
 20
240.8822826269679
 10
-653.3130159253817
 20
240.8247646859646
 10
-653.3280122646499
 20
240.7647167006594
 10
-653.3430086039181
 20
240.7021444852251
 10
-653.3580049431865
 20
240.6370566324816
 10
-653.3730012824549
 20
240.5694618036518
 10
-653.3879976217232
 20
240.4993686599587
 10
-653.4029939609914
 20
240.426785862625
 10
-653.4179903002598
 20
240.3517220728739
 10
-653.432986639528
 20
240.2741859519282
 10
-653.4479829787964
 20
240.1941861610105
210
0.0
220
0.0
230
-1.0
  0
LWPOLYLINE
  5
90
330
1F
100
AcDbEntity
  8
0
  6
CONTINUOUS
 62
     7
100
AcDbPolyline
 90
       33
 70
     0
 43
0.0
 10
-642.9675060803696
 20
241.5036094509455
 10
-642.9825252010656
 20
241.5023388295793
 10
-642.9975443217614
 20
241.4984914602371
 10
-643.0125634424573
 20
241.4920687849988
 10
-643.0275825631531
 20
241.4830722459439
 10
-643.0426016838492
 20
241.4715032851524
 10
-643.0576208045451
 20
241.4573633447039
 10
-643.072639925241
 20
241.4406538666781
 10
-643.0876590459368
 20
241.4213762931548
 10
-643.1026781666328
 20
241.3995320662136
 10
-643.1176972873287
 20
241.3751226279343
 10
-643.1327164080246
 20
241.3481494203967
 10
-643.1477355287207
 20
241.3186138856804
 10
-643.1627546494165
 20
241.2865174658652
 10
-643.1777737701123
 20
241.2518616030308
 10
-643.1927928908083
 20
241.214647739257
 10
-643.2078120115042
 20
241.1748773166234
 10
-643.2228311322001
 20
241.1325517772098
 10
-643.2378502528959
 20
241.0876725630959
 10
-643.2528693735918
 20
241.0402411163614
 10
-643.2678884942878
 20
240.9902588790862
 10
-643.2829076149837
 20
240.9377272933498
 10
-643.2979267356795
 20
240.882647986614
 10
-643.3129458563753
 20
240.8250260551447
 10
-643.3279649770715
 20
240.7648696725678
 10
-643.3429840977674
 20
240.7021871192501
 10
-643.3580032184633
 20
240.6369866755588
 10
-643.3730223391592
 20
240.5692766218607
 10
-643.3880414598551
 20
240.4990652385229
 10
-643.403060580551
 20
240.4263608059124
 10
-643.4180797012468
 20
240.3511716043961
 10
-643.4330988219428
 20
240.2735059143412
 10
-643.4481179426388
 20
240.1933720161144
210
0.0
220
0.0
230
-1.0
  0
LWPOLYLINE
  5
91
330
1F
100
AcDbEntity
  8
0
  6
CONTINUOUS
 62
     7
100
AcDbPolyline
 90
       33
 70
     0
 43
0.0
 10
-602.9679104395992
 20
241.5034578759886
 10
-602.9829221357802
 20
241.5021808709949
 10
-602.9979338319614
 20
241.4983321763207
 10
-603.0129455281425
 20
241.4919114422746
 10
-603.0279572243235
 20
241.4829183191652
 10
-603.0429689205046
 20
241.4713524573008
 10
-603.0579806166855
 20
241.4572135069903
 10
-603.0729923128667
 20
241.440501118542
 10
-603.088004009048
 20
241.4212149422644
 10
-603.1030157052287
 20
241.3993546284662
 10
-603.1180274014098
 20
241.374919827456
 10
-603.133039097591
 20
241.3479101895421
 10
-603.1480507937721
 20
241.3183253650332
 10
-603.1630624899531
 20
241.2861650042378
 10
-603.1780741861342
 20
241.2514288013002
 10
-603.1930858823152
 20
241.2141190243742
 10
-603.2080975784963
 20
241.1742418993842
 10
-603.2231092746775
 20
241.1318039890019
 10
-603.2381209708586
 20
241.0868118558987
 10
-603.2531326670396
 20
241.0392720627462
 10
-603.2681443632206
 20
240.9891911722159
 10
-603.2831560594018
 20
240.9365757469794
 10
-603.2981677555829
 20
240.8814323497081
 10
-603.313179451764
 20
240.8237675430736
 10
-603.328191147945
 20
240.7635878897475
 10
-603.343202844126
 20
240.7008999524012
 10
-603.3582145403072
 20
240.6357102937062
 10
-603.3732262364882
 20
240.5680254763342
 10
-603.3882379326692
 20
240.4978520629567
 10
-603.4032496288504
 20
240.425196616245
 10
-603.4182613250314
 20
240.3500656988709
 10
-603.4332730212126
 20
240.2724658735058
 10
-603.4482847173937
 20
240.1924037028209
210
0.0
220
0.0
230
-1.0
  0
LWPOLYLINE
  5
92
330
1F
100
AcDbEntity
  8
0
  6
CONTINUOUS
 62
     7
100
AcDbPolyline
 90
       33
 70
     0
 43
0.0
 10
-582.9681345406447
 20
241.5035713586364
 10
-582.9831454295887
 20
241.5022830871247
 10
-582.9981563185329
 20
241.4984193697736
 10
-583.013167207477
 20
241.491978962379
 10
-583.0281780964212
 20
241.4829606207368
 10
-583.0431889853652
 20
241.4713631006429
 10
-583.0581998743094
 20
241.4571851578933
 10
-583.0732107632535
 20
241.4404255482838
 10
-583.0882216521976
 20
241.4210830276102
 10
-583.1032325411417
 20
241.3991563516686
 10
-583.1182434300858
 20
241.3746442918116
 10
-583.13325431903
 20
241.347547750712
 10
-583.1482652079741
 20
241.3178719115178
 10
-583.1632760969183
 20
241.2856224694634
 10
-583.1782869858623
 20
241.2508051197835
 10
-583.1932978748064
 20
241.2134255577127
 10
-583.2083087637504
 20
241.1734894784856
 10
-583.2233196526947
 20
241.1310025773368
 10
-583.2383305416387
 20
241.0859705495007
 10
-583.253341430583
 20
241.0383990902122
 10
-583.2683523195269
 20
240.9882938947055
 10
-583.2833632084711
 20
240.9356606582156
 10
-583.298374097415
 20
240.8805050759767
 10
-583.3133849863592
 20
240.8228328432236
 10
-583.3283958753034
 20
240.7626496551909
 10
-583.3434067642476
 20
240.6999612071131
 10
-583.3584176531915
 20
240.6347731942248
 10
-583.3734285421358
 20
240.5670913117606
 10
-583.3884394310797
 20
240.4969212549551
 10
-583.4034503200239
 20
240.4242687190428
 10
-583.418461208968
 20
240.3491393992584
 10
-583.4334720979122
 20
240.2715389908364
 10
-583.4484829868562
 20
240.1914731890113
210
0.0
220
0.0
230
-1.0
  0
LWPOLYLINE
  5
93
330
1F
100
AcDbEntity
  8
0
  6
CONTINUOUS
 62
     7
100
AcDbPolyline
 90
      105
 70
     0
 43
0.0
 10
-729.4678065638598
 20
241.5036181059182
 10
-729.5112668736316
 20
241.4929924973671
 10
-729.5547271834035
 20
241.4607377802156
 10
-729.5981874931753
 20
241.4068169825758
 10
-729.6416478029471
 20
241.3312247526906
 10
-729.6851081127189
 20
241.2340678602847
 10
-729.7285684224909
 20
241.1154779150923
 10
-729.7720287322626
 20
240.9755865268476
 10
-729.8154890420344
 20
240.8145253052848
 10
-729.8589493518062
 20
240.6324258601381
 10
-729.9024096615781
 20
240.4294198011418
 10
-729.94586997135
 20
240.20563873803
 10
-729.9893302811219
 20
239.9612142805369
 10
-730.0327905908937
 20
239.6962780383967
 10
-730.0762509006653
 20
239.4109660192577
 10
-730.1197112104372
 20
239.1054947773429
 10
-730.1631715202092
 20
238.7801513979788
 10
-730.2066318299811
 20
238.4352253502347
 10
-730.250092139753
 20
238.0710061031793
 10
-730.2935524495247
 20
237.6877831258819
 10
-730.3370127592966
 20
237.2858458874114
 10
-730.3804730690686
 20
236.8654838568368
 10
-730.4239333788405
 20
236.4269865032271
 10
-730.467393688612
 20
235.9706432956513
 10
-730.5108539983842
 20
235.4967437083799
 10
-730.5543143081559
 20
235.0056039603232
 10
-730.5977746179278
 20
234.4976292931979
 10
-730.6412349276997
 20
233.9732434482434
 10
-730.6846952374715
 20
233.432870166699
 10
-730.7281555472433
 20
232.8769331898041
 10
-730.7716158570151
 20
232.305856258798
 10
-730.815076166787
 20
231.7200631149202
 10
-730.858536476559
 20
231.1199774994098
 10
-730.9019967863309
 20
230.5060231535064
 10
-730.9454570961025
 20
229.8786238184492
 10
-730.9889174058744
 20
229.2382063483629
 10
-731.0323777156464
 20
228.5852497380405
 10
-731.0758380254181
 20
227.9202761702575
 10
-731.11929833519
 20
227.2438091301946
 10
-731.162758644962
 20
226.5563721030326
 10
-731.2062189547337
 20
225.858488573952
 10
-731.2496792645056
 20
225.1506820281336
 10
-731.2931395742775
 20
224.4334759507579
 10
-731.3365998840493
 20
223.7073938270057
 10
-731.3800601938211
 20
222.9729591420577
 10
-731.423520503593
 20
222.2306953864814
 10
-731.466980813365
 20
221.4811381060923
 10
-731.5104411231367
 20
220.7248605309377
 10
-731.5539014329084
 20
219.9624432343523
 10
-731.5973617426805
 20
219.1944667896708
 10
-731.6408220524522
 20
218.4215117702277
 10
-731.6842823622243
 20
217.6441587493576
 10
-731.7277426719959
 20
216.8629883003952
 10
-731.7712029817677
 20
216.078580996675
 10
-731.8146632915395
 20
215.2915174115319
 10
-731.8581236013115
 20
214.5023781183003
 10
-731.9015839110832
 20
213.7117440308357
 10
-731.9450442208549
 20
212.9202012948663
 10
-731.9885045306268
 20
212.1283401546916
 10
-732.0319648403986
 20
211.3367509642285
 10
-732.0754251501704
 20
210.5460240773939
 10
-732.1188854599425
 20
209.7567498481046
 10
-732.1623457697142
 20
208.9695186302773
 10
-732.2058060794859
 20
208.1849207778292
 10
-732.2492663892579
 20
207.403546644677
 10
-732.2927266990297
 20
206.6259865847375
 10
-732.3361870088015
 20
205.8528309447489
 10
-732.3796473185733
 20
205.0846615062388
 10
-732.4231076283453
 20
204.3220348941744
 10
-732.4665679381172
 20
203.5655031385199
 10
-732.5100282478888
 20
202.8156182692394
 10
-732.5534885576609
 20
202.0729323162972
 10
-732.5969488674328
 20
201.3379973096575
 10
-732.6404091772048
 20
200.6113652792845
 10
-732.6838694869766
 20
199.8935882551423
 10
-732.7273297967483
 20
199.1852182671951
 10
-732.7707901065203
 20
198.4868073454072
 10
-732.8142504162922
 20
197.7989042965597
 10
-732.857710726064
 20
197.1220123799076
 10
-732.9011710358359
 20
196.4566011145735
 10
-732.944631345608
 20
195.8031392248321
 10
-732.9880916553797
 20
195.1620954349574
 10
-733.0315519651515
 20
194.5339384692242
 10
-733.0750122749233
 20
193.9191370519067
 10
-733.1184725846952
 20
193.3181599072793
 10
-733.1619328944671
 20
192.7314757596166
 10
-733.2053932042389
 20
192.1595533331928
 10
-733.2488535140108
 20
191.6028613125282
 10
-733.2923138237825
 20
191.0618396923289
 10
-733.3357741335543
 20
190.5368492534257
 10
-733.3792344433261
 20
190.0282372207662
 10
-733.422694753098
 20
189.5363508192978
 10
-733.4661550628696
 20
189.0615372739683
 10
-733.5096153726416
 20
188.6041438097251
 10
-733.5530756824132
 20
188.164517651516
 10
-733.5965359921851
 20
187.7430060242884
 10
-733.6399963019569
 20
187.3399561529901
 10
-733.6834566117288
 20
186.9557152625684
 10
-733.7269169215007
 20
186.5906241603416
 10
-733.7703772312725
 20
186.2449400396341
 10
-733.8138375410443
 20
185.9188615383842
 10
-733.8572978508163
 20
185.6125860888551
 10
-733.9007581605882
 20
185.3263111233097
 10
-733.94421847036
 20
185.0602340740107
 10
-733.9876787801313
 20
184.8145523732249
210
0.0
220
0.0
230
-1.0
  0
LWPOLYLINE
  5
94
330
1F
100
AcDbEntity
  8
0
  6
CONTINUOUS
 62
     7
100
AcDbPolyline
 90
       33
 70
     0
 43
0.0
 10
-742.9677178621647
 20
241.5035409667008
 10
-742.9827384105649
 20
241.5023186468765
 10
-742.9977589589653
 20
241.4985186174766
 10
-743.0127795073656
 20
241.4921397998577
 10
-743.027800055766
 20
241.4831811153767
 10
-743.0428206041663
 20
241.4716414853904
 10
-743.0578411525668
 20
241.4575198312557
 10
-743.0728617009669
 20
241.4408150743293
 10
-743.0878822493672
 20
241.421526135968
 10
-743.1029027977676
 20
241.3996519375286
 10
-743.117923346168
 20
241.375191400368
 10
-743.1329438945684
 20
241.3481435803926
 10
-743.1479644429687
 20
241.3185108103601
 10
-743.1629849913691
 20
241.2862988044214
 10
-743.1780055397694
 20
241.251513432192
 10
-743.1930260881697
 20
241.2141605632875
 10
-743.2080466365701
 20
241.1742460673233
 10
-743.2230671849704
 20
241.1317758139149
 10
-743.2380877333705
 20
241.0867556726778
 10
-743.253108281771
 20
241.0391915132277
 10
-743.2681288301715
 20
240.9890892051801
 10
-743.2831493785718
 20
240.9364546181503
 10
-743.2981699269724
 20
240.8812936217539
 10
-743.3131904753724
 20
240.8236120856064
 10
-743.3282110237728
 20
240.7634158793234
 10
-743.3432315721733
 20
240.7007108725204
 10
-743.3582521205736
 20
240.6355029348128
 10
-743.3732726689739
 20
240.5677979358162
 10
-743.3882932173743
 20
240.4976017451461
 10
-743.4033137657746
 20
240.424920232418
 10
-743.4183343141751
 20
240.3497592672475
 10
-743.4333548625752
 20
240.2721247192499
 10
-743.4483754109752
 20
240.192022458043
210
0.0
220
0.0
230
-1.0
  0
LWPOLYLINE
  5
95
330
1F
100
AcDbEntity
  8
0
  6
CONTINUOUS
 62
     7
100
AcDbPolyline
 90
       33
 70
     0
 43
0.0
 10
-722.968012859072
 20
241.5037259524519
 10
-722.9830237070822
 20
241.5024657843478
 10
-722.9980345550922
 20
241.4986243595347
 10
-723.0130454031023
 20
241.4921997081632
 10
-723.0280562511124
 20
241.4831898603842
 10
-723.0430670991224
 20
241.4715928463481
 10
-723.0580779471325
 20
241.457406696206
 10
-723.0730887951426
 20
241.4406295078805
 10
-723.0880996431525
 20
241.421262208821
 10
-723.1031104911626
 20
241.399309519026
 10
-723.1181213391727
 20
241.3747764240669
 10
-723.1331321871828
 20
241.3476679095145
 10
-723.1481430351929
 20
241.3179889609403
 10
-723.163153883203
 20
241.285744563915
 10
-723.1781647312131
 20
241.2509397040101
 10
-723.1931755792232
 20
241.2135793667966
 10
-723.2081864272332
 20
241.1736685378455
 10
-723.2231972752431
 20
241.1312122027281
 10
-723.2382081232533
 20
241.0862153470154
 10
-723.2532189712632
 20
241.0386829562786
 10
-723.2682298192733
 20
240.9886200160889
 10
-723.2832406672834
 20
240.9360315120173
 10
-723.2982515152937
 20
240.8809224296351
 10
-723.3132623633038
 20
240.8232977545132
 10
-723.3282732113139
 20
240.7631624722229
 10
-723.3432840593237
 20
240.7005215683351
 10
-723.3582949073339
 20
240.6353800284212
 10
-723.373305755344
 20
240.5677428380523
 10
-723.388316603354
 20
240.4976149827994
 10
-723.403327451364
 20
240.4250014482336
 10
-723.4183382993742
 20
240.3499072199262
 10
-723.4333491473843
 20
240.2723372834482
 10
-723.4483599953941
 20
240.192296624372
210
0.0
220
0.0
230
-1.0
  0
LWPOLYLINE
  5
96
330
1F
100
AcDbEntity
  8
0
  6
CONTINUOUS
 62
     7
100
AcDbPolyline
 90
       33
 70
     0
 43
0.0
 10
-712.9682369966087
 20
241.5038263170737
 10
-712.9832423871384
 20
241.5025229469454
 10
-712.9982477776682
 20
241.4986354358389
 10
-713.013253168198
 20
241.4921613708092
 10
-713.0282585587277
 20
241.4830983389114
 10
-713.0432639492575
 20
241.471443974798
 10
-713.0582693397872
 20
241.4571985429979
 10
-713.0732747303172
 20
241.4403662594773
 10
-713.088280120847
 20
241.4209516659235
 10
-713.1032855113767
 20
241.3989593040241
 10
-713.1182909019066
 20
241.3743937154665
 10
-713.1332962924363
 20
241.3472594419383
 10
-713.1483016829662
 20
241.3175610251268
 10
-713.1633070734961
 20
241.2853030067196
 10
-713.1783124640258
 20
241.2504899284041
 10
-713.1933178545556
 20
241.2131263318678
 10
-713.2083232450854
 20
241.1732167587981
 10
-713.2233286356152
 20
241.1307657508826
 10
-713.238334026145
 20
241.0857778498087
 10
-713.2533394166746
 20
241.0382575972639
 10
-713.2683448072048
 20
240.9882095349357
 10
-713.2833501977344
 20
240.9356382045115
 10
-713.2983555882641
 20
240.8805481476787
 10
-713.313360978794
 20
240.822943906125
 10
-713.3283663693237
 20
240.7628300215377
 10
-713.3433717598534
 20
240.7002110356044
 10
-713.3583771503834
 20
240.6350914900124
 10
-713.373382540913
 20
240.5674759264493
 10
-713.3883879314428
 20
240.4973688866025
 10
-713.4033933219728
 20
240.4247749121596
 10
-713.4183987125025
 20
240.3496985448079
 10
-713.4334041030324
 20
240.2721443262351
 10
-713.4484094935623
 20
240.1921167981275
210
0.0
220
0.0
230
-1.0
  0
LWPOLYLINE
  5
97
330
1F
100
AcDbEntity
  8
0
  6
CONTINUOUS
 62
     7
100
AcDbPolyline
 90
       33
 70
     0
 43
0.0
 10
717.967942344751
 20
183.5042860600032
 10
717.9829567478185
 20
183.5055363730707
 10
717.9979711508861
 20
183.50937141343
 10
718.0129855539537
 20
183.5157933754455
 10
718.0279999570215
 20
183.5248044534815
 10
718.043014360089
 20
183.5364068419026
 10
718.0580287631569
 20
183.5506026824507
 10
718.0730431662242
 20
183.5673914297186
 10
718.0880575692919
 20
183.5867686231841
 10
718.1030719723595
 20
183.6087294931517
 10
718.1180863754273
 20
183.6332692699262
 10
718.1331007784948
 20
183.6603831838119
 10
718.1481151815625
 20
183.6900664651137
 10
718.16312958463
 20
183.722314344136
 10
718.1781439876977
 20
183.7571220511835
 10
718.1931583907653
 20
183.7944848165608
 10
718.208172793833
 20
183.8343978705725
 10
718.2231871969007
 20
183.8768564435232
 10
718.2382015999683
 20
183.9218557657175
 10
718.253216003036
 20
183.96939106746
 10
718.2682304061035
 20
184.0194575790553
 10
718.2832448091712
 20
184.072050530808
 10
718.2982592122387
 20
184.1271651530228
 10
718.3132736153063
 20
184.1847966760041
 10
718.3282880183739
 20
184.2449403300567
 10
718.3433024214416
 20
184.3075913454852
 10
718.3583168245091
 20
184.3727449525941
 10
718.3733312275765
 20
184.440396381688
 10
718.3883456306444
 20
184.5105408630716
 10
718.4033600337118
 20
184.5831736270495
 10
718.4183744367796
 20
184.6582899039262
 10
718.4333888398471
 20
184.7358849240064
 10
718.4484032429149
 20
184.8159539175952
  0
LWPOLYLINE
  5
98
330
1F
100
AcDbEntity
  8
0
  6
CONTINUOUS
 62
     7
100
AcDbPolyline
 90
       33
 70
     0
 43
0.0
 10
697.9670012293443
 20
183.5041271096397
 10
697.9820328175801
 20
183.505248340715
 10
697.9970644058162
 20
183.5089712300646
 10
698.0120959940522
 20
183.5152969667953
 10
698.0271275822881
 20
183.5242222868165
 10
698.0421591705242
 20
183.5357432885639
 10
698.0571907587602
 20
183.5498560704732
 10
698.0722223469959
 20
183.5665567309804
 10
698.0872539352321
 20
183.5858413685212
 10
698.1022855234679
 20
183.6077060815314
 10
698.117317111704
 20
183.6321469684468
 10
698.1323486999398
 20
183.6591601277031
 10
698.1473802881758
 20
183.6887416577363
 10
698.1624118764117
 20
183.720887656982
 10
698.1774434646477
 20
183.7555942238761
 10
698.1924750528837
 20
183.7928574568543
 10
698.2075066411196
 20
183.8326734543525
 10
698.2225382293556
 20
183.8750383148064
 10
698.2375698175915
 20
183.9199481366519
 10
698.2526014058274
 20
183.9673990183247
 10
698.2676329940634
 20
184.0173870582607
 10
698.2826645822995
 20
184.0699083548956
 10
698.2976961705352
 20
184.1249590066651
 10
698.3127277587713
 20
184.1825351120053
 10
698.3277593470073
 20
184.2426327693517
 10
698.3427909352431
 20
184.3052480771402
 10
698.357822523479
 20
184.3703771338065
 10
698.372854111715
 20
184.4380160377867
 10
698.3878856999511
 20
184.5081608875163
 10
698.402917288187
 20
184.5808077814311
 10
698.4179488764228
 20
184.655952817967
 10
698.4329804646588
 20
184.7335920955598
 10
698.4480120528947
 20
184.8137217126449
  0
LWPOLYLINE
  5
99
330
1F
100
AcDbEntity
  8
0
  6
CONTINUOUS
 62
     7
100
AcDbPolyline
 90
       33
 70
     0
 43
0.0
 10
-682.9679207461191
 20
241.5039552515902
 10
-682.9829288796025
 20
241.5026347103389
 10
-682.997937013086
 20
241.4987248327686
 10
-683.0129451465696
 20
241.492228838423
 10
-683.027953280053
 20
241.4831499468455
 10
-683.0429614135365
 20
241.47149137758
 10
-683.05796954702
 20
241.4572563501698
 10
-683.0729776805035
 20
241.4404480841587
 10
-683.0879858139868
 20
241.4210697990902
 10
-683.1029939474705
 20
241.3991247145079
 10
-683.1180020809537
 20
241.3746160499553
 10
-683.1330102144373
 20
241.3475470249762
 10
-683.1480183479208
 20
241.317920859114
 10
-683.1630264814042
 20
241.2857407719125
 10
-683.1780346148879
 20
241.2510099829151
 10
-683.1930427483712
 20
241.2137317116656
 10
-683.2080508818547
 20
241.1739091777073
 10
-683.2230590153381
 20
241.1315456005841
 10
-683.2380671488215
 20
241.0866441998394
 10
-683.253075282305
 20
241.039208195017
 10
-683.2680834157886
 20
240.9892408056602
 10
-683.2830915492721
 20
240.9367452513128
 10
-683.2980996827556
 20
240.8817247515184
 10
-683.3131078162389
 20
240.8241825258205
 10
-683.3281159497224
 20
240.7641217937628
 10
-683.3431240832058
 20
240.7015457748888
 10
-683.3581322166895
 20
240.6364576887421
 10
-683.3731403501728
 20
240.5688607548663
 10
-683.3881484836563
 20
240.4987581928052
 10
-683.4031566171399
 20
240.4261532221021
 10
-683.4181647506232
 20
240.351049596095
 10
-683.4331728841066
 20
240.2734552521412
 10
-683.4481810175903
 20
240.193380100646
210
0.0
220
0.0
230
-1.0
  0
LWPOLYLINE
  5
9A
330
1F
100
AcDbEntity
  8
0
  6
CONTINUOUS
 62
     7
100
AcDbPolyline
 90
       33
 70
     0
 43
0.0
 10
-672.9688959035715
 20
241.5038884300978
 10
-672.9838663637164
 20
241.5023885878439
 10
-672.9988368238613
 20
241.4983179305856
 10
-673.0138072840062
 20
241.4916792131098
 10
-673.0287777441511
 20
241.4824751902031
 10
-673.0437482042961
 20
241.4707086166525
 10
-673.058718664441
 20
241.4563822472447
 10
-673.0736891245858
 20
241.4394988367665
 10
-673.0886595847309
 20
241.4200611400047
 10
-673.1036300448757
 20
241.3980719117461
 10
-673.1186005050207
 20
241.3735339067775
 10
-673.1335709651655
 20
241.3464498798857
 10
-673.1485414253103
 20
241.3168225858574
 10
-673.1635118854554
 20
241.2846547794796
 10
-673.1784823456003
 20
241.2499492155389
 10
-673.1934528057451
 20
241.2127086488223
 10
-673.2084232658902
 20
241.1729358341164
 10
-673.2233937260352
 20
241.1306335262081
 10
-673.23836418618
 20
241.0858044798841
 10
-673.2533346463249
 20
241.0384514499312
 10
-673.2683051064697
 20
240.9885771911364
 10
-673.2832755666147
 20
240.9361844582863
 10
-673.2982460267597
 20
240.8812760061677
 10
-673.3132164869046
 20
240.8238545895675
 10
-673.3281869470495
 20
240.7639229632724
 10
-673.3431574071946
 20
240.7014838820692
 10
-673.3581278673395
 20
240.6365401007448
 10
-673.3730983274845
 20
240.5690943740859
 10
-673.3880687876292
 20
240.4991498767735
 10
-673.4030392477742
 20
240.426713796505
 10
-673.418009707919
 20
240.3517955496854
 10
-673.432980168064
 20
240.2744045765813
 10
-673.4479506282088
 20
240.1945503174594
210
0.0
220
0.0
230
-1.0
  0
LWPOLYLINE
  5
9B
330
1F
100
AcDbEntity
  8
0
  6
CONTINUOUS
 62
     7
100
AcDbPolyline
 90
       33
 70
     0
 43
0.0
 10
597.9685815525139
 20
183.5045894486794
 10
597.9835742926657
 20
183.5059701078993
 10
597.9985670328172
 20
183.5099166649824
 10
598.0135597729687
 20
183.5164296912198
 10
598.0285525131204
 20
183.5255097579028
 10
598.043545253272
 20
183.5371574363225
 10
598.0585379934236
 20
183.5513732977702
 10
598.0735307335751
 20
183.568157913537
 10
598.0885234737269
 20
183.5875118549142
 10
598.1035162138785
 20
183.6094356931929
 10
598.11850895403
 20
183.6339299996642
 10
598.1335016941815
 20
183.6609953456195
 10
598.1484944343333
 20
183.6906323023499
 10
598.163487174485
 20
183.7228413972377
 10
598.1784799146366
 20
183.7576205882314
 10
598.1934726547881
 20
183.7949638876433
 10
598.2084653949399
 20
183.8348649726631
 10
598.2234581350915
 20
183.8773175204799
 10
598.2384508752431
 20
183.9223152082833
 10
598.2534436153946
 20
183.9698517132626
 10
598.2684363555463
 20
184.0199207126071
 10
598.2834290956979
 20
184.0725158835063
 10
598.2984218358495
 20
184.1276309031496
 10
598.3134145760012
 20
184.1852594487263
 10
598.3284073161527
 20
184.2453951974259
 10
598.3434000563044
 20
184.3080318264376
 10
598.3583927964561
 20
184.373163012951
 10
598.3733855366077
 20
184.4407824341554
 10
598.3883782767593
 20
184.5108837672401
 10
598.403371016911
 20
184.5834606893947
 10
598.4183637570625
 20
184.6585068778082
 10
598.4333564972142
 20
184.7360160096705
 10
598.4483492373658
 20
184.8159817621708
  0
LWPOLYLINE
  5
9C
330
1F
100
AcDbEntity
  8
0
  6
CONTINUOUS
 62
     7
100
AcDbPolyline
 90
       33
 70
     0
 43
0.0
 10
737.9686047847393
 20
183.5044821579561
 10
737.9836023789338
 20
183.5058476161682
 10
737.9985999731284
 20
183.5097843667979
 10
738.0135975673232
 20
183.5162937064657
 10
738.0285951615178
 20
183.5253769317917
 10
738.0435927557126
 20
183.5370353393964
 10
738.058590349907
 20
183.5512702259001
 10
738.0735879441019
 20
183.5680828879232
 10
738.0885855382962
 20
183.587474622086
 10
738.103583132491
 20
183.609446725009
 10
738.1185807266855
 20
183.6340003458753
 10
738.1335783208802
 20
183.6611333009001
 10
738.1485759150748
 20
183.6908401052846
 10
738.1635735092696
 20
183.7231151331835
 10
738.178571103464
 20
183.7579527587516
 10
738.1935686976589
 20
183.795347356144
 10
738.2085662918535
 20
183.8352932995155
 10
738.223563886048
 20
183.8777849630208
 10
738.2385614802427
 20
183.9228167208149
 10
738.2535590744374
 20
183.9703829470527
 10
738.268556668632
 20
184.020478015889
 10
738.2835542628266
 20
184.0730963014786
 10
738.2985518570212
 20
184.1282321779766
 10
738.3135494512156
 20
184.1858800195376
 10
738.3285470454103
 20
184.2460342003166
 10
738.3435446396049
 20
184.3086890944685
 10
738.3585422337997
 20
184.3738390761481
 10
738.3735398279944
 20
184.4414785195103
 10
738.3885374221888
 20
184.5116017987099
 10
738.4035350163834
 20
184.5842032879018
 10
738.418532610578
 20
184.6592773612409
 10
738.4335302047726
 20
184.7368183928821
 10
738.4485277989677
 20
184.8168207569819
  0
LWPOLYLINE
  5
9D
330
1F
100
AcDbEntity
  8
0
  6
CONTINUOUS
 62
     7
100
AcDbPolyline
 90
       33
 70
     0
 43
0.0
 10
587.9681454069747
 20
183.5045300996984
 10
587.9831422754057
 20
183.5058231452055
 10
587.9981391438369
 20
183.5096854954746
 10
588.013136012268
 20
183.51611816832
 10
588.0281328806992
 20
183.5251221815561
 10
588.0431297491302
 20
183.5366985529971
 10
588.0581266175612
 20
183.5508483004576
 10
588.0731234859923
 20
183.5675724417519
 10
588.0881203544235
 20
183.5868719946942
 10
588.1031172228546
 20
183.608747977099
 10
588.1181140912856
 20
183.6332014067806
 10
588.1331109597168
 20
183.660233282064
 10
588.1481078281478
 20
183.6898423922977
 10
588.163104696579
 20
183.722023314678
 10
588.1781015650099
 20
183.7567701531645
 10
588.1930984334409
 20
183.7940770117168
 10
588.2080953018722
 20
183.8339379942945
 10
588.2230921703033
 20
183.8763472048571
 10
588.2380890387343
 20
183.9212987473643
 10
588.2530859071653
 20
183.9687867257754
 10
588.2680827755964
 20
184.0188052440501
 10
588.2830796440276
 20
184.071348406148
 10
588.2980765124587
 20
184.1264103160287
 10
588.3130733808897
 20
184.1839850776516
 10
588.328070249321
 20
184.2440667949763
 10
588.3430671177521
 20
184.3066495719625
 10
588.358063986183
 20
184.3717275125695
 10
588.3730608546142
 20
184.4392947207571
 10
588.3880577230452
 20
184.5093453004848
 10
588.4030545914763
 20
184.5818733557121
 10
588.4180514599074
 20
184.6568729903986
 10
588.4330483283384
 20
184.7343383085038
 10
588.4480451967695
 20
184.8142634139873
  0
LWPOLYLINE
  5
9E
330
1F
100
AcDbEntity
  8
0
  6
CONTINUOUS
 62
     7
100
AcDbPolyline
 90
       33
 70
     0
 43
0.0
 10
647.9676279274364
 20
183.5044058659349
 10
647.9826389608069
 20
183.5057002279838
 10
647.9976499941778
 20
183.5095698492864
 10
648.0126610275483
 20
183.5160130667637
 10
648.027672060919
 20
183.525028217337
 10
648.0426830942896
 20
183.5366136379272
 10
648.0576941276603
 20
183.5507676654553
 10
648.072705161031
 20
183.5674886368426
 10
648.0877161944018
 20
183.5867748890101
 10
648.1027272277723
 20
183.6086247588788
 10
648.1177382611428
 20
183.6330365833697
 10
648.1327492945136
 20
183.6600086994041
 10
648.1477603278843
 20
183.689539443903
 10
648.1627713612548
 20
183.7216271537874
 10
648.1777823946254
 20
183.7562701659784
 10
648.1927934279962
 20
183.7934668173971
 10
648.2078044613668
 20
183.8332154449646
 10
648.2228154947375
 20
183.875514385602
 10
648.2378265281081
 20
183.9203619762303
 10
648.2528375614788
 20
183.9677565537705
 10
648.2678485948493
 20
184.0176964551438
 10
648.28285962822
 20
184.0701800172713
 10
648.2978706615905
 20
184.1252055770741
 10
648.3128816949613
 20
184.1827712604658
 10
648.327892728332
 20
184.2428716371978
 10
648.3429037617026
 20
184.3054983199667
 10
648.3579147950734
 20
184.3706428315637
 10
648.3729258284438
 20
184.4382966947796
 10
648.3879368618145
 20
184.5084514324053
 10
648.4029478951852
 20
184.5810985672319
 10
648.4179589285557
 20
184.6562296220503
 10
648.4329699619266
 20
184.7338361196513
 10
648.447980995297
 20
184.8139095828255
  0
LWPOLYLINE
  5
9F
330
1F
100
AcDbEntity
  8
0
  6
CONTINUOUS
 62
     7
100
AcDbPolyline
 90
      105
 70
     0
 43
0.0
 10
-649.46810010507
 20
241.5036973980777
 10
-649.5115556457071
 20
241.4926418681356
 10
-649.5550111863444
 20
241.4600221870267
 10
-649.5984667269815
 20
241.4058841169278
 10
-649.6419222676186
 20
241.3302734200161
 10
-649.6853778082559
 20
241.2332358584684
 10
-649.728833348893
 20
241.1148171944618
 10
-649.77228888953
 20
240.9750631901732
 10
-649.8157444301672
 20
240.8140196077796
 10
-649.8591999708044
 20
240.6317541344054
 10
-649.9026555114415
 20
240.4284436057371
 10
-649.9461110520787
 20
240.2042987569423
 10
-649.9895665927158
 20
239.9595303337575
 10
-650.033022133353
 20
239.6943490819193
 10
-650.0764776739903
 20
239.4089657471644
 10
-650.1199332146274
 20
239.1035910752293
 10
-650.1633887552648
 20
238.7784358118507
 10
-650.2068442959016
 20
238.433710702765
 10
-650.2502998365388
 20
238.069626493709
 10
-650.2937553771759
 20
237.6863959829577
 10
-650.3372109178133
 20
237.2842968238362
 10
-650.3806664584504
 20
236.8636831713802
 10
-650.4241219990877
 20
236.4249135824319
 10
-650.4675775397245
 20
235.9683466138328
 10
-650.5110330803619
 20
235.4943408224251
 10
-650.554488620999
 20
235.0032547650507
 10
-650.5979441616362
 20
234.4954469985515
 10
-650.6413997022734
 20
233.9712760797694
 10
-650.6848552429105
 20
233.4311005655465
 10
-650.7283107835477
 20
232.8752790127245
 10
-650.7717663241848
 20
232.3041867239882
 10
-650.815221864822
 20
231.7182777313123
 10
-650.8586774054593
 20
231.1180291828434
 10
-650.9021329460962
 20
230.5039182298002
 10
-650.9455884867334
 20
229.8764220234013
 10
-650.9890440273706
 20
229.2360177148657
 10
-651.0324995680078
 20
228.583182455412
 10
-651.075955108645
 20
227.918393396259
 10
-651.1194106492821
 20
227.2421276886253
 10
-651.1628661899192
 20
226.5548624837298
 10
-651.2063217305564
 20
225.8570761900681
 10
-651.2497772711935
 20
225.149283169917
 10
-651.2932328118306
 20
224.4320381462224
 10
-651.3366883524677
 20
223.7058979842797
 10
-651.3801438931049
 20
222.9714195493844
 10
-651.423599433742
 20
222.2291597068319
 10
-651.4670549743792
 20
221.4796753219176
 10
-651.5105105150163
 20
220.723523259937
 10
-651.5539660556535
 20
219.9612603861853
 10
-651.5974215962908
 20
219.1934435659583
 10
-651.6408771369278
 20
218.4206296645512
 10
-651.6843326775648
 20
217.6433806929659
 10
-651.7277882182021
 20
216.8622815135069
 10
-651.7712437588394
 20
216.0779233295641
 10
-651.8146992994765
 20
215.2908973447693
 10
-651.8581548401137
 20
214.5017947627543
 10
-651.9016103807508
 20
213.7112067871509
 10
-651.9450659213882
 20
212.9197246215908
 10
-651.9885214620252
 20
212.1279394697057
 10
-652.0319770026623
 20
211.3364425351275
 10
-652.0754325432994
 20
210.5458250214879
 10
-652.1188880839367
 20
209.7566778858445
 10
-652.1623436245739
 20
208.9695856771363
 10
-652.205799165211
 20
208.185126097908
 10
-652.2492547058482
 20
207.4038765163543
 10
-652.2927102464853
 20
206.62641430067
 10
-652.3361657871225
 20
205.8533168190499
 10
-652.3796213277594
 20
205.0851614396889
 10
-652.4230768683968
 20
204.3225255307818
 10
-652.466532409034
 20
203.5659864605233
 10
-652.509987949671
 20
202.8161215971083
 10
-652.5534434903082
 20
202.0735083087317
 10
-652.5968990309455
 20
201.3387142925187
 10
-652.6403545715825
 20
200.6122666729406
 10
-652.6838101122197
 20
199.8946819363929
 10
-652.7272656528568
 20
199.1864765692299
 10
-652.7707211934938
 20
198.4881670578062
 10
-652.8141767341309
 20
197.8002698884764
 10
-652.8576322747682
 20
197.1233015475949
 10
-652.9010878154054
 20
196.4577785215163
 10
-652.9445433560427
 20
195.804217296595
 10
-652.9879988966796
 20
195.1631343591856
 10
-653.0314544373169
 20
194.5350441319904
 10
-653.074909977954
 20
193.9204121130176
 10
-653.1183655185912
 20
193.3196540500595
 10
-653.1618210592284
 20
192.7331834621368
 10
-653.2052765998654
 20
192.1614138682703
 10
-653.2487321405027
 20
191.6047587874809
 10
-653.2921876811399
 20
191.0636317387894
 10
-653.335643221777
 20
190.5384462412165
 10
-653.3790987624143
 20
190.0296158137832
 10
-653.4225543030514
 20
189.5375539755102
 10
-653.4660098436883
 20
189.0626742454177
 10
-653.5094653843256
 20
188.6053671559305
 10
-653.5529209249627
 20
188.1659321323392
 10
-653.5963764656
 20
187.7446460310517
 10
-653.6398320062369
 20
187.3417857084756
 10
-653.6832875468741
 20
186.9576280210186
 10
-653.7267430875113
 20
186.5924498250885
 10
-653.7701986281485
 20
186.246527977093
 10
-653.8136541687858
 20
185.9201393334397
 10
-653.8571097094227
 20
185.6135607505364
 10
-653.90056525006
 20
185.3270690847907
 10
-653.9440207906972
 20
185.0609376198612
 10
-653.9874763313343
 20
184.8153621052912
210
0.0
220
0.0
230
-1.0
  0
LWPOLYLINE
  5
A0
330
1F
100
AcDbEntity
  8
0
  6
CONTINUOUS
 62
     7
100
AcDbPolyline
 90
        4
 70
     0
 43
0.0
 10
708.0874088069302
 20
185.7929757115789
 10
708.1536437375779
 20
185.6522795936645
 10
708.219962332025
 20
185.5580125018898
 10
708.3205129396844
 20
185.5040313958415
  0
LWPOLYLINE
  5
A1
330
1F
100
AcDbEntity
  8
0
  6
CONTINUOUS
 62
     7
100
AcDbPolyline
 90
        4
 70
     0
 43
0.0
 10
738.0721949920163
 20
185.8321481937373
 10
738.140393922204
 20
185.6767766343345
 10
738.2085368671345
 20
185.5707524141079
 10
738.3204670522042
 20
185.504031395872
  0
LWPOLYLINE
  5
A2
330
1F
100
AcDbEntity
  8
0
  6
CONTINUOUS
 62
     7
100
AcDbPolyline
 90
      105
 70
     0
 43
0.0
 10
713.4484094935623
 20
240.1921167981275
 10
713.4918665402082
 20
239.9464374856367
 10
713.5353235868544
 20
239.6801850132325
 10
713.5787806335004
 20
239.3935989576713
 10
713.6222376801466
 20
239.0869495794139
 10
713.6656947267925
 20
238.7605071418957
 10
713.7091517734386
 20
238.4145419085525
 10
713.7526088200848
 20
238.0493241428197
 10
713.7960658667308
 20
237.6651241081329
 10
713.8395229133768
 20
237.2622120679275
 10
713.8829799600229
 20
236.8408582856394
 10
713.9264370066691
 20
236.4013330247038
 10
713.969894053315
 20
235.9439088107609
 10
714.013351099961
 20
235.4689209074906
 10
714.0568081466071
 20
234.9767739134201
 10
714.1002651932532
 20
234.4678760127781
 10
714.1437222398993
 20
233.9426353897936
 10
714.1871792865452
 20
233.4014602286955
 10
714.2306363331915
 20
232.8447587137124
 10
714.2740933798374
 20
232.2729390290734
 10
714.3175504264832
 20
231.6864093590072
 10
714.3610074731293
 20
231.0855778877428
 10
714.4044645197754
 20
230.4708527995089
 10
714.4479215664215
 20
229.8426582738244
 10
714.4913786130675
 20
229.2014881800307
 10
714.5348356597136
 20
228.5478553621694
 10
714.5782927063597
 20
227.8822726646847
 10
714.6217497530057
 20
227.2052529320208
 10
714.6652067996515
 20
226.5173090086216
 10
714.7086638462977
 20
225.8189537389316
 10
714.7521208929437
 20
225.1106999673948
 10
714.7955779395897
 20
224.3930605384554
 10
714.8390349862359
 20
223.6665482965575
 10
714.8824920328818
 20
222.9316772548633
 10
714.925949079528
 20
222.1889908147026
 10
714.969406126174
 20
221.4390632301491
 10
715.0128631728202
 20
220.6824702171271
 10
715.0563202194661
 20
219.919787491561
 10
715.0997772661124
 20
219.1515907693752
 10
715.1432343127584
 20
218.3784557664939
 10
715.1866913594043
 20
217.6009581988415
 10
715.2301484060504
 20
216.8196737823424
 10
715.2736054526964
 20
216.0351782329209
 10
715.3170624993426
 20
215.2480472665013
 10
715.3605195459887
 20
214.4588591892996
 10
715.4039765926345
 20
213.6682029461064
 10
715.4474336392808
 20
212.8766702125552
 10
715.490890685927
 20
212.084852664281
 10
715.5343477325729
 20
211.293341976919
 10
715.5778047792189
 20
210.5027298261044
 10
715.621261825865
 20
209.7136078874723
 10
715.6647188725111
 20
208.926567836658
 10
715.7081759191572
 20
208.1422013492964
 10
715.7516329658032
 20
207.3611001010229
 10
715.7950900124492
 20
206.5838550913949
 10
715.8385470590953
 20
205.8110418449359
 10
715.8820041057413
 20
205.0432204525521
 10
715.9254611523872
 20
204.2809503373554
 10
715.9689181990334
 20
203.5247909224578
 10
716.0123752456797
 20
202.7753016309711
 10
716.0558322923255
 20
202.033041886007
 10
716.0992893389715
 20
201.2985711106775
 10
716.1427463856177
 20
200.5724487280944
 10
716.1862034322636
 20
199.8552341613697
 10
716.2296604789096
 20
199.1474868335984
 10
716.2731175255557
 20
198.4497527678436
 10
716.3165745722018
 20
197.7625261051772
 10
716.3600316188479
 20
197.0862884320258
 10
716.4034886654938
 20
196.4215213348158
 10
716.4469457121398
 20
195.7687063999737
 10
716.4904027587861
 20
195.128325213926
 10
716.533859805432
 20
194.5008593630992
 10
716.5773168520781
 20
193.8867904339198
 10
716.6207738987241
 20
193.2866000128144
 10
716.6642309453703
 20
192.7007696862094
 10
716.7076879920162
 20
192.1297782858127
 10
716.7511450386623
 20
191.5740470419477
 10
716.7946020853084
 20
191.0339426112761
 10
716.8380591319544
 20
190.5098295018395
 10
716.8815161786005
 20
190.0020722216795
 10
716.9249732252465
 20
189.5110352788375
 10
716.9684302718927
 20
189.0370831813551
 10
717.0118873185387
 20
188.5805804372738
 10
717.0553443651847
 20
188.1418915546351
 10
717.0988014118308
 20
187.7213810414806
 10
717.1422584584767
 20
187.3194134051556
 10
717.1857155051229
 20
186.9363263827691
 10
717.2291725517689
 20
186.5723599927885
 10
717.2726295984152
 20
186.227731963213
 10
717.316086645061
 20
185.9026600220417
 10
717.3595436917072
 20
185.5973618972737
 10
717.4030007383532
 20
185.312055316908
 10
717.4464577849992
 20
185.0469580089439
 10
717.4899148316454
 20
184.8022877013804
 10
717.5333718782914
 20
184.5782621222166
 10
717.5768289249374
 20
184.3750989994516
 10
717.6202859715835
 20
184.1930117346485
 10
717.6637430182296
 20
184.032130818145
 10
717.7072000648758
 20
183.8925121191461
 10
717.7506571115216
 20
183.7742088442098
 10
717.7941141581678
 20
183.6772741998943
 10
717.8375712048137
 20
183.6017613927578
 10
717.8810282514598
 20
183.5477236293584
 10
717.9244852981059
 20
183.5152141162541
 10
717.967942344751
 20
183.5042860600032
  0
LWPOLYLINE
  5
A3
330
1F
100
AcDbEntity
  8
0
  6
CONTINUOUS
 62
     7
100
AcDbPolyline
 90
       97
 70
     0
 43
0.0
 10
693.4483787828852
 20
240.192352293585
 10
693.4954477667026
 20
239.9251809279094
 10
693.5425167505198
 20
239.6339711536502
 10
693.5895857343372
 20
239.3190415970439
 10
693.6366547181543
 20
238.9807108843273
 10
693.6837237019716
 20
238.6192976417366
 10
693.730792685789
 20
238.2351204955086
 10
693.7778616696061
 20
237.8284980718796
 10
693.8249306534233
 20
237.3997489970864
 10
693.8719996372405
 20
236.9491918973653
 10
693.9190686210578
 20
236.4771514302305
 10
693.9661376048751
 20
235.9840476382665
 10
694.0132065886925
 20
235.4703767122464
 10
694.0602755725097
 20
234.9366369655533
 10
694.107344556327
 20
234.3833267115706
 10
694.1544135401443
 20
233.8109442636814
 10
694.2014825239615
 20
233.219987935269
 10
694.2485515077788
 20
232.6109560397167
 10
694.2956204915962
 20
231.9843468904076
 10
694.3426894754134
 20
231.3406588007252
 10
694.3897584592307
 20
230.6804070376523
 10
694.436827443048
 20
230.0041982935514
 10
694.4838964268653
 20
229.3126699417619
 10
694.5309654106827
 20
228.6064593781308
 10
694.5780343944999
 20
227.8862039985054
 10
694.6251033783171
 20
227.1525411987327
 10
694.6721723621345
 20
226.4061083746599
 10
694.7192413459517
 20
225.6475429221342
 10
694.766310329769
 20
224.8774822370026
 10
694.8133793135863
 20
224.0965638610674
 10
694.8604482974035
 20
223.3054508541987
 10
694.9075172812206
 20
222.5048607524917
 10
694.954586265038
 20
221.6955180965471
 10
695.0016552488552
 20
220.8781474269655
 10
695.0487242326725
 20
220.0534732843474
 10
695.0957932164897
 20
219.2222202092935
 10
695.142862200307
 20
218.3851127424044
 10
695.1899311841242
 20
217.5428754242807
 10
695.2370001679416
 20
216.696232795523
 10
695.2840691517589
 20
215.8459100965542
 10
695.3311381355761
 20
214.9926465661141
 10
695.3782071193933
 20
214.1371943664858
 10
695.4252761032108
 20
213.2803061443897
 10
695.4723450870281
 20
212.4227345465461
 10
695.5194140708454
 20
211.5652322196756
 10
695.5664830546626
 20
210.7085518104983
 10
695.6135520384798
 20
209.8534459657349
 10
695.6606210222972
 20
209.0006673321056
 10
695.7076900061144
 20
208.150968556331
 10
695.7547589899317
 20
207.3050989391552
 10
695.801827973749
 20
206.4637863652161
 10
695.8488969575664
 20
205.6277502789615
 10
695.8959659413835
 20
204.7977101043923
 10
695.9430349252007
 20
203.9743852655095
 10
695.9901039090179
 20
203.1584951863144
 10
696.0371728928352
 20
202.3507592908078
 10
696.0842418766524
 20
201.5518970029906
 10
696.1313108604696
 20
200.7626277468641
 10
696.178379844287
 20
199.9836708834322
 10
696.2254488281043
 20
199.2157221167891
 10
696.2725178119215
 20
198.4594180910736
 10
696.3195867957387
 20
197.7153863858556
 10
696.366655779556
 20
196.9842545807054
 10
696.4137247633734
 20
196.2666502551931
 10
696.4607937471907
 20
195.5632009888889
 10
696.5078627310079
 20
194.8745343613628
 10
696.5549317148253
 20
194.2012779521851
 10
696.6020006986425
 20
193.5440593409257
 10
696.64906968246
 20
192.9035035520486
 10
696.6961386662771
 20
192.2801693464565
 10
696.7432076500944
 20
191.6745447683635
 10
696.7902766339118
 20
191.0871144150703
 10
696.8373456177292
 20
190.5183628838774
 10
696.8844146015463
 20
189.9687747720853
 10
696.9314835853637
 20
189.4388346769949
 10
696.9785525691809
 20
188.9290271959067
 10
697.0256215529981
 20
188.4398369261213
 10
697.0726905368155
 20
187.9717484649394
 10
697.1197595206327
 20
187.5252314217898
 10
697.1668285044498
 20
187.1006409689115
 10
697.2138974882672
 20
186.6982795163779
 10
697.2609664720844
 20
186.3184491921816
 10
697.3080354559015
 20
185.9614521243152
 10
697.3551044397187
 20
185.6275904407716
 10
697.4021734235359
 20
185.3171662695435
 10
697.4492424073532
 20
185.0304817386235
 10
697.4963113911704
 20
184.7678389760046
 10
697.5433803749878
 20
184.5295400700545
 10
697.590449358805
 20
184.3158407359914
 10
697.6375183426221
 20
184.1268607820578
 10
697.6845873264396
 20
183.9626952482716
 10
697.7316563102569
 20
183.8234391746505
 10
697.7787252940742
 20
183.7091876012121
 10
697.8257942778915
 20
183.6200355679741
 10
697.8728632617087
 20
183.5560781149542
 10
697.9199322455258
 20
183.5174102821702
 10
697.9670012293443
 20
183.5041271096397
  0
LWPOLYLINE
  5
A4
330
1F
100
AcDbEntity
  8
0
  6
CONTINUOUS
 62
     7
100
AcDbPolyline
 90
      105
 70
     0
 43
0.0
 10
673.4479506282088
 20
240.1945503174594
 10
673.4914101161866
 20
239.9488643637696
 10
673.5348696041644
 20
239.6827295756248
 10
673.5783290921421
 20
239.3963769108175
 10
673.6217885801199
 20
239.0900373271401
 10
673.6652480680975
 20
238.7639417823851
 10
673.7087075560753
 20
238.4183212343449
 10
673.7521670440531
 20
238.0534066408119
 10
673.7956265320308
 20
237.6694289595787
 10
673.8390860200085
 20
237.2666192106203
 10
673.8825455079864
 20
236.8452436345224
 10
673.926004995964
 20
236.4056624319969
 10
673.9694644839419
 20
235.9482513028633
 10
674.0129239719197
 20
235.4733859469407
 10
674.0563834598975
 20
234.9814420640485
 10
674.0998429478751
 20
234.472795354006
 10
674.1433024358528
 20
233.9478215166326
 10
674.1867619238307
 20
233.4068962517477
 10
674.2302214118084
 20
232.8503952591705
 10
674.2736808997864
 20
232.2786942387205
 10
674.3171403877641
 20
231.6921740547748
 10
674.3605998757419
 20
231.0912799776808
 10
674.4040593637196
 20
230.4765010027814
 10
674.4475188516974
 20
229.8483269583121
 10
674.4909783396752
 20
229.2072476725082
 10
674.5344378276529
 20
228.553752973605
 10
674.5778973156307
 20
227.8883326898381
 10
674.6213568036086
 20
227.2114766494426
 10
674.6648162915864
 20
226.523674680654
 10
674.708275779564
 20
225.8254166117077
 10
674.751735267542
 20
225.117192319589
 10
674.7951947555196
 20
224.399510691564
 10
674.8386542434973
 20
223.6729283861662
 10
674.8821137314751
 20
222.9380094467697
 10
674.9255732194529
 20
222.1953179167488
 10
674.9690327074306
 20
221.445417839478
 10
675.0124921954084
 20
220.6888732583315
 10
675.0559516833861
 20
219.9262482166838
 10
675.0994111713638
 20
219.1581067579091
 10
675.1428706593415
 20
218.3850129253819
 10
675.1863301473193
 20
217.6075307624764
 10
675.229789635297
 20
216.8262257186508
 10
675.2732491232749
 20
216.0416794877339
 10
675.3167086112526
 20
215.2544841958669
 10
675.3601680992303
 20
214.4652321409227
 10
675.4036275872081
 20
213.674515620774
 10
675.4470870751859
 20
212.8829269332936
 10
675.4905465631634
 20
212.091058376354
 10
675.5340060511413
 20
211.2995022478281
 10
675.5774655391192
 20
210.5088508455887
 10
675.6209250270969
 20
209.7196964675083
 10
675.6643845150745
 20
208.9326313923962
 10
675.7078440030524
 20
208.1482425128509
 10
675.7513034910302
 20
207.3671039650209
 10
675.7947629790079
 20
206.5897880383407
 10
675.8382224669857
 20
205.8168670222445
 10
675.8816819549634
 20
205.0489132061671
 10
675.9251414429413
 20
204.2864988795427
 10
675.968600930919
 20
203.5301963318057
 10
676.0120604188967
 20
202.7805778523907
 10
676.0555199068746
 20
202.038215730732
 10
676.0989793948522
 20
201.3036822562642
 10
676.14243888283
 20
200.5775460819411
 10
676.1858983708076
 20
199.860336869396
 10
676.2293578587855
 20
199.1525606004184
 10
676.2728173467632
 20
198.4547229234401
 10
676.3162768347411
 20
197.7673294868928
 10
676.3597363227188
 20
197.0908859392081
 10
676.4031958106965
 20
196.4258979288177
 10
676.4466552986743
 20
195.7728711041533
 10
676.490114786652
 20
195.1323111136466
 10
676.5335742746298
 20
194.5047236057293
 10
676.5770337626076
 20
193.8906140857898
 10
676.6204932505855
 20
193.2904575994626
 10
676.6639527385631
 20
192.7046611664311
 10
676.7074122265408
 20
192.1336225917506
 10
676.7508717145187
 20
191.5777396804764
 10
676.7943312024964
 20
191.0374102376639
 10
676.8377906904742
 20
190.5130320683684
 10
676.8812501784519
 20
190.0050029776452
 10
676.9247096664297
 20
189.5137207705498
 10
676.9681691544075
 20
189.0395832521373
 10
677.0116286423852
 20
188.5829882274631
 10
677.055088130363
 20
188.144325132234
 10
677.0985476183408
 20
187.7238999771758
 10
677.1420071063186
 20
187.3219708788066
 10
677.1854665942964
 20
186.938795383966
 10
677.2289260822743
 20
186.5746310394943
 10
677.2723855702518
 20
186.2297353922312
 10
677.3158450582297
 20
185.9043659890168
 10
677.3593045462076
 20
185.5987803766912
 10
677.4027640341851
 20
185.3132361020941
 10
677.446223522163
 20
185.0479907120656
 10
677.4896830101409
 20
184.8033014653374
 10
677.5331424981185
 20
184.5793779139456
 10
677.5766019860962
 20
184.376329089152
 10
677.6200614740742
 20
184.194251293575
 10
677.6635209620518
 20
184.033240829833
 10
677.7069804500295
 20
183.8933940005444
 10
677.7504399380073
 20
183.7748071083276
 10
677.793899425985
 20
183.6775764558011
 10
677.8373589139629
 20
183.6017983455832
 10
677.8808184019406
 20
183.5475690802923
 10
677.9242778899185
 20
183.5149849625469
 10
677.9677373778954
 20
183.5041312900948
  0
LWPOLYLINE
  5
A5
330
1F
100
AcDbEntity
  8
0
  6
CONTINUOUS
 62
     7
100
AcDbPolyline
 90
        4
 70
     0
 43
0.0
 10
718.102466956126
 20
185.7570286669294
 10
718.1706818447276
 20
185.6236791337121
 10
718.2389160315345
 20
185.539565220501
 10
718.3204937593232
 20
185.5040313958827
  0
LWPOLYLINE
  5
A6
330
1F
100
AcDbEntity
  8
0
  6
CONTINUOUS
 62
     7
100
AcDbPolyline
 90
      105
 70
     0
 43
0.0
 10
653.4479829787964
 20
240.1941861610105
 10
653.4914399061215
 20
239.9485258405373
 10
653.5348968334465
 20
239.6824604685133
 10
653.5783537607717
 20
239.3962008109095
 10
653.6218106880965
 20
239.0899576336966
 10
653.6652676154217
 20
238.7639417028456
 10
653.708724542747
 20
238.4183637843272
 10
653.7521814700718
 20
238.0534346441123
 10
653.7956383973969
 20
237.6693677742348
 10
653.839095324722
 20
237.2664456450949
 10
653.8825522520469
 20
236.8450233853043
 10
653.926009179372
 20
236.405459586131
 10
653.9694661066972
 20
235.9481128388431
 10
654.0129230340222
 20
235.4733417347082
 10
654.0563799613473
 20
234.9815048649943
 10
654.0998368886723
 20
234.4729608209693
 10
654.1432938159973
 20
233.9480681939011
 10
654.1867507433224
 20
233.4071855750576
 10
654.2302076706475
 20
232.8506715557065
 10
654.2736645979724
 20
232.2789039009098
 10
654.3171215252975
 20
231.6923394341633
 10
654.3605784526226
 20
231.0914553524779
 10
654.4040353799476
 20
230.4767288528848
 10
654.4474923072726
 20
229.8486371324151
 10
654.4909492345978
 20
229.2076573881001
 10
654.5344061619226
 20
228.5542668169711
 10
654.5778630892478
 20
227.8889426160593
 10
654.6213200165727
 20
227.2121619823959
 10
654.6647769438978
 20
226.5244021130123
 10
654.7082338712227
 20
225.8261418627196
 10
654.7516907985478
 20
225.1178982708674
 10
654.7951477258728
 20
224.4002265922546
 10
654.8386046531978
 20
223.6736837456428
 10
654.8820615805229
 20
222.9388266497935
 10
654.9255185078479
 20
222.196212223468
 10
654.968975435173
 20
221.4463973854279
 10
655.0124323624982
 20
220.6899390544347
 10
655.0558892898232
 20
219.9273941492497
 10
655.0993462171481
 20
219.1593195886345
 10
655.1428031444731
 20
218.3862722913555
 10
655.1862600717982
 20
217.6088150643576
 10
655.2297169991233
 20
216.8275336059262
 10
655.2731739264484
 20
216.0430191764561
 10
655.3166308537734
 20
215.2558630363421
 10
655.3600877810984
 20
214.4666564459787
 10
655.4035447084235
 20
213.6759906657609
 10
655.4470016357485
 20
212.8844569560832
 10
655.4904585630736
 20
212.0926465773404
 10
655.5339154903988
 20
211.3011507899272
 10
655.5773724177237
 20
210.5105608542384
 10
655.6208293450488
 20
209.7214677077154
 10
655.6642862723738
 20
208.9344554921112
 10
655.7077431996989
 20
208.1501018872109
 10
655.751200127024
 20
207.3689843166439
 10
655.7946570543489
 20
206.5916802040397
 10
655.8381139816739
 20
205.8187669730276
 10
655.881570908999
 20
205.050822047237
 10
655.9250278363241
 20
204.2884228502974
 10
655.9684847636491
 20
203.532146805838
 10
656.0119416909741
 20
202.7825713374884
 10
656.0553986182991
 20
202.0402738686277
 10
656.0988555456242
 20
201.3058207635535
 10
656.1423124729492
 20
200.5797378456034
 10
656.1857694002744
 20
199.8625416507211
 10
656.2292263275993
 20
199.1547487148501
 10
656.2726832549245
 20
198.4568755739344
 10
656.3161401822496
 20
197.7694387639174
 10
656.3595971095745
 20
197.0929548207429
 10
656.4030540368996
 20
196.4279402803546
 10
656.4465109642246
 20
195.7749116786962
 10
656.4899678915497
 20
195.1343855517112
 10
656.5334248188748
 20
194.5068757491236
 10
656.5768817461999
 20
193.8928443150638
 10
656.6203386735249
 20
193.2927064907111
 10
656.66379560085
 20
192.7068758347896
 10
656.7072525281749
 20
192.1357659060229
 10
656.7507094555
 20
191.5797902631349
 10
656.794166382825
 20
191.0393624648494
 10
656.83762331015
 20
190.5148960698902
 10
656.8810802374751
 20
190.0068046369812
 10
656.9245371648002
 20
189.5155017248462
 10
656.9679940921251
 20
189.0414008895752
 10
657.0114510194502
 20
188.5848894244987
 10
657.0549079467752
 20
188.1462638222626
 10
657.0983648741003
 20
187.7258009658563
 10
657.1418218014253
 20
187.323777738269
 10
657.1852787287504
 20
186.9404710224904
 10
657.2287356560754
 20
186.5761577015096
 10
657.2721925834004
 20
186.2311146583161
 10
657.3156495107255
 20
185.9056187758993
 10
657.3591064380505
 20
185.5999469372487
 10
657.4025633653756
 20
185.3143760253535
 10
657.4460202927006
 20
185.0491782992411
 10
657.4894772200256
 20
184.8045440447196
 10
657.5329341473507
 20
184.5805931910523
 10
657.5763910746759
 20
184.3774433838967
 10
657.6198480020007
 20
184.1952122689103
 10
657.6633049293258
 20
184.0340174917506
 10
657.7067618566509
 20
183.8939766980752
 10
657.7502187839762
 20
183.7752075335414
 10
657.793675711301
 20
183.6778276438068
 10
657.837132638626
 20
183.6019546745289
 10
657.8805895659511
 20
183.5477062623897
 10
657.9240464932761
 20
183.5151657720191
 10
657.9675034206006
 20
183.5043047802274
  0
LWPOLYLINE
  5
A7
330
1F
100
AcDbEntity
  8
0
  6
CONTINUOUS
 62
     7
100
AcDbPolyline
 90
      105
 70
     0
 43
0.0
 10
-659.4686080892799
 20
241.5037942080705
 10
-659.5120571771297
 20
241.4924787739477
 10
-659.5555062649797
 20
241.4595826183869
 10
-659.5989553528295
 20
241.4051622957649
 10
-659.6424044406795
 20
241.3292743604589
 10
-659.6858535285294
 20
241.2319753668456
 10
-659.7293026163793
 20
241.1133218693022
 10
-659.7727517042291
 20
240.9733704222054
 10
-659.816200792079
 20
240.8121775799322
 10
-659.8596498799291
 20
240.6298004136355
 10
-659.9030989677789
 20
240.4263494965963
 10
-659.9465480556288
 20
240.2020347783054
 10
-659.9899971434786
 20
239.9570770177685
 10
-660.0334462313286
 20
239.6916969739914
 10
-660.0768953191786
 20
239.4061154059801
 10
-660.1203444070284
 20
239.1005530727404
 10
-660.1637934948783
 20
238.7752307332781
 10
-660.2072425827283
 20
238.4303691465991
 10
-660.2506916705781
 20
238.0661890717094
 10
-660.294140758428
 20
237.6829112676146
 10
-660.3375898462779
 20
237.2807678019369
 10
-660.3810389341278
 20
236.860081606713
 10
-660.4244880219778
 20
236.4212193766582
 10
-660.4679371098276
 20
235.9645480870296
 10
-660.5113861976774
 20
235.4904347130839
 10
-660.5548352855275
 20
234.9992462300784
 10
-660.5982843733774
 20
234.4913496132698
 10
-660.6417334612272
 20
233.9671118379152
 10
-660.685182549077
 20
233.4268998792714
 10
-660.7286316369269
 20
232.8710807125954
 10
-660.7720807247769
 20
232.3000217484174
 10
-660.8155298126268
 20
231.714129512656
 10
-660.8589789004766
 20
231.1138801220936
 10
-660.9024279883265
 20
230.4997568655417
 10
-660.9458770761764
 20
229.8722430318117
 10
-660.9893261640264
 20
229.231821909715
 10
-661.0327752518763
 20
228.5789767880631
 10
-661.0762243397262
 20
227.9141909556675
 10
-661.1196734275762
 20
227.2379477013395
 10
-661.163122515426
 20
226.5507303138905
 10
-661.206571603276
 20
225.8530220821323
 10
-661.2500206911259
 20
225.1453126174006
 10
-661.2934697789757
 20
224.4281397840542
 10
-661.3369188668256
 20
223.7020636853441
 10
-661.3803679546755
 20
222.9676445432191
 10
-661.4238170425255
 20
222.2254425796279
 10
-661.4672661303754
 20
221.4760180165192
 10
-661.5107152182252
 20
220.719931075842
 10
-661.5541643060751
 20
219.9577419795451
 10
-661.5976133939249
 20
219.1900109495771
 10
-661.641062481775
 20
218.4172982078869
 10
-661.6845115696248
 20
217.6401641143221
 10
-661.7279606574746
 20
216.8591798779107
 10
-661.7714097453246
 20
216.0749352002623
 10
-661.8148588331744
 20
215.2880215872082
 10
-661.8583079210242
 20
214.4990305445798
 10
-661.9017570088741
 20
213.7085535782088
 10
-661.9452060967242
 20
212.9171821939265
 10
-661.9886551845741
 20
212.1255078975646
 10
-662.0321042724238
 20
211.3341221949543
 10
-662.0755533602738
 20
210.5436165919272
 10
-662.1190024481236
 20
209.7545825943147
 10
-662.1624515359736
 20
208.9676102326597
 10
-662.2059006238235
 20
208.1832788368267
 10
-662.2493497116733
 20
207.4021630187619
 10
-662.2927987995233
 20
206.6248373697817
 10
-662.3362478873731
 20
205.8518764812024
 10
-662.3796969752232
 20
205.0838549443404
 10
-662.4231460630731
 20
204.3213473505121
 10
-662.4665951509229
 20
203.5649282910337
 10
-662.5100442387728
 20
202.8151723572217
 10
-662.5534933266226
 20
202.0726541403923
 10
-662.5969424144726
 20
201.3379479037337
 10
-662.6403915023225
 20
200.611605136166
 10
-662.6838405901724
 20
199.8941401270939
 10
-662.7272896780222
 20
199.1860637331872
 10
-662.7707387658721
 20
198.4878868111157
 10
-662.814187853722
 20
197.8001202175488
 10
-662.8576369415719
 20
197.1232748091564
 10
-662.9010860294218
 20
196.4578614426081
 10
-662.9445351172717
 20
195.8043909745737
 10
-662.9879842051215
 20
195.1633742617229
 10
-663.0314332929713
 20
194.5353221607252
 10
-663.0748823808214
 20
193.9207357865028
 10
-663.1183314686713
 20
193.3200490646439
 10
-663.1617805565211
 20
192.7336675899806
 10
-663.205229644371
 20
192.1619968577732
 10
-663.2486787322209
 20
191.6054423632818
 10
-663.2921278200707
 20
191.0644096017667
 10
-663.3355769079208
 20
190.5393040684879
 10
-663.3790259957706
 20
190.0305312587057
 10
-663.4224750836205
 20
189.5384966676802
 10
-663.4659241714703
 20
189.0636057906716
 10
-663.5093732593203
 20
188.6062632970498
 10
-663.5528223471701
 20
188.1668229410993
 10
-663.5962714350201
 20
187.7455587656396
 10
-663.63972052287
 20
187.342737863052
 10
-663.6831696107198
 20
186.9586273257175
 10
-663.7266186985696
 20
186.5934942460175
 10
-663.7700677864198
 20
186.2476057163332
 10
-663.8135168742697
 20
185.9212288290457
 10
-663.8569659621194
 20
185.6146306765363
 10
-663.9004150499693
 20
185.3280783511861
 10
-663.9438641378192
 20
185.0618389453763
 10
-663.9873132256688
 20
184.8161638701929
210
0.0
220
0.0
230
-1.0
  0
LWPOLYLINE
  5
A8
330
1F
100
AcDbEntity
  8
0
  6
CONTINUOUS
 62
     7
100
AcDbPolyline
 90
        3
 70
     0
 43
0.0
 10
728.1214382191903
 20
185.7150590517363
 10
728.1877119171587
 20
185.5979742170784
 10
728.3204805464684
 20
185.5040313958446
  0
LWPOLYLINE
  5
A9
330
1F
100
AcDbEntity
  8
0
  6
CONTINUOUS
 62
     7
100
AcDbPolyline
 90
      105
 70
     0
 43
0.0
 10
-629.4672000501994
 20
241.5035189454152
 10
-629.5106643196634
 20
241.4929731900604
 10
-629.5541285891273
 20
241.460879511432
 10
-629.5975928585914
 20
241.4072620089277
 10
-629.6410571280554
 20
241.3321447819455
 10
-629.6845213975195
 20
241.2355519298831
 10
-629.7279856669834
 20
241.1175075521384
 10
-629.7714499364474
 20
240.9780361850264
 10
-629.8149142059114
 20
240.8172148546772
 10
-629.8583784753753
 20
240.6352223280212
 10
-629.9018427448393
 20
240.4322490331834
 10
-629.9453070143034
 20
240.208485398289
 10
-629.9887712837673
 20
239.9641218514625
 10
-630.0322355532313
 20
239.6993488208291
 10
-630.0756998226952
 20
239.4143567345138
 10
-630.1191640921593
 20
239.1093360206414
 10
-630.1626283616233
 20
238.7844771073368
 10
-630.2060926310872
 20
238.439970422725
 10
-630.2495569005512
 20
238.0760175292277
 10
-630.2930211700152
 20
237.6929130221859
 10
-630.3364854394792
 20
237.2909978039881
 10
-630.3799497089433
 20
236.8706131145973
 10
-630.4234139784072
 20
236.432100193976
 10
-630.4668782478713
 20
235.9758002820871
 10
-630.5103425173353
 20
235.5020546188931
 10
-630.5538067867991
 20
235.0112044443569
 10
-630.5972710562631
 20
234.5035909984412
 10
-630.6407353257272
 20
233.9795555211086
 10
-630.6841995951911
 20
233.4394396734814
 10
-630.7276638646551
 20
232.8836258118547
 10
-630.7711281341192
 20
232.3125703335288
 10
-630.8145924035831
 20
231.7267374846283
 10
-630.8580566730471
 20
231.1265915112778
 10
-630.9015209425112
 20
230.5125966596017
 10
-630.9449852119751
 20
229.8852171757246
 10
-630.988449481439
 20
229.2449173057711
 10
-631.0319137509031
 20
228.5921612958659
 10
-631.0753780203671
 20
227.9274133921333
 10
-631.1188422898312
 20
227.251137840698
 10
-631.1623065592951
 20
226.5638057668799
 10
-631.205770828759
 20
225.8659415808578
 10
-631.2492350982229
 20
225.1580945659869
 10
-631.2926993676871
 20
224.440814145815
 10
-631.3361636371509
 20
223.7146497438899
 10
-631.379627906615
 20
222.9801507837599
 10
-631.4230921760791
 20
222.2378666889727
 10
-631.466556445543
 20
221.4883468830762
 10
-631.510020715007
 20
220.7321407896187
 10
-631.5534849844711
 20
219.9697978321478
 10
-631.5969492539349
 20
219.2018676107054
 10
-631.640413523399
 20
218.4289137143578
 10
-631.683877792863
 20
217.651523635225
 10
-631.727342062327
 20
216.8702872049234
 10
-631.7708063317909
 20
216.0857942550688
 10
-631.814270601255
 20
215.2986346172774
 10
-631.8577348707189
 20
214.5093981231652
 10
-631.9011991401829
 20
213.7186746043484
 10
-631.9446634096471
 20
212.927053892443
 10
-631.9881276791109
 20
212.1351258190649
 10
-632.0315919485749
 20
211.3434802158304
 10
-632.075056218039
 20
210.552706239906
 10
-632.118520487503
 20
209.7633881993875
 10
-632.161984756967
 20
208.9761082809266
 10
-632.205449026431
 20
208.1914486622318
 10
-632.2489132958949
 20
207.4099915210116
 10
-632.2923775653591
 20
206.6323190349747
 10
-632.3358418348229
 20
205.8590133818293
 10
-632.3793061042868
 20
205.0906567392843
 10
-632.422770373751
 20
204.327831285048
 10
-632.4662346432149
 20
203.5711191968291
 10
-632.509698912679
 20
202.8211023509301
 10
-632.553163182143
 20
202.0783427018924
 10
-632.5966274516069
 20
201.343370219953
 10
-632.6400917210708
 20
200.6167119906099
 10
-632.6835559905348
 20
199.8988950993613
 10
-632.7270202599989
 20
199.1904466317055
 10
-632.7704845294628
 20
198.4918936731404
 10
-632.813948798927
 20
197.8037633091642
 10
-632.8574130683908
 20
197.126582625275
 10
-632.9008773378548
 20
196.4608787069711
 10
-632.9443416073188
 20
195.8071786397505
 10
-632.9878058767827
 20
195.1660001062554
 10
-633.0312701462468
 20
194.5377979696731
 10
-633.0747344157109
 20
193.9230013519398
 10
-633.1181986851747
 20
193.3220392971869
 10
-633.1616629546386
 20
192.7353408495457
 10
-633.2051272241029
 20
192.1633350531474
 10
-633.2485914935668
 20
191.6064509521231
 10
-633.2920557630306
 20
191.0651175906043
 10
-633.3355200324947
 20
190.5397640127222
 10
-633.3789843019588
 20
190.030819262608
 10
-633.4224485714227
 20
189.5387114871965
 10
-633.4659128408867
 20
189.0638186861339
 10
-633.5093771103507
 20
188.6064431784356
 10
-633.5528413798148
 20
188.1668810065348
 10
-633.5963056492787
 20
187.7454282128648
 10
-633.6397699187427
 20
187.3423808398589
 10
-633.6832341882067
 20
186.9580349299504
 10
-633.7266984576709
 20
186.5926865255726
 10
-633.7701627271347
 20
186.2466316691588
 10
-633.8136269965986
 20
185.9201664031422
 10
-633.8570912660628
 20
185.6135867699562
 10
-633.9005555355267
 20
185.3271724488251
 10
-633.9440198049906
 20
185.0611014366151
 10
-633.9874840744548
 20
184.8155127312391
210
0.0
220
0.0
230
-1.0
  0
LWPOLYLINE
  5
AA
330
1F
100
AcDbEntity
  8
0
  6
CONTINUOUS
 62
     7
100
AcDbPolyline
 90
      105
 70
     0
 43
0.0
 10
643.4481179426388
 20
240.1933720161144
 10
643.4915747694156
 20
239.9476833244894
 10
643.5350315961925
 20
239.6816008033458
 10
643.5784884229694
 20
239.3953250338239
 10
643.6219452497462
 20
239.0890565970643
 10
643.6654020765232
 20
238.7629960742076
 10
643.7088589033001
 20
238.4173440463943
 10
643.7523157300769
 20
238.0523011866099
 10
643.7957725568539
 20
237.6681060961585
 10
643.8392293836307
 20
237.2650936223217
 10
643.8826862104077
 20
236.8436136506715
 10
643.9261430371847
 20
236.4040160667797
 10
643.9695998639614
 20
235.9466507562181
 10
644.0130566907384
 20
235.4718676045588
 10
644.0565135175153
 20
234.9800164973734
 10
644.0999703442922
 20
234.4714473202339
 10
644.1434271710691
 20
233.9465099587122
 10
644.186883997846
 20
233.40555429838
 10
644.230340824623
 20
232.8489361272547
 10
644.2737976513998
 20
232.2770804363024
 10
644.3172544781767
 20
231.6904571438838
 10
644.3607113049537
 20
231.0895369298455
 10
644.4041681317306
 20
230.4747904740337
 10
644.4476249585075
 20
229.8466884562951
 10
644.4910817852843
 20
229.205701556476
 10
644.5345386120613
 20
228.5523004544229
 10
644.5779954388382
 20
227.8869558299824
 10
644.6214522656151
 20
227.2101383630008
 10
644.664909092392
 20
226.5223188058378
 10
644.708365919169
 20
225.8239898596723
 10
644.7518227459459
 20
225.1156969051175
 10
644.7952795727227
 20
224.3979930633091
 10
644.8387363994996
 20
223.6714314553829
 10
644.8821932262764
 20
222.9365652024745
 10
644.9256500530532
 20
222.1939474257197
 10
644.9691068798303
 20
221.4441312462542
 10
645.0125637066071
 20
220.6876697852139
 10
645.0560205333838
 20
219.9251161637344
 10
645.0994773601608
 20
219.1570235029514
 10
645.1429341869379
 20
218.3839469161775
 10
645.1863910137147
 20
217.6064632863284
 10
645.2298478404915
 20
216.8251629084284
 10
645.2733046672685
 20
216.040636274252
 10
645.3167614940454
 20
215.2534738755739
 10
645.3602183208222
 20
214.4642662041686
 10
645.4036751475991
 20
213.6736037518109
 10
645.4471319743761
 20
212.8820770102754
 10
645.4905888011531
 20
212.0902764713366
 10
645.5340456279299
 20
211.2987926267692
 10
645.5775024547069
 20
210.5082159553396
 10
645.6209592814838
 20
209.7191339419968
 10
645.6644161082606
 20
208.9321272722567
 10
645.7078729350377
 20
208.1477756927648
 10
645.7513297618145
 20
207.3666589501663
 10
645.7947865885915
 20
206.5893567911066
 10
645.8382434153684
 20
205.8164489622312
 10
645.8817002421453
 20
205.0485152101853
 10
645.9251570689223
 20
204.2861352816145
 10
645.968613895699
 20
203.5298889231639
 10
646.012070722476
 20
202.780355881479
 10
646.0555275492528
 20
202.0381125391684
 10
646.0989843760296
 20
201.3037009652697
 10
646.1424412028066
 20
200.5776431731325
 10
646.1858980295834
 20
199.8604609240634
 10
646.2293548563604
 20
199.152675979369
 10
646.2728116831372
 20
198.4548101003557
 10
646.3162685099142
 20
197.7673850483302
 10
646.3597253366911
 20
197.0909225845989
 10
646.4031821634678
 20
196.4259444704684
 10
646.4466389902448
 20
195.7729724672452
 10
646.4900958170218
 20
195.1325281738496
 10
646.5335526437985
 20
194.5051039267918
 10
646.5770094705756
 20
193.8911291443608
 10
646.6204662973524
 20
193.2910250872053
 10
646.6639231241295
 20
192.7052130159745
 10
646.7073799509063
 20
192.134114191317
 10
646.7508367776832
 20
191.5781498738819
 10
646.7942936044602
 20
191.0377413243181
 10
646.837750431237
 20
190.5133098032745
 10
646.881207258014
 20
190.0052765713999
 10
646.924664084791
 20
189.5140628893434
 10
646.9681209115678
 20
189.0400815248562
 10
647.0115777383447
 20
188.5836642729772
 10
647.0550345651217
 20
188.1450980451512
 10
647.0984913918985
 20
187.7246692752692
 10
647.1419482186755
 20
187.3226643972227
 10
647.1854050454524
 20
186.9393698449028
 10
647.2288618722292
 20
186.5750720522009
 10
647.272318699006
 20
186.230057453008
 10
647.3157755257829
 20
185.9046124812157
 10
647.3592323525598
 20
185.599023570715
 10
647.4026891793367
 20
185.3135768228473
 10
647.4461460061135
 20
185.0485102800789
 10
647.4896028328906
 20
184.8039641140631
 10
647.5330596596674
 20
184.5800665920881
 10
647.5765164864442
 20
184.376945981442
 10
647.6199733132212
 20
184.1947305494132
 10
647.6634301399979
 20
184.0335485632899
 10
647.706886966775
 20
183.8935282903602
 10
647.7503437935518
 20
183.7747979979126
 10
647.7938006203287
 20
183.6774859532352
 10
647.8372574471057
 20
183.6017204236162
 10
647.8807142738825
 20
183.5476181691937
 10
647.9241711006596
 20
183.5151932738486
 10
647.9676279274364
 20
183.5044058659349
  0
LWPOLYLINE
  5
AB
330
1F
100
AcDbEntity
  8
0
  6
CONTINUOUS
 62
     7
100
AcDbPolyline
 90
      105
 70
     0
 43
0.0
 10
663.4477443141526
 20
240.1955735354175
 10
663.491203786265
 20
239.9499893476988
 10
663.5346632583777
 20
239.6839792418315
 10
663.57812273049
 20
239.3977641352038
 10
663.6215822026026
 20
239.0915649452039
 10
663.6650416747151
 20
238.7656025892202
 10
663.7085011468275
 20
238.4200979846407
 10
663.7519606189403
 20
238.0552720488539
 10
663.7954200910526
 20
237.6713456992479
 10
663.838879563165
 20
237.2685525130758
 10
663.8823390352775
 20
236.8472185298679
 10
663.92579850739
 20
236.4077108036842
 10
663.9692579795026
 20
235.9503965730663
 10
664.012717451615
 20
235.4756430765554
 10
664.0561769237275
 20
234.983817552693
 10
664.09963639584
 20
234.4752872400205
 10
664.1430958679524
 20
233.9504193770793
 10
664.1865553400648
 20
233.4095812024109
 10
664.2300148121775
 20
232.8531399545567
 10
664.27347428429
 20
232.2814634733058
 10
664.3169337564026
 20
231.6949612174983
 10
664.3603932285149
 20
231.0941105630884
 10
664.4038527006276
 20
230.4793951456207
 10
664.4473121727399
 20
229.8512986006395
 10
664.4907716448524
 20
229.2103045636893
 10
664.534231116965
 20
228.5568966703146
 10
664.5776905890774
 20
227.8915585560597
 10
664.62115006119
 20
227.2147738564693
 10
664.6646095333025
 20
226.5270262070877
 10
664.7080690054148
 20
225.8287992434593
 10
664.7515284775274
 20
225.1205837939477
 10
664.7949879496399
 20
224.4029198500835
 10
664.8384474217524
 20
223.6763679664248
 10
664.8819068938648
 20
222.9414887668485
 10
664.9253663659773
 20
222.1988428752317
 10
664.9688258380897
 20
221.4489909154515
 10
665.0122853102023
 20
220.6924935113851
 10
665.0557447823147
 20
219.9299112869094
 10
665.0992042544271
 20
219.1618048659015
 10
665.1426637265398
 20
218.3887348722387
 10
665.1861231986522
 20
217.6112621258782
 10
665.2295826707648
 20
216.829959075527
 10
665.2730421428771
 20
216.0454161166415
 10
665.3165016149896
 20
215.2582251794259
 10
665.3599610871021
 20
214.4689781940845
 10
665.4034205592146
 20
213.6782670908215
 10
665.446880031327
 20
212.886683799841
 10
665.4903395034396
 20
212.0948202513474
 10
665.5337989755521
 20
211.3032683755447
 10
665.5772584476645
 20
210.5126201026373
 10
665.620717919777
 20
209.7234673628293
 10
665.6641773918894
 20
208.9364003819506
 10
665.707636864002
 20
208.1519984748157
 10
665.7510963361144
 20
207.3708366554083
 10
665.794555808227
 20
206.5934899272824
 10
665.8380152803395
 20
205.8205332939916
 10
665.8814747524518
 20
205.0525417590899
 10
665.9249342245645
 20
204.2900903261311
 10
665.9683936966769
 20
203.5337539986691
 10
666.0118531687893
 20
202.7841077802579
 10
666.0553126409018
 20
202.0417266744512
 10
666.0987721130143
 20
201.307185206033
 10
666.1422315851269
 20
200.5810333228119
 10
666.1856910572392
 20
199.8637850898951
 10
666.2291505293517
 20
199.1559517304638
 10
666.2726100014642
 20
198.458044467699
 10
666.3160694735766
 20
197.7705745247819
 10
666.359528945689
 20
197.0940531248936
 10
666.4029884178017
 20
196.4289914912153
 10
666.4464478899141
 20
195.775900846928
 10
666.4899073620267
 20
195.1352924152129
 10
666.533366834139
 20
194.5076774192511
 10
666.5768263062516
 20
193.8935556609432
 10
666.6202857783638
 20
193.2933584118452
 10
666.6637452504765
 20
192.7074915002192
 10
666.7072047225889
 20
192.1363607122455
 10
666.7506641947016
 20
191.5803718341051
 10
666.794123666814
 20
191.0399306519783
 10
666.8375831389263
 20
190.5154429520458
 10
666.8810426110391
 20
190.0073145204884
 10
666.9245020831514
 20
189.5159511434864
 10
666.9679615552639
 20
189.0417586072206
 10
667.0114210273764
 20
188.5851414646061
 10
667.054880499489
 20
188.146448979115
 10
667.0983399716015
 20
187.7259540263912
 10
667.1417994437139
 20
187.3239238904401
 10
667.1852589158265
 20
186.9406258552668
 10
667.228718387939
 20
186.5763272048765
 10
667.2721778600516
 20
186.2312952232745
 10
667.315637332164
 20
185.9057971944659
 10
667.3590968042765
 20
185.6001004024561
 10
667.4025562763889
 20
185.3144721312503
 10
667.4460157485014
 20
185.0491796648536
 10
667.489475220614
 20
184.8044716415613
 10
667.5329346927264
 20
184.5804917745577
 10
667.576394164839
 20
184.3773471047335
 10
667.6198536369515
 20
184.195144634487
 10
667.6633131090639
 20
184.0339913662162
 10
667.7067725811763
 20
183.8939943023195
 10
667.7502320532888
 20
183.775260445195
 10
667.7936915254013
 20
183.6778967972411
 10
667.837150997514
 20
183.6020103608559
 10
667.8806104696264
 20
183.5477081384377
 10
667.9240699417388
 20
183.5150953636865
 10
667.9675294138516
 20
183.5042074735624
  0
LWPOLYLINE
  5
AC
330
1F
100
AcDbEntity
  8
0
  6
CONTINUOUS
 62
     7
100
AcDbPolyline
 90
        4
 70
     0
 43
0.0
 10
658.0647996170285
 20
185.8516242599777
 10
658.1310685973625
 20
185.6951076118713
 10
658.197391773323
 20
185.5849319970314
 10
658.3205007650162
 20
185.5040313958749
  0
LWPOLYLINE
  5
AD
330
1F
100
AcDbEntity
  8
0
  6
CONTINUOUS
 62
     7
100
AcDbPolyline
 90
      105
 70
     0
 43
0.0
 10
633.4481184443152
 20
240.1933078549191
 10
633.4915770464698
 20
239.9476516875675
 10
633.5350356486247
 20
239.6816036423437
 10
633.5784942507794
 20
239.3953540729454
 10
633.621952852934
 20
239.0890933330701
 10
633.6654114550888
 20
238.763011776416
 10
633.7088700572434
 20
238.4172997566805
 10
633.752328659398
 20
238.0521617964954
 10
633.7957872615526
 20
237.6678987614827
 10
633.8392458637073
 20
237.2648516262813
 10
633.8827044658619
 20
236.8433614974834
 10
633.9261630680166
 20
236.4037694816808
 10
633.9696216701713
 20
235.9464166854657
 10
634.0130802723259
 20
235.4716442154299
 10
634.0565388744806
 20
234.9797931781657
 10
634.0999974766353
 20
234.4712046802649
 10
634.1434560787899
 20
233.9462198283197
 10
634.1869146809445
 20
233.4051805089864
 10
634.2303732830992
 20
232.8484743994166
 10
634.273831885254
 20
232.2765595753901
 10
634.3172904874085
 20
231.6899001015848
 10
634.3607490895631
 20
231.0889600426787
 10
634.4042076917177
 20
230.4742034633498
 10
634.4476662938725
 20
229.8460944282761
 10
634.4911248960273
 20
229.2050970021356
 10
634.5345834981819
 20
228.551675249606
 10
634.5780421003365
 20
227.8862932353656
 10
634.6215007024911
 20
227.2094150240922
 10
634.6649593046459
 20
226.5215132911126
 10
634.7084179068006
 20
225.8231156245728
 10
634.7518765089553
 20
225.1147711820569
 10
634.7953351111098
 20
224.3970291723755
 10
634.8387937132645
 20
223.6704388043391
 10
634.8822523154192
 20
222.9355492867581
 10
634.9257109175741
 20
222.1929098284432
 10
634.9691695197286
 20
221.4430696382046
 10
635.0126281218833
 20
220.6865779248531
 10
635.0560867240381
 20
219.923983897199
 10
635.0995453261926
 20
219.1558370698624
 10
635.1430039283473
 20
218.3827025494361
 10
635.186462530502
 20
217.6051681457037
 10
635.2299211326565
 20
216.8238234597505
 10
635.2733797348113
 20
216.0392580926621
 10
635.3168383369659
 20
215.2520616455238
 10
635.3602969391206
 20
214.4628237194212
 10
635.4037555412752
 20
213.6721339154397
 10
635.4472141434301
 20
212.8805818346649
 10
635.4906727455846
 20
212.0887570781819
 10
635.5341313477394
 20
211.2972492470766
 10
635.5775899498941
 20
210.5066471113481
 10
635.6210485520487
 20
209.7175344666895
 10
635.6645071542033
 20
208.9304932662691
 10
635.707965756358
 20
208.1461054602563
 10
635.7514243585126
 20
207.3649529988205
 10
635.7948829606673
 20
206.5876178321311
 10
635.838341562822
 20
205.8146819103574
 10
635.8818001649765
 20
205.046727183669
 10
635.9252587671313
 20
204.2843356022351
 10
635.968717369286
 20
203.5280891162252
 10
636.0121759714406
 20
202.7785691831131
 10
636.0556345735953
 20
202.0363352546393
 10
636.0990931757499
 20
201.301916427255
 10
636.1425517779046
 20
200.5758395804514
 10
636.1860103800592
 20
199.8586315937198
 10
636.2294689822139
 20
199.1508193465516
 10
636.2729275843685
 20
198.452929718438
 10
636.3163861865231
 20
197.7654895888705
 10
636.359844788678
 20
197.0890258373402
 10
636.4033033908325
 20
196.4240653433384
 10
636.4467619929873
 20
195.7711349863567
 10
636.490220595142
 20
195.1307502302305
 10
636.5336791972966
 20
194.5033623752846
 10
636.5771377994513
 20
193.8894003212578
 10
636.6205964016059
 20
193.2892929445933
 10
636.6640550037606
 20
192.7034691217339
 10
636.7075136059151
 20
192.1323577291228
 10
636.75097220807
 20
191.576387643203
 10
636.7944308102245
 20
191.0359877404177
 10
636.8378894123792
 20
190.5115868972098
 10
636.8813480145341
 20
190.0036139900225
 10
636.9248066166887
 20
189.5124965020524
 10
636.9682652188433
 20
189.0386069932589
 10
637.0117238209981
 20
188.5822462331002
 10
637.0551824231526
 20
188.1437101483041
 10
637.0986410253073
 20
187.7232946655981
 10
637.1420996274621
 20
187.3212957117099
 10
637.1855582296167
 20
186.9380092133672
 10
637.2290168317713
 20
186.5737310972976
 10
637.2724754339262
 20
186.2287572902289
 10
637.3159340360806
 20
185.9033837188886
 10
637.3593926382355
 20
185.5979063100045
 10
637.4028512403901
 20
185.3126014030278
 10
637.4463098425448
 20
185.0476419007938
 10
637.4897684446994
 20
184.8031666874325
 10
637.5332270468541
 20
184.5793146265943
 10
637.5766856490087
 20
184.3762245819297
 10
637.6201442511634
 20
184.194035417089
 10
637.6636028533181
 20
184.0328859957228
 10
637.7070614554729
 20
183.8929151814815
 10
637.7505200576275
 20
183.7742618380154
 10
637.7939786597822
 20
183.6770648289751
 10
637.8374372619367
 20
183.6014609674681
 10
637.8808958640913
 20
183.5475152440865
 10
637.9243544662461
 20
183.5152036746035
 10
637.9678130684007
 20
183.5044967443945
  0
LWPOLYLINE
  5
AE
330
1F
100
AcDbEntity
  8
0
  6
CONTINUOUS
 62
     7
100
AcDbPolyline
 90
        4
 70
     0
 43
0.0
 10
608.1085067665693
 20
185.7433411390751
 10
608.1747811455647
 20
185.6172800493943
 10
608.2410472313265
 20
185.5377295572434
 10
608.3204418576835
 20
185.5040313958894
  0
LWPOLYLINE
  5
AF
330
1F
100
AcDbEntity
  8
0
  6
CONTINUOUS
 62
     7
100
AcDbPolyline
 90
        3
 70
     0
 43
0.0
 10
698.1328092224867
 20
185.6914540723476
 10
698.2009951961153
 20
185.5801659533439
 10
698.3205280835158
 20
185.5040313958892
  0
LWPOLYLINE
  5
B0
330
1F
100
AcDbEntity
  8
0
  6
CONTINUOUS
 62
     7
100
AcDbPolyline
 90
      105
 70
     0
 43
0.0
 10
723.4483599953941
 20
240.192296624372
 10
723.4918219884208
 20
239.9466619100155
 10
723.5352839814477
 20
239.6804780676033
 10
723.5787459744745
 20
239.3939198753493
 10
723.6222079675013
 20
239.087257401845
 10
723.665669960528
 20
238.7607706233907
 10
723.7091319535548
 20
238.4147395162865
 10
723.7525939465817
 20
238.049444056833
 10
723.7960559396084
 20
237.6651642213303
 10
723.8395179326352
 20
237.2621799860787
 10
723.8829799256621
 20
236.8407713273786
 10
723.9264419186889
 20
236.4012182215302
 10
723.9699039117156
 20
235.9438006448339
 10
724.0133659047425
 20
235.4688097857938
 10
724.0568278977693
 20
234.9766222537325
 10
724.1002898907961
 20
234.4676539672387
 10
724.1437518838228
 20
233.9423210533406
 10
724.1872138768495
 20
233.4010396390665
 10
724.2306758698762
 20
232.8442258514448
 10
724.2741378629031
 20
232.2722958175037
 10
724.3175998559298
 20
231.6856656642715
 10
724.3610618489565
 20
231.0847515187767
 10
724.4045238419832
 20
230.4699695080474
 10
724.44798583501
 20
229.8417362266005
 10
724.4914478280365
 20
229.2005039752535
 10
724.5349098210634
 20
228.5467853190418
 10
724.57837181409
 20
227.881098627931
 10
724.6218338071168
 20
227.2039622718863
 10
724.6652958001436
 20
226.5158946208732
 10
724.7087577931701
 20
225.8174140448572
 10
724.7522197861971
 20
225.1090389138037
 10
724.7956817792237
 20
224.391287597678
 10
724.8391437722504
 20
223.6646784664456
 10
724.8826057652772
 20
222.9297298900719
 10
724.9260677583038
 20
222.1869656051584
 10
724.9695297513307
 20
221.4369474416506
 10
725.0129917443575
 20
220.6802537076845
 10
725.0564537373841
 20
219.9174627771845
 10
725.0999157304112
 20
219.1491530240752
 10
725.1433777234378
 20
218.3759028222812
 10
725.1868397164645
 20
217.5982905457271
 10
725.2303017094915
 20
216.8168945683373
 10
725.2737637025182
 20
216.0322932640364
 10
725.3172256955451
 20
215.2450650067489
 10
725.3606876885719
 20
214.4557882431544
 10
725.4041496815985
 20
213.6650461056034
 10
725.4476116746251
 20
212.8734291796962
 10
725.4910736676521
 20
212.0815287149621
 10
725.5345356606787
 20
211.2899359609303
 10
725.5779976537056
 20
210.49924216713
 10
725.6214596467322
 20
209.7100385830904
 10
725.6649216397589
 20
208.9229164583406
 10
725.7083836327856
 20
208.13846704241
 10
725.7518456258124
 20
207.3572815848277
 10
725.7953076188393
 20
206.579951335123
 10
725.8387696118659
 20
205.8070641213648
 10
725.8822316048927
 20
205.0391851220604
 10
725.9256935979193
 20
204.2768703114131
 10
725.9691555909461
 20
203.5206756370437
 10
726.012617583973
 20
202.7711570465729
 10
726.0560795769998
 20
202.0288704876212
 10
726.0995415700265
 20
201.2943719078094
 10
726.1430035630533
 20
200.5682172547582
 10
726.1864655560801
 20
199.8509624760881
 10
726.2299275491067
 20
199.1431635194199
 10
726.2733895421336
 20
198.4453757773159
 10
726.3168515351603
 20
197.7581241243857
 10
726.360313528187
 20
197.0818876681522
 10
726.4037755212138
 20
196.4171417533631
 10
726.4472375142406
 20
195.7643617247664
 10
726.4906995072674
 20
195.1240229271097
 10
726.5341615002942
 20
194.4966007051408
 10
726.577623493321
 20
193.8825704036077
 10
726.6210854863477
 20
193.282407367258
 10
726.6645474793745
 20
192.6965869408395
 10
726.7080094724013
 20
192.1255844691001
 10
726.751471465428
 20
191.5698627894264
 10
726.794933458455
 20
191.029807455669
 10
726.8383954514817
 20
190.5057745350812
 10
726.8818574445085
 20
189.9981200364366
 10
726.9253194375351
 20
189.5071999685091
 10
726.9687814305618
 20
189.0333703400721
 10
727.0122434235885
 20
188.5769871598995
 10
727.0557054166155
 20
188.1384064367651
 10
727.0991674096423
 20
187.7179841794424
 10
727.1426294026691
 20
187.3160763967052
 10
727.1860913956956
 20
186.9330378675111
 10
727.2295533887225
 20
186.5691650258496
 10
727.2730153817491
 20
186.2246717835968
 10
727.316477374776
 20
185.8997658044513
 10
727.3599393678028
 20
185.5946547521114
 10
727.4034013608294
 20
185.3095462902757
 10
727.4468633538561
 20
185.0446480826426
 10
727.4903253468826
 20
184.8001677929105
 10
727.5337873399095
 20
184.576313084778
 10
727.5772493329363
 20
184.3732916219434
 10
727.620711325963
 20
184.1913110681052
 10
727.6641733189898
 20
184.0305603932276
 10
727.7076353120166
 20
183.8911206704149
 10
727.7510973050433
 20
183.7730343460186
 10
727.7945592980701
 20
183.6763438173452
 10
727.8380212910969
 20
183.6010914817011
 10
727.8814832841238
 20
183.5473197363928
 10
727.9249452771504
 20
183.5150709787267
 10
727.9684072701768
 20
183.5043876060092
  0
LWPOLYLINE
  5
B1
330
1F
100
AcDbEntity
  8
0
  6
CONTINUOUS
 62
     7
100
AcDbPolyline
 90
        4
 70
     0
 43
0.0
 10
648.1102519832693
 20
185.7392637278997
 10
648.1784387282211
 20
185.6116403792505
 10
648.2466583631372
 20
185.533270482406
 10
648.3204796496765
 20
185.5040313958641
  0
LWPOLYLINE
  5
B2
330
1F
100
AcDbEntity
  8
0
  6
CONTINUOUS
 62
     7
100
AcDbPolyline
 90
        4
 70
     0
 43
0.0
 10
668.0798484036237
 20
185.8120866729244
 10
668.1481110026838
 20
185.6624225738592
 10
668.216372245991
 20
185.5619231491377
 10
668.3205143711021
 20
185.504031395843
  0
LWPOLYLINE
  5
B3
330
1F
100
AcDbEntity
  8
0
  6
CONTINUOUS
 62
     7
100
AcDbPolyline
 90
      105
 70
     0
 43
0.0
 10
-669.4688959035872
 20
241.503880369556
 10
-669.5123421443811
 20
241.4924341689294
 10
-669.5557883851749
 20
241.4593797622923
 10
-669.5992346259687
 20
241.4047844843616
 10
-669.6426808667625
 20
241.328715669854
 10
-669.6861271075566
 20
241.2312406534867
 10
-669.7295733483504
 20
241.1124267699763
 10
-669.7730195891443
 20
240.9723413540397
 10
-669.816465829938
 20
240.8110517403939
 10
-669.8599120707319
 20
240.6286252637557
 10
-669.9033583115258
 20
240.425135165391
 10
-669.9468045523196
 20
240.200742784755
 10
-669.9902507931135
 20
239.9556771358882
 10
-670.0336970339075
 20
239.6901689653839
 10
-670.0771432747013
 20
239.4044490198355
 10
-670.1205895154951
 20
239.0987480458358
 10
-670.164035756289
 20
238.7732967899784
 10
-670.2074819970828
 20
238.4283259988562
 10
-670.2509282378767
 20
238.0640664190626
 10
-670.2943744786705
 20
237.6807487971906
 10
-670.3378207194645
 20
237.2786039102203
 10
-670.3812669602581
 20
236.857895200545
 10
-670.4247132010521
 20
236.4189809204852
 10
-670.468159441846
 20
235.9622364263018
 10
-670.5116056826398
 20
235.4880370742554
 10
-670.5550519234337
 20
234.9967582206071
 10
-670.5984981642275
 20
234.4887752216175
 10
-670.6419444050214
 20
233.9644634335476
 10
-670.6853906458152
 20
233.424198212658
 10
-670.7288368866092
 20
232.8683549152097
 10
-670.7722831274029
 20
232.2973088974635
 10
-670.8157293681968
 20
231.7114399416835
 10
-670.8591756089908
 20
231.1111902143896
 10
-670.9026218497846
 20
230.4970480135569
 10
-670.9460680905785
 20
229.8695027194976
 10
-670.9895143313724
 20
229.2290437125241
 10
-671.0329605721662
 20
228.5761603729485
 10
-671.0764068129602
 20
227.9113420810829
 10
-671.1198530537539
 20
227.2350782172395
 10
-671.1632992945479
 20
226.5478581617305
 10
-671.2067455353416
 20
225.8501712948682
 10
-671.2501917761355
 20
225.1425070196709
 10
-671.2936380169293
 20
224.4253721258769
 10
-671.3370842577232
 20
223.6993217905393
 10
-671.3805304985171
 20
222.9649195412431
 10
-671.4239767393108
 20
222.2227289055733
 10
-671.4674229801047
 20
221.4733134111154
 10
-671.5108692208986
 20
220.7172365854543
 10
-671.5543154616925
 20
219.9550619561754
 10
-671.5977617024863
 20
219.1873530508636
 10
-671.6412079432803
 20
218.4146733971043
 10
-671.684654184074
 20
217.6375865224824
 10
-671.7281004248679
 20
216.8566571293504
 10
-671.7715466656616
 20
216.0724655851533
 10
-671.8149929064556
 20
215.2856034072571
 10
-671.8584391472496
 20
214.4966623519081
 10
-671.9018853880433
 20
213.7062341753524
 10
-671.9453316288372
 20
212.9149106338363
 10
-671.9887778696311
 20
212.1232834836059
 10
-672.0322241104249
 20
211.3319444809076
 10
-672.0756703512187
 20
210.5414853819876
 10
-672.1191165920125
 20
209.752497943092
 10
-672.1625628328065
 20
208.9655739119132
 10
-672.2060090736004
 20
208.1813001740753
 10
-672.2494553143944
 20
207.400250637595
 10
-672.2929015551881
 20
206.6229970685771
 10
-672.3363477959821
 20
205.8501112331261
 10
-672.3797940367757
 20
205.0821648973466
 10
-672.4232402775696
 20
204.3197298273433
 10
-672.4666865183635
 20
203.5633777892209
 10
-672.5101327591573
 20
202.813680549084
 10
-672.5535789999511
 20
202.0712098730371
 10
-672.597025240745
 20
201.3365375271851
 10
-672.6404714815388
 20
200.6102323116702
 10
-672.6839177223327
 20
199.8928255706255
 10
-672.7273639631265
 20
199.1848229900958
 10
-672.7708102039204
 20
198.4867297561231
 10
-672.8142564447143
 20
197.7990510547489
 10
-672.8577026855081
 20
197.122292072015
 10
-672.9011489263021
 20
196.4569579939631
 10
-672.9445951670958
 20
195.8035540066349
 10
-672.9880414078898
 20
195.1625852960722
 10
-673.0314876486837
 20
194.5345570483167
 10
-673.0749338894775
 20
193.9199743871144
 10
-673.1183801302715
 20
193.3193152758461
 10
-673.1618263710651
 20
192.7329881302615
 10
-673.2052726118591
 20
192.1613903916434
 10
-673.2487188526527
 20
191.6049195012744
 10
-673.2921650934467
 20
191.0639729004372
 10
-673.3356113342406
 20
190.5389480304145
 10
-673.3790575750346
 20
190.030242332489
 10
-673.4225038158283
 20
189.5382532479433
 10
-673.4659500566221
 20
189.0633782180602
 10
-673.509396297416
 20
188.6060146841224
 10
-673.5528425382099
 20
188.1665534154048
 10
-673.5962887790037
 20
187.7453053055021
 10
-673.6397350197976
 20
187.3425285950235
 10
-673.6831812605916
 20
186.9584805952954
 10
-673.7266275013855
 20
186.5934186176441
 10
-673.7700737421793
 20
186.247599973396
 10
-673.8135199829732
 20
185.9212819738776
 10
-673.856966223767
 20
185.6147219304151
 10
-673.900412464561
 20
185.328177154335
 10
-673.9438587053548
 20
185.0619049569637
 10
-673.9873049461481
 20
184.8161625271882
210
0.0
220
0.0
230
-1.0
  0
LWPOLYLINE
  5
B4
330
1F
100
AcDbEntity
  8
0
  6
CONTINUOUS
 62
     7
100
AcDbPolyline
 90
      105
 70
     0
 43
0.0
 10
-639.4675060632302
 20
241.5036013904606
 10
-639.5109669261803
 20
241.4928657340442
 10
-639.5544277891307
 20
241.4605765190424
 10
-639.5978886520809
 20
241.4067686876888
 10
-639.6413495150313
 20
241.3314771822173
 10
-639.6848103779815
 20
241.2347369448614
 10
-639.7282712409317
 20
241.116582917855
 10
-639.771732103882
 20
240.9770500434317
 10
-639.8151929668321
 20
240.8161788187776
 10
-639.8586538297825
 20
240.6340976762721
 10
-639.9021146927328
 20
240.4310052922481
 10
-639.9455755556829
 20
240.207102303684
 10
-639.9890364186332
 20
239.9625893475584
 10
-640.0324972815836
 20
239.69766706085
 10
-640.0759581445337
 20
239.412536080537
 10
-640.1194190074839
 20
239.1073970435982
 10
-640.1628798704343
 20
238.782450587012
 10
-640.2063407333845
 20
238.437897347757
 10
-640.2498015963348
 20
238.0739379853041
 10
-640.2932624592851
 20
237.6908058998984
 10
-640.3367233222353
 20
237.288832727352
 10
-640.3801841851855
 20
236.8683684506383
 10
-640.4236450481359
 20
236.4297630527308
 10
-640.467105911086
 20
235.9733665166028
 10
-640.5105667740364
 20
235.4995288252278
 10
-640.5540276369866
 20
235.0085999615793
 10
-640.5974884999368
 20
234.5009299086306
 10
-640.6409493628871
 20
233.9768686493551
 10
-640.6844102258373
 20
233.4367661667263
 10
-640.7278710887877
 20
232.8809769572189
 10
-640.7713319517379
 20
232.3099211035951
 10
-640.8147928146882
 20
231.7240681984317
 10
-640.8582536776383
 20
231.1238890526035
 10
-640.9017145405887
 20
230.5098544769855
 10
-640.945175403539
 20
229.8824352824524
 10
-640.9886362664892
 20
229.2421022798791
 10
-641.0320971294394
 20
228.5893262801407
 10
-641.0755579923898
 20
227.9245780941118
 10
-641.11901885534
 20
227.2483285326674
 10
-641.1624797182902
 20
226.5610484293732
 10
-641.2059405812405
 20
225.863227742924
 10
-641.2494014441908
 20
225.1554103243247
 10
-641.292862307141
 20
224.4381494486899
 10
-641.3363231700913
 20
223.7119983911336
 10
-641.3797840330415
 20
222.9775104267702
 10
-641.4232448959917
 20
222.2352388307139
 10
-641.466705758942
 20
221.4857368780788
 10
-641.5101666218922
 20
220.7295578439794
 10
-641.5536274848425
 20
219.9672550035299
 10
-641.5970883477928
 20
219.1993816318444
 10
-641.640549210743
 20
218.4264925540583
 10
-641.6840100736932
 20
217.649163324159
 10
-641.7274709366435
 20
216.8679842800181
 10
-641.7709317995939
 20
216.0835460777921
 10
-641.814392662544
 20
215.2964393736373
 10
-641.8578535254944
 20
214.5072548237102
 10
-641.9013143884447
 20
213.7165830841671
 10
-641.9447752513948
 20
212.9250148111645
 10
-641.9882361143452
 20
212.1331406608589
 10
-642.0316969772954
 20
211.3415512894067
 10
-642.0751578402458
 20
210.5508373480802
 10
-642.118618703196
 20
209.7615868558135
 10
-642.1620795661462
 20
208.9743808612362
 10
-642.2055404290965
 20
208.1897992723842
 10
-642.2490012920467
 20
207.4084219972936
 10
-642.292462154997
 20
206.6308289440001
 10
-642.3359230179474
 20
205.8576000205398
 10
-642.3793838808976
 20
205.0893151349485
 10
-642.4228447438478
 20
204.3265541952621
 10
-642.4663056067981
 20
203.5698971095166
 10
-642.5097664697483
 20
202.8199237857479
 10
-642.5532273326986
 20
202.077211471633
 10
-642.5966881956489
 20
201.3423045953416
 10
-642.6401490585991
 20
200.6157254762821
 10
-642.6836099215493
 20
199.8979960210097
 10
-642.7270707844996
 20
199.1896381360794
 10
-642.7705316474498
 20
198.4911737280463
 10
-642.8139925104
 20
197.8031247034655
 10
-642.8574533733504
 20
197.1260129688921
 10
-642.9009142363003
 20
196.460360430881
 10
-642.9443750992508
 20
195.8066889959875
 10
-642.9878359622011
 20
195.1655205005694
 10
-643.0312968251515
 20
194.5373508273495
 10
-643.0747576881016
 20
193.9226112419942
 10
-643.1182185510518
 20
193.3217231224234
 10
-643.161679414002
 20
192.735107846557
 10
-643.2051402769525
 20
192.163186792315
 10
-643.2486011399027
 20
191.6063813376173
 10
-643.2920620028531
 20
191.0651128603839
 10
-643.3355228658033
 20
190.5398027385347
 10
-643.3789837287536
 20
190.0308723499896
 10
-643.4224445917039
 20
189.5387430726686
 10
-643.4659054546541
 20
189.0638294644434
 10
-643.5093663176044
 20
188.6064683056571
 10
-643.5528271805547
 20
188.1669469033579
 10
-643.596288043505
 20
187.7455517711749
 10
-643.6397489064551
 20
187.3425694227371
 10
-643.6832097694053
 20
186.9582863716735
 10
-643.7266706323554
 20
186.5929891316132
 10
-643.7701314953057
 20
186.2469642161853
 10
-643.8135923582561
 20
185.9204981390189
 10
-643.8570532212061
 20
185.6138774137428
 10
-643.9005140841564
 20
185.3273883931252
 10
-643.9439749471067
 20
185.0612744487673
 10
-643.9874358100564
 20
184.8156782781189
210
0.0
220
0.0
230
-1.0
  0
LWPOLYLINE
  5
B5
330
1F
100
AcDbEntity
  8
0
  6
CONTINUOUS
 62
     7
100
AcDbPolyline
 90
      105
 70
     0
 43
0.0
 10
-609.4678904734669
 20
241.5034402496224
 10
-609.5113471739994
 20
241.4926527426606
 10
-609.5548038745319
 20
241.4603213646052
 10
-609.5982605750645
 20
241.4064484908605
 10
-609.641717275597
 20
241.331036496831
 10
-609.6851739761295
 20
241.2340877579213
 10
-609.7286306766617
 20
241.1156109208927
 10
-609.7720873771945
 20
240.975705494108
 10
-609.8155440777269
 20
240.8145394396402
 10
-609.8590007782593
 20
240.6322823963815
 10
-609.9024574787919
 20
240.4291040032235
 10
-609.9459141793245
 20
240.2051738990581
 10
-609.989370879857
 20
239.960661722777
 10
-610.0328275803895
 20
239.6957371132723
 10
-610.0762842809221
 20
239.4105697094357
 10
-610.1197409814546
 20
239.105329150159
 10
-610.1631976819871
 20
238.7801851162855
 10
-610.2066543825196
 20
238.4353428515783
 10
-610.250111083052
 20
238.0711078851316
 10
-610.2935677835846
 20
237.6878032964301
 10
-610.337024484117
 20
237.2857521649582
 10
-610.3804811846495
 20
236.8652775702006
 10
-610.4239378851819
 20
236.4267025916418
 10
-610.4673945857146
 20
235.9703503087666
 10
-610.510851286247
 20
235.4965438010593
 10
-610.5543079867797
 20
235.0056061480047
 10
-610.5977646873121
 20
234.4978604290872
 10
-610.6412213878446
 20
233.9736349631328
 10
-610.684678088377
 20
233.433328472066
 10
-610.7281347889095
 20
232.8773900567172
 10
-610.7715914894419
 20
232.3062699112805
 10
-610.8150481899745
 20
231.7204182299499
 10
-610.858504890507
 20
231.1202852069192
 10
-610.9019615910395
 20
230.5063210363826
 10
-610.945418291572
 20
229.8789759125341
 10
-610.9888749921045
 20
229.2387000295675
 10
-611.0323316926371
 20
228.585943581677
 10
-611.0757883931694
 20
227.9211568021851
 10
-611.1192450937019
 20
227.244811947323
 10
-611.1627017942344
 20
226.5574399698368
 10
-611.2061584947671
 20
225.8595814949023
 10
-611.2496151952995
 20
225.1517771476952
 10
-611.2930718958321
 20
224.4345675533912
 10
-611.3365285963645
 20
223.7084933371659
 10
-611.379985296897
 20
222.9740951241951
 10
-611.4234419974296
 20
222.2319135396546
 10
-611.466898697962
 20
221.48248920872
 10
-611.5103553984947
 20
220.7263627565671
 10
-611.5538120990269
 20
219.9640769037398
 10
-611.5972687995595
 20
219.1962005352219
 10
-611.640725500092
 20
218.4233203152825
 10
-611.6841822006246
 20
217.6460232476526
 10
-611.727638901157
 20
216.8648963360627
 10
-611.7710956016896
 20
216.0805265842436
 10
-611.814552302222
 20
215.2935009959261
 10
-611.8580090027546
 20
214.5044065748409
 10
-611.9014657032869
 20
213.7138303247187
 10
-611.9449224038195
 20
212.9223592492904
 10
-611.988379104352
 20
212.1305803513505
 10
-612.0318358048845
 20
211.3390802624264
 10
-612.075292505417
 20
210.5484446783628
 10
-612.1187492059496
 20
209.7592591498982
 10
-612.162205906482
 20
208.9721092277704
 10
-612.2056626070146
 20
208.187580462718
 10
-612.249119307547
 20
207.406258405479
 10
-612.2925760080795
 20
206.6287286067914
 10
-612.3360327086119
 20
205.8555766173937
 10
-612.3794894091445
 20
205.087387988024
 10
-612.4229461096769
 20
204.3247482694204
 10
-612.4664028102096
 20
203.5682405841006
 10
-612.509859510742
 20
202.8184198289819
 10
-612.5533162112746
 20
202.0758226920874
 10
-612.596772911807
 20
201.3409855580111
 10
-612.6402296123396
 20
200.6144448113472
 10
-612.6836863128719
 20
199.8967368366895
 10
-612.7271430134044
 20
199.1883980186322
 10
-612.7705997139369
 20
198.4899647417693
 10
-612.8140564144695
 20
197.8019733906949
 10
-612.8575131150019
 20
197.1249603500029
 10
-612.9009698155344
 20
196.459461919264
 10
-612.9444265160669
 20
195.8059895353198
 10
-612.9878832165994
 20
195.1649953558691
 10
-613.031339917132
 20
194.5369228924753
 10
-613.0747966176643
 20
193.9222156567024
 10
-613.1182533181968
 20
193.3213171601139
 10
-613.1617100187294
 20
192.7346709142738
 10
-613.2051667192618
 20
192.1627204307456
 10
-613.2486234197944
 20
191.6059092210932
 10
-613.2920801203269
 20
191.0646807968802
 10
-613.3355368208595
 20
190.5394786696705
 10
-613.378993521392
 20
190.0307394037214
 10
-613.4224502219245
 20
189.5388242662873
 10
-613.4659069224568
 20
189.0640484211678
 10
-613.5093636229894
 20
188.6067263676977
 10
-613.5528203235222
 20
188.1671726052116
 10
-613.5962770240546
 20
187.7457016330444
 10
-613.6397337245871
 20
187.3426279505307
 10
-613.6831904251196
 20
186.9582660570053
 10
-613.7266471256521
 20
186.5929304518029
 10
-613.7701038261847
 20
186.2469356342583
 10
-613.8135605267171
 20
185.9205959098168
 10
-613.8570172272497
 20
185.6141822736917
 10
-613.9004739277823
 20
185.3278679839119
 10
-613.9439306283145
 20
185.0618129008467
 10
-613.9873873288471
 20
184.8161768848655
210
0.0
220
0.0
230
-1.0
  0
LWPOLYLINE
  5
B6
330
1F
100
AcDbEntity
  8
0
  6
CONTINUOUS
 62
     7
100
AcDbPolyline
 90
      105
 70
     0
 43
0.0
 10
-589.46801018532
 20
241.5034922968339
 10
-589.5114679714513
 20
241.4927314607382
 10
-589.5549257575824
 20
241.460392437047
 10
-589.5983835437137
 20
241.4064558851173
 10
-589.6418413298449
 20
241.3309024643058
 10
-589.6852991159761
 20
241.2337371398518
 10
-589.7287569021074
 20
241.11507657507
 10
-589.7722146882387
 20
240.9750694994654
 10
-589.8156724743698
 20
240.8138646453061
 10
-589.859130260501
 20
240.6316107448601
 10
-589.9025880466322
 20
240.4284565303957
 10
-589.9460458327635
 20
240.2045507341809
 10
-589.9895036188948
 20
239.9600420884838
 10
-590.0329614050261
 20
239.6950793255727
 10
-590.0764191911571
 20
239.4098111777156
 10
-590.1198769772884
 20
239.1043889705084
 10
-590.1633347634197
 20
238.77903518221
 10
-590.206792549551
 20
238.434050491786
 10
-590.2502503356822
 20
238.069739585081
 10
-590.2937081218133
 20
237.6864071479399
 10
-590.3371659079445
 20
237.2843578662077
 10
-590.3806236940759
 20
236.8638964257291
 10
-590.4240814802072
 20
236.4253275123491
 10
-590.4675392663385
 20
235.9689558119125
 10
-590.5109970524696
 20
235.495086010264
 10
-590.5544548386008
 20
235.0040227932487
 10
-590.5979126247322
 20
234.4960910292342
 10
-590.6413704108633
 20
233.9717029155489
 10
-590.6848281969947
 20
233.4312942641308
 10
-590.7282859831258
 20
232.8753008873096
 10
-590.771743769257
 20
232.304158597415
 10
-590.8152015553883
 20
231.7183032067772
 10
-590.8586593415197
 20
231.1181705277257
 10
-590.902117127651
 20
230.5041963725903
 10
-590.9455749137821
 20
229.8768165537011
 10
-590.9890326999133
 20
229.2364668833878
 10
-591.0324904860445
 20
228.5835849789052
 10
-591.0759482721758
 20
227.9186533006791
 10
-591.119406058307
 20
227.2422010841772
 10
-591.1628638444382
 20
226.5547597563817
 10
-591.2063216305694
 20
225.8568607442749
 10
-591.2497794167007
 20
225.1490354748391
 10
-591.293237202832
 20
224.4318153750565
 10
-591.336694988963
 20
223.7057318719093
 10
-591.3801527750944
 20
222.9713163923799
 10
-591.4236105612256
 20
222.2291003634504
 10
-591.4670683473566
 20
221.4796152121032
 10
-591.510526133488
 20
220.7234009239544
 10
-591.5539839196191
 20
219.9610323571336
 10
-591.5974417057505
 20
219.1930932503547
 10
-591.6408994918817
 20
218.4201673423332
 10
-591.684357278013
 20
217.6428383717849
 10
-591.7278150641441
 20
216.8616900774255
 10
-591.7712728502754
 20
216.0773061979708
 10
-591.8147306364067
 20
215.2902704721365
 10
-591.8581884225379
 20
214.5011666386382
 10
-591.9016462086691
 20
213.7105784361917
 10
-591.9451039948003
 20
212.9190897046992
 10
-591.9885617809316
 20
212.1272865697267
 10
-592.0320195670629
 20
211.3357574196143
 10
-592.0754773531942
 20
210.545090739311
 10
-592.1189351393253
 20
209.7558750137655
 10
-592.1623929254566
 20
208.9686987279267
 10
-592.2058507115878
 20
208.1841503667434
 10
-592.249308497719
 20
207.4028184151645
 10
-592.2927662838504
 20
206.6252913581388
 10
-592.3362240699815
 20
205.8521576806151
 10
-592.3796818561128
 20
205.0840058675231
 10
-592.4231396422441
 20
204.3214168990413
 10
-592.4665974283752
 20
203.5649429595967
 10
-592.5100552145066
 20
202.8151293281277
 10
-592.5535130006378
 20
202.0725212835727
 10
-592.596970786769
 20
201.3376641048702
 10
-592.6404285729002
 20
200.6111030709585
 10
-592.6838863590314
 20
199.8933834607763
 10
-592.7273441451626
 20
199.185050553262
 10
-592.7708019312939
 20
198.486649627354
 10
-592.8142597174252
 20
197.7987259619907
 10
-592.8577175035565
 20
197.1218227359938
 10
-592.9011752896877
 20
196.4564398400611
 10
-592.9446330758188
 20
195.8030364919326
 10
-592.98809086195
 20
195.1620703329013
 10
-593.0315486480814
 20
194.5339990042603
 10
-593.0750064342126
 20
193.9192801473028
 10
-593.1184642203438
 20
193.3183714033218
 10
-593.161922006475
 20
192.7317304136105
 10
-593.2053797926063
 20
192.159814819462
 10
-593.2488375787375
 20
191.6030822621694
 10
-593.2922953648688
 20
191.0619903822148
 10
-593.335753151
 20
190.5369738120911
 10
-593.3792109371311
 20
190.0283840399311
 10
-593.4226687232624
 20
189.5365537788338
 10
-593.4661265093938
 20
189.0618157418981
 10
-593.509584295525
 20
188.6045026422228
 10
-593.5530420816561
 20
188.164947192907
 10
-593.5964998677874
 20
187.7434821070496
 10
-593.6399576539186
 20
187.3404400977494
 10
-593.6834154400499
 20
186.9561538781055
 10
-593.7268732261812
 20
186.5909561612167
 10
-593.7703310123125
 20
186.2451755827938
 10
-593.8137887984436
 20
185.9190638338099
 10
-593.8572465845748
 20
185.6128039924357
 10
-593.9007043707061
 20
185.3265767327047
 10
-593.9441621568374
 20
185.0605627286509
 10
-593.9876199429686
 20
184.814942654307
210
0.0
220
0.0
230
-1.0
  0
LWPOLYLINE
  5
B7
330
1F
100
AcDbEntity
  8
0
  6
CONTINUOUS
 62
     7
100
AcDbPolyline
 90
        4
 70
     0
 43
0.0
 10
588.0726137420817
 20
185.8309785145861
 10
588.1407580840367
 20
185.6760022985894
 10
588.2069756016323
 20
185.5727302277975
 10
588.3204595245388
 20
185.5040313958772
  0
LWPOLYLINE
  5
B8
330
1F
100
AcDbEntity
  8
0
  6
CONTINUOUS
 62
     7
100
AcDbPolyline
 90
       57
 70
     0
 43
0.0
 10
581.9679496430315
 20
212.502855001385
 10
582.0040175270855
 20
211.8457235450088
 10
582.0400854111397
 20
211.1889244255393
 10
582.0761532951938
 20
210.5327947295857
 10
582.112221179248
 20
209.877671543758
 10
582.148289063302
 20
209.2238919546657
 10
582.1843569473558
 20
208.5717930489184
 10
582.2204248314099
 20
207.9217119131258
 10
582.2564927154641
 20
207.2739856338976
 10
582.2925605995182
 20
206.6289512978434
 10
582.3286284835722
 20
205.9869459915728
 10
582.3646963676263
 20
205.3483065374132
 10
582.4007642516802
 20
204.7133600737977
 10
582.4368321357343
 20
204.0824214905497
 10
582.4729000197884
 20
203.4558048913739
 10
582.5089679038424
 20
202.8338243799752
 10
582.5450357878965
 20
202.2167940600586
 10
582.5811036719505
 20
201.6050280353287
 10
582.6171715560046
 20
200.9988404094906
 10
582.6532394400587
 20
200.3985452862491
 10
582.6893073241126
 20
199.8044567693092
 10
582.7253752081667
 20
199.2168889623755
 10
582.7614430922208
 20
198.6361559691533
 10
582.7975109762749
 20
198.0625718933471
 10
582.8335788603289
 20
197.496447129799
 10
582.869646744383
 20
196.9380619464199
 10
582.905714628437
 20
196.3876819668936
 10
582.941782512491
 20
195.8455727175214
 10
582.9778503965451
 20
195.3119997246045
 10
583.0139182805992
 20
194.7872285144443
 10
583.0499861646532
 20
194.2715246133419
 10
583.0860540487074
 20
193.7651535475987
 10
583.1221219327614
 20
193.2683808435159
 10
583.1581898168154
 20
192.7814720273949
 10
583.1942577008696
 20
192.3046926255368
 10
583.2303255849235
 20
191.838308164243
 10
583.2663934689776
 20
191.382584143137
 10
583.3024613530317
 20
190.9377692110559
 10
583.3385292370857
 20
190.5040663439359
 10
583.3745971211399
 20
190.0816708544682
 10
583.4106650051939
 20
189.6707780553438
 10
583.4467328892481
 20
189.2715832592543
 10
583.482800773302
 20
188.8842817788905
 10
583.5188686573562
 20
188.5090689269437
 10
583.5549365414101
 20
188.1461400161053
 10
583.5910044254642
 20
187.7956903590664
 10
583.6270723095182
 20
187.457915268518
 10
583.6631401935723
 20
187.1330100571516
 10
583.6992080776262
 20
186.8211700376582
 10
583.7352759616803
 20
186.5225888095554
 10
583.7713438457346
 20
186.2374191158191
 10
583.8074117297887
 20
185.9657720186646
 10
583.8434796138425
 20
185.7077567022686
 10
583.8795474978966
 20
185.4634823508079
 10
583.9156153819508
 20
185.233058148459
 10
583.9516832660048
 20
185.0165932793986
 10
583.9877511500588
 20
184.8141969278035
  0
LWPOLYLINE
  5
B9
330
1F
100
AcDbEntity
  8
0
  6
CONTINUOUS
 62
     7
100
AcDbPolyline
 90
        4
 70
     0
 43
0.0
 10
688.1177686892523
 20
185.7227801226881
 10
688.185952883325
 20
185.6004123599544
 10
688.3185319785971
 20
185.5042139414385
 10
688.3205291055054
 20
185.504031395847
  0
LWPOLYLINE
  5
BA
330
1F
100
AcDbEntity
  8
0
  6
CONTINUOUS
 62
     7
100
AcDbPolyline
 90
      105
 70
     0
 43
0.0
 10
-619.4671405883313
 20
241.5034623412483
 10
-619.5106041163584
 20
241.4929936044441
 10
-619.5540676443858
 20
241.4609795864912
 10
-619.597531172413
 20
241.4074335269585
 10
-619.64099470044
 20
241.3323686654147
 10
-619.6844582284674
 20
241.2357982414291
 10
-619.7279217564947
 20
241.1177354945702
 10
-619.7713852845218
 20
240.9782153556916
 10
-619.8148488125491
 20
240.8173829827742
 10
-619.8583123405763
 20
240.6354184607307
 10
-619.9017758686035
 20
240.4325018884414
 10
-619.9452393966307
 20
240.2088133647867
 10
-619.9887029246579
 20
239.9645329886473
 10
-620.0321664526853
 20
239.6998408589036
 10
-620.0756299807124
 20
239.4149170744359
 10
-620.1190935087398
 20
239.1099417341249
 10
-620.1625570367669
 20
238.7850949368509
 10
-620.2060205647941
 20
238.440558825087
 10
-620.2494840928213
 20
238.0765818339827
 10
-620.2929476208484
 20
237.6934915963065
 10
-620.3364111488756
 20
237.2916203950317
 10
-620.379874676903
 20
236.8713005131315
 10
-620.4233382049302
 20
236.4328642335791
 10
-620.4668017329574
 20
235.9766438393478
 10
-620.5102652609845
 20
235.5029716134108
 10
-620.5537287890118
 20
235.0121798387415
 10
-620.5971923170389
 20
234.504600798313
 10
-620.6406558450661
 20
233.9805667750987
 10
-620.6841193730934
 20
233.4404275543419
 10
-620.7275829011206
 20
232.8846159360927
 10
-620.7710464291479
 20
232.313589307795
 10
-620.8145099571751
 20
231.7278050606923
 10
-620.8579734852024
 20
231.1277205860281
 10
-620.9014370132295
 20
230.513793275046
 10
-620.9449005412567
 20
229.8864805189893
 10
-620.988364069284
 20
229.2462397091017
 10
-621.0318275973111
 20
228.5935282366266
 10
-621.0752911253383
 20
227.9288034928074
 10
-621.1187546533657
 20
227.2525242452195
 10
-621.162218181393
 20
226.5651888229576
 10
-621.20568170942
 20
225.86734008167
 10
-621.2491452374471
 20
225.1595232506966
 10
-621.2926087654746
 20
224.4422835593777
 10
-621.3360722935018
 20
223.7161662370529
 10
-621.379535821529
 20
222.9817165130625
 10
-621.4229993495561
 20
222.2394796167464
 10
-621.4664628775834
 20
221.4900007774446
 10
-621.5099264056105
 20
220.7338252244971
 10
-621.553389933638
 20
219.971498187244
 10
-621.5968534616652
 20
219.2035714190493
 10
-621.6403169896922
 20
218.4306255645827
 10
-621.6837805177195
 20
217.6532492634057
 10
-621.7272440457467
 20
216.872031155361
 10
-621.770707573774
 20
216.0875598802918
 10
-621.8141711018012
 20
215.3004240780411
 10
-621.8576346298283
 20
214.511212388452
 10
-621.9010981578555
 20
213.7205134513674
 10
-621.944561685883
 20
212.9289159066305
 10
-621.9880252139101
 20
212.1370083940842
 10
-622.0314887419372
 20
211.345379470929
 10
-622.0749522699645
 20
210.5546155766553
 10
-622.1184157979917
 20
209.7653009050192
 10
-622.1618793260188
 20
208.9780195415018
 10
-622.2053428540462
 20
208.1933555715844
 10
-622.2488063820733
 20
207.4118930807479
 10
-622.2922699101006
 20
206.6342161544736
 10
-622.3357334381278
 20
205.8609088782426
 10
-622.3791969661551
 20
205.0925553375361
 10
-622.4226604941822
 20
204.3297396178351
 10
-622.4661240222094
 20
203.5730458046208
 10
-622.5095875502367
 20
202.8230495782121
 10
-622.5530510782638
 20
202.0802918599036
 10
-622.5965146062912
 20
201.3453045870703
 10
-622.6399781343183
 20
200.6186196970751
 10
-622.6834416623454
 20
199.9007691272811
 10
-622.7269051903729
 20
199.1922848150511
 10
-622.7703687183999
 20
198.4936986977482
 10
-622.8138322464272
 20
197.8055427127354
 10
-622.8572957744544
 20
197.1283487973757
 10
-622.9007593024817
 20
196.462648889032
 10
-622.9442228305088
 20
195.8089729320585
 10
-622.9876863585359
 20
195.167805096043
 10
-623.0311498865633
 20
194.5395838115781
 10
-623.0746134145905
 20
193.9247455234018
 10
-623.1180769426177
 20
193.3237266762519
 10
-623.161540470645
 20
192.7369637148663
 10
-623.2050039986722
 20
192.1648930839829
 10
-623.2484675266994
 20
191.6079512283396
 10
-623.2919310547265
 20
191.0665745926742
 10
-623.3353945827539
 20
190.5411996217247
 10
-623.3788581107812
 20
190.0322627601939
 10
-623.4223216388083
 20
189.5401778347017
 10
-623.4657851668356
 20
189.065271319038
 10
-623.5092486948627
 20
188.607848601952
 10
-623.5527122228899
 20
188.1682150721924
 10
-623.5961757509172
 20
187.7466761185084
 10
-623.6396392789444
 20
187.3435371296487
 10
-623.6831028069715
 20
186.9591034943625
 10
-623.7265663349987
 20
186.5936806013985
 10
-623.7700298630261
 20
186.2475738395059
 10
-623.8134933910533
 20
185.9210885974334
 10
-623.8569569190805
 20
185.614526543844
 10
-623.9004204471076
 20
185.328112396678
 10
-623.943883975135
 20
185.0619984233502
 10
-623.9873475031623
 20
184.8163340722528
210
0.0
220
0.0
230
-1.0
  0
LWPOLYLINE
  5
BB
330
1F
100
AcDbEntity
  8
0
  6
CONTINUOUS
 62
     7
100
AcDbPolyline
 90
        4
 70
     0
 43
0.0
 10
638.0952191950877
 20
185.77418347352
 10
638.163407485686
 20
185.635497511574
 10
638.2296408715105
 20
185.5481273888313
 10
638.3204648147885
 20
185.504031395857
  0
LWPOLYLINE
  5
BC
330
1F
100
AcDbEntity
  8
0
  6
CONTINUOUS
 62
     7
100
AcDbPolyline
 90
        4
 70
     0
 43
0.0
 10
628.0762492968764
 20
185.8215245438479
 10
628.14257030695
 20
185.6727165989573
 10
628.2088024855174
 20
185.5705112638756
 10
628.3204565974455
 20
185.5040313958639
  0
LWPOLYLINE
  5
BD
330
1F
100
AcDbEntity
  8
0
  6
CONTINUOUS
 62
     7
100
AcDbPolyline
 90
      105
 70
     0
 43
0.0
 10
743.4483754109752
 20
240.192022458043
 10
743.4918328555143
 20
239.9464266283931
 10
743.5352903000532
 20
239.6803658304931
 10
743.5787477445925
 20
239.3939822136807
 10
743.6222051891314
 20
239.0874394100223
 10
743.6656626336705
 20
238.7610049082615
 10
743.7091200782095
 20
238.4149775400055
 10
743.7525775227484
 20
238.0496561433953
 10
743.7960349672876
 20
237.6653395565718
 10
743.8394924118263
 20
237.2623266176758
 10
743.8829498563655
 20
236.8409161648483
 10
743.9264073009044
 20
236.4014070362301
 10
743.9698647454434
 20
235.9440980699621
 10
744.0133221899824
 20
235.4692881041853
 10
744.0567796345213
 20
234.9772779459215
 10
744.1002370790604
 20
234.4684273404962
 10
744.1436945235994
 20
233.9431637326065
 10
744.1871519681382
 20
233.4019182986005
 10
744.2306094126774
 20
232.8451222148262
 10
744.2740668572162
 20
232.2732066576315
 10
744.3175243017552
 20
231.6866028033646
 10
744.3609817462943
 20
231.0857418283734
 10
744.4044391908333
 20
230.4710549090059
 10
744.4478966353723
 20
229.8429732216101
 10
744.4913540799113
 20
229.2019279425341
 10
744.5348115244504
 20
228.5483644407768
 10
744.5782689689894
 20
227.8827927110022
 10
744.6217264135284
 20
227.2057411323906
 10
744.6651838580675
 20
226.517738085424
 10
744.7086413026066
 20
225.8193119505843
 10
744.7520987471455
 20
225.1109911083536
 10
744.7955561916847
 20
224.3933039392139
 10
744.8390136362237
 20
223.6667788236473
 10
744.8824710807628
 20
222.9319441421357
 10
744.9259285253016
 20
222.1893282751609
 10
744.9693859698407
 20
221.4394605210665
 10
745.0128434143799
 20
220.6828949865525
 10
745.0563008589188
 20
219.920212833311
 10
745.099758303458
 20
219.1519965912809
 10
745.1432157479968
 20
218.3788287904008
 10
745.1866731925359
 20
217.6012919606095
 10
745.2301306370749
 20
216.8199686318458
 10
745.273588081614
 20
216.0354413340484
 10
745.3170455261527
 20
215.2482925971561
 10
745.3605029706919
 20
214.4591049511077
 10
745.4039604152307
 20
213.6684609258419
 10
745.4474178597698
 20
212.8769440890185
 10
745.4908753043087
 20
212.0851424596826
 10
745.5343327488476
 20
211.2936452502117
 10
745.5777901933867
 20
210.5030416729973
 10
745.6212476379256
 20
209.7139209404308
 10
745.6647050824646
 20
208.9268722649036
 10
745.7081625270037
 20
208.1424848588071
 10
745.7516199715426
 20
207.3613479345328
 10
745.7950774160817
 20
206.5840507044721
 10
745.8385348606205
 20
205.8111823810165
 10
745.8819923051594
 20
205.0433313827295
 10
745.9254497496986
 20
204.2810666715707
 10
745.9689071942377
 20
203.5249370627708
 10
746.0123646387767
 20
202.7754904396554
 10
746.0558220833158
 20
202.03327468555
 10
746.0992795278548
 20
201.2988376837801
 10
746.1427369723938
 20
200.5727273176711
 10
746.186194416933
 20
199.8554914705487
 10
746.229651861472
 20
199.1476780257383
 10
746.2731093060111
 20
198.4498348665654
 10
746.3165667505501
 20
197.7625098763556
 10
746.3600241950891
 20
197.0862367565676
 10
746.4034816396282
 20
196.4214918943917
 10
746.4469390841672
 20
195.7687372002367
 10
746.4903965287064
 20
195.1284345845108
 10
746.5338539732453
 20
194.501045957622
 10
746.5773114177844
 20
193.8870332299786
 10
746.6207688623234
 20
193.2868583119886
 10
746.6642263068624
 20
192.7009831140602
 10
746.7076837514013
 20
192.1298695466015
 10
746.7511411959402
 20
191.5739795200207
 10
746.7945986404793
 20
191.0337722677466
 10
746.8380560850183
 20
190.5096472919401
 10
746.8815135295574
 20
190.0019453677815
 10
746.9249709740964
 20
189.5110047943472
 10
746.9684284186354
 20
189.0371638707137
 10
747.0118858631741
 20
188.5807608959572
 10
747.0553433077132
 20
188.1421341691542
 10
747.0988007522521
 20
187.7216219893811
 10
747.1422581967912
 20
187.3195626557142
 10
747.1857156413303
 20
186.93629446723
 10
747.2291730858691
 20
186.572155722893
 10
747.2726305304083
 20
186.2274582634427
 10
747.3160879749471
 20
185.9024131851786
 10
747.3595454194863
 20
185.5972076098053
 10
747.4030028640251
 20
185.3120286590273
 10
747.4464603085644
 20
185.0470634545492
 10
747.4899177531033
 20
184.8024991180755
 10
747.5333751976422
 20
184.5785227713107
 10
747.5768326421812
 20
184.3753215359594
 10
747.6202900867203
 20
184.1930825337263
 10
747.6637475312592
 20
184.0319928863157
 10
747.7072049757984
 20
183.8922356704542
 10
747.7506624203372
 20
183.7739115061903
 10
747.7941198648763
 20
183.6770440376002
 10
747.8375773094155
 20
183.6016539615483
 10
747.8810347539544
 20
183.5477619748991
 10
747.9244921984932
 20
183.5153887745172
 10
747.9679496430313
 20
183.5045550572671
  0
LWPOLYLINE
  5
BE
330
1F
100
AcDbEntity
  8
0
  6
CONTINUOUS
 62
     7
100
AcDbPolyline
 90
      105
 70
     0
 43
0.0
 10
-599.4679104224618
 20
241.5034498155566
 10
-599.5113678755904
 20
241.4926991316594
 10
-599.5548253287192
 20
241.4603909009652
 10
-599.5982827818477
 20
241.4065166397133
 10
-599.6417402349764
 20
241.3310678641428
 10
-599.6851976881051
 20
241.23403670473
 10
-599.7286551412337
 20
241.1154714642484
 10
-599.7721125943624
 20
240.9755209300346
 10
-599.815570047491
 20
240.8143443171172
 10
-599.8590275006197
 20
240.632100840525
 10
-599.9024849537483
 20
240.4289497152866
 10
-599.9459424068768
 20
240.205050156431
 10
-599.9893998600055
 20
239.9605613789868
 10
-600.0328573131342
 20
239.6956425979827
 10
-600.0763147662628
 20
239.4104530284475
 10
-600.1197722193915
 20
239.10515188541
 10
-600.1632296725201
 20
238.7799110999095
 10
-600.2066871256487
 20
238.4349996482181
 10
-600.2501445787773
 20
238.070731231945
 10
-600.293602031906
 20
237.6874197913941
 10
-600.3370594850346
 20
237.2853792668693
 10
-600.3805169381633
 20
236.864923598675
 10
-600.4239743912918
 20
236.426366727115
 10
-600.4674318444204
 20
235.9700225924934
 10
-600.5108892975492
 20
235.4962051351144
 10
-600.5543467506776
 20
235.005228295282
 10
-600.5978042038063
 20
234.4974065942651
 10
-600.641261656935
 20
233.9730995142875
 10
-600.6847191100636
 20
233.4327427560076
 10
-600.7281765631922
 20
232.8767794038205
 10
-600.7716340163207
 20
232.3056525421214
 10
-600.8150914694494
 20
231.7198052553054
 10
-600.858548922578
 20
231.1196806277678
 10
-600.9020063757067
 20
230.5057217439035
 10
-600.9454638288354
 20
229.8783716881079
 10
-600.9889212819639
 20
229.238073544776
 10
-601.0323787350926
 20
228.585270398303
 10
-601.0758361882212
 20
227.9204135709049
 10
-601.1192936413498
 20
227.2440133685994
 10
-601.1627510944786
 20
226.5566058089548
 10
-601.2062085476072
 20
225.8587270160659
 10
-601.2496660007358
 20
225.150913114028
 10
-601.2931234538644
 20
224.4337002269361
 10
-601.3365809069932
 20
223.707624478885
 10
-601.3800383601218
 20
222.97322199397
 10
-601.4234958132504
 20
222.231028896286
 10
-601.466953266379
 20
221.4815813099281
 10
-601.5104107195078
 20
220.7254156281082
 10
-601.5538681726363
 20
219.9630860791745
 10
-601.597325625765
 20
219.195175552941
 10
-601.6407830788936
 20
218.422269527543
 10
-601.6842405320223
 20
217.6449534811157
 10
-601.7276979851508
 20
216.8638128917945
 10
-601.7711554382794
 20
216.0794332377147
 10
-601.814612891408
 20
215.2923999970118
 10
-601.8580703445367
 20
214.5032986478209
 10
-601.9015277976654
 20
213.7127146682773
 10
-601.9449852507939
 20
212.9212335365166
 10
-601.9884427039225
 20
212.1294408874776
 10
-602.031900157051
 20
211.3379234103073
 10
-602.0753576101799
 20
210.5472682285917
 10
-602.1188150633085
 20
209.7580624672707
 10
-602.1622725164372
 20
208.9708932512845
 10
-602.2057299695659
 20
208.1863477055729
 10
-602.2491874226944
 20
207.4050129550759
 10
-602.292644875823
 20
206.6274761247336
 10
-602.3361023289518
 20
205.8543243394862
 10
-602.3795597820804
 20
205.0861447242733
 10
-602.423017235209
 20
204.3235241022365
 10
-602.4664746883376
 20
203.5670319914113
 10
-602.5099321414664
 20
202.8172115386243
 10
-602.5533895945949
 20
202.074603674196
 10
-602.5968470477236
 20
201.3397493284467
 10
-602.6403045008522
 20
200.6131894316972
 10
-602.6837619539808
 20
199.8954649142676
 10
-602.7272194071095
 20
199.1871167064787
 10
-602.770676860238
 20
198.4886857386507
 10
-602.8141343133666
 20
197.8007129411042
 10
-602.8575917664954
 20
197.1237392441597
 10
-602.901049219624
 20
196.4582963504993
 10
-602.9445066727526
 20
195.8048576692235
 10
-602.9879641258814
 20
195.163873909897
 10
-603.0314215790097
 20
194.5357957309293
 10
-603.0748790321384
 20
193.9210737907304
 10
-603.118336485267
 20
193.3201587477099
 10
-603.1617939383955
 20
192.7335012602776
 10
-603.2052513915244
 20
192.1615519868433
 10
-603.2487088446528
 20
191.6047615858166
 10
-603.2921662977816
 20
191.0635807156075
 10
-603.3356237509103
 20
190.538459050724
 10
-603.3790812040388
 20
190.0297970116195
 10
-603.4225386571675
 20
189.5379238230665
 10
-603.465996110296
 20
189.06316315001
 10
-603.5094535634246
 20
188.6058386573951
 10
-603.5529110165534
 20
188.1662740101669
 10
-603.596368469682
 20
187.7447928732705
 10
-603.6398259228107
 20
187.3417189116509
 10
-603.6832833759393
 20
186.9573757902532
 10
-603.726740829068
 20
186.5920871740226
 10
-603.7701982821966
 20
186.246176727904
 10
-603.8136557353253
 20
185.9199513140651
 10
-603.8571131884537
 20
185.6136179916298
 10
-603.9005706415825
 20
185.3273471153052
 10
-603.9440280947109
 20
185.0613089829826
 10
-603.9874855478399
 20
184.8156738925516
210
0.0
220
0.0
230
-1.0
  0
LWPOLYLINE
  5
BF
330
1F
100
AcDbEntity
  8
0
  6
CONTINUOUS
 62
     7
100
AcDbPolyline
 90
      105
 70
     0
 43
0.0
 10
733.4482069415458
 20
240.1930271186739
 10
733.4916723054224
 20
239.9474665261069
 10
733.5351376692995
 20
239.6813964661256
 10
733.5786030331765
 20
239.3949544201316
 10
733.6220683970531
 20
239.0883633656913
 10
733.6655337609303
 20
238.7619112498387
 10
733.7089991248068
 20
238.4158876427241
 10
733.7524644886838
 20
238.050582114498
 10
733.7959298525609
 20
237.6662842353108
 10
733.8393952164375
 20
237.263283575313
 10
733.8828605803145
 20
236.8418697046549
 10
733.9263259441915
 20
236.4023321934871
 10
733.9697913080684
 20
235.9449606119598
 10
734.0132566719451
 20
235.4700445658527
 10
734.0567220358221
 20
234.9779046972143
 10
734.1001873996988
 20
234.468949470042
 10
734.1436527635758
 20
233.9436027735439
 10
734.1871181274527
 20
233.4022884969281
 10
734.2305834913294
 20
232.8454305294026
 10
734.2740488552064
 20
232.2734527601754
 10
734.3175142190833
 20
231.6867790784549
 10
734.36097958296
 20
231.0858333734487
 10
734.4044449468369
 20
230.4710395343652
 10
734.4479103107138
 20
229.8428214504125
 10
734.4913756745907
 20
229.201607141284
 10
734.5348410384674
 20
228.5478799381853
 10
734.5783064023443
 20
227.8821626571194
 10
734.6217717662213
 20
227.2049789660657
 10
734.6652371300981
 20
226.5168525330039
 10
734.708702493975
 20
225.8183070259135
 10
734.7521678578519
 20
225.109866112774
 10
734.7956332217288
 20
224.392053461565
 10
734.8390985856057
 20
223.6653927402662
 10
734.8825639494827
 20
222.930407616857
 10
734.9260293133594
 20
222.1876217856798
 10
734.9694946772363
 20
221.4375729532126
 10
735.0129600411132
 20
220.6808358507614
 10
735.05642540499
 20
219.9179912543944
 10
735.0998907688669
 20
219.1496199401802
 10
735.1433561327437
 20
218.3763026841872
 10
735.1868214966205
 20
217.5986202624839
 10
735.2302868604975
 20
216.8171534511388
 10
735.2737522243743
 20
216.0324830262203
 10
735.3172175882512
 20
215.2451897637968
 10
735.3606829521281
 20
214.4558544399368
 10
735.4041483160049
 20
213.6650582832566
 10
735.4476136798819
 20
212.8733880677279
 10
735.4910790437585
 20
212.0814342848583
 10
735.5345444076355
 20
211.289787494714
 10
735.5780097715123
 20
210.499038257361
 10
735.6214751353892
 20
209.7097771328653
 10
735.664940499266
 20
208.922594681293
 10
735.7084058631428
 20
208.1380814627101
 10
735.7518712270197
 20
207.3568280371828
 10
735.7953365908966
 20
206.5794249647768
 10
735.8388019547734
 20
205.8064627773125
 10
735.8822673186503
 20
205.0385220395115
 10
735.9257326825273
 20
204.2761587057664
 10
735.9691980464041
 20
203.5199249988081
 10
736.012663410281
 20
202.7703731413673
 10
736.056128774158
 20
202.0280553561747
 10
736.0995941380347
 20
201.2935238659613
 10
736.1430595019117
 20
200.5673308934577
 10
736.1865248657887
 20
199.8500286613949
 10
736.2299902296654
 20
199.1421693925036
 10
736.2734555935425
 20
198.4443053095146
 10
736.3169209574193
 20
197.7569843453183
 10
736.3603863212961
 20
197.080706208806
 10
736.4038516851731
 20
196.4159402604968
 10
736.44731704905
 20
195.7631553883416
 10
736.4907824129267
 20
195.1228204802916
 10
736.5342477768038
 20
194.4954044242978
 10
736.5777131406807
 20
193.881376108311
 10
736.6211785045575
 20
193.2812044202825
 10
736.6646438684345
 20
192.6953582481632
 10
736.7081092323112
 20
192.124306479904
 10
736.7515745961881
 20
191.5685178692777
 10
736.7950399600649
 20
191.028427759286
 10
736.8385053239417
 20
190.504394349337
 10
736.8819706878186
 20
189.9967649856278
 10
736.9254360516952
 20
189.5058870143556
 10
736.968901415572
 20
189.0321077817176
 10
737.0123667794488
 20
188.5757746339108
 10
737.0558321433257
 20
188.1372349171324
 10
737.0992975072026
 20
187.7168359775793
 10
737.1427628710795
 20
187.314925161449
 10
737.1862282349563
 20
186.9318498149383
 10
737.2296935988331
 20
186.5679487311479
 10
737.27315896271
 20
186.2234722944354
 10
737.3166243265869
 20
185.8986186827083
 10
737.3600896904638
 20
185.5935853971721
 10
737.4035550543408
 20
185.3085699390323
 10
737.4470204182178
 20
185.0437698094943
 10
737.4904857820945
 20
184.7993825097637
 10
737.5339511459716
 20
184.5756055410459
 10
737.5774165098484
 20
184.3726364045463
 10
737.6208818737254
 20
184.1906726014706
 10
737.6643472376022
 20
184.0299113714225
 10
737.7078126014792
 20
183.8905018247252
 10
737.7512779653559
 20
183.7724890832239
 10
737.794743329233
 20
183.6759047098985
 10
737.8382086931097
 20
183.600780267729
 10
737.8816740569864
 20
183.5471473196954
 10
737.9251394208634
 20
183.5150374287778
 10
737.9686047847393
 20
183.5044821579561
  0
LWPOLYLINE
  5
C0
330
1F
100
AcDbEntity
  8
0
  6
CONTINUOUS
 62
     7
100
AcDbPolyline
 90
        4
 70
     0
 43
0.0
 10
598.0876780055353
 20
185.7924752043017
 10
598.1558175791794
 20
185.648540945883
 10
598.2240168317836
 20
185.5537778437447
 10
598.3204470011243
 20
185.5040313958496
  0
LWPOLYLINE
  5
C1
330
1F
100
AcDbEntity
  8
0
  6
CONTINUOUS
 62
     7
100
AcDbPolyline
 90
      105
 70
     0
 43
0.0
 10
683.4481810175903
 20
240.193380100646
 10
683.4916414714193
 20
239.9475968333386
 10
683.5351019252482
 20
239.6813345968257
 10
683.5785623790773
 20
239.3948343275137
 10
683.6220228329063
 20
239.088336961809
 10
683.6654832867354
 20
238.7620834361182
 10
683.7089437405642
 20
238.4163146868476
 10
683.7524041943932
 20
238.0512716504037
 10
683.795864648222
 20
237.6671952631929
 10
683.8393251020511
 20
237.2643264616217
 10
683.8827855558801
 20
236.8429086791662
 10
683.9262460097091
 20
236.4032513335998
 10
683.969706463538
 20
235.945734959579
 10
684.013166917367
 20
235.4707436171537
 10
684.0566273711959
 20
234.9786613663732
 10
684.100087825025
 20
234.4698722672871
 10
684.143548278854
 20
233.9447603799451
 10
684.1870087326828
 20
233.4037097643963
 10
684.2304691865119
 20
232.8471044806905
 10
684.273929640341
 20
232.2753285888773
 10
684.3173900941699
 20
231.688766149006
 10
684.3608505479987
 20
231.087818868041
 10
684.4043110018278
 20
230.4729629693726
 10
684.4477714556568
 20
229.844694341746
 10
684.4912319094856
 20
229.203508874016
 10
684.5346923633147
 20
228.5499024550375
 10
684.5781528171436
 20
227.8843709736652
 10
684.6216132709727
 20
227.2074103187541
 10
684.6650737248016
 20
226.5195163791587
 10
684.7085341786304
 20
225.8211850437341
 10
684.7519946324595
 20
225.112912201335
 10
684.7954550862885
 20
224.395195163721
 10
684.8389155401176
 20
223.6685651344874
 10
684.8823759939464
 20
222.9335878692209
 10
684.9258364477753
 20
222.1908306784595
 10
684.9692969016043
 20
221.4408608727416
 10
685.0127573554332
 20
220.6842457626051
 10
685.0562178092624
 20
219.9215526585881
 10
685.0996782630915
 20
219.1533488712288
 10
685.1431387169204
 20
218.3802017110653
 10
685.1865991707493
 20
217.6026784886357
 10
685.2300596245784
 20
216.8213465144783
 10
685.2735200784074
 20
216.0367773394914
 10
685.3169805322364
 20
215.249559310853
 10
685.3604409860654
 20
214.4602849339215
 10
685.4039014398943
 20
213.6695467140553
 10
685.4473618937233
 20
212.8779371566131
 10
685.4908223475525
 20
212.0860487669532
 10
685.5342828013813
 20
211.2944740504341
 10
685.5777432552102
 20
210.5038055124145
 10
685.6212037090393
 20
209.7146356582527
 10
685.6646641628683
 20
208.9275569933073
 10
685.7081246166974
 20
208.1431615007073
 10
685.7515850705262
 20
207.3620299023418
 10
685.7950455243553
 20
206.5847320604286
 10
685.8385059781842
 20
205.8118373953032
 10
685.8819664320133
 20
205.043915327301
 10
685.9254268858422
 20
204.2815352767573
 10
685.968887339671
 20
203.5252666640075
 10
686.0123477935
 20
202.7756789093872
 10
686.0558082473291
 20
202.0333414332315
 10
686.0992687011579
 20
201.2988236558759
 10
686.1427291549871
 20
200.5726949974841
 10
686.186189608816
 20
199.855512423342
 10
686.229650062645
 20
199.147786617649
 10
686.2731105164738
 20
198.4500175169393
 10
686.3165709703028
 20
197.762705057747
 10
686.3600314241318
 20
197.0863491766063
 10
686.4034918779607
 20
196.4214498100513
 10
686.4469523317897
 20
195.7685068946163
 10
686.4904127856188
 20
195.1280203668354
 10
686.5338732394476
 20
194.5004901632426
 10
686.5773336932767
 20
193.8864162203723
 10
686.6207941471056
 20
193.2862956580823
 10
686.6642546009348
 20
192.7005703917148
 10
686.7077150547635
 20
192.1296319813197
 10
686.7511755085925
 20
191.5738701426857
 10
686.7946359624217
 20
191.0336745916019
 10
686.8380964162508
 20
190.5094350438571
 10
686.8815568700796
 20
190.0015412152401
 10
686.9250173239087
 20
189.5103828215399
 10
686.9684777777375
 20
189.0363495785454
 10
687.0119382315667
 20
188.5798312020455
 10
687.0553986853957
 20
188.1412174055426
 10
687.0988591392245
 20
187.7208708396724
 10
687.1423195930535
 20
187.3190597962143
 10
687.1857800468827
 20
186.9360320145204
 10
687.2292405007115
 20
186.5720352339431
 10
687.2727009545405
 20
186.2273171938347
 10
687.3161614083696
 20
185.9021256335475
 10
687.3596218621984
 20
185.5967082924336
 10
687.4030823160274
 20
185.3113129098454
 10
687.4465427698564
 20
185.0461872251353
 10
687.4900032236853
 20
184.8015789776554
 10
687.5334636775144
 20
184.5777312476685
 10
687.5769241313433
 20
184.3748038255693
 10
687.6203845851721
 20
184.1928846443782
 10
687.6638450390012
 20
184.03205928016
 10
687.7073054928302
 20
183.89241330898
 10
687.7507659466594
 20
183.7740323069031
 10
687.7942264004881
 20
183.6770018499944
 10
687.8376868543172
 20
183.6014075143191
 10
687.8811473081461
 20
183.547334875942
 10
687.9246077619752
 20
183.5148695109285
 10
687.968068215804
 20
183.5040969867884
  0
LWPOLYLINE
  5
C2
330
1F
100
AcDbEntity
  8
0
  6
CONTINUOUS
 62
     7
100
AcDbPolyline
 90
        3
 70
     0
 43
0.0
 10
618.1255209455664
 20
185.7065818961244
 10
618.1937382329533
 20
185.5897166492124
 10
618.3204493764277
 20
185.5040313958702
  0
LWPOLYLINE
  5
C3
330
1F
100
AcDbEntity
  8
0
  6
CONTINUOUS
 62
     7
100
AcDbPolyline
 90
        4
 70
     0
 43
0.0
 10
678.0988133335062
 20
185.7655932159018
 10
678.1651349224429
 20
185.6326341650331
 10
678.2314090992902
 20
185.5463335491013
 10
678.320522813237
 20
185.5040313958797
  0
LWPOLYLINE
  5
C4
330
1F
100
AcDbEntity
  8
0
  6
CONTINUOUS
 62
     7
100
AcDbPolyline
 90
      105
 70
     0
 43
0.0
 10
703.448434945841
 20
240.1920385170309
 10
703.4918860783417
 20
239.9463044104443
 10
703.5353372108425
 20
239.6800229367509
 10
703.5787883433431
 20
239.3934531170893
 10
703.6222394758443
 20
239.0868554004275
 10
703.6656906083449
 20
238.7604902357338
 10
703.7091417408459
 20
238.4146180719762
 10
703.7525928733467
 20
238.0494993581232
 10
703.7960440058475
 20
237.6653945431427
 10
703.8394951383484
 20
237.2625640760031
 10
703.8829462708491
 20
236.8412684056725
 10
703.9263974033498
 20
236.4017680348492
 10
703.9698485358507
 20
235.9443570245277
 10
704.0132996683516
 20
235.469420247026
 10
704.0567508008525
 20
234.9773577852796
 10
704.100201933353
 20
234.4685697222239
 10
704.1436530658538
 20
233.9434561407945
 10
704.1871041983546
 20
233.4024171239269
 10
704.2305553308554
 20
232.8458527545563
 10
704.2740064633563
 20
232.2741631156186
 10
704.317457595857
 20
231.6877482900489
 10
704.3609087283579
 20
231.0870083607828
 10
704.4043598608586
 20
230.4723480997221
 10
704.4478109933593
 20
229.8442322920729
 10
704.4912621258602
 20
229.203167225972
 10
704.534713258361
 20
228.549660017872
 10
704.5781643908618
 20
227.8842177842251
 10
704.6216155233626
 20
227.2073476414839
 10
704.6650666558634
 20
226.5195567061009
 10
704.7085177883644
 20
225.8213520945284
 10
704.751968920865
 20
225.1132409232187
 10
704.7954200533659
 20
224.3957303086245
 10
704.8388711858668
 20
223.6693274034125
 10
704.8823223183674
 20
222.9345558276407
 10
704.9257734508683
 20
222.1919816592094
 10
704.9692245833692
 20
221.4421777260939
 10
705.0126757158699
 20
220.6857168562695
 10
705.0561268483708
 20
219.9231718777113
 10
705.0995779808716
 20
219.1551156183948
 10
705.1430291133724
 20
218.3821209062951
 10
705.1864802458732
 20
217.6047605693874
 10
705.2299313783741
 20
216.8236074356472
 10
705.2733825108749
 20
216.0392343330495
 10
705.3168336433756
 20
215.2522149908641
 10
705.3602847758765
 20
214.4631339767722
 10
705.4037359083774
 20
213.6725830262355
 10
705.447187040878
 20
212.881154002305
 10
705.490638173379
 20
212.0894387680316
 10
705.5340893058797
 20
211.2980291864664
 10
705.5775404383807
 20
210.5075171206605
 10
705.6209915708815
 20
209.7184944336649
 10
705.6644427033823
 20
208.9315529885305
 10
705.7078938358829
 20
208.1472846483086
 10
705.7513449683837
 20
207.3662812538773
 10
705.7947961008844
 20
206.5891270260612
 10
705.8382472333851
 20
205.8163874599711
 10
705.8816983658859
 20
205.0486252262285
 10
705.9251494983868
 20
204.2864029954545
 10
705.9686006308874
 20
203.5302834382703
 10
706.0120517633882
 20
202.7808292252973
 10
706.055502895889
 20
202.0386030271568
 10
706.0989540283898
 20
201.3041675144698
 10
706.1424051608906
 20
200.5780853578578
 10
706.1858562933915
 20
199.8609192279419
 10
706.2293074258921
 20
199.1532279625612
 10
706.2727585583929
 20
198.4555270398432
 10
706.3162096908939
 20
197.7683045217137
 10
706.3596608233946
 20
197.0920480375812
 10
706.4031119558955
 20
196.4272452168543
 10
706.4465630883963
 20
195.7743836889417
 10
706.4900142208971
 20
195.1339510832519
 10
706.5334653533978
 20
194.5064350291936
 10
706.5769164858988
 20
193.8923231561754
 10
706.6203676183998
 20
193.2921030936059
 10
706.6638187509004
 20
192.7062623544161
 10
706.7072698834013
 20
192.1352572788319
 10
706.7507210159021
 20
191.5794711679425
 10
706.794172148403
 20
191.0392768758368
 10
706.8376232809038
 20
190.5150472566033
 10
706.8810744134046
 20
190.0071551643305
 10
706.9245255459053
 20
189.5159734531071
 10
706.9679766784062
 20
189.0418749770218
 10
707.011427810907
 20
188.585232590163
 10
707.0548789434077
 20
188.1464191466195
 10
707.0983300759086
 20
187.7258075004797
 10
707.1417812084094
 20
187.3237625232348
 10
707.1852323409103
 20
186.9405640325719
 10
707.228683473411
 20
186.5764404392222
 10
707.2721346059118
 20
186.2316194402256
 10
707.3155857384126
 20
185.9063287326222
 10
707.3590368709133
 20
185.6007960134517
 10
707.4024880034141
 20
185.3152489797541
 10
707.445939135915
 20
185.0499153285693
 10
707.4893902684158
 20
184.8050227569373
 10
707.5328414009166
 20
184.5807989618979
 10
707.5762925334172
 20
184.3774714241079
 10
707.6197436659182
 20
184.195221409548
 10
707.6631947984191
 20
184.0341269049543
 10
707.7066459309196
 20
183.8942518966
 10
707.7500970634205
 20
183.775660370758
 10
707.7935481959213
 20
183.6784163137015
 10
707.8369993284223
 20
183.6025837117034
 10
707.8804504609229
 20
183.5482265510367
 10
707.9239015934237
 20
183.5154088179746
 10
707.9673527259239
 20
183.50419449879
  0
LINE
  5
C5
330
1F
100
AcDbEntity
  8
0
  6
CONTINUOUS
 62
     7
100
AcDbLine
 10
674.4677373607555
 20
183.5041393506425
 30
0.0
 11
677.9677373607462
 21
183.5041312900888
 31
0.0
  0
ARC
  5
C6
330
1F
100
AcDbEntity
  8
0
  6
CONTINUOUS
 62
     7
100
AcDbCircle
 10
69.18825557668585
 20
177.5303777127651
 30
0.0
 40
587.7759719382727
100
AcDbArc
 50
2.393973030850134
 51
5.915829195735625
  0
ARC
  5
C7
330
1F
100
AcDbEntity
  8
0
  6
CONTINUOUS
 62
     7
100
AcDbCircle
 10
787.754252333241
 20
206.2130620643626
 30
0.0
 40
121.4008350582122
100
AcDbArc
 50
181.5548032018457
 51
189.6742530142678
  0
ARC
  5
C8
330
1F
100
AcDbEntity
  8
0
  6
CONTINUOUS
 62
     7
100
AcDbCircle
 10
112.8916843211298
 20
179.4353755603191
 30
0.0
 40
564.0027221868879
100
AcDbArc
 50
2.352848729845789
 51
5.97153131113305
  0
ARC
  5
C9
330
1F
100
AcDbEntity
  8
0
  6
CONTINUOUS
 62
     7
100
AcDbCircle
 10
109.0923858373839
 20
178.336483120419
 30
0.0
 40
577.8415665641467
100
AcDbArc
 50
2.378905949498403
 51
5.937572769425287
  0
ARC
  5
CA
330
1F
100
AcDbEntity
  8
0
  6
CONTINUOUS
 62
     7
100
AcDbCircle
 10
794.6245417808939
 20
204.8988114846318
 30
0.0
 40
108.2192815222346
100
AcDbArc
 50
181.3647055173557
 51
190.2064812056062
  0
ARC
  5
CB
330
1F
100
AcDbEntity
  8
0
  6
CONTINUOUS
 62
     7
100
AcDbCircle
 10
752.6326590626155
 20
205.7058812935206
 30
0.0
 40
116.2587532592508
100
AcDbArc
 50
181.4925894212058
 51
189.8717029055897
  0
ARC
  5
CC
330
1F
100
AcDbEntity
  8
0
  6
CONTINUOUS
 62
     7
100
AcDbCircle
 10
721.7607267549034
 20
204.6070420142345
 30
0.0
 40
105.3445930070448
100
AcDbArc
 50
181.3089699232449
 51
190.3357202244501
  0
ARC
  5
CD
330
1F
100
AcDbEntity
  8
0
  6
CONTINUOUS
 62
     7
100
AcDbCircle
 10
756.6308062126081
 20
205.0947451954289
 30
0.0
 40
110.2331409018302
100
AcDbArc
 50
181.3960989615856
 51
190.1128064586463
  0
ARC
  5
CE
330
1F
100
AcDbEntity
  8
0
  6
CONTINUOUS
 62
     7
100
AcDbCircle
 10
1326.166426392833
 20
247.2826107368556
 30
0.0
 40
585.6858948182972
100
AcDbArc
 50
182.3950754140944
 51
185.9177636364394
  0
LINE
  5
CF
330
1F
100
AcDbEntity
  8
0
  6
CENTER
 62
     1
100
AcDbLine
 10
810.0028127216258
 20
181.504555017175
 30
0.0
 11
810.0028127216258
 21
243.5038045996674
 31
0.0
  0
ARC
  5
D1
330
1F
100
AcDbEntity
  8
0
  6
CONTINUOUS
 62
     7
100
AcDbCircle
 10
636.0795354932865
 20
184.9393630072089
 30
0.0
 40
2.371588790840947
100
AcDbArc
 50
322.7694879391562
 51
356.937611355742
  0
ARC
  5
D2
330
1F
100
AcDbEntity
  8
0
  6
CONTINUOUS
 62
     7
100
AcDbCircle
 10
632.7085983881949
 20
220.185674041961
 30
0.0
 40
108.315295449283
100
AcDbArc
 50
1.386705193199702
 51
10.1389454504455
  0
ARC
  5
D3
330
1F
100
AcDbEntity
  8
0
  6
CONTINUOUS
 62
     7
100
AcDbCircle
 10
1172.69200868213
 20
246.2139262087307
 30
0.0
 40
572.1733473210502
100
AcDbArc
 50
182.3689155386721
 51
185.9502484419943
  0
ARC
  5
D4
330
1F
100
AcDbEntity
  8
0
  6
CONTINUOUS
 62
     7
100
AcDbCircle
 10
188.8749424281787
 20
179.9273285954622
 30
0.0
 40
558.000899877246
100
AcDbArc
 50
2.343245174125855
 51
5.985031237370208
  0
ARC
  5
D5
330
1F
100
AcDbEntity
  8
0
  6
CONTINUOUS
 62
     7
100
AcDbCircle
 10
696.7688431338737
 20
204.8509834760341
 30
0.0
 40
110.3477723958513
100
AcDbArc
 50
181.5008290451805
 51
189.92530689078
  0
ARC
  5
D6
330
1F
100
AcDbEntity
  8
0
  6
CONTINUOUS
 62
     7
100
AcDbCircle
 10
691.6076513028627
 20
240.2621949634327
 30
0.0
 40
1.84205202267513
100
AcDbArc
 50
357.8270702519238
 51
42.38591684014642
  0
ARC
  5
D7
330
1F
100
AcDbEntity
  8
0
  6
CONTINUOUS
 62
     7
100
AcDbCircle
 10
47.88497687252524
 20
178.4676599765019
 30
0.0
 40
579.0290447028516
100
AcDbArc
 50
2.423017025092179
 51
5.912156167686078
  0
LINE
  5
D8
330
1F
100
AcDbEntity
  8
0
  6
CENTER
 62
     1
100
AcDbLine
 10
779.0031879303796
 20
212.5041798084212
 30
0.0
 11
841.0024375128719
 21
212.5041798084212
 31
0.0
  0
ARC
  5
D9
330
1F
100
AcDbEntity
  8
0
  6
CONTINUOUS
 62
     7
100
AcDbCircle
 10
39.02849915313378
 20
179.9479034359504
 30
0.0
 40
557.8460953143382
100
AcDbArc
 50
2.344243193126886
 51
5.984482760120329
  0
ARC
  5
DA
330
1F
100
AcDbEntity
  8
0
  6
CONTINUOUS
 62
     7
100
AcDbCircle
 10
493.4440686917231
 20
219.174317858411
 30
0.0
 40
117.6220262766238
100
AcDbArc
 50
1.520448363488538
 51
9.814371570311046
  0
ARC
  5
DB
330
1F
100
AcDbEntity
  8
0
  6
CONTINUOUS
 62
     7
100
AcDbCircle
 10
621.4436430611006
 20
240.200816347155
 30
0.0
 40
2.004483063976608
100
AcDbArc
 50
359.7854160931105
 51
40.53182543736869
  0
ARC
  5
DC
330
1F
100
AcDbEntity
  8
0
  6
CONTINUOUS
 62
     7
100
AcDbCircle
 10
145.3818637240332
 20
178.0398167377442
 30
0.0
 40
581.5630991409051
100
AcDbArc
 50
2.384298871926489
 51
5.928572453536674
  0
LINE
  5
DD
330
1F
100
AcDbEntity
  8
0
  6
CENTER
 62
     1
100
AcDbLine
 10
469.9969693223231
 20
181.50399775548
 30
0.0
 11
469.9969693223231
 21
243.503427474184
 31
0.0
  0
ARC
  5
DE
330
1F
100
AcDbEntity
  8
0
  6
CONTINUOUS
 62
     7
100
AcDbCircle
 10
-8.1656078244563
 20
176.9564338842414
 30
0.0
 40
595.1500277134602
100
AcDbArc
 50
2.407909767963588
 51
5.897656366162778
  0
ARC
  5
DF
330
1F
100
AcDbEntity
  8
0
  6
CONTINUOUS
 62
     7
100
AcDbCircle
 10
510.9559092626594
 20
220.1856500492418
 30
0.0
 40
110.0584562272456
100
AcDbArc
 50
1.485709337694911
 51
9.935844364668313
  0
ARC
  5
E0
330
1F
100
AcDbEntity
  8
0
  6
CONTINUOUS
 62
     7
100
AcDbCircle
 10
524.6310554888493
 20
220.3023328212122
 30
0.0
 40
106.3907745899517
100
AcDbArc
 50
1.347236591127341
 51
10.28450176622375
  0
ARC
  5
E1
330
1F
100
AcDbEntity
  8
0
  6
CONTINUOUS
 62
     7
100
AcDbCircle
 10
490.0911274337592
 20
219.8328391743268
 30
0.0
 40
110.9501312805048
100
AcDbArc
 50
1.410512597788698
 51
10.08864731016857
  0
ARC
  5
E2
330
1F
100
AcDbEntity
  8
0
  6
CONTINUOUS
 62
     7
100
AcDbCircle
 10
36.19937491189129
 20
178.8979922388004
 30
0.0
 40
570.7148245930887
100
AcDbArc
 50
2.363813820826919
 51
5.955033714930153
  0
ARC
  5
E3
330
1F
100
AcDbEntity
  8
0
  6
CONTINUOUS
 62
     7
100
AcDbCircle
 10
1209.465250346254
 20
245.9466906598288
 30
0.0
 40
568.9363309392996
100
AcDbArc
 50
182.3643079145137
 51
185.9571696428303
  0
ARC
  5
E4
330
1F
100
AcDbEntity
  8
0
  6
CONTINUOUS
 62
     7
100
AcDbCircle
 10
1205.949109685941
 20
244.8678803784162
 30
0.0
 40
555.3813393185156
100
AcDbArc
 50
182.3384461600992
 51
185.9911768586555
  0
ARC
  5
E5
330
1F
100
AcDbEntity
  8
0
  6
CONTINUOUS
 62
     7
100
AcDbCircle
 10
798.895071597082
 20
204.3033511107324
 30
0.0
 40
102.466756707794
100
AcDbArc
 50
181.2576557875872
 51
190.4652061328713
  0
ARC
  5
E6
330
1F
100
AcDbEntity
  8
0
  6
CONTINUOUS
 62
     7
100
AcDbCircle
 10
1212.50909126256
 20
247.0127887118369
 30
0.0
 40
582.0203748957066
100
AcDbArc
 50
182.3838965037201
 51
185.9283581513851
  0
ARC
  5
E7
330
1F
100
AcDbEntity
  8
0
  6
CONTINUOUS
 62
     7
100
AcDbCircle
 10
104.9114269897523
 20
177.2109393718056
 30
0.0
 40
592.0630260719423
100
AcDbArc
 50
2.404881341527584
 51
5.903912206517988
  0
ARC
  5
E8
330
1F
100
AcDbEntity
  8
0
  6
CONTINUOUS
 62
     7
100
AcDbCircle
 10
717.9533325112127
 20
205.2287809616492
 30
0.0
 40
111.5597064712444
100
AcDbArc
 50
181.4340199766363
 51
190.0590926742591
  0
ARC
  5
E9
330
1F
100
AcDbEntity
  8
0
  6
CONTINUOUS
 62
     7
100
AcDbCircle
 10
846.6762606294423
 20
204.841884465463
 30
0.0
 40
110.2552182261632
100
AcDbArc
 50
181.4939864156732
 51
189.9283057373193
  0
ARC
  5
EA
330
1F
100
AcDbEntity
  8
0
  6
CONTINUOUS
 62
     7
100
AcDbCircle
 10
893.6831592106786
 20
208.2264964685435
 30
0.0
 40
147.3760025741674
100
AcDbArc
 50
182.132823622045
 51
188.6097528479745
  0
ARC
  5
EB
330
1F
100
AcDbEntity
  8
0
  6
CONTINUOUS
 62
     7
100
AcDbCircle
 10
833.2100738864325
 20
204.7473327692976
 30
0.0
 40
106.7981684733524
100
AcDbArc
 50
181.3485360061284
 51
190.2653904508277
  0
ARC
  5
EC
330
1F
100
AcDbEntity
  8
0
  6
CONTINUOUS
 62
     7
100
AcDbCircle
 10
32.09092309198613
 20
177.7858302404406
 30
0.0
 40
584.8625123001274
100
AcDbArc
 50
2.392473258864698
 51
5.920142144710383
  0
ARC
  5
ED
330
1F
100
AcDbEntity
  8
0
  6
CONTINUOUS
 62
     7
100
AcDbCircle
 10
1169.035121612368
 20
245.1253349414377
 30
0.0
 40
558.4772709469936
100
AcDbArc
 50
182.3428547337694
 51
185.9844517707418
  0
ARC
  5
EE
330
1F
100
AcDbEntity
  8
0
  6
CONTINUOUS
 62
     7
100
AcDbCircle
 10
616.5492870866633
 20
184.7678683588504
 30
0.0
 40
1.899574263603281
100
AcDbArc
 50
318.3158612469056
 51
1.439005077899481
  0
ARC
  5
EF
330
1F
100
AcDbEntity
  8
0
  6
CONTINUOUS
 62
     7
100
AcDbCircle
 10
1217.020941190065
 20
248.1527177947515
 30
0.0
 40
596.5724027416568
100
AcDbArc
 50
182.4126555410774
 51
185.8933514663605
  0
ARC
  5
F0
330
1F
100
AcDbEntity
  8
0
  6
CONTINUOUS
 62
     7
100
AcDbCircle
 10
829.5057729961259
 20
205.3927917379717
 30
0.0
 40
113.1205542243495
100
AcDbArc
 50
181.4341858153891
 51
189.9961863588989
  0
ARC
  5
F1
330
1F
100
AcDbEntity
  8
0
  6
CONTINUOUS
 62
     7
100
AcDbCircle
 10
626.3195799209085
 20
184.8517654410777
 30
0.0
 40
2.128857479153916
100
AcDbArc
 50
320.7409731834101
 51
359.0040129870059
  0
ARC
  5
F2
330
1F
100
AcDbEntity
  8
0
  6
CONTINUOUS
 62
     7
100
AcDbCircle
 10
84.90773236152293
 20
178.2402028418888
 30
0.0
 40
582.0138403261873
100
AcDbArc
 50
2.430216430655776
 51
5.904331017404729
  0
ARC
  5
F3
330
1F
100
AcDbEntity
  8
0
  6
CONTINUOUS
 62
     7
100
AcDbCircle
 10
76.0999288959363
 20
179.7000704044297
 30
0.0
 40
560.7843611816986
100
AcDbArc
 50
2.348291059118822
 51
5.978668447839368
  0
ARC
  5
F4
330
1F
100
AcDbEntity
  8
0
  6
CONTINUOUS
 62
     7
100
AcDbCircle
 10
631.206570936704
 20
240.1139142168412
 30
0.0
 40
2.242953093278045
100
AcDbArc
 50
2.028518052400841
 51
38.28299415722915
  0
ARC
  5
F5
330
1F
100
AcDbEntity
  8
0
  6
CONTINUOUS
 62
     7
100
AcDbCircle
 10
148.4005020213014
 20
179.1045266600431
 30
0.0
 40
568.5042886055754
100
AcDbArc
 50
2.36474790861638
 51
5.957251169970448
  0
ARC
  5
F6
330
1F
100
AcDbEntity
  8
0
  6
CONTINUOUS
 62
     7
100
AcDbCircle
 10
749.4790835237945
 20
206.3756011985829
 30
0.0
 40
123.1304926712197
100
AcDbArc
 50
181.5954906856904
 51
189.6093249475902
  0
LINE
  5
F7
330
1F
100
AcDbEntity
  8
0
  6
CONTINUOUS
 62
     7
100
AcDbLine
 10
747.9679496430316
 20
186.1637714465237
 30
0.0
 11
747.9679496430316
 21
183.5045550572671
 31
0.0
  0
ARC
  5
F8
330
1F
100
AcDbEntity
  8
0
  6
CONTINUOUS
 62
     7
100
AcDbCircle
 10
528.0635447776567
 20
219.6364120990641
 30
0.0
 40
112.9853912618245
100
AcDbArc
 50
1.440240206399306
 51
9.997387170147055
  0
ARC
  5
F9
330
1F
100
AcDbEntity
  8
0
  6
CONTINUOUS
 62
     7
100
AcDbCircle
 10
791.1459818467926
 20
205.5492931899727
 30
0.0
 40
114.7652259769282
100
AcDbArc
 50
181.4777639445163
 51
189.9264645824132
  0
ARC
  5
FA
330
1F
100
AcDbEntity
  8
0
  6
CONTINUOUS
 62
     7
100
AcDbCircle
 10
141.2292563863348
 20
176.9146180612198
 30
0.0
 40
595.756255231537
100
AcDbArc
 50
2.410107732452161
 51
5.895691670742621
  0
ARC
  5
FB
330
1F
100
AcDbEntity
  8
0
  6
CONTINUOUS
 62
     7
100
AcDbCircle
 10
825.704407179909
 20
206.0106633896647
 30
0.0
 40
119.3420009942766
100
AcDbArc
 50
181.5419240703158
 51
189.7534971600435
  0
LINE
  5
FC
330
1F
100
AcDbEntity
  8
0
  6
CENTER
 62
     1
100
AcDbLine
 10
438.9972544629711
 20
212.503712614832
 30
0.0
 11
500.9966841816752
 21
212.503712614832
 31
0.0
  0
ARC
  5
FD
330
1F
100
AcDbEntity
  8
0
  6
CONTINUOUS
 62
     7
100
AcDbCircle
 10
121.5961437075252
 20
177.9619701410146
 30
0.0
 40
585.3366714746238
100
AcDbArc
 50
2.431942360742198
 51
5.897917166743924
  0
ARC
  5
FE
330
1F
100
AcDbEntity
  8
0
  6
CONTINUOUS
 62
     7
100
AcDbCircle
 10
72.3387116376567
 20
178.604514631355
 30
0.0
 40
574.5849866562403
100
AcDbArc
 50
2.374388045623959
 51
5.944341173381644
  0
ARC
  5
FF
330
1F
100
AcDbEntity
  8
0
  6
CONTINUOUS
 62
     7
100
AcDbCircle
 10
769.768162916545
 20
205.1521464452588
 30
0.0
 40
113.358508851556
100
AcDbArc
 50
181.5519068290696
 51
189.8029889037089
  0
ARC
  5
100
330
1F
100
AcDbEntity
  8
0
  6
CONTINUOUS
 62
     7
100
AcDbCircle
 10
714.7253985416971
 20
205.9065545345481
 30
0.0
 40
118.3593428470065
100
AcDbArc
 50
181.5206251640751
 51
189.7843760406163
  0
ARC
  5
101
330
1F
100
AcDbEntity
  8
0
  6
CONTINUOUS
 62
     7
100
AcDbCircle
 10
1253.290727209861
 20
247.8600673455487
 30
0.0
 40
592.8319741893927
100
AcDbArc
 50
182.4050867926069
 51
185.9021633653214
  0
ARC
  5
102
330
1F
100
AcDbEntity
  8
0
  6
CONTINUOUS
 62
     7
100
AcDbCircle
 10
1273.930806269053
 20
246.8800379897201
 30
0.0
 40
583.4206962888658
100
AcDbArc
 50
182.4324443602378
 51
185.9011569321088
  0
ARC
  5
103
330
1F
100
AcDbEntity
  8
0
  6
CONTINUOUS
 62
     7
100
AcDbCircle
 10
587.9025184701666
 20
219.879180129225
 30
0.0
 40
113.1230818855875
100
AcDbArc
 50
1.543022818847112
 51
9.811528732847766
  0
LINE
  5
104
330
1F
100
AcDbEntity
  8
0
  6
CONTINUOUS
 62
     7
100
AcDbLine
 10
749.9679496430316
 20
220.0040313958411
 30
0.0
 11
749.9679496430316
 21
238.441456094527
 31
0.0
  0
LINE
  5
105
330
1F
100
AcDbEntity
  8
0
  6
CONTINUOUS
 62
     7
100
AcDbLine
 10
579.9679496430315
 20
185.5040313958411
 30
0.0
 11
579.9679496430315
 21
239.4855065223052
 31
0.0
  0
ARC
  5
106
330
1F
100
AcDbEntity
  8
0
  6
CONTINUOUS
 62
     7
100
AcDbCircle
 10
591.1295878413442
 20
240.1510722905162
 30
0.0
 40
2.142400564900786
100
AcDbArc
 50
140.8565720067646
 51
178.87824241271
  0
LINE
  5
107
330
1F
100
AcDbEntity
  8
0
  6
CONTINUOUS
 62
     7
100
AcDbLine
 10
748.9679496430316
 20
238.441456094527
 30
0.0
 11
748.9679496430316
 21
239.4855065223053
 31
0.0
  0
LINE
  5
108
330
1F
100
AcDbEntity
  8
0
  6
CONTINUOUS
 62
     7
100
AcDbLine
 10
579.9679496430315
 20
239.4855065223052
 30
0.0
 11
581.9679496430315
 21
239.4855065223052
 31
0.0
  0
LINE
  5
109
330
1F
100
AcDbEntity
  8
0
  6
CONTINUOUS
 62
     7
100
AcDbLine
 10
744.4677550424764
 20
183.5045635894531
 30
0.0
 11
747.9677550424673
 21
183.5045555290174
 31
0.0
  0
LINE
  5
10A
330
1F
100
AcDbEntity
  8
0
  6
CONTINUOUS
 62
     7
100
AcDbLine
 10
734.4686047847487
 20
183.5044902184122
 30
0.0
 11
737.9686047847397
 21
183.5044821579561
 31
0.0
  0
LINE
  5
10B
330
1F
100
AcDbEntity
  8
0
  6
CONTINUOUS
 62
     7
100
AcDbLine
 10
724.4684072873355
 20
183.5043956665364
 30
0.0
 11
727.9684072873265
 21
183.5043876060539
 31
0.0
  0
LINE
  5
10C
330
1F
100
AcDbEntity
  8
0
  6
CONTINUOUS
 62
     7
100
AcDbLine
 10
748.9679496430316
 20
186.5666066971553
 30
0.0
 11
749.9679496430316
 21
186.5666066971553
 31
0.0
  0
ARC
  5
10D
330
1F
100
AcDbEntity
  8
0
  6
CONTINUOUS
 62
     7
100
AcDbCircle
 10
569.8245855014387
 20
218.8169042107537
 30
0.0
 40
121.2561773708855
100
AcDbArc
 50
1.560418584101844
 51
9.67540704891547
  0
ARC
  5
10E
330
1F
100
AcDbEntity
  8
0
  6
CONTINUOUS
 62
     7
100
AcDbCircle
 10
549.4474476845838
 20
220.033895665045
 30
0.0
 40
111.5724887884283
100
AcDbArc
 50
1.514246040969163
 51
9.873695633682454
  0
ARC
  5
10F
330
1F
100
AcDbEntity
  8
0
  6
CONTINUOUS
 62
     7
100
AcDbCircle
 10
600.899603289919
 20
240.235369534098
 30
0.0
 40
1.912530278701956
100
AcDbArc
 50
138.4680171960707
 51
181.2775895515502
  0
LINE
  5
110
330
1F
100
AcDbEntity
  8
0
  6
CONTINUOUS
 62
     7
100
AcDbLine
 10
583.5791037478789
 20
239.4855065223052
 30
0.0
 11
589.1742533102779
 21
239.4855065223052
 31
0.0
  0
ARC
  5
111
330
1F
100
AcDbEntity
  8
0
  6
CONTINUOUS
 62
     7
100
AcDbCircle
 10
741.2829978820021
 20
240.0954332865985
 30
0.0
 40
2.297386782240361
100
AcDbArc
 50
142.1995247904561
 51
177.5495234811978
  0
LINE
  5
112
330
1F
100
AcDbEntity
  8
0
  6
CONTINUOUS
 62
     7
100
AcDbLine
 10
714.4679423447604
 20
183.5042941205138
 30
0.0
 11
717.9679423447512
 21
183.5042860600032
 31
0.0
  0
ARC
  5
113
330
1F
100
AcDbEntity
  8
0
  6
CONTINUOUS
 62
     7
100
AcDbCircle
 10
563.0187534530345
 20
220.1299777580187
 30
0.0
 40
108.0114170920647
100
AcDbArc
 50
1.355505423781611
 51
10.21500214135921
  0
ARC
  5
114
330
1F
100
AcDbEntity
  8
0
  6
CONTINUOUS
 62
     7
100
AcDbCircle
 10
608.4063428054329
 20
218.6772466343922
 30
0.0
 40
122.6787039475919
100
AcDbArc
 50
1.594430541705576
 51
9.626105045869455
  0
ARC
  5
115
330
1F
100
AcDbEntity
  8
0
  6
CONTINUOUS
 62
     7
100
AcDbCircle
 10
605.0203142973286
 20
219.3239873081406
 30
0.0
 40
116.0411026252235
100
AcDbArc
 50
1.483840679654334
 51
9.87931472936472
  0
LINE
  5
116
330
1F
100
AcDbEntity
  8
0
  6
CONTINUOUS
 62
     7
100
AcDbLine
 10
748.9679496430316
 20
238.441456094527
 30
0.0
 11
749.9679496430316
 21
238.441456094527
 31
0.0
  0
LINE
  5
117
330
1F
100
AcDbEntity
  8
0
  6
CONTINUOUS
 62
     7
100
AcDbLine
 10
749.9679496430316
 20
205.0040313958412
 30
0.0
 11
748.9679496430316
 21
205.0040313958412
 31
0.0
  0
ARC
  5
118
330
1F
100
AcDbEntity
  8
0
  6
CONTINUOUS
 62
     7
100
AcDbCircle
 10
586.2479045011564
 20
184.9003051015659
 30
0.0
 40
2.261793047134732
100
AcDbArc
 50
182.1818209715488
 51
218.1051342549217
  0
LINE
  5
119
330
1F
100
AcDbEntity
  8
0
  6
CONTINUOUS
 62
     7
100
AcDbLine
 10
749.9679496430316
 20
186.5666066971553
 30
0.0
 11
749.9679496430316
 21
205.0040313958411
 31
0.0
  0
ARC
  5
11A
330
1F
100
AcDbEntity
  8
0
  6
CONTINUOUS
 62
     7
100
AcDbCircle
 10
685.7554818086255
 20
184.7197146433022
 30
0.0
 40
1.770632782042633
100
AcDbArc
 50
176.9007307239508
 51
223.3568118709846
  0
ARC
  5
11B
330
1F
100
AcDbEntity
  8
0
  6
CONTINUOUS
 62
     7
100
AcDbCircle
 10
596.007080105011
 20
184.8127436930451
 30
0.0
 40
2.019461359250662
100
AcDbArc
 50
179.9376114705323
 51
220.3736684695523
  0
LINE
  5
11C
330
1F
100
AcDbEntity
  8
0
  6
CONTINUOUS
 62
     7
100
AcDbLine
 10
748.9679496430316
 20
185.5040313958411
 30
0.0
 11
748.9679496430316
 21
186.5666066971553
 31
0.0
  0
LINE
  5
11D
330
1F
100
AcDbEntity
  8
0
  6
CONTINUOUS
 62
     7
100
AcDbLine
 10
704.4673527259332
 20
183.5042025593261
 30
0.0
 11
707.9673527259237
 21
183.50419449879
 31
0.0
  0
ARC
  5
11E
330
1F
100
AcDbEntity
  8
0
  6
CONTINUOUS
 62
     7
100
AcDbCircle
 10
1289.113336909673
 20
247.5408140029549
 30
0.0
 40
588.6436589096292
100
AcDbArc
 50
182.396655137541
 51
185.9133149297066
  0
ARC
  5
11F
330
1F
100
AcDbEntity
  8
0
  6
CONTINUOUS
 62
     7
100
AcDbCircle
 10
1285.490345519394
 20
246.4432473003808
 30
0.0
 40
574.9802116137997
100
AcDbArc
 50
182.3738497420184
 51
185.9443057420879
  0
ARC
  5
120
330
1F
100
AcDbEntity
  8
0
  6
CONTINUOUS
 62
     7
100
AcDbCircle
 10
746.1623860969722
 20
184.8688142250946
 30
0.0
 40
2.175535397474067
100
AcDbArc
 50
181.4026656551137
 51
218.8355548232164
  0
ARC
  5
121
330
1F
100
AcDbEntity
  8
0
  6
CONTINUOUS
 62
     7
100
AcDbCircle
 10
531.9485973172699
 20
219.0183085093618
 30
0.0
 40
119.1243582785226
100
AcDbArc
 50
1.533895906504255
 51
9.761190652809276
  0
ARC
  5
122
330
1F
100
AcDbEntity
  8
0
  6
CONTINUOUS
 62
     7
100
AcDbCircle
 10
1176.560634926192
 20
247.3188819320275
 30
0.0
 40
586.081802845959
100
AcDbArc
 50
182.3945954315604
 51
185.9172447002768
  0
ARC
  5
123
330
1F
100
AcDbEntity
  8
0
  6
CONTINUOUS
 62
     7
100
AcDbCircle
 10
1282.165313412974
 20
245.3674540894465
 30
0.0
 40
561.6155518472873
100
AcDbArc
 50
182.3510459522024
 51
185.9758474812884
  0
LINE
  5
124
330
1F
100
AcDbEntity
  8
0
  6
CONTINUOUS
 62
     7
100
AcDbLine
 10
743.5790663533334
 20
239.4855065223052
 30
0.0
 11
748.9679496430316
 21
239.4855065223052
 31
0.0
  0
ARC
  5
125
330
1F
100
AcDbEntity
  8
0
  6
CONTINUOUS
 62
     7
100
AcDbCircle
 10
486.1326607417745
 20
220.4498264337788
 30
0.0
 40
104.8849979363244
100
AcDbArc
 50
1.301186364460932
 51
10.35573966026987
  0
ARC
  5
126
330
1F
100
AcDbEntity
  8
0
  6
CONTINUOUS
 62
     7
100
AcDbCircle
 10
680.864200350453
 20
240.2492439988521
 30
0.0
 40
1.877199199471018
100
AcDbArc
 50
138.0569916209087
 51
181.6689638024638
  0
ARC
  5
127
330
1F
100
AcDbEntity
  8
0
  6
CONTINUOUS
 62
     7
100
AcDbCircle
 10
1245.122845770925
 20
245.6243230074901
 30
0.0
 40
564.5837554544676
100
AcDbArc
 50
182.3526464750528
 51
185.9706042269318
  0
ARC
  5
128
330
1F
100
AcDbEntity
  8
0
  6
CONTINUOUS
 62
     7
100
AcDbCircle
 10
566.7206300814294
 20
219.5022445329444
 30
0.0
 40
114.332309497454
100
AcDbArc
 50
1.476492260342454
 51
9.944530450755785
  0
ARC
  5
129
330
1F
100
AcDbEntity
  8
0
  6
CONTINUOUS
 62
     7
100
AcDbCircle
 10
1309.969238960177
 20
246.5819449967346
 30
0.0
 40
579.4494994521997
100
AcDbArc
 50
182.4224063668837
 51
185.9120293182039
  0
ARC
  5
12A
330
1F
100
AcDbEntity
  8
0
  6
CONTINUOUS
 62
     7
100
AcDbCircle
 10
819.5307202125583
 20
216.3957401277192
 30
0.0
 40
237.7659043766243
100
AcDbArc
 50
182.3685626161834
 51
187.1266160307721
  0
LINE
  5
12B
330
1F
100
AcDbEntity
  8
0
  6
CONTINUOUS
 62
     7
100
AcDbLine
 10
733.579114747177
 20
239.4855065223052
 30
0.0
 11
739.1742429691017
 21
239.4855065223052
 31
0.0
  0
LINE
  5
12C
330
1F
100
AcDbEntity
  8
0
  6
CONTINUOUS
 62
     7
100
AcDbLine
 10
748.9679496430316
 20
220.0040313958411
 30
0.0
 11
749.9679496430316
 21
220.0040313958411
 31
0.0
  0
LINE
  5
12D
330
1F
100
AcDbEntity
  8
0
  6
CONTINUOUS
 62
     7
100
AcDbLine
 10
748.9679496430316
 20
205.0040313958411
 30
0.0
 11
748.9679496430316
 21
220.0040313958411
 31
0.0
  0
ARC
  5
12E
330
1F
100
AcDbEntity
  8
0
  6
CONTINUOUS
 62
     7
100
AcDbCircle
 10
601.2232301316085
 20
219.9555941951202
 30
0.0
 40
109.8128468275327
100
AcDbArc
 50
1.39436947038109
 51
10.13168794624124
  0
ARC
  5
12F
330
1F
100
AcDbEntity
  8
0
  6
CONTINUOUS
 62
     7
100
AcDbCircle
 10
1249.446767063074
 20
246.7477986159202
 30
0.0
 40
578.9470966576846
100
AcDbArc
 50
182.3820650456272
 51
185.9335734696635
  0
ARC
  5
130
330
1F
100
AcDbEntity
  8
0
  6
CONTINUOUS
 62
     7
100
AcDbCircle
 10
736.398905224742
 20
184.9564121549321
 30
0.0
 40
2.415395860900565
100
AcDbArc
 50
183.3670036969397
 51
216.9495358341279
  0
LINE
  5
131
330
1F
100
AcDbEntity
  8
0
  6
CONTINUOUS
 62
     7
100
AcDbLine
 10
593.5790877725052
 20
239.4855065223052
 30
0.0
 11
599.174268686558
 21
239.4855065223044
 31
0.0
  0
LINE
  5
132
330
1F
100
AcDbEntity
  8
0
  6
CONTINUOUS
 62
     7
100
AcDbLine
 10
594.4685815696706
 20
183.5045975092177
 30
0.0
 11
597.9685815696614
 21
183.5045894487914
 31
0.0
  0
LINE
  5
133
330
1F
100
AcDbEntity
  8
0
  6
CONTINUOUS
 62
     7
100
AcDbLine
 10
658.4479854766895
 20
184.8138434691079
 30
0.0
 11
658.5755775624382
 21
185.5040680212213
 31
0.0
  0
LINE
  5
134
330
1F
100
AcDbEntity
  8
0
  6
CONTINUOUS
 62
     7
100
AcDbLine
 10
598.4482571282008
 20
184.81548299878
 30
0.0
 11
598.5755604370147
 21
185.5040847820464
 31
0.0
  0
LINE
  5
135
330
1F
100
AcDbEntity
  8
0
  6
CONTINUOUS
 62
     7
100
AcDbLine
 10
584.468145424132
 20
183.5045381601512
 30
0.0
 11
587.9681454241228
 21
183.5045300997084
 31
0.0
  0
LINE
  5
136
330
1F
100
AcDbEntity
  8
0
  6
CONTINUOUS
 62
     7
100
AcDbLine
 10
582.9681345577937
 20
241.5035713586353
 30
0.0
 11
581.9679496276618
 21
241.5035690552227
 31
0.0
  0
LINE
  5
137
330
1F
100
AcDbEntity
  8
0
  6
CONTINUOUS
 62
     7
100
AcDbLine
 10
652.9681001050608
 20
241.5037054585686
 30
0.0
 11
649.4681001050701
 21
241.5036973980777
 31
0.0
  0
LINE
  5
138
330
1F
100
AcDbEntity
  8
0
  6
CONTINUOUS
 62
     7
100
AcDbLine
 10
692.9682297035772
 20
241.5039606511592
 30
0.0
 11
689.4682297035864
 21
241.5039525905975
 31
0.0
  0
LINE
  5
139
330
1F
100
AcDbEntity
  8
0
  6
CONTINUOUS
 62
     7
100
AcDbLine
 10
688.4477758150169
 20
184.8124612054059
 30
0.0
 11
688.5757203934081
 21
185.5045846560892
 31
0.0
  0
LINE
  5
13A
330
1F
100
AcDbEntity
  8
0
  6
CONTINUOUS
 62
     7
100
AcDbLine
 10
593.8353591651992
 20
238.1034305408903
 30
0.0
 11
593.44832191372
 21
240.1922623854038
 31
0.0
  0
LINE
  5
13B
330
1F
100
AcDbEntity
  8
0
  6
CONTINUOUS
 62
     7
100
AcDbLine
 10
654.4675033863091
 20
183.5043128407631
 30
0.0
 11
657.9675033862998
 21
183.5043047802576
 31
0.0
  0
LINE
  5
13C
330
1F
100
AcDbEntity
  8
0
  6
CONTINUOUS
 62
     7
100
AcDbLine
 10
623.8345590958861
 20
238.1075634537509
 30
0.0
 11
623.448080264313
 21
240.1934814050043
 31
0.0
  0
LINE
  5
13D
330
1F
100
AcDbEntity
  8
0
  6
CONTINUOUS
 62
     7
100
AcDbLine
 10
743.8350964471907
 20
238.104899485713
 30
0.0
 11
743.4482761152797
 21
240.1925600765052
 31
0.0
  0
LINE
  5
13E
330
1F
100
AcDbEntity
  8
0
  6
CONTINUOUS
 62
     7
100
AcDbLine
 10
743.6010667393206
 20
186.9013152349526
 30
0.0
 11
743.9875680519374
 21
184.8152053559683
 31
0.0
  0
LINE
  5
13F
330
1F
100
AcDbEntity
  8
0
  6
CONTINUOUS
 62
     7
100
AcDbLine
 10
622.9671405883219
 20
241.5034704016738
 30
0.0
 11
619.4671405883313
 21
241.5034623412483
 31
0.0
  0
LINE
  5
140
330
1F
100
AcDbEntity
  8
0
  6
CONTINUOUS
 62
     7
100
AcDbLine
 10
664.4675294138611
 20
183.5042155340949
 30
0.0
 11
667.9675294138517
 21
183.5042074735624
 31
0.0
  0
LINE
  5
141
330
1F
100
AcDbEntity
  8
0
  6
CONTINUOUS
 62
     7
100
AcDbLine
 10
632.967200033041
 20
241.5035270057632
 30
0.0
 11
629.4672000330502
 21
241.503518945322
 31
0.0
  0
LINE
  5
142
330
1F
100
AcDbEntity
  8
0
  6
CONTINUOUS
 62
     7
100
AcDbLine
 10
702.9683233251435
 20
241.50391085761
 30
0.0
 11
699.4683233251526
 21
241.503902797062
 31
0.0
  0
LINE
  5
143
330
1F
100
AcDbEntity
  8
0
  6
CONTINUOUS
 62
     7
100
AcDbLine
 10
718.448305436954
 20
184.8154243416006
 30
0.0
 11
718.5756244430132
 21
185.5041100677662
 31
0.0
  0
LINE
  5
144
330
1F
100
AcDbEntity
  8
0
  6
CONTINUOUS
 62
     7
100
AcDbLine
 10
708.4480920913661
 20
184.8141927732461
 30
0.0
 11
708.5757236419734
 21
185.5045832297996
 31
0.0
  0
LINE
  5
145
330
1F
100
AcDbEntity
  8
0
  6
CONTINUOUS
 62
     7
100
AcDbLine
 10
733.6012028313244
 20
186.9005656457002
 30
0.0
 11
733.98779563049
 21
184.8139194861552
 31
0.0
  0
LINE
  5
146
330
1F
100
AcDbEntity
  8
0
  6
CONTINUOUS
 62
     7
100
AcDbLine
 10
608.4481927352731
 20
184.8151803453813
 30
0.0
 11
608.5755510450892
 21
185.5040875412978
 31
0.0
  0
LINE
  5
147
330
1F
100
AcDbEntity
  8
0
  6
CONTINUOUS
 62
     7
100
AcDbLine
 10
603.8355004317806
 20
238.1025916756836
 30
0.0
 11
603.4482401461482
 21
240.1926450536655
 31
0.0
  0
LINE
  5
148
330
1F
100
AcDbEntity
  8
0
  6
CONTINUOUS
 62
     7
100
AcDbLine
 10
742.9677178964641
 20
241.5035409668519
 30
0.0
 11
739.4677178964735
 21
241.5035329064068
 31
0.0
  0
LINE
  5
149
330
1F
100
AcDbEntity
  8
0
  6
CONTINUOUS
 62
     7
100
AcDbLine
 10
712.9682369966084
 20
241.5038263170736
 30
0.0
 11
709.4682369966177
 21
241.5038182565492
 31
0.0
  0
LINE
  5
14A
330
1F
100
AcDbEntity
  8
0
  6
CONTINUOUS
 62
     7
100
AcDbLine
 10
612.9678904906059
 20
241.5034483100359
 30
0.0
 11
609.4678904906152
 21
241.5034402496166
 31
0.0
  0
LINE
  5
14B
330
1F
100
AcDbEntity
  8
0
  6
CONTINUOUS
 62
     7
100
AcDbLine
 10
648.4479479188163
 20
184.8137304369599
 30
0.0
 11
648.5756580691645
 21
185.5045876503615
 31
0.0
  0
LINE
  5
14C
330
1F
100
AcDbEntity
  8
0
  6
CONTINUOUS
 62
     7
100
AcDbLine
 10
592.9680102024583
 20
241.5035003572763
 30
0.0
 11
589.4680102024677
 21
241.5034922968425
 31
0.0
  0
LINE
  5
14D
330
1F
100
AcDbEntity
  8
0
  6
CONTINUOUS
 62
     7
100
AcDbLine
 10
653.8343881807991
 20
238.1085610351167
 30
0.0
 11
653.4478572887173
 21
240.1948668840385
 31
0.0
  0
LINE
  5
14E
330
1F
100
AcDbEntity
  8
0
  6
CONTINUOUS
 62
     7
100
AcDbLine
 10
723.6005418388212
 20
186.9040752312221
 30
0.0
 11
723.9878402864351
 21
184.8136003562973
 31
0.0
  0
LINE
  5
14F
330
1F
100
AcDbEntity
  8
0
  6
CONTINUOUS
 62
     7
100
AcDbLine
 10
713.600750017361
 20
186.9028862171353
 30
0.0
 11
713.9879159675043
 21
184.8130980449158
 31
0.0
  0
LINE
  5
150
330
1F
100
AcDbEntity
  8
0
  6
CONTINUOUS
 62
     7
100
AcDbLine
 10
703.6015951599118
 20
186.8982559725567
 30
0.0
 11
703.9879464875803
 21
184.8128369503609
 31
0.0
  0
LINE
  5
151
330
1F
100
AcDbEntity
  8
0
  6
CONTINUOUS
 62
     7
100
AcDbLine
 10
624.4679392654398
 20
183.5045743188062
 30
0.0
 11
627.9679392654305
 21
183.5045662583735
 31
0.0
  0
LINE
  5
152
330
1F
100
AcDbEntity
  8
0
  6
CONTINUOUS
 62
     7
100
AcDbLine
 10
682.9679207630619
 20
241.5039552515622
 30
0.0
 11
679.4679207630709
 21
241.5039471910019
 31
0.0
  0
LINE
  5
153
330
1F
100
AcDbEntity
  8
0
  6
CONTINUOUS
 62
     7
100
AcDbLine
 10
644.4676279274457
 20
183.5044139264122
 30
0.0
 11
647.9676279274364
 21
183.5044058659349
 31
0.0
  0
LINE
  5
154
330
1F
100
AcDbEntity
  8
0
  6
CONTINUOUS
 62
     7
100
AcDbLine
 10
642.967506063221
 20
241.5036094509247
 30
0.0
 11
639.4675060632303
 21
241.5036013904605
 31
0.0
  0
LINE
  5
155
330
1F
100
AcDbEntity
  8
0
  6
CONTINUOUS
 62
     7
100
AcDbLine
 10
604.4687082229868
 20
183.504625624937
 30
0.0
 11
607.9687082229775
 21
183.5046175645185
 31
0.0
  0
LINE
  5
156
330
1F
100
AcDbEntity
  8
0
  6
CONTINUOUS
 62
     7
100
AcDbLine
 10
634.4678130512609
 20
183.5045048048128
 30
0.0
 11
637.9678130512516
 21
183.5044967443607
 31
0.0
  0
LINE
  5
157
330
1F
100
AcDbEntity
  8
0
  6
CONTINUOUS
 62
     7
100
AcDbLine
 10
662.9686080892706
 20
241.5038022685882
 30
0.0
 11
659.4686080892798
 21
241.5037942080704
 31
0.0
  0
LINE
  5
158
330
1F
100
AcDbEntity
  8
0
  6
CONTINUOUS
 62
     7
100
AcDbLine
 10
672.9688959035777
 20
241.5038884300977
 30
0.0
 11
669.4688959035872
 21
241.503880369556
 31
0.0
  0
LINE
  5
159
330
1F
100
AcDbEntity
  8
0
  6
CONTINUOUS
 62
     7
100
AcDbLine
 10
698.4479658892684
 20
184.8134718176299
 30
0.0
 11
698.5757267859375
 21
185.5045828919112
 31
0.0
  0
LINE
  5
15A
330
1F
100
AcDbEntity
  8
0
  6
CONTINUOUS
 62
     7
100
AcDbLine
 10
678.4479312570973
 20
184.8133655948845
 30
0.0
 11
678.5757070643316
 21
185.5045856232786
 31
0.0
  0
LINE
  5
15B
330
1F
100
AcDbEntity
  8
0
  6
CONTINUOUS
 62
     7
100
AcDbLine
 10
728.4483893616299
 20
184.8159740027365
 30
0.0
 11
728.5756959121398
 21
185.5045860731783
 31
0.0
  0
LINE
  5
15C
330
1F
100
AcDbEntity
  8
0
  6
CONTINUOUS
 62
     7
100
AcDbLine
 10
628.4480194937782
 20
184.814239496593
 30
0.0
 11
628.5756397331345
 21
185.5045883833325
 31
0.0
  0
LINE
  5
15D
330
1F
100
AcDbEntity
  8
0
  6
CONTINUOUS
 62
     7
100
AcDbLine
 10
618.4481299154086
 20
184.8148550404178
 30
0.0
 11
618.5756386544982
 21
185.5045885371409
 31
0.0
  0
LINE
  5
15E
330
1F
100
AcDbEntity
  8
0
  6
CONTINUOUS
 62
     7
100
AcDbLine
 10
673.8350491703261
 20
238.1051674632972
 30
0.0
 11
673.4479177398284
 21
240.194728441033
 31
0.0
  0
LINE
  5
15F
330
1F
100
AcDbEntity
  8
0
  6
CONTINUOUS
 62
     7
100
AcDbLine
 10
602.9679104396
 20
241.5034578759886
 30
0.0
 11
599.4679104396093
 21
241.5034498155666
 31
0.0
  0
LINE
  5
160
330
1F
100
AcDbEntity
  8
0
  6
CONTINUOUS
 62
     7
100
AcDbLine
 10
588.4480346991332
 20
184.8142066083932
 30
0.0
 11
588.575667980102
 21
185.5045866819465
 31
0.0
  0
LINE
  5
161
330
1F
100
AcDbEntity
  8
0
  6
CONTINUOUS
 62
     7
100
AcDbLine
 10
613.8348602642837
 20
238.1059762801333
 30
0.0
 11
613.447885990284
 21
240.1945315423089
 31
0.0
  0
LINE
  5
162
330
1F
100
AcDbEntity
  8
0
  6
CONTINUOUS
 62
     7
100
AcDbLine
 10
643.8352418577155
 20
238.1039154170329
 30
0.0
 11
643.4479855326824
 21
240.1940892440122
 31
0.0
  0
LINE
  5
163
330
1F
100
AcDbEntity
  8
0
  6
CONTINUOUS
 62
     7
100
AcDbLine
 10
614.4679315263196
 20
183.5046146345258
 30
0.0
 11
617.9679315263104
 21
183.5046065741043
 31
0.0
  0
LINE
  5
164
330
1F
100
AcDbEntity
  8
0
  6
CONTINUOUS
 62
     7
100
AcDbLine
 10
738.4484172628732
 20
184.8162221293487
 30
0.0
 11
738.5756783636167
 21
185.5045876967591
 31
0.0
  0
LINE
  5
165
330
1F
100
AcDbEntity
  8
0
  6
CONTINUOUS
 62
     7
100
AcDbLine
 10
683.8348339864415
 20
238.1064127735492
 30
0.0
 11
683.4481106757953
 21
240.1937611768253
 31
0.0
  0
LINE
  5
166
330
1F
100
AcDbEntity
  8
0
  6
CONTINUOUS
 62
     7
100
AcDbLine
 10
633.835052038216
 20
238.1049101282394
 30
0.0
 11
633.4480127732819
 21
240.1938801691494
 31
0.0
  0
LINE
  5
167
330
1F
100
AcDbEntity
  8
0
  6
CONTINUOUS
 62
     7
100
AcDbLine
 10
583.8346240854466
 20
238.1074740363647
 30
0.0
 11
583.448351199346
 21
240.1921868345251
 31
0.0
  0
LINE
  5
168
330
1F
100
AcDbEntity
  8
0
  6
CONTINUOUS
 62
     7
100
AcDbLine
 10
703.8352074543543
 20
238.1045230128106
 30
0.0
 11
703.448316917513
 21
240.1926778218433
 31
0.0
  0
LINE
  5
169
330
1F
100
AcDbEntity
  8
0
  6
CONTINUOUS
 62
     7
100
AcDbLine
 10
713.8358130326385
 20
238.10126351156
 30
0.0
 11
713.4482985313874
 21
240.1927176535061
 31
0.0
  0
LINE
  5
16A
330
1F
100
AcDbEntity
  8
0
  6
CONTINUOUS
 62
     7
100
AcDbLine
 10
668.4480315168596
 20
184.8139966426492
 30
0.0
 11
668.5756903890741
 21
185.5045866944591
 31
0.0
  0
LINE
  5
16B
330
1F
100
AcDbEntity
  8
0
  6
CONTINUOUS
 62
     7
100
AcDbLine
 10
723.8352770002662
 20
238.1040976005467
 30
0.0
 11
723.4482718973907
 21
240.1927735775234
 31
0.0
  0
LINE
  5
16C
330
1F
100
AcDbEntity
  8
0
  6
CONTINUOUS
 62
     7
100
AcDbLine
 10
722.9680128762219
 20
241.503725952486
 30
0.0
 11
719.4680128762312
 21
241.5037178919894
 31
0.0
  0
LINE
  5
16D
330
1F
100
AcDbEntity
  8
0
  6
CONTINUOUS
 62
     7
100
AcDbLine
 10
732.9678065638506
 20
241.5036261663871
 30
0.0
 11
729.4678065638594
 21
241.5036181059182
 31
0.0
  0
LINE
  5
16E
330
1F
100
AcDbEntity
  8
0
  6
CONTINUOUS
 62
     7
100
AcDbLine
 10
663.8347079964633
 20
238.10691527266
 30
0.0
 11
663.4476678114396
 21
240.1959877032121
 31
0.0
  0
LINE
  5
16F
330
1F
100
AcDbEntity
  8
0
  6
CONTINUOUS
 62
     7
100
AcDbLine
 10
693.8342773865866
 20
238.1094814465737
 30
0.0
 11
693.4482890871609
 21
240.1928382707183
 31
0.0
  0
LINE
  5
170
330
1F
100
AcDbEntity
  8
0
  6
CONTINUOUS
 62
     7
100
AcDbLine
 10
638.4477257318341
 20
184.8126009010143
 30
0.0
 11
638.5756465708827
 21
185.5045878251131
 31
0.0
  0
LINE
  5
171
330
1F
100
AcDbEntity
  8
0
  6
CONTINUOUS
 62
     7
100
AcDbLine
 10
733.8346537146061
 20
238.1073709419519
 30
0.0
 11
733.4481980046086
 21
240.1930754905805
 31
0.0
  0
LINE
  5
172
330
1F
100
AcDbEntity
  8
0
  6
CONTINUOUS
 62
     7
100
AcDbLine
 10
683.6000949433065
 20
186.9061559447908
 30
0.0
 11
683.98753635472
 21
184.8149173983754
 31
0.0
  0
LINE
  5
173
330
1F
100
AcDbEntity
  8
0
  6
CONTINUOUS
 62
     7
100
AcDbLine
 10
638.9873636541531
 20
240.1919449396359
 30
0.0
 11
638.8600864556098
 21
239.5034759562501
 31
0.0
  0
LINE
  5
174
330
1F
100
AcDbEntity
  8
0
  6
CONTINUOUS
 62
     7
100
AcDbLine
 10
638.3204750308784
 20
185.5040313958411
 30
0.0
 11
643.8600775594318
 21
185.5040313958411
 31
0.0
  0
LINE
  5
175
330
1F
100
AcDbEntity
  8
0
  6
CONTINUOUS
 62
     7
100
AcDbLine
 10
628.3204670852348
 20
185.5040313958411
 30
0.0
 11
633.8600950888664
 21
185.5040313958411
 31
0.0
  0
LINE
  5
176
330
1F
100
AcDbEntity
  8
0
  6
CONTINUOUS
 62
     7
100
AcDbLine
 10
648.9873862352727
 20
240.1921653088275
 30
0.0
 11
648.8601553144963
 21
239.5039447761714
 31
0.0
  0
LINE
  5
177
330
1F
100
AcDbEntity
  8
0
  6
CONTINUOUS
 62
     7
100
AcDbLine
 10
658.9875271771338
 20
240.1930197855036
 30
0.0
 11
658.8601483871715
 21
239.5039899706987
 31
0.0
  0
LINE
  5
178
330
1F
100
AcDbEntity
  8
0
  6
CONTINUOUS
 62
     7
100
AcDbLine
 10
728.987898782084
 20
240.1947380347565
 30
0.0
 11
728.8601162630256
 21
239.5034752483628
 31
0.0
  0
LINE
  5
179
330
1F
100
AcDbEntity
  8
0
  6
CONTINUOUS
 62
     7
100
AcDbLine
 10
608.3204469514037
 20
185.5040313958411
 30
0.0
 11
613.8601230736372
 21
185.5040313958411
 31
0.0
  0
LINE
  5
17A
330
1F
100
AcDbEntity
  8
0
  6
CONTINUOUS
 62
     7
100
AcDbLine
 10
609.1153199023822
 20
239.5040313958411
 30
0.0
 11
603.5756478417219
 21
239.5040313958411
 31
0.0
  0
LINE
  5
17B
330
1F
100
AcDbEntity
  8
0
  6
CONTINUOUS
 62
     7
100
AcDbLine
 10
588.9877276461851
 20
240.1937171836397
 30
0.0
 11
588.8567030545538
 21
239.4849547494533
 31
0.0
  0
LINE
  5
17C
330
1F
100
AcDbEntity
  8
0
  6
CONTINUOUS
 62
     7
100
AcDbLine
 10
619.115321915109
 20
239.5040313958411
 30
0.0
 11
613.5756404295496
 21
239.5040313958411
 31
0.0
  0
LINE
  5
17D
330
1F
100
AcDbEntity
  8
0
  6
CONTINUOUS
 62
     7
100
AcDbLine
 10
698.9877432605828
 20
240.1941699234949
 30
0.0
 11
698.8600682556995
 21
239.5034766273832
 31
0.0
  0
LINE
  5
17E
330
1F
100
AcDbEntity
  8
0
  6
CONTINUOUS
 62
     7
100
AcDbLine
 10
629.1153197285388
 20
239.5040313958411
 30
0.0
 11
623.5756384575965
 21
239.5040313958411
 31
0.0
  0
LINE
  5
17F
330
1F
100
AcDbEntity
  8
0
  6
CONTINUOUS
 62
     7
100
AcDbLine
 10
708.9877690666783
 20
240.194217454224
 30
0.0
 11
708.8601738263397
 21
239.5039569505455
 31
0.0
  0
LINE
  5
180
330
1F
100
AcDbEntity
  8
0
  6
CONTINUOUS
 62
     7
100
AcDbLine
 10
639.1153027648425
 20
239.5040313958411
 30
0.0
 11
633.5756728474415
 21
239.5040313958411
 31
0.0
  0
LINE
  5
181
330
1F
100
AcDbEntity
  8
0
  6
CONTINUOUS
 62
     7
100
AcDbLine
 10
668.3205142729462
 20
185.5040313958411
 30
0.0
 11
673.8600435263509
 21
185.5040313958411
 31
0.0
  0
LINE
  5
182
330
1F
100
AcDbEntity
  8
0
  6
CONTINUOUS
 62
     7
100
AcDbLine
 10
598.9876135968112
 20
240.193079993591
 30
0.0
 11
598.8567988475662
 21
239.4854662838077
 31
0.0
  0
LINE
  5
183
330
1F
100
AcDbEntity
  8
0
  6
CONTINUOUS
 62
     7
100
AcDbLine
 10
598.3204546043211
 20
185.5040313958411
 30
0.0
 11
603.8601302324739
 21
185.5040313958411
 31
0.0
  0
LINE
  5
184
330
1F
100
AcDbEntity
  8
0
  6
CONTINUOUS
 62
     7
100
AcDbLine
 10
673.6004483442097
 20
186.9041997964922
 30
0.0
 11
673.9874139691598
 21
184.8155719006702
 31
0.0
  0
LINE
  5
185
330
1F
100
AcDbEntity
  8
0
  6
CONTINUOUS
 62
     7
100
AcDbLine
 10
649.1152830342074
 20
239.5040313958411
 30
0.0
 11
643.575651691113
 21
239.5040313958411
 31
0.0
  0
LINE
  5
186
330
1F
100
AcDbEntity
  8
0
  6
CONTINUOUS
 62
     7
100
AcDbLine
 10
593.6008595290571
 20
186.9024260145066
 30
0.0
 11
593.9876942361839
 21
184.8145403199858
 31
0.0
  0
LINE
  5
187
330
1F
100
AcDbEntity
  8
0
  6
CONTINUOUS
 62
     7
100
AcDbLine
 10
668.9877176990602
 20
240.1941179564033
 30
0.0
 11
668.8600445814025
 21
239.5034798570781
 31
0.0
  0
LINE
  5
188
330
1F
100
AcDbEntity
  8
0
  6
CONTINUOUS
 62
     7
100
AcDbLine
 10
603.600252757848
 20
186.905659286402
 30
0.0
 11
603.9876034762763
 21
184.8150352373975
 31
0.0
  0
LINE
  5
189
330
1F
100
AcDbEntity
  8
0
  6
CONTINUOUS
 62
     7
100
AcDbLine
 10
688.9878208163949
 20
240.1946627049644
 30
0.0
 11
688.8600535842049
 21
239.503477981213
 31
0.0
  0
LINE
  5
18A
330
1F
100
AcDbEntity
  8
0
  6
CONTINUOUS
 62
     7
100
AcDbLine
 10
698.3205176453661
 20
185.5040313958411
 30
0.0
 11
703.860076521771
 21
185.5040313958411
 31
0.0
  0
LINE
  5
18B
330
1F
100
AcDbEntity
  8
0
  6
CONTINUOUS
 62
     7
100
AcDbLine
 10
688.3205057738083
 20
185.5040313958411
 30
0.0
 11
693.860060471797
 21
185.5040313958411
 31
0.0
  0
LINE
  5
18C
330
1F
100
AcDbEntity
  8
0
  6
CONTINUOUS
 62
     7
100
AcDbLine
 10
618.3204543394847
 20
185.5040313958411
 30
0.0
 11
623.8600806185183
 21
185.5040313958411
 31
0.0
  0
LINE
  5
18D
330
1F
100
AcDbEntity
  8
0
  6
CONTINUOUS
 62
     7
100
AcDbLine
 10
633.6006927950847
 20
186.9030671000566
 30
0.0
 11
633.987516910416
 21
184.8153349740398
 31
0.0
  0
LINE
  5
18E
330
1F
100
AcDbEntity
  8
0
  6
CONTINUOUS
 62
     7
100
AcDbLine
 10
643.6001627409037
 20
186.9058295418145
 30
0.0
 11
643.9874945022933
 21
184.8153605406804
 31
0.0
  0
LINE
  5
18F
330
1F
100
AcDbEntity
  8
0
  6
CONTINUOUS
 62
     7
100
AcDbLine
 10
718.987751922161
 20
240.1940288058965
 30
0.0
 11
718.8601933573843
 21
239.5039679285332
 31
0.0
  0
LINE
  5
190
330
1F
100
AcDbEntity
  8
0
  6
CONTINUOUS
 62
     7
100
AcDbLine
 10
663.6011380658758
 20
186.9004752363539
 30
0.0
 11
663.987423882289
 21
184.8155645796794
 31
0.0
  0
LINE
  5
191
330
1F
100
AcDbEntity
  8
0
  6
CONTINUOUS
 62
     7
100
AcDbLine
 10
613.6004779510672
 20
186.9043903827216
 30
0.0
 11
613.9875173112534
 21
184.8154729571967
 31
0.0
  0
LINE
  5
192
330
1F
100
AcDbEntity
  8
0
  6
CONTINUOUS
 62
     7
100
AcDbLine
 10
738.9877865893989
 20
240.1940642576959
 30
0.0
 11
738.8566993000135
 21
239.4849549370758
 31
0.0
  0
LINE
  5
193
330
1F
100
AcDbEntity
  8
0
  6
CONTINUOUS
 62
     7
100
AcDbLine
 10
747.9679496430317
 20
185.5040313958411
 30
0.0
 11
748.9679496430316
 21
185.5040313958411
 31
0.0
  0
LINE
  5
194
330
1F
100
AcDbEntity
  8
0
  6
CONTINUOUS
 62
     7
100
AcDbLine
 10
693.6011307899512
 20
186.9006650606786
 30
0.0
 11
693.9877398239837
 21
184.8138715534887
 31
0.0
  0
LINE
  5
195
330
1F
100
AcDbEntity
  8
0
  6
CONTINUOUS
 62
     7
100
AcDbLine
 10
658.3204965300619
 20
185.5040313958411
 30
0.0
 11
663.8600483314468
 21
185.5040313958411
 31
0.0
  0
LINE
  5
196
330
1F
100
AcDbEntity
  8
0
  6
CONTINUOUS
 62
     7
100
AcDbLine
 10
583.6011370380578
 20
186.9009340743168
 30
0.0
 11
583.9877753070625
 21
184.8140661086811
 31
0.0
  0
LINE
  5
197
330
1F
100
AcDbEntity
  8
0
  6
CONTINUOUS
 62
     7
100
AcDbLine
 10
678.9878875831755
 20
240.1950586466811
 30
0.0
 11
678.8600445542259
 21
239.5034795015708
 31
0.0
  0
LINE
  5
198
330
1F
100
AcDbEntity
  8
0
  6
CONTINUOUS
 62
     7
100
AcDbLine
 10
653.6003582534136
 20
186.9047062694344
 30
0.0
 11
653.9875650919898
 21
184.8148816217357
 31
0.0
  0
LINE
  5
199
330
1F
100
AcDbEntity
  8
0
  6
CONTINUOUS
 62
     7
100
AcDbLine
 10
623.6013609012216
 20
186.899563155473
 30
0.0
 11
623.9874639725326
 21
184.8157033715335
 31
0.0
  0
LINE
  5
19A
330
1F
100
AcDbEntity
  8
0
  6
CONTINUOUS
 62
     7
100
AcDbLine
 10
718.3204922863694
 20
185.5040313958411
 30
0.0
 11
723.8601095532887
 21
185.5040313958411
 31
0.0
  0
LINE
  5
19B
330
1F
100
AcDbEntity
  8
0
  6
CONTINUOUS
 62
     7
100
AcDbLine
 10
708.320513137844
 20
185.5040313958411
 30
0.0
 11
713.8600937375337
 21
185.5040313958411
 31
0.0
  0
LINE
  5
19C
330
1F
100
AcDbEntity
  8
0
  6
CONTINUOUS
 62
     7
100
AcDbLine
 10
738.3204763382564
 20
185.5040313958411
 30
0.0
 11
743.8601602415459
 21
185.5040313958411
 31
0.0
  0
LINE
  5
19D
330
1F
100
AcDbEntity
  8
0
  6
CONTINUOUS
 62
     7
100
AcDbLine
 10
608.9876197355092
 20
240.1931260592485
 30
0.0
 11
608.8601273099885
 21
239.5034746074551
 31
0.0
  0
LINE
  5
19E
330
1F
100
AcDbEntity
  8
0
  6
CONTINUOUS
 62
     7
100
AcDbLine
 10
618.9874993352589
 20
240.1925183075017
 30
0.0
 11
618.86011752954
 21
239.5034746422516
 31
0.0
  0
LINE
  5
19F
330
1F
100
AcDbEntity
  8
0
  6
CONTINUOUS
 62
     7
100
AcDbLine
 10
678.320515021146
 20
185.5040313958411
 30
0.0
 11
683.8600451177509
 21
185.5040313958411
 31
0.0
  0
LINE
  5
1A0
330
1F
100
AcDbEntity
  8
0
  6
CONTINUOUS
 62
     7
100
AcDbLine
 10
648.3204759493514
 20
185.5040313958411
 30
0.0
 11
653.8600608545496
 21
185.5040313958411
 31
0.0
  0
LINE
  5
1A1
330
1F
100
AcDbEntity
  8
0
  6
CONTINUOUS
 62
     7
100
AcDbLine
 10
628.987485025145
 20
240.1925118940361
 30
0.0
 11
628.8601033165819
 21
239.5034750430282
 31
0.0
  0
LINE
  5
1A2
330
1F
100
AcDbEntity
  8
0
  6
CONTINUOUS
 62
     7
100
AcDbLine
 10
728.3204754793044
 20
185.5040313958411
 30
0.0
 11
733.8601220062586
 21
185.5040313958411
 31
0.0
  0
LWPOLYLINE
  5
1A3
330
1F
100
AcDbEntity
  8
0
  6
CONTINUOUS
 62
     7
100
AcDbPolyline
 90
       33
 70
     0
 43
0.0
 10
-618.9874407147481
 20
240.1922008839288
 10
-619.0024313357975
 20
240.2721524127387
 10
-619.0174219568471
 20
240.3496480840143
 10
-619.0324125778966
 20
240.4246815507305
 10
-619.047403198946
 20
240.4972464658621
 10
-619.0623938199957
 20
240.5673364823842
 10
-619.0773844410451
 20
240.6349452532714
 10
-619.0923750620944
 20
240.7000664314988
 10
-619.1073656831439
 20
240.7626936700412
 10
-619.1223563041933
 20
240.8228206218735
 10
-619.1373469252429
 20
240.8804409399707
 10
-619.1523375462923
 20
240.9355482773075
 10
-619.1673281673418
 20
240.9881362868589
 10
-619.1823187883912
 20
241.0381986215998
 10
-619.1973094094408
 20
241.0857289345051
 10
-619.2123000304902
 20
241.1307208785495
 10
-619.2272906515398
 20
241.1731681067081
 10
-619.2422812725893
 20
241.2130642719557
 10
-619.2572718936386
 20
241.2504030272673
 10
-619.2722625146882
 20
241.2851780256176
 10
-619.2872531357376
 20
241.317383472729
 10
-619.302243756787
 20
241.3470178802984
 10
-619.3172343778366
 20
241.3740817799016
 10
-619.332224998886
 20
241.398575714736
 10
-619.3472156199356
 20
241.4205002279992
 10
-619.3622062409851
 20
241.4398558628889
 10
-619.3771968620345
 20
241.4566431626025
 10
-619.392187483084
 20
241.4708626703375
 10
-619.4071781041334
 20
241.4825149292915
 10
-619.4221687251829
 20
241.4916004826621
 10
-619.4371593462323
 20
241.4981198736466
 10
-619.4521499672819
 20
241.5020736454429
 10
-619.4671405883313
 20
241.5034623412483
210
0.0
220
0.0
230
-1.0
  0
LWPOLYLINE
  5
1A4
330
1F
100
AcDbEntity
  8
0
  6
CONTINUOUS
 62
     7
100
AcDbPolyline
 90
       33
 70
     0
 43
0.0
 10
643.9874358100564
 20
184.8156782781189
 10
644.0024418142607
 20
184.7356682160579
 10
644.0174478184649
 20
184.6581247716438
 10
644.0324538226694
 20
184.5830532261292
 10
644.0474598268737
 20
184.510458860767
 10
644.062465831078
 20
184.4403469568098
 10
644.0774718352823
 20
184.3727227955104
 10
644.0924778394868
 20
184.3075916581215
 10
644.1074838436909
 20
184.2449588258958
 10
644.1224898478953
 20
184.1848295800862
 10
644.1374958520997
 20
184.1272092019453
 10
644.1525018563041
 20
184.0721029727258
 10
644.1675078605084
 20
184.0195161736805
 10
644.1825138647127
 20
183.9694540860621
 10
644.197519868917
 20
183.9219219911234
 10
644.2125258731213
 20
183.8769251701171
 10
644.2275318773256
 20
183.8344689042959
 10
644.2425378815301
 20
183.7945584749126
 10
644.2575438857343
 20
183.7571991632199
 10
644.2725498899387
 20
183.7223962504705
 10
644.2875558941429
 20
183.6901550179172
 10
644.3025618983473
 20
183.6604807468127
 10
644.3175679025517
 20
183.6333787184097
 10
644.3325739067561
 20
183.608854213961
 10
644.3475799109603
 20
183.5869125147193
 10
644.3625859151647
 20
183.5675579335278
 10
644.3775919193691
 20
183.5507901771721
 10
644.3925979235732
 20
183.5366075844661
 10
644.4076039277778
 20
183.5250084940022
 10
644.4226099319822
 20
183.5159912443731
 10
644.4376159361864
 20
183.5095541741712
 10
644.4526219403907
 20
183.5056956219891
 10
644.467627944595
 20
183.5044139264193
  0
LWPOLYLINE
  5
1A5
330
1F
100
AcDbEntity
  8
0
  6
CONTINUOUS
 62
     7
100
AcDbPolyline
 90
        3
 70
     0
 43
0.0
 10
589.309147753697
 20
239.3038795784313
 10
589.2416743708205
 20
239.4188692629986
 10
589.1742533102779
 20
239.4855065223052
  0
LWPOLYLINE
  5
1A6
330
1F
100
AcDbEntity
  8
0
  6
CONTINUOUS
 62
     7
100
AcDbPolyline
 90
        4
 70
     0
 43
0.0
 10
719.340682035182
 20
239.2335583421847
 10
719.2724197182107
 20
239.3723992754217
 10
719.2042406199394
 20
239.4618326182368
 10
719.1152856253378
 20
239.5040313958183
  0
LWPOLYLINE
  5
1A7
330
1F
100
AcDbEntity
  8
0
  6
CONTINUOUS
 62
     7
100
AcDbPolyline
 90
       33
 70
     0
 43
0.0
 10
-688.987709282113
 20
240.1940586719681
 10
-689.0027255453462
 20
240.2741520196035
 10
-689.0177418085794
 20
240.3517607171474
 10
-689.0327580718126
 20
240.4268749820426
 10
-689.0477743350458
 20
240.4994886153962
 10
-689.062790598279
 20
240.56959823343
 10
-689.0778068615123
 20
240.6372005281149
 10
-689.0928231247456
 20
240.7022921914214
 10
-689.1078393879786
 20
240.7648699153206
 10
-689.122855651212
 20
240.8249303917829
 10
-689.1378719144452
 20
240.8824703127793
 10
-689.1528881776783
 20
240.9374863702804
 10
-689.1679044409116
 20
240.989975256257
 10
-689.1829207041447
 20
241.0399336626798
 10
-689.197936967378
 20
241.0873582815197
 10
-689.2129532306112
 20
241.1322458047473
 10
-689.2279694938444
 20
241.1745929243332
 10
-689.2429857570775
 20
241.2143963322485
 10
-689.2580020203109
 20
241.2516527204638
 10
-689.2730182835442
 20
241.2863587809497
 10
-689.2880345467772
 20
241.3185112056771
 10
-689.3030508100106
 20
241.3481066866167
 10
-689.3180670732437
 20
241.3751419157392
 10
-689.3330833364769
 20
241.3996135850155
 10
-689.3480995997103
 20
241.4215183864162
 10
-689.3631158629435
 20
241.4408530119121
 10
-689.3781321261765
 20
241.4576141534739
 10
-689.39314838941
 20
241.4717985030724
 10
-689.4081646526431
 20
241.4834027526784
 10
-689.4231809158763
 20
241.4924235942624
 10
-689.4381971791095
 20
241.4988577197954
 10
-689.4532134423428
 20
241.5027018212482
 10
-689.4682297055762
 20
241.5039525905913
210
0.0
220
0.0
230
-1.0
  0
LWPOLYLINE
  5
1A8
330
1F
100
AcDbEntity
  8
0
  6
CONTINUOUS
 62
     7
100
AcDbPolyline
 90
       33
 70
     0
 43
0.0
 10
633.9874840744548
 20
184.8155127312391
 10
634.0024943555159
 20
184.735482659552
 10
634.017504636577
 20
184.6579176992196
 10
634.0325149176381
 20
184.5828235719758
 10
634.0475251986992
 20
184.5102059995549
 10
634.0625354797602
 20
184.4400707036908
 10
634.0775457608213
 20
184.3724234061177
 10
634.0925560418824
 20
184.3072698285696
 10
634.1075663229434
 20
184.2446156927807
 10
634.1225766040045
 20
184.1844667204851
 10
634.1375868850657
 20
184.1268286334167
 10
634.1525971661267
 20
184.0717071533098
 10
634.1676074471878
 20
184.0191080018983
 10
634.1826177282489
 20
183.9690369009164
 10
634.19762800931
 20
183.9214995720983
 10
634.212638290371
 20
183.8765017371779
 10
634.227648571432
 20
183.8340491178893
 10
634.2426588524932
 20
183.7941474359667
 10
634.2576691335544
 20
183.7568024131442
 10
634.2726794146155
 20
183.7220197711557
 10
634.2876896956766
 20
183.6898052317354
 10
634.3026999767376
 20
183.6601645166174
 10
634.3177102577986
 20
183.6331033475358
 10
634.3327205388598
 20
183.6086266139784
 10
634.3477308199209
 20
183.5867346511025
 10
634.3627411009819
 20
183.5674262440826
 10
634.3777513820429
 20
183.5507001767987
 10
634.392761663104
 20
183.5365552331313
 10
634.407771944165
 20
183.5249901969603
 10
634.4227822252262
 20
183.5160038521663
 10
634.4377925062873
 20
183.5095949826292
 10
634.4528027873483
 20
183.5057623722292
 10
634.4678130684091
 20
183.5045048048466
  0
LWPOLYLINE
  5
1A9
330
1F
100
AcDbEntity
  8
0
  6
CONTINUOUS
 62
     7
100
AcDbPolyline
 90
       33
 70
     0
 43
0.0
 10
623.9873475031623
 20
184.8163340722528
 10
624.0023659962693
 20
184.7362277227362
 10
624.0173844893764
 20
184.6585870593037
 10
624.0324029824833
 20
184.5834182478398
 10
624.0474214755903
 20
184.5107274542293
 10
624.0624399686976
 20
184.4405208443569
 10
624.0774584618046
 20
184.3728045841073
 10
624.0924769549115
 20
184.3075848393652
 10
624.1074954480185
 20
184.2448677760153
 10
624.1225139411256
 20
184.1846595599422
 10
624.1375324342328
 20
184.1269663570307
 10
624.1525509273397
 20
184.0717943331655
 10
624.1675694204467
 20
184.0191496542313
 10
624.1825879135538
 20
183.9690384861127
 10
624.1976064066607
 20
183.9214669946945
 10
624.2126248997679
 20
183.8764413458614
 10
624.2276433928748
 20
183.8339677054979
 10
624.2426618859818
 20
183.794052239489
 10
624.2576803790888
 20
183.7567011137192
 10
624.272698872196
 20
183.7219204940733
 10
624.287717365303
 20
183.6897165464359
 10
624.3027358584102
 20
183.6600947470365
 10
624.3177543515174
 20
183.6330561078182
 10
624.3327728446242
 20
183.6085998630907
 10
624.3477913377311
 20
183.5867252425887
 10
624.3628098308382
 20
183.5674314760468
 10
624.3778283239451
 20
183.5507177931997
 10
624.3928468170523
 20
183.5365834237821
 10
624.4078653101593
 20
183.5250275975287
 10
624.4228838032664
 20
183.5160495441741
 10
624.4379022963733
 20
183.5096484934529
 10
624.4529207894802
 20
183.5058236750999
 10
624.4679392825874
 20
183.5045743188498
  0
LWPOLYLINE
  5
1AA
330
1F
100
AcDbEntity
  8
0
  6
CONTINUOUS
 62
     7
100
AcDbPolyline
 90
        4
 70
     0
 43
0.0
 10
669.3181039243706
 20
239.2849852393024
 10
669.2498760651006
 20
239.4074933557768
 10
669.1154187837349
 20
239.5039403013803
 10
669.1152597404334
 20
239.5040313958409
  0
LWPOLYLINE
  5
1AB
330
1F
100
AcDbEntity
  8
0
  6
CONTINUOUS
 62
     7
100
AcDbPolyline
 90
       33
 70
     0
 43
0.0
 10
723.9877146246289
 20
184.8142810004183
 10
724.0027362698028
 20
184.734138954922
 10
724.0177579149763
 20
184.6564678860821
 10
724.0327795601497
 20
184.5812763679097
 10
724.0478012053235
 20
184.5085729744162
 10
724.0628228504971
 20
184.4383662796128
 10
724.0778444956708
 20
184.3706648575107
 10
724.0928661408444
 20
184.3054772821211
 10
724.1078877860182
 20
184.2428121274554
 10
724.1229094311917
 20
184.1826779675246
 10
724.1379310763655
 20
184.1250828035183
 10
724.152952721539
 20
184.0700303434508
 10
724.1679743667125
 20
184.0175223475255
 10
724.1829960118863
 20
183.9675605662408
 10
724.19801765706
 20
183.9201467500952
 10
724.2130393022337
 20
183.8752826495872
 10
724.2280609474072
 20
183.8329700152152
 10
724.2430825925809
 20
183.7932105974776
 10
724.2581042377547
 20
183.7560061468729
 10
724.2731258829282
 20
183.7213584138996
 10
724.2881475281018
 20
183.6892691490559
 10
724.3031691732756
 20
183.6597401028406
 10
724.318190818449
 20
183.6327730257519
 10
724.3332124636227
 20
183.6083696682884
 10
724.3482341087963
 20
183.5865317809485
 10
724.3632557539701
 20
183.5672611142306
 10
724.3782773991436
 20
183.5505594186332
 10
724.3932990443175
 20
183.5364284446547
 10
724.4083206894911
 20
183.5248699427935
 10
724.4233423346649
 20
183.5158856635482
 10
724.4383639798385
 20
183.5094773574172
 10
724.4533856250122
 20
183.5056467748988
 10
724.468407270186
 20
183.5043956664916
  0
LWPOLYLINE
  5
1AC
330
1F
100
AcDbEntity
  8
0
  6
CONTINUOUS
 62
     7
100
AcDbPolyline
 90
       33
 70
     0
 43
0.0
 10
-718.9876807682168
 20
240.1936433387997
 10
-719.0026911465925
 20
240.2737344020523
 10
-719.0177015249678
 20
240.3513566019348
 10
-719.0327119033434
 20
240.4265011745143
 10
-719.0477222817187
 20
240.4991593558577
 10
-719.0627326600943
 20
240.5693223820322
 10
-719.0777430384696
 20
240.6369814891047
 10
-719.0927534168453
 20
240.7021279131422
 10
-719.1077637952208
 20
240.7647528902119
 10
-719.1227741735961
 20
240.8248481502121
 10
-719.1377845519715
 20
240.8824096037078
 10
-719.152794930347
 20
240.9374352650535
 10
-719.1678053087226
 20
240.9899231645855
 10
-719.182815687098
 20
241.0398713326397
 10
-719.1978260654735
 20
241.0872777995525
 10
-719.2128364438489
 20
241.1321405956598
 10
-719.2278468222244
 20
241.174457751298
 10
-719.2428572005997
 20
241.2142272968031
 10
-719.2578675789752
 20
241.2514472625111
 10
-719.2728779573508
 20
241.2861156787586
 10
-719.2878883357262
 20
241.3182305758812
 10
-719.3028987141015
 20
241.3477899842154
 10
-719.3179090924768
 20
241.3747919340973
 10
-719.3329194708524
 20
241.399234455863
 10
-719.347929849228
 20
241.4211155798487
 10
-719.3629402276035
 20
241.4404333363904
 10
-719.3779506059789
 20
241.4571857558243
 10
-719.3929609843544
 20
241.4713708684867
 10
-719.4079713627298
 20
241.4829867047136
 10
-719.4229817411051
 20
241.4920312948411
 10
-719.4379921194807
 20
241.4985026692056
 10
-719.453002497856
 20
241.5023988581429
 10
-719.4680128762312
 20
241.5037178919895
210
0.0
220
0.0
230
-1.0
  0
LWPOLYLINE
  5
1AD
330
1F
100
AcDbEntity
  8
0
  6
CONTINUOUS
 62
     7
100
AcDbPolyline
 90
       33
 70
     0
 43
0.0
 10
613.9873873288471
 20
184.8161768848655
 10
614.002404335554
 20
184.736070531348
 10
614.0174213422611
 20
184.6584281751921
 10
614.0324383489678
 20
184.5832564130062
 10
614.0474553556749
 20
184.5105618413983
 10
614.0624723623815
 20
184.4403510569766
 10
614.0774893690884
 20
184.3726306563494
 10
614.0925063757952
 20
184.3074072361247
 10
614.1075233825022
 20
184.2446873929107
 10
614.1225403892092
 20
184.1844777233158
 10
614.137557395916
 20
184.1267848239478
 10
614.1525744026228
 20
184.0716152914151
 10
614.1675914093297
 20
184.0189757223259
 10
614.1826084160366
 20
183.9688727132882
 10
614.1976254227435
 20
183.9213128609103
 10
614.2126424294503
 20
183.8763027618004
 10
614.2276594361572
 20
183.8338490125665
 10
614.2426764428642
 20
183.793958209817
 10
614.257693449571
 20
183.7566369501598
 10
614.2727104562779
 20
183.7218912716955
 10
614.2877274629847
 20
183.6897228846896
 10
614.3027444696914
 20
183.6601314784899
 10
614.3177614763983
 20
183.6331167310371
 10
614.3327784831052
 20
183.6086783202722
 10
614.3477954898123
 20
183.5868159241355
 10
614.3628124965192
 20
183.567529220568
 10
614.3778295032259
 20
183.5508178875102
 10
614.392846509933
 20
183.5366816029031
 10
614.4078635166398
 20
183.5251200446871
 10
614.4228805233467
 20
183.516132890803
 10
614.4378975300535
 20
183.5097198191916
 10
614.4529145367603
 20
183.5058805077935
 10
614.4679315434672
 20
183.5046146345495
  0
LWPOLYLINE
  5
1AE
330
1F
100
AcDbEntity
  8
0
  6
CONTINUOUS
 62
     7
100
AcDbPolyline
 90
       33
 70
     0
 43
0.0
 10
-608.9875965099659
 20
240.1930003073064
 10
-609.0026056963252
 20
240.2730393113511
 10
-609.0176148826847
 20
240.3506170816575
 10
-609.0326240690441
 20
240.4257268167997
 10
-609.0476332554036
 20
240.4983617153515
 10
-609.0626424417629
 20
240.5685149758869
 10
-609.0776516281223
 20
240.63617979698
 10
-609.0926608144817
 20
240.7013493772047
 10
-609.1076700008413
 20
240.764016915135
 10
-609.1226791872006
 20
240.8241756093447
 10
-609.1376883735599
 20
240.881818658408
 10
-609.1526975599193
 20
240.9369392608986
 10
-609.1677067462788
 20
240.9895306153908
 10
-609.1827159326383
 20
241.0395859204583
 10
-609.1977251189975
 20
241.0870983746751
 10
-609.212734305357
 20
241.1320611766152
 10
-609.2277434917164
 20
241.1744675248526
 10
-609.2427526780757
 20
241.2143106179612
 10
-609.2577618644353
 20
241.251584162697
 10
-609.2727710507946
 20
241.286286120259
 10
-609.2877802371539
 20
241.3184165729556
 10
-609.3027894235136
 20
241.3479756186548
 10
-609.3177986098727
 20
241.3749633552237
 10
-609.3328077962324
 20
241.3993798805303
 10
-609.3478169825918
 20
241.4212252924417
 10
-609.3628261689512
 20
241.4404996888259
 10
-609.3778353553106
 20
241.4572031675501
 10
-609.3928445416699
 20
241.4713358264821
 10
-609.4078537280293
 20
241.4828977634893
 10
-609.4228629143886
 20
241.4918890764394
 10
-609.4378721007481
 20
241.4983098631999
 10
-609.4528812871076
 20
241.5021602216385
 10
-609.4678904734669
 20
241.5034402496224
210
0.0
220
0.0
230
-1.0
  0
LWPOLYLINE
  5
1AF
330
1F
100
AcDbEntity
  8
0
  6
CONTINUOUS
 62
     7
100
AcDbPolyline
 90
       33
 70
     0
 43
0.0
 10
-708.9876810549281
 20
240.1937406581656
 10
-709.0026984281059
 20
240.2738687698343
 10
-709.0177158012839
 20
240.3515218793394
 10
-709.0327331744614
 20
240.426690793735
 10
-709.0477505476393
 20
240.4993663200753
 10
-709.062767920817
 20
240.5695392654144
 10
-709.0777852939949
 20
240.6372004368064
 10
-709.0928026671727
 20
240.7023410369181
 10
-709.1078200403504
 20
240.764956281981
 10
-709.1228374135283
 20
240.82504372428
 10
-709.1378547867059
 20
240.8826009450856
 10
-709.1528721598838
 20
240.9376255256683
 10
-709.1678895330616
 20
240.9901150472986
 10
-709.1829069062395
 20
241.0400670912472
 10
-709.1979242794173
 20
241.0874792387845
 10
-709.2129416525951
 20
241.132349071181
 10
-709.2279590257729
 20
241.1746741697074
 10
-709.2429763989508
 20
241.2144521156342
 10
-709.2579937721285
 20
241.2516804902318
 10
-709.2730111453062
 20
241.2863568747709
 10
-709.288028518484
 20
241.318478850522
 10
-709.3030458916619
 20
241.3480439987557
 10
-709.3180632648396
 20
241.3750499007425
 10
-709.3330806380175
 20
241.3994941377528
 10
-709.3480980111954
 20
241.4213742910574
 10
-709.363115384373
 20
241.4406879419267
 10
-709.3781327575509
 20
241.4574326716312
 10
-709.3931501307286
 20
241.4716060614415
 10
-709.4081675039065
 20
241.4832056926282
 10
-709.4231848770843
 20
241.4922291464617
 10
-709.4382022502621
 20
241.4986740042128
 10
-709.4532196234397
 20
241.5025378471517
 10
-709.4682369966177
 20
241.5038182565492
210
0.0
220
0.0
230
-1.0
  0
LWPOLYLINE
  5
1B0
330
1F
100
AcDbEntity
  8
0
  6
CONTINUOUS
 62
     7
100
AcDbPolyline
 90
       33
 70
     0
 43
0.0
 10
-698.987625294338
 20
240.1935308407547
 10
-699.0026471078011
 20
240.2736839767559
 10
-699.017668921264
 20
240.3513560622227
 10
-699.0326907347269
 20
240.4265374820193
 10
-699.0477125481898
 20
240.4992186210098
 10
-699.0627343616527
 20
240.5693901663887
 10
-699.0777561751158
 20
240.63704660607
 10
-699.0927779885786
 20
240.7021850231247
 10
-699.1077998020415
 20
240.764802550784
 10
-699.1228216155046
 20
240.824896322279
 10
-699.1378434289675
 20
240.8824634708409
 10
-699.1528652424304
 20
240.937501129701
 10
-699.1678870558935
 20
240.9900064320904
 10
-699.1829088693563
 20
241.0399765112402
 10
-699.1979306828193
 20
241.0874085003819
 10
-699.2129524962822
 20
241.1322995327463
 10
-699.2279743097452
 20
241.1746467415648
 10
-699.242996123208
 20
241.2144472600685
 10
-699.2580179366712
 20
241.2516982214888
 10
-699.2730397501339
 20
241.2863967590565
 10
-699.2880615635968
 20
241.3185400060032
 10
-699.3030833770599
 20
241.3481250955598
 10
-699.3181051905228
 20
241.3751491609576
 10
-699.3331270039857
 20
241.3996093354278
 10
-699.3481488174488
 20
241.4215027522015
 10
-699.3631706309116
 20
241.44082654451
 10
-699.3781924443745
 20
241.4575778455845
 10
-699.3932142578376
 20
241.471753788656
 10
-699.4082360713005
 20
241.4833515069559
 10
-699.4232578847634
 20
241.4923681337152
 10
-699.4382796982262
 20
241.4988008021652
 10
-699.4533015116893
 20
241.5026466455371
 10
-699.4683233251526
 20
241.503902797062
210
0.0
220
0.0
230
-1.0
  0
LWPOLYLINE
  5
1B1
330
1F
100
AcDbEntity
  8
0
  6
CONTINUOUS
 62
     7
100
AcDbPolyline
 90
       33
 70
     0
 43
0.0
 10
703.9878997370123
 20
184.8130901110885
 10
704.002882642916
 20
184.7331816640144
 10
704.0178655488198
 20
184.6557391862129
 10
704.0328484547236
 20
184.5807720132813
 10
704.0478313606274
 20
184.5082894808172
 10
704.0628142665311
 20
184.4383009244181
 10
704.0777971724349
 20
184.3708153298695
 10
704.0927800783388
 20
184.3058377896351
 10
704.1077629842424
 20
184.2433709642472
 10
704.1227458901462
 20
184.1834174771479
 10
704.13772879605
 20
184.1259799517801
 10
704.1527117019539
 20
184.071061011586
 10
704.1676946078575
 20
184.0186632800083
 10
704.1826775137614
 20
183.9687893804894
 10
704.1976604196652
 20
183.9214419364718
 10
704.2126433255689
 20
183.8766235713979
 10
704.2276262314728
 20
183.8343369087105
 10
704.2426091373765
 20
183.7945845718518
 10
704.2575920432803
 20
183.7573691842644
 10
704.272574949184
 20
183.7226933693908
 10
704.2875578550879
 20
183.6905597506735
 10
704.3025407609915
 20
183.660970951555
 10
704.3175236668953
 20
183.6339295954778
 10
704.3325065727992
 20
183.6094383058844
 10
704.347489478703
 20
183.5874997062172
 10
704.3624723846067
 20
183.5681164199189
 10
704.3774552905106
 20
183.5512910704318
 10
704.3924381964141
 20
183.5370262811985
 10
704.407421102318
 20
183.5253246756615
 10
704.4224040082217
 20
183.5161888772632
 10
704.4373869141257
 20
183.5096215094462
 10
704.4523698200295
 20
183.5056251956531
 10
704.4673527259333
 20
183.5042025593261
  0
LWPOLYLINE
  5
1B2
330
1F
100
AcDbEntity
  8
0
  6
CONTINUOUS
 62
     7
100
AcDbPolyline
 90
       33
 70
     0
 43
0.0
 10
673.9873049461481
 20
184.8161625271882
 10
674.0023184596404
 20
184.7360588167003
 10
674.0173319731329
 20
184.6584381979866
 10
674.0323454866252
 20
184.5833046414186
 10
674.0473590001177
 20
184.5106621173684
 10
674.06237251361
 20
184.4405145962075
 10
674.0773860271025
 20
184.3728660483078
 10
674.0923995405948
 20
184.307720444041
 10
674.1074130540873
 20
184.245081753779
 10
674.1224265675796
 20
184.1849539478935
 10
674.137440081072
 20
184.1273409967562
 10
674.1524535945643
 20
184.072246870739
 10
674.1674671080568
 20
184.0196755402136
 10
674.1824806215492
 20
183.9696309755518
 10
674.1974941350416
 20
183.9221171471253
 10
674.2125076485339
 20
183.877138025306
 10
674.2275211620263
 20
183.8346975804655
 10
674.2425346755188
 20
183.7947997829758
 10
674.2575481890112
 20
183.7574486032085
 10
674.2725617025035
 20
183.7226480115354
 10
674.287575215996
 20
183.6904019783283
 10
674.3025887294882
 20
183.660714473959
 10
674.3176022429807
 20
183.6335894687992
 10
674.3326157564732
 20
183.6090309332207
 10
674.3476292699654
 20
183.5870428375953
 10
674.3626427834579
 20
183.5676291522948
 10
674.3776562969504
 20
183.5507938476909
 10
674.3926698104426
 20
183.5365408941554
 10
674.4076833239351
 20
183.5248742620601
 10
674.4226968374273
 20
183.5157979217767
 10
674.4377103509198
 20
183.509315841873
 10
674.4527238644123
 20
183.505430384079
 10
674.4677373779049
 20
183.5041393506484
  0
LWPOLYLINE
  5
1B3
330
1F
100
AcDbEntity
  8
0
  6
CONTINUOUS
 62
     7
100
AcDbPolyline
 90
        4
 70
     0
 43
0.0
 10
709.3236599573585
 20
239.272902492481
 10
709.2573861367028
 20
239.3964653588733
 10
709.1892041158827
 20
239.4747916699853
 10
709.115269641685
 20
239.5040313958152
  0
LWPOLYLINE
  5
1B4
330
1F
100
AcDbEntity
  8
0
  6
CONTINUOUS
 62
     7
100
AcDbPolyline
 90
        4
 70
     0
 43
0.0
 10
659.3673420190263
 20
239.1659913147366
 10
659.3010728094608
 20
239.3202611549146
 10
659.2348372037085
 20
239.4279492249904
 10
659.1152718354863
 20
239.5040313957933
  0
LWPOLYLINE
  5
1B5
330
1F
100
AcDbEntity
  8
0
  6
CONTINUOUS
 62
     7
100
AcDbPolyline
 90
        4
 70
     0
 43
0.0
 10
679.3351429142562
 20
239.2468259275121
 10
679.2688303989252
 20
239.3783619470067
 10
679.2025034962153
 20
239.4634090581532
 10
679.1152516111956
 20
239.5040313958046
  0
LWPOLYLINE
  5
1B6
330
1F
100
AcDbEntity
  8
0
  6
CONTINUOUS
 62
     7
100
AcDbPolyline
 90
        4
 70
     0
 43
0.0
 10
729.3577246788117
 20
239.1913302157034
 10
729.2913970106225
 20
239.3387176355585
 10
729.2250830363183
 20
239.439684731143
 10
729.1152978783728
 20
239.5040313958195
  0
LWPOLYLINE
  5
1B7
330
1F
100
AcDbEntity
  8
0
  6
CONTINUOUS
 62
     7
100
AcDbPolyline
 90
        4
 70
     0
 43
0.0
 10
699.3710202980304
 20
239.1562326929562
 10
699.3028415833481
 20
239.3168237746774
 10
699.2365721450752
 20
239.4255796079394
 10
699.1152514844107
 20
239.5040313958019
  0
LWPOLYLINE
  5
1B8
330
1F
100
AcDbEntity
  8
0
  6
CONTINUOUS
 62
     7
100
AcDbPolyline
 90
       33
 70
     0
 43
0.0
 10
-728.9878661811744
 20
240.1945615002178
 10
-729.0028643181333
 20
240.2745511836355
 10
-729.0178624550922
 20
240.3520789631808
 10
-729.0328605920512
 20
240.4271365144386
 10
-729.04785872901
 20
240.499715512994
 10
-729.0628568659689
 20
240.5698076344319
 10
-729.0778550029278
 20
240.6374045543372
 10
-729.0928531398869
 20
240.7024979482949
 10
-729.1078512768458
 20
240.7650794918899
 10
-729.1228494138045
 20
240.8251408607073
 10
-729.1378475507636
 20
240.8826737303319
 10
-729.1528456877224
 20
240.9376703986586
 10
-729.1678438246813
 20
240.9901274966903
 10
-729.1828419616403
 20
241.0400434980754
 10
-729.1978400985993
 20
241.0874168832233
 10
-729.2128382355581
 20
241.1322461325432
 10
-729.227836372517
 20
241.1745297264443
 10
-729.242834509476
 20
241.2142661453361
 10
-729.2578326464351
 20
241.2514538696279
 10
-729.2728307833938
 20
241.2860913797288
 10
-729.2878289203527
 20
241.3181771560483
 10
-729.3028270573116
 20
241.3477096789957
 10
-729.3178251942707
 20
241.3746874289803
 10
-729.3328233312295
 20
241.3991088864114
 10
-729.3478214681884
 20
241.4209725316982
 10
-729.3628196051473
 20
241.4402768452501
 10
-729.3778177421061
 20
241.4570203074764
 10
-729.392815879065
 20
241.4712013987864
 10
-729.4078140160241
 20
241.4828185995895
 10
-729.4228121529829
 20
241.4918703902949
 10
-729.4378102899418
 20
241.498355251312
 10
-729.4528084269006
 20
241.50227166305
 10
-729.4678065638598
 20
241.5036181059182
210
0.0
220
0.0
230
-1.0
  0
LWPOLYLINE
  5
1B9
330
1F
100
AcDbEntity
  8
0
  6
CONTINUOUS
 62
     7
100
AcDbPolyline
 90
       33
 70
     0
 43
0.0
 10
-648.9872702870063
 20
240.1915374296167
 10
-649.0022962188207
 20
240.2716791218301
 10
-649.0173221506352
 20
240.3493458945972
 10
-649.0323480824497
 20
240.4245326649393
 10
-649.0473740142643
 20
240.4972343498779
 10
-649.0623999460789
 20
240.5674458664343
 10
-649.0774258778933
 20
240.6351621316298
 10
-649.0924518097077
 20
240.7003780624858
 10
-649.1074777415222
 20
240.7630885760235
 10
-649.1225036733367
 20
240.8232885892645
 10
-649.1375296051513
 20
240.88097301923
 10
-649.1525555369658
 20
240.9361367829414
 10
-649.1675814687803
 20
240.9887747974201
 10
-649.1826074005947
 20
241.0388819796872
 10
-649.1976333324094
 20
241.0864532467644
 10
-649.2126592642238
 20
241.1314835156727
 10
-649.2276851960381
 20
241.1739677034338
 10
-649.2427111278528
 20
241.2139007270688
 10
-649.2577370596672
 20
241.2512775035991
 10
-649.2727629914818
 20
241.2860929500462
 10
-649.2877889232964
 20
241.3183419834313
 10
-649.3028148551107
 20
241.3480195207756
 10
-649.3178407869252
 20
241.3751204791008
 10
-649.3328667187398
 20
241.3996397754281
 10
-649.3478926505543
 20
241.4215723267787
 10
-649.3629185823686
 20
241.4409130501742
 10
-649.3779445141832
 20
241.457657998901
 10
-649.3929704459978
 20
241.4718078757582
 10
-649.4079963778121
 20
241.4833645726336
 10
-649.4230223096267
 20
241.4923299814151
 10
-649.4380482414412
 20
241.4987059939909
 10
-649.4530741732556
 20
241.502494502249
 10
-649.46810010507
 20
241.5036973980777
210
0.0
220
0.0
230
-1.0
  0
LWPOLYLINE
  5
1BA
330
1F
100
AcDbEntity
  8
0
  6
CONTINUOUS
 62
     7
100
AcDbPolyline
 90
       33
 70
     0
 43
0.0
 10
-638.9872464783301
 20
240.1913103807389
 10
-639.0022545903583
 20
240.2713645478802
 10
-639.0172627023865
 20
240.3489530470666
 10
-639.0322708144146
 20
240.4240703767007
 10
-639.0472789264427
 20
240.4967110351851
 10
-639.0622870384707
 20
240.5668695209225
 10
-639.0772951504989
 20
240.6345403323154
 10
-639.092303262527
 20
240.6997179677665
 10
-639.1073113745553
 20
240.7623969256785
 10
-639.1223194865834
 20
240.8225717044538
 10
-639.1373275986115
 20
240.8802368024951
 10
-639.1523357106395
 20
240.9353867182052
 10
-639.1673438226676
 20
240.9880159499864
 10
-639.1823519346959
 20
241.0381189962416
 10
-639.1973600467239
 20
241.0856903553733
 10
-639.212368158752
 20
241.130724525784
 10
-639.2273762707805
 20
241.1732160058766
 10
-639.2423843828083
 20
241.2131592940534
 10
-639.2573924948365
 20
241.2505488887171
 10
-639.2724006068647
 20
241.2853792882705
 10
-639.2874087188928
 20
241.3176449911161
 10
-639.302416830921
 20
241.3473404956565
 10
-639.3174249429491
 20
241.3744603002942
 10
-639.3324330549773
 20
241.3989989034321
 10
-639.3474411670054
 20
241.4209516612991
 10
-639.3624492790335
 20
241.4403184976487
 10
-639.3774573910616
 20
241.4571008504044
 10
-639.3924655030897
 20
241.4713001584768
 10
-639.4074736151179
 20
241.4829178607764
 10
-639.4224817271461
 20
241.4919553962141
 10
-639.4374898391741
 20
241.4984142037002
 10
-639.4524979512021
 20
241.5022957221454
 10
-639.4675060632302
 20
241.5036013904606
210
0.0
220
0.0
230
-1.0
  0
LWPOLYLINE
  5
1BB
330
1F
100
AcDbEntity
  8
0
  6
CONTINUOUS
 62
     7
100
AcDbPolyline
 90
      369
 70
     0
 43
0.0
 10
-452.9500202790916
 20
235.9639835836423
 10
-453.7403871142713
 20
236.5185208066693
 10
-454.5487205460499
 20
237.0465028571444
 10
-455.3741561527509
 20
237.5472924182521
 10
-456.215829512699
 20
238.020252173177
 10
-457.0728582208982
 20
238.4647783512351
 10
-457.9442645164481
 20
238.8804450589012
 10
-458.8290391533932
 20
239.2668851349544
 10
-459.726172866054
 20
239.623731454969
 10
-460.6346563887495
 20
239.950616894519
 10
-461.5534804557998
 20
240.2471743291787
 10
-462.4816358015246
 20
240.5130366345223
 10
-463.4181131602439
 20
240.7478366861239
 10
-464.3619029746678
 20
240.95120875744
 10
-465.3119737461325
 20
241.1228923018632
 10
-466.2672571301439
 20
241.2628033999191
 10
-467.2266812562554
 20
241.3708750344232
 10
-468.1891742540205
 20
241.4470401881908
 10
-469.1536642529925
 20
241.4912318440373
 10
-470.1190793827249
 20
241.5033829847781
 10
-471.084347772771
 20
241.4834265932284
 10
-472.0483975526842
 20
241.4312956522035
 10
-473.0101582686701
 20
241.3469406448273
 10
-473.9685740700734
 20
241.2304924509875
 10
-474.9225977113842
 20
241.0821882523935
 10
-475.8711820579287
 20
240.9022665999457
 10
-476.8132799750327
 20
240.690966044544
 10
-477.7478443280225
 20
240.4485251370891
 10
-478.6738279822241
 20
240.175182428481
 10
-479.5901838029636
 20
239.8711764696199
 10
-480.4958646725089
 20
239.5367458554501
 10
-481.3898476467763
 20
239.1721920262607
 10
-482.2711821625383
 20
238.7780045941726
 10
-483.1389311458569
 20
238.3547082400344
 10
-483.9921575227948
 20
237.9028276446946
 10
-484.8299242194143
 20
237.4228874890017
 10
-485.6512941617777
 20
236.9154124538042
 10
-486.4553302759477
 20
236.3809272199507
 10
-487.2410954879864
 20
235.8199564682895
 10
-488.0076564773058
 20
235.2330297798424
 10
-488.754168587717
 20
234.6207924911443
 10
-489.4798771457385
 20
233.9840074153573
 10
-490.1840314949184
 20
233.3234426100628
 10
-490.8658809788045
 20
232.6398661328421
 10
-491.5246749409445
 20
231.9340460412764
 10
-492.1596627248865
 20
231.2067503929472
 10
-492.7700936741785
 20
230.4587472454357
 10
-493.3552171323683
 20
229.6908046563233
 10
-493.9143116605234
 20
228.9037120185565
 10
-494.4468181094289
 20
228.0983772331012
 10
-494.952233353784
 20
227.2757491109899
 10
-495.4300543212856
 20
226.4367765019552
 10
-495.879777939631
 20
225.5824082557299
 10
-496.3009011365172
 20
224.7135932220467
 10
-496.6929208396413
 20
223.8312802506385
 10
-497.0553339767005
 20
222.936418191238
 10
-497.3876386273916
 20
222.0299563066542
 10
-497.6894310929921
 20
221.1128790793306
 10
-497.9604795366414
 20
220.1862326167813
 10
-498.2005694626457
 20
219.2510692446001
 10
-498.4094863753111
 20
218.3084412883802
 10
-498.5870157789435
 20
217.359401073715
 10
-498.7329431778488
 20
216.4050009261981
 10
-498.8470540763333
 20
215.4462931714229
 10
-498.9291339787032
 20
214.4843301349827
 10
-498.9789848000275
 20
213.5201650930487
 10
-498.9965869382175
 20
212.5548616602382
 10
-498.9820303611371
 20
211.5894897979027
 10
-498.9354066277178
 20
210.6251195595545
 10
-498.8568072968914
 20
209.6628209987059
 10
-498.7463239275896
 20
208.7036641688694
 10
-498.6040480787439
 20
207.7487191235572
 10
-498.4300713092861
 20
206.7990559162819
 10
-498.2244852057609
 20
205.8557445941317
 10
-497.9874443138189
 20
204.9198405574614
 10
-497.7193003084063
 20
203.9923533466927
 10
-497.4204433424716
 20
203.0742835507693
 10
-497.0912635689628
 20
202.166631758635
 10
-496.732151140828
 20
201.2703985592335
 10
-496.3434962110153
 20
200.3865845415087
 10
-495.925688932473
 20
199.5161902944041
 10
-495.4791194581489
 20
198.6602164068638
 10
-495.0041828320227
 20
197.8196606997559
 10
-494.5013984331726
 20
196.9954506265931
 10
-493.971416933401
 20
196.1884393358696
 10
-493.4148952883597
 20
195.39947641974
 10
-492.8324904537004
 20
194.6294114703589
 10
-492.2248593850744
 20
193.8790940798807
 10
-491.5926590381336
 20
193.1493738404601
 10
-490.9365463685298
 20
192.4411003442515
 10
-490.2571783319145
 20
191.7551231834094
 10
-489.5552357853912
 20
191.0922672692997
 10
-488.8315386951309
 20
190.4532138683946
 10
-488.0869572203356
 20
189.8385924175282
 10
-487.3223615878345
 20
189.2490322837023
 10
-486.5386220244564
 20
188.685162833919
 10
-485.736608757031
 20
188.1476134351802
 10
-484.9171920123871
 20
187.6370134544879
 10
-484.0812420173539
 20
187.153992258844
 10
-483.2296294817607
 20
186.6991782940829
 10
-482.3632721357313
 20
186.2731103299404
 10
-481.4831734523902
 20
185.8761636089379
 10
-480.59034601998
 20
185.5086959894387
 10
-479.6858024267432
 20
185.1710653298062
 10
-478.7705552609228
 20
184.8636294884035
 10
-477.8456171107611
 20
184.5867463235938
 10
-476.9120005645009
 20
184.3407736937404
 10
-475.9707182103849
 20
184.1260694572066
 10
-475.0227856368838
 20
183.9429764004717
 10
-474.0692528911464
 20
183.7916642041132
 10
-473.1111920543853
 20
183.672191858841
 10
-472.1496755662824
 20
183.5846165545661
 10
-471.1857758665197
 20
183.5289954811994
 10
-470.2205653947792
 20
183.5053858286518
 10
-469.2551165907427
 20
183.5138447868344
 10
-468.290501894092
 20
183.554429545658
 10
-467.3277937431316
 20
183.6271972797553
 10
-466.3680590074188
 20
183.7321434144473
 10
-465.4123463188517
 20
183.8690611458909
 10
-464.4617005816287
 20
184.037702335469
 10
-463.5171666999482
 20
184.2378188445643
 10
-462.5797895780088
 20
184.4691625345597
 10
-461.6506141200089
 20
184.731485266838
 10
-460.7306852301468
 20
185.0245389027818
 10
-459.8210478126212
 20
185.3480753037742
 10
-458.9227448965673
 20
185.7018415867549
 10
-458.036768094275
 20
186.0854547694265
 10
-457.1640525244734
 20
186.4983889247199
 10
-456.3055304126623
 20
186.9401108048744
 10
-455.4621339843417
 20
187.4100871621288
 10
-454.6347954650115
 20
187.9077847487222
 10
-453.8244470801715
 20
188.4326703168935
 10
-453.0320210553219
 20
188.984210618882
 10
-452.2584496159624
 20
189.5618724069265
 10
-451.5046449287669
 20
190.1650967368955
 10
-450.7713967973882
 20
190.7931679114411
 10
-450.0594488916115
 20
191.4453111333983
 10
-449.3695447965604
 20
192.1207514971462
 10
-448.7024280973583
 20
192.8187140970637
 10
-448.0588423791285
 20
193.5384240275297
 10
-447.4395312269945
 20
194.2791063829231
 10
-446.8452382260798
 20
195.0399862576231
 10
-446.276706249524
 20
195.8202882360396
 10
-445.7345983536563
 20
196.6191797326127
 10
-445.2194258734002
 20
197.435719489083
 10
-444.7316831630403
 20
198.2689540845579
 10
-444.2718645768618
 20
199.117930098145
 10
-443.8404644691497
 20
199.9816941089519
 10
-443.4379771941889
 20
200.8592926960859
 10
-443.0648971062644
 20
201.7497724386547
 10
-442.7217185596614
 20
202.6521799157659
 10
-442.4089223622092
 20
203.5655569888038
 10
-442.1268248590644
 20
204.4888882429654
 10
-441.8756328765987
 20
205.4211201221573
 10
-441.65555125618
 20
206.3611983789839
 10
-441.4667848391761
 20
207.3080687660495
 10
-441.3095384669547
 20
208.2606770359583
 10
-441.1840169808837
 20
209.2179689413148
 10
-441.0904252223309
 20
210.1788902347231
 10
-441.0289680255917
 20
211.142386668443
 10
-440.9997908792425
 20
212.1074011026948
 10
-441.0028359344745
 20
213.0728664886488
 10
-441.038001828397
 20
214.0377136569445
 10
-441.1051871981191
 20
215.000873438221
 10
-441.2042906807505
 20
215.9612766631181
 10
-441.3352109134001
 20
216.9178541622749
 10
-441.4978465331774
 20
217.8695367663308
 10
-441.6920961771918
 20
218.8152553059252
 10
-441.9178539964196
 20
219.7539416987848
 10
-442.1748811041104
 20
220.6845601005607
 10
-442.4627865127724
 20
221.6061115242107
 10
-442.7811709147335
 20
222.5175989988524
 10
-443.1296350023218
 20
223.4180255536032
 10
-443.5077794678653
 20
224.3063942175808
 10
-443.9152050036918
 20
225.1817080199028
 10
-444.3515123021296
 20
226.0429699896868
 10
-444.8163020555065
 20
226.8891831560503
 10
-445.3091482041707
 20
227.719366013814
 10
-445.8294535841667
 20
228.5326359756511
 10
-446.3765536429345
 20
229.3281494125527
 10
-446.9497836652997
 20
230.1050627895203
 10
-447.5484789360873
 20
230.8625325715553
 10
-448.1719747401229
 20
231.5997152236594
 10
-448.8196063622314
 20
232.3157672108336
 10
-449.4907090872384
 20
233.0098449980798
 10
-450.1846176971372
 20
233.6811055792407
 10
-450.9006014314872
 20
234.3287748809026
 10
-451.6377996271634
 20
234.9522154518014
 10
-452.3953363252935
 20
235.550805927623
 10
-453.1723355670046
 20
236.1239249440534
 10
-453.9679213934241
 20
236.6709511367787
 10
-454.7812178456796
 20
237.1912631414849
 10
-455.6113489648983
 20
237.6842395938576
 10
-456.4574387922074
 20
238.1492591295832
 10
-457.3186052698943
 20
238.585712279776
 10
-458.1938879905243
 20
238.9931423920686
 10
-459.0822722197816
 20
239.3711987754742
 10
-459.9827421319311
 20
239.7195328677567
 10
-460.8942819012372
 20
240.0377961066798
 10
-461.8158757019644
 20
240.3256399300073
 10
-462.7465077083775
 20
240.582715775503
 10
-463.6851620947409
 20
240.8086750809307
 10
-464.6308230348549
 20
241.0031692865027
 10
-465.5824641072808
 20
241.1659057294429
 10
-466.5390209033483
 20
241.2967921551596
 10
-467.4994205042379
 20
241.3957812058203
 10
-468.4625899911304
 20
241.4628255235923
 10
-469.4274564452064
 20
241.4978777506429
 10
-470.3929469476464
 20
241.5008905291397
 10
-471.3579885796312
 20
241.4718165012497
 10
-472.3215084223414
 20
241.4106083091406
 10
-473.2824339687834
 20
241.3172227367909
 10
-474.2397059565815
 20
241.1917497717086
 10
-475.1922808806727
 20
241.0344378755816
 10
-476.1391161551189
 20
240.8455447538975
 10
-477.0791691939812
 20
240.6253281121437
 10
-478.0113974113216
 20
240.3740456558076
 10
-478.9347582212013
 20
240.0919550903768
 10
-479.8482090376822
 20
239.7793141213389
 10
-480.7507072748258
 20
239.4363804541813
 10
-481.6412213512875
 20
239.0634389094001
 10
-482.5187935107098
 20
238.6609562101704
 10
-483.3824963606991
 20
238.229473895617
 10
-484.2314026025112
 20
237.7695337356142
 10
-485.0645849374023
 20
237.2816775000362
 10
-485.8811160666284
 20
236.766446958757
 10
-486.6800686914451
 20
236.224383881651
 10
-487.4605155131087
 20
235.6560300385922
 10
-488.2215296069542
 20
235.0619276697186
 10
-488.9622413691548
 20
234.4426910745131
 10
-489.6818996800011
 20
233.7990835015709
 10
-490.3797680881686
 20
233.1318866394513
 10
-491.0551101423328
 20
232.4418821767138
 10
-491.7071893911688
 20
231.7298518019174
 10
-492.3352693833519
 20
230.9965772036216
 10
-492.9386136675577
 20
230.2428400703856
 10
-493.5164857924615
 20
229.4694220907687
 10
-494.0681594831669
 20
228.6771121021349
 10
-494.5930469546196
 20
227.866796229107
 10
-495.0906603961168
 20
227.039430826951
 10
-495.5605142129232
 20
226.1959738076201
 10
-496.0021228103034
 20
225.3373830830678
 10
-496.4150005935221
 20
224.4646165652472
 10
-496.7986619678436
 20
223.5786321661118
 10
-497.1526213385331
 20
222.6803877976147
 10
-497.4763931113242
 20
221.770841371868
 10
-497.7695432574208
 20
220.8509682310105
 10
-498.0318312339614
 20
219.9218091187965
 10
-498.2630618711137
 20
218.9844201158547
 10
-498.4630399990449
 20
218.0398573028134
 10
-498.6315704479225
 20
217.089176760301
 10
-498.7684580479141
 20
216.133434568946
 10
-498.873507629187
 20
215.1736868093769
 10
-498.9465240219089
 20
214.210989562222
 10
-498.9873157925825
 20
213.2463990558757
 10
-498.9958222169802
 20
212.2809766880608
 10
-498.9721444033157
 20
211.3157902566982
 10
-498.9163935099227
 20
210.3519079571734
 10
-498.8286806951353
 20
209.3903979848722
 10
-498.7091171172877
 20
208.4323285351803
 10
-498.5578139347136
 20
207.4787678034834
 10
-498.3748823057473
 20
206.5307839851673
 10
-498.1604333887225
 20
205.5894452756177
 10
-497.9146051866257
 20
204.6558131040899
 10
-497.6377246725727
 20
203.7309012703701
 10
-497.3301999629339
 20
202.8157031222814
 10
-496.9924394865583
 20
201.9112119288872
 10
-496.624851672295
 20
201.018420959251
 10
-496.2278449489934
 20
200.1383234824362
 10
-495.8018277455024
 20
199.2719127675065
 10
-495.3472084906714
 20
198.4201820835252
 10
-494.8643960337478
 20
197.584124451349
 10
-494.3538759136807
 20
196.7646876135403
 10
-493.8162990370003
 20
195.9627216781449
 10
-493.2523378225604
 20
195.1790640521385
 10
-492.6626646892146
 20
194.4145521424964
 10
-492.0479520558168
 20
193.6700233561939
 10
-491.4088723412204
 20
192.9463151002066
 10
-490.7460979642793
 20
192.2442647815099
 10
-490.0603013438472
 20
191.5647098070791
 10
-489.3521627799752
 20
190.9084791413948
 10
-488.6224763264645
 20
190.2762798936641
 10
-487.8721215189381
 20
189.6687276032718
 10
-487.1019799747206
 20
189.0864355796417
 10
-486.3129333111376
 20
188.5300171321978
 10
-485.5058631455138
 20
188.0000855703641
 10
-484.6816510951742
 20
187.4972542035646
 10
-483.841178777444
 20
187.0221363412233
 10
-482.9853278096532
 20
186.5753452927536
 10
-482.1150031249751
 20
186.1574478459652
 10
-481.2312012251727
 20
185.7688280838137
 10
-480.3349410881327
 20
185.4098252431248
 10
-479.4272416917416
 20
185.0807785607242
 10
-478.5091220138858
 20
184.7820272734378
 10
-477.5816010324522
 20
184.5139106180914
 10
-476.6456977253271
 20
184.2767678315106
 10
-475.7024310703973
 20
184.0709381505212
 10
-474.7528206385188
 20
183.8967575189607
 10
-473.7979086394247
 20
183.7544361582583
 10
-472.8387664549347
 20
183.6440222860047
 10
-471.8764673928675
 20
183.5655534239756
 10
-470.9120847610416
 20
183.5190670939467
 10
-469.9466918672759
 20
183.5046008176936
 10
-468.9813620193889
 20
183.5221921169921
 10
-468.0171685251995
 20
183.5718785136178
 10
-467.0551846925262
 20
183.6536975293464
 10
-466.0964810019853
 20
183.7676606759162
 10
-465.1421070413163
 20
183.9135872522598
 10
-464.1931030347593
 20
184.0912104138592
 10
-463.2505091624025
 20
184.3002629100068
 10
-462.3153656043348
 20
184.5404774899952
 10
-461.3887125406449
 20
184.8115869031172
 10
-460.471590151421
 20
185.113323898665
 10
-459.5650386167519
 20
185.4454212259314
 10
-458.670097966544
 20
185.8076112736835
 10
-457.7877751354279
 20
186.1995469825559
 10
-456.919002591214
 20
186.6207025290055
 10
-456.0647026279862
 20
187.0705276665601
 10
-455.2257975398281
 20
187.5484721487474
 10
-454.4032096208242
 20
188.0539857290955
 10
-453.5978611650578
 20
188.586518161132
 10
-452.810674466613
 20
189.1455191983847
 10
-452.0425718195739
 20
189.7304385943816
 10
-451.294468776958
 20
190.3407177859235
 10
-450.5671775659118
 20
190.9756707324844
 10
-449.8614295961166
 20
191.6345116857479
 10
-449.1779541232273
 20
192.3164522398874
 10
-448.517480402899
 20
193.0207039890769
 10
-447.8807376907866
 20
193.7464785274901
 10
-447.2684552425453
 20
194.4929874493005
 10
-446.6813623138299
 20
195.2594423486819
 10
-446.1201881602955
 20
196.0450548198081
 10
-445.5856210988217
 20
196.8490082547553
 10
-445.0781811595825
 20
197.6703701154572
 10
-444.5983451369997
 20
198.5081780793977
 10
-444.1465898254631
 20
199.3614698240389
 10
-443.7233920193626
 20
200.2292830268429
 10
-443.3292285130881
 20
201.1106553652716
 10
-442.9645761010297
 20
202.0046245167873
 10
-442.6299115775774
 20
202.9102281588519
 10
-442.3257089042316
 20
203.8265030402056
 10
-442.0523235832461
 20
204.7524470744322
 10
-441.8099522333667
 20
205.6870060874483
 10
-441.5987803364943
 20
206.6291222541162
 10
-441.4189933745294
 20
207.5777377492983
 10
-441.2707768293726
 20
208.5317947478569
 10
-441.1543161829247
 20
209.4902354246545
 10
-441.069796917086
 20
210.4520019545533
 10
-441.0174045137575
 20
211.4160365124156
 10
-440.9972997672059
 20
212.3812805233112
 10
-441.0094518496096
 20
213.3466695925191
 10
-441.0537403253925
 20
214.3111366038247
 10
-441.1300442501165
 20
215.2736144255583
 10
-441.2382426793425
 20
216.2330359260507
 10
-441.378214668632
 20
217.1883339736322
 10
-441.5498392735462
 20
218.1384414366333
 10
-441.7529955496465
 20
219.0822911833846
 10
-441.9875622556181
 20
220.0188161599442
 10
-442.2533377580785
 20
220.9469703605077
 10
-442.5499316181079
 20
221.8657572120694
 10
-442.8769263199927
 20
222.7741872308315
 10
-443.2339043480196
 20
223.671270932996
 10
-443.620448186475
 20
224.556018834765
 10
-444.0361403196455
 20
225.4274414523405
 10
-444.4805632318178
 20
226.2845493019247
 10
-444.9532994072784
 20
227.1263528997196
 10
-445.4539228484061
 20
227.95186787514
 10
-445.9818693037231
 20
228.7601932022173
 10
-446.5364619786229
 20
229.5504957002261
210
0.0
220
0.0
230
-1.0
  0
LWPOLYLINE
  5
1BC
330
1F
100
AcDbEntity
  8
0
  6
CONTINUOUS
 62
     7
100
AcDbPolyline
 90
       33
 70
     0
 43
0.0
 10
653.9874763313343
 20
184.8153621052912
 10
654.0024771773382
 20
184.7353842490689
 10
654.017478023342
 20
184.6578751230733
 10
654.032478869346
 20
184.582839566197
 10
654.04747971535
 20
184.5102824173325
 10
654.0624805613538
 20
184.4402085153728
 10
654.0774814073578
 20
184.3726226992104
 10
654.0924822533616
 20
184.307529807738
 10
654.1074830993655
 20
184.2449346798483
 10
654.1224839453695
 20
184.1848421544341
 10
654.1374847913734
 20
184.127257070388
 10
654.1524856373773
 20
184.0721842666027
 10
654.1674864833811
 20
184.019628581971
 10
654.1824873293851
 20
183.9695948553854
 10
654.197488175389
 20
183.9220879257387
 10
654.2124890213929
 20
183.8771126319236
 10
654.2274898673967
 20
183.8346738128327
 10
654.2424907134007
 20
183.7947763073589
 10
654.2574915594046
 20
183.7574249543947
 10
654.2724924054085
 20
183.7226245928329
 10
654.2874932514125
 20
183.6903800615661
 10
654.3024940974162
 20
183.6606961994871
 10
654.3174949434203
 20
183.6335778454885
 10
654.3324957894242
 20
183.6090298384631
 10
654.3474966354281
 20
183.5870570173034
 10
654.362497481432
 20
183.5676642209023
 10
654.3774983274359
 20
183.5508562881525
 10
654.3924991734397
 20
183.536636928626
 10
654.4075000194437
 20
183.5250052230879
 10
654.4225008654475
 20
183.5159590665349
 10
654.4375017114514
 20
183.5094963539631
 10
654.4525025574554
 20
183.5056149803688
 10
654.4675034034592
 20
183.5043128407479
  0
LWPOLYLINE
  5
1BD
330
1F
100
AcDbEntity
  8
0
  6
CONTINUOUS
 62
     7
100
AcDbPolyline
 90
        4
 70
     0
 43
0.0
 10
689.3559784635792
 20
239.1959779662018
 10
689.2877962297122
 20
239.345533231659
 10
689.2195324046104
 20
239.4459480038785
 10
689.1152465079969
 20
239.5040313958401
  0
LWPOLYLINE
  5
1BE
330
1F
100
AcDbEntity
  8
0
  6
CONTINUOUS
 62
     7
100
AcDbPolyline
 90
       33
 70
     0
 43
0.0
 10
603.9874855478399
 20
184.8156738925516
 10
604.0025237569743
 20
184.735456034562
 10
604.0175619661086
 20
184.6577088236973
 10
604.0326001752428
 20
184.5824393167088
 10
604.0476383843769
 20
184.5096545703481
 10
604.0626765935111
 20
184.4393616413666
 10
604.0777148026453
 20
184.3715675865155
 10
604.0927530117796
 20
184.3062794625465
 10
604.1077912209139
 20
184.2435043262109
 10
604.1228294300481
 20
184.1832492342601
 10
604.1378676391823
 20
184.1255212434456
 10
604.1529058483165
 20
184.0703274105188
 10
604.1679440574508
 20
184.017674792231
 10
604.182982266585
 20
183.9675704453338
 10
604.1980204757192
 20
183.9200214265786
 10
604.2130586848534
 20
183.8750347927168
 10
604.2280968939878
 20
183.8326176004998
 10
604.243135103122
 20
183.7927764043299
 10
604.2581733122562
 20
183.7555134961852
 10
604.2732115213902
 20
183.7208290190667
 10
604.2882497305246
 20
183.6887230995352
 10
604.3032879396588
 20
183.6591958641515
 10
604.3183261487931
 20
183.6322474394765
 10
604.3333643579273
 20
183.6078779520711
 10
604.3484025670614
 20
183.5860875284961
 10
604.3634407761957
 20
183.5668762953124
 10
604.37847898533
 20
183.5502443790808
 10
604.3935171944642
 20
183.5361919063621
 10
604.4085554035983
 20
183.5247190037172
 10
604.4235936127327
 20
183.515825797707
 10
604.4386318218668
 20
183.5095124148923
 10
604.4536700310011
 20
183.505778981834
 10
604.4687082401352
 20
183.5046256250929
  0
LWPOLYLINE
  5
1BF
330
1F
100
AcDbEntity
  8
0
  6
CONTINUOUS
 62
     7
100
AcDbPolyline
 90
       33
 70
     0
 43
0.0
 10
713.9878046833129
 20
184.8137007513194
 10
714.0028089846973
 20
184.7336609040809
 10
714.0178132860816
 20
184.6560898066595
 10
714.0328175874658
 20
184.5809964205587
 10
714.0478218888501
 20
184.5083897072819
 10
714.0628261902342
 20
184.4382786283323
 10
714.0778304916189
 20
184.3706721452136
 10
714.092834793003
 20
184.305579219429
 10
714.1078390943873
 20
184.2430083634313
 10
714.1228433957715
 20
184.1829639863694
 10
714.1378476971558
 20
184.1254482990638
 10
714.15285199854
 20
184.0704634914522
 10
714.1678562999244
 20
184.0180117534723
 10
714.1828606013087
 20
183.9680952750617
 10
714.1978649026929
 20
183.9207162461582
 10
714.2128692040773
 20
183.8758768566993
 10
714.2278735054616
 20
183.8335792966229
 10
714.2428778068459
 20
183.7938257558667
 10
714.25788210823
 20
183.7566184243681
 10
714.2728864096143
 20
183.721959492065
 10
714.2878907109986
 20
183.6898511488951
 10
714.3028950123828
 20
183.6602955847961
 10
714.3178993137673
 20
183.6332949897056
 10
714.3329036151515
 20
183.6088515535614
 10
714.3479079165359
 20
183.586967466301
 10
714.36291221792
 20
183.5676449178621
 10
714.3779165193042
 20
183.5508860981826
 10
714.3929208206887
 20
183.5366931972001
 10
714.407925122073
 20
183.5250684048523
 10
714.4229294234572
 20
183.5160139110767
 10
714.4379337248416
 20
183.5095319058112
 10
714.4529380262258
 20
183.5056245789934
 10
714.4679423276101
 20
183.504294120561
  0
LWPOLYLINE
  5
1C0
330
1F
100
AcDbEntity
  8
0
  6
CONTINUOUS
 62
     7
100
AcDbPolyline
 90
       33
 70
     0
 43
0.0
 10
663.9873132256688
 20
184.8161638701929
 10
664.0023199815497
 20
184.7361178438079
 10
664.0173267374308
 20
184.658547119506
 10
664.0323334933119
 20
184.5834561028407
 10
664.0473402491928
 20
184.5108491993659
 10
664.0623470050739
 20
184.4407308146353
 10
664.0773537609548
 20
184.3731053542026
 10
664.0923605168358
 20
184.3079772236215
 10
664.1073672727169
 20
184.245350828446
 10
664.122374028598
 20
184.1852305742296
 10
664.1373807844789
 20
184.1276208665262
 10
664.1523875403599
 20
184.0725261108894
 10
664.1673942962408
 20
184.0199507128731
 10
664.1824010521219
 20
183.9698990780309
 10
664.1974078080029
 20
183.9223756119167
 10
664.212414563884
 20
183.8773847200841
 10
664.2274213197649
 20
183.8349308080869
 10
664.2424280756458
 20
183.7950182814789
 10
664.2574348315269
 20
183.7576515458139
 10
664.2724415874079
 20
183.7228350066455
 10
664.287448343289
 20
183.6905730695274
 10
664.30245509917
 20
183.6608701400135
 10
664.317461855051
 20
183.6337306236575
 10
664.3324686109319
 20
183.6091589260132
 10
664.3474753668129
 20
183.5871594526342
 10
664.3624821226939
 20
183.5677366090744
 10
664.3774888785752
 20
183.5508948008874
 10
664.3924956344559
 20
183.5366384336271
 10
664.407502390337
 20
183.5249719127262
 10
664.4225091462179
 20
183.5158983128249
 10
664.437515902099
 20
183.5094160848327
 10
664.4525226579799
 20
183.5055226761293
 10
664.467529413861
 20
183.5042155340949
  0
LWPOLYLINE
  5
1C1
330
1F
100
AcDbEntity
  8
0
  6
CONTINUOUS
 62
     7
100
AcDbPolyline
 90
       33
 70
     0
 43
0.0
 10
693.9876693838362
 20
184.8142531199255
 10
694.0026485045207
 20
184.7343386370892
 10
694.0176276252053
 20
184.6568937054404
 10
694.0326067458897
 20
184.5819280624312
 10
694.0475858665743
 20
184.5094511932855
 10
694.0625649872588
 20
184.4394689516509
 10
694.0775441079436
 20
184.3719844667192
 10
694.0925232286282
 20
184.3070008015883
 10
694.1075023493128
 20
184.2445210193562
 10
694.1224814699973
 20
184.1845481831207
 10
694.1374605906818
 20
184.1270853559799
 10
694.1524397113665
 20
184.0721356010315
 10
694.1674188320511
 20
184.0197019813736
 10
694.1823979527356
 20
183.969787560104
 10
694.1973770734203
 20
183.9223954003207
 10
694.2123561941048
 20
183.8775285651215
 10
694.2273353147895
 20
183.8351901176045
 10
694.2423144354739
 20
183.7953831208674
 10
694.2572935561585
 20
183.7581106380084
 10
694.272272676843
 20
183.723375732125
 10
694.2872517975279
 20
183.6911814663157
 10
694.3022309182123
 20
183.6615309036779
 10
694.317210038897
 20
183.6344271073098
 10
694.3321891595815
 20
183.6098731403092
 10
694.3471682802661
 20
183.587872065774
 10
694.3621474009508
 20
183.5684269468023
 10
694.3771265216352
 20
183.5515408464918
 10
694.3921056423201
 20
183.5372168279406
 10
694.4070847630045
 20
183.5254579542465
 10
694.4220638836891
 20
183.5162672885074
 10
694.4370430043737
 20
183.5096478938214
 10
694.4520221250582
 20
183.5056028332862
 10
694.4670012457433
 20
183.5041351699998
  0
LWPOLYLINE
  5
1C2
330
1F
100
AcDbEntity
  8
0
  6
CONTINUOUS
 62
     7
100
AcDbPolyline
 90
       33
 70
     0
 43
0.0
 10
-668.987707849308
 20
240.1940646428645
 10
-669.0027449760041
 20
240.2742139223468
 10
-669.0177821027006
 20
240.3518750730851
 10
-669.0328192293966
 20
240.427043884157
 10
-669.0478563560929
 20
240.4997161446401
 10
-669.0628934827891
 20
240.5698876436121
 10
-669.0779306094852
 20
240.6375541701507
 10
-669.0929677361815
 20
240.7027115133334
 10
-669.1080048628778
 20
240.765355462238
 10
-669.123041989574
 20
240.825481805942
 10
-669.1380791162703
 20
240.8830863335232
 10
-669.1531162429665
 20
240.9381648340592
 10
-669.1681533696627
 20
240.9907130966276
 10
-669.1831904963589
 20
241.0407269103061
 10
-669.1982276230551
 20
241.0882020641723
 10
-669.2132647497515
 20
241.1331343473039
 10
-669.2283018764476
 20
241.1755195487785
 10
-669.2433390031438
 20
241.2153534576736
 10
-669.2583761298399
 20
241.2526318630672
 10
-669.2734132565363
 20
241.2873505540368
 10
-669.2884503832325
 20
241.3195053196599
 10
-669.3034875099286
 20
241.3490919490143
 10
-669.3185246366249
 20
241.3761062311777
 10
-669.3335617633213
 20
241.4005439552275
 10
-669.3485988900175
 20
241.4224009102416
 10
-669.3636360167137
 20
241.4416728852975
 10
-669.37867314341
 20
241.458355669473
 10
-669.3937102701061
 20
241.4724450518456
 10
-669.4087473968023
 20
241.4839368214929
 10
-669.4237845234985
 20
241.4928267722414
 10
-669.4388216501948
 20
241.4991124989831
 10
-669.4538587768911
 20
241.502796100837
 10
-669.4688959035872
 20
241.503880369556
210
0.0
220
0.0
230
-1.0
  0
LWPOLYLINE
  5
1C3
330
1F
100
AcDbEntity
  8
0
  6
CONTINUOUS
 62
     7
100
AcDbPolyline
 90
       33
 70
     0
 43
0.0
 10
-658.9874285819852
 20
240.1924859855207
 10
-659.0024654415881
 20
240.2726646960199
 10
-659.017502301191
 20
240.3503605763595
 10
-659.0325391607939
 20
240.4255689733705
 10
-659.0475760203971
 20
240.4982852338837
 10
-659.06261288
 20
240.56850470473
 10
-659.077649739603
 20
240.6362227327402
 10
-659.0926865992059
 20
240.701434664745
 10
-659.1077234588089
 20
240.7641358475755
 10
-659.1227603184118
 20
240.8243216280624
 10
-659.1377971780148
 20
240.8819873530366
 10
-659.1528340376177
 20
240.9371283693288
 10
-659.1678708972206
 20
240.9897400237701
 10
-659.1829077568236
 20
241.0398176631911
 10
-659.1979446164265
 20
241.0873566344228
 10
-659.2129814760294
 20
241.132352284296
 10
-659.2280183356326
 20
241.1747999596415
 10
-659.2430551952353
 20
241.2146950072901
 10
-659.2580920548385
 20
241.2520327740727
 10
-659.2731289144413
 20
241.2868086068202
 10
-659.2881657740443
 20
241.3190178523635
 10
-659.3032026336472
 20
241.3486558575331
 10
-659.3182394932502
 20
241.3757179691603
 10
-659.3332763528531
 20
241.4001995340756
 10
-659.348313212456
 20
241.42209589911
 10
-659.363350072059
 20
241.4414024110943
 10
-659.3783869316619
 20
241.4581144168594
 10
-659.3934237912649
 20
241.4722272638523
 10
-659.408460650868
 20
241.4837377696111
 10
-659.4234975104708
 20
241.4926473727068
 10
-659.4385343700737
 20
241.4989584173451
 10
-659.4535712296768
 20
241.5026732477311
 10
-659.4686080892799
 20
241.5037942080705
210
0.0
220
0.0
230
-1.0
  0
LWPOLYLINE
  5
1C4
330
1F
100
AcDbEntity
  8
0
  6
CONTINUOUS
 62
     7
100
AcDbPolyline
 90
        4
 70
     0
 43
0.0
 10
649.348387969612
 20
239.214889657073
 10
649.2802467140488
 20
239.3592002620445
 10
649.2140039802063
 20
239.4520598110826
 10
649.1152918379862
 20
239.5040313958411
  0
LWPOLYLINE
  5
1C5
330
1F
100
AcDbEntity
  8
0
  6
CONTINUOUS
 62
     7
100
AcDbPolyline
 90
       33
 70
     0
 43
0.0
 10
-628.9873891111321
 20
240.191992571203
 10
-629.002383202978
 20
240.2719580313914
 10
-629.0173772948237
 20
240.3494648778166
 10
-629.0323713866695
 20
240.4245071906701
 10
-629.0473654785154
 20
240.4970790501429
 10
-629.0623595703612
 20
240.5671745364264
 10
-629.0773536622072
 20
240.6347877297117
 10
-629.092347754053
 20
240.6999127101903
 10
-629.1073418458989
 20
240.7625435580533
 10
-629.1223359377448
 20
240.8226743534919
 10
-629.1373300295905
 20
240.8802991766975
 10
-629.1523241214363
 20
240.9354121078615
 10
-629.1673182132823
 20
240.9880072271748
 10
-629.182312305128
 20
241.0380786148288
 10
-629.197306396974
 20
241.0856203510149
 10
-629.2123004888199
 20
241.1306265159242
 10
-629.2272945806657
 20
241.1730911897481
 10
-629.2422886725116
 20
241.2130084526778
 10
-629.2572827643575
 20
241.2503723849044
 10
-629.2722768562032
 20
241.2851770666194
 10
-629.287270948049
 20
241.317416578014
 10
-629.3022650398949
 20
241.3470849992794
 10
-629.3172591317407
 20
241.3741770904113
 10
-629.3322532235866
 20
241.3986920526395
 10
-629.3472473154325
 20
241.4206308705426
 10
-629.3622414072784
 20
241.4399945335151
 10
-629.3772354991243
 20
241.4567840309518
 10
-629.39222959097
 20
241.471000352247
 10
-629.407223682816
 20
241.4826444867957
 10
-629.4222177746617
 20
241.4917174239922
 10
-629.4372118665076
 20
241.4982201532312
 10
-629.4522059583535
 20
241.5021536639074
 10
-629.4672000501994
 20
241.5035189454152
210
0.0
220
0.0
230
-1.0
  0
CIRCLE
  5
1C6
330
1F
100
AcDbEntity
  8
0
  6
CONTINUOUS
 62
     7
100
AcDbCircle
 10
470.0
 20
212.5
 30
0.0
 40
21.0
  0
LINE
  5
1C7
330
1F
100
AcDbEntity
  8
0
  6
CONTINUOUS
 62
     7
100
AcDbLine
 10
802.5030899430778
 20
235.6579013869559
 30
0.0
 11
802.5030899430778
 21
238.441456094527
 31
0.0
  0
LINE
  5
1C8
330
1F
100
AcDbEntity
  8
0
  6
CONTINUOUS
 62
     7
100
AcDbLine
 10
835.9405146417637
 20
220.0040313958411
 30
0.0
 11
833.1569599341925
 21
220.0040313958411
 31
0.0
  0
LINE
  5
1C9
330
1F
100
AcDbEntity
  8
0
  6
CONTINUOUS
 62
     7
100
AcDbLine
 10
689.1152540877099
 20
239.5040313958411
 30
0.0
 11
683.5756839084656
 21
239.5040313958411
 31
0.0
  0
LINE
  5
1CA
330
1F
100
AcDbEntity
  8
0
  6
CONTINUOUS
 62
     7
100
AcDbLine
 10
468.9969100569222
 20
239.2040313958412
 30
0.0
 11
468.9969100569222
 21
239.4855065223052
 31
0.0
  0
LINE
  5
1CB
330
1F
100
AcDbEntity
  8
0
  6
CONTINUOUS
 62
     7
100
AcDbLine
 10
498.9936990711303
 20
212.925654591022
 30
0.0
 11
498.9963428415343
 21
212.3669203011891
 31
0.0
  0
LINE
  5
1CC
330
1F
100
AcDbEntity
  8
0
  6
CONTINUOUS
 62
     7
100
AcDbLine
 10
579.9679496430315
 20
185.5040313958411
 30
0.0
 11
583.8601274410577
 21
185.5040313958411
 31
0.0
  0
ARC
  5
1CD
330
1F
100
AcDbEntity
  8
0
  6
CONTINUOUS
 62
     7
100
AcDbCircle
 10
474.4421499603398
 20
219.8810613618506
 30
0.0
 40
26.84258588034325
100
AcDbArc
 50
143.1857060272352
 51
157.0972202445144
  0
ARC
  5
1CE
330
1F
100
AcDbEntity
  8
0
  6
CONTINUOUS
 62
     7
100
AcDbCircle
 10
817.3464188102432
 20
208.0008580590885
 30
0.0
 40
26.91000583668156
100
AcDbArc
 50
53.20693792939116
 51
67.08512565052659
  0
LINE
  5
1CF
330
1F
100
AcDbEntity
  8
0
  6
CONTINUOUS
 62
     7
100
AcDbLine
 10
833.5890960298254
 20
229.3762707851143
 30
0.0
 11
833.4514604157356
 21
229.5669802629357
 31
0.0
  0
LINE
  5
1D0
330
1F
100
AcDbEntity
  8
0
  6
CONTINUOUS
 62
     7
100
AcDbLine
 10
532.9679496430315
 20
188.5
 30
0.0
 11
532.9679496430315
 21
236.5
 31
0.0
  0
LINE
  5
1D1
330
1F
100
AcDbEntity
  8
0
  6
CONTINUOUS
 62
     7
100
AcDbLine
 10
802.5030899430778
 20
189.3501614047264
 30
0.0
 11
802.5030899430778
 21
186.5666066971553
 31
0.0
  0
ARC
  5
1D2
330
1F
100
AcDbEntity
  8
0
  6
CONTINUOUS
 62
     7
100
AcDbCircle
 10
469.9969100569222
 20
212.5040313958411
 30
0.0
 40
27.00000000000001
100
AcDbArc
 50
92.12255136214335
 51
87.8774486378568
  0
LINE
  5
1D3
330
1F
100
AcDbEntity
  8
0
  6
CONTINUOUS
 62
     7
100
AcDbLine
 10
470.9969100569222
 20
239.2040313958412
 30
0.0
 11
470.9969100569222
 21
239.4855065223052
 31
0.0
  0
CIRCLE
  5
1D4
330
1F
100
AcDbEntity
  8
0
  6
CONTINUOUS
 62
     7
100
AcDbCircle
 10
469.9969100569222
 20
212.5040313958411
 30
0.0
 40
19.99999999999996
  0
LINE
  5
1D5
330
1F
100
AcDbEntity
  8
0
  6
CONTINUOUS
 62
     7
100
AcDbLine
 10
588.3204671318692
 20
185.5040313958411
 30
0.0
 11
593.8601317378755
 21
185.5040313958411
 31
0.0
  0
LINE
  5
1D6
330
1F
100
AcDbEntity
  8
0
  6
CENTER
 62
     1
100
AcDbLine
 10
525.0
 20
212.5
 30
0.0
 11
760.0
 21
212.5
 31
0.0
  0
CIRCLE
  5
1D7
330
1F
100
AcDbEntity
  8
0
  6
CONTINUOUS
 62
     7
100
AcDbCircle
 10
810.0030899430777
 20
212.5040313958411
 30
0.0
 40
27.0
  0
LINE
  5
1D8
330
1F
100
AcDbEntity
  8
0
  6
CONTINUOUS
 62
     7
100
AcDbLine
 10
699.1152701556915
 20
239.5040313958411
 30
0.0
 11
693.5757545932283
 21
239.5040313958411
 31
0.0
  0
LINE
  5
1D9
330
1F
100
AcDbEntity
  8
0
  6
CONTINUOUS
 62
     7
100
AcDbLine
 10
809.0030899430777
 20
239.2040313958412
 30
0.0
 11
811.0030899430777
 21
239.2040313958412
 31
0.0
  0
CIRCLE
  5
1DA
330
1F
100
AcDbEntity
  8
0
  6
CONTINUOUS
 62
     7
100
AcDbCircle
 10
810.0030899430777
 20
212.5040313958411
 30
0.0
 40
23.65
  0
LINE
  5
1DB
330
1F
100
AcDbEntity
  8
0
  6
CONTINUOUS
 62
     7
100
AcDbLine
 10
659.115282172094
 20
239.5040313958411
 30
0.0
 11
653.5756654173491
 21
239.5040313958411
 31
0.0
  0
ARC
  5
1DC
330
1F
100
AcDbEntity
  8
0
  6
CONTINUOUS
 62
     7
100
AcDbCircle
 10
473.2814389801536
 20
220.4685489849556
 30
0.0
 40
26.92073765263646
100
AcDbArc
 50
328.9158878030335
 51
342.7888261592591
  0
CIRCLE
  5
1DD
330
1F
100
AcDbEntity
  8
0
  6
CONTINUOUS
 62
     7
100
AcDbCircle
 10
810.0030899430777
 20
212.5040313958411
 30
0.0
 40
19.99999999999999
  0
CIRCLE
  5
1DE
330
1F
100
AcDbEntity
  8
0
  6
CONTINUOUS
 62
     7
100
AcDbCircle
 10
469.9969850791965
 20
212.5037373269532
 30
0.0
 40
28.99969910322007
  0
LINE
  5
1DF
330
1F
100
AcDbEntity
  8
0
  6
CONTINUOUS
 62
     7
100
AcDbLine
 10
719.1152776204132
 20
239.5040313958411
 30
0.0
 11
713.5757187018284
 21
239.5040313958411
 31
0.0
  0
LINE
  5
1E0
330
1F
100
AcDbEntity
  8
0
  6
CONTINUOUS
 62
     7
100
AcDbLine
 10
679.1152555446581
 20
239.5040313958411
 30
0.0
 11
673.5756989966231
 21
239.5040313958411
 31
0.0
  0
CIRCLE
  5
1E1
330
1F
100
AcDbEntity
  8
0
  6
CONTINUOUS
 62
     7
100
AcDbCircle
 10
810.0030899430777
 20
212.5040313958411
 30
0.0
 40
24.33813559322032
  0
LINE
  5
1E2
330
1F
100
AcDbEntity
  8
0
  6
CONTINUOUS
 62
     7
100
AcDbLine
 10
729.1152942101932
 20
239.5040313958411
 30
0.0
 11
723.5757044399573
 21
239.5040313958411
 31
0.0
  0
LINE
  5
1E3
330
1F
100
AcDbEntity
  8
0
  6
CONTINUOUS
 62
     7
100
AcDbLine
 10
811.2869451229687
 20
239.4734903425287
 30
0.0
 11
808.7116514682579
 21
239.473128278491
 31
0.0
  0
LINE
  5
1E4
330
1F
100
AcDbEntity
  8
0
  6
CONTINUOUS
 62
     7
100
AcDbLine
 10
809.0030899430777
 20
239.2040313958412
 30
0.0
 11
809.0030899430777
 21
239.4855065223052
 31
0.0
  0
LINE
  5
1E5
330
1F
100
AcDbEntity
  8
0
  6
CONTINUOUS
 62
     7
100
AcDbLine
 10
786.8492199519629
 20
220.0040313958411
 30
0.0
 11
784.0656652443919
 21
220.0040313958411
 31
0.0
  0
CIRCLE
  5
1E6
330
1F
100
AcDbEntity
  8
0
  6
CONTINUOUS
 62
     7
100
AcDbCircle
 10
469.9969100569222
 20
212.5040313958411
 30
0.0
 40
24.35000000000001
  0
LINE
  5
1E7
330
1F
100
AcDbEntity
  8
0
  6
CONTINUOUS
 62
     7
100
AcDbLine
 10
835.9405146417637
 20
205.0040313958412
 30
0.0
 11
833.1569599341925
 21
205.0040313958412
 31
0.0
  0
ARC
  5
1E8
330
1F
100
AcDbEntity
  8
0
  6
CONTINUOUS
 62
     7
100
AcDbCircle
 10
817.9421438335295
 20
209.1650595578926
 30
0.0
 40
26.86019841217465
100
AcDbArc
 50
238.9073694550916
 51
252.8110990633188
  0
LINE
  5
1E9
330
1F
100
AcDbEntity
  8
0
  6
CONTINUOUS
 62
     7
100
AcDbLine
 10
470.9969100569222
 20
239.2040313958412
 30
0.0
 11
468.9969100569222
 21
239.2040313958412
 31
0.0
  0
LINE
  5
1EA
330
1F
100
AcDbEntity
  8
0
  6
CONTINUOUS
 62
     7
100
AcDbLine
 10
532.9679496430315
 20
236.5
 30
0.0
 11
579.9679496430315
 21
236.5
 31
0.0
  0
LINE
  5
1EB
330
1F
100
AcDbEntity
  8
0
  6
CONTINUOUS
 62
     7
100
AcDbLine
 10
669.1152720841358
 20
239.5040313958411
 30
0.0
 11
663.5756819953801
 21
239.5040313958411
 31
0.0
  0
LINE
  5
1EC
330
1F
100
AcDbEntity
  8
0
  6
CONTINUOUS
 62
     7
100
AcDbLine
 10
811.0030899430777
 20
239.2040313958412
 30
0.0
 11
811.0030899430777
 21
239.4855065223052
 31
0.0
  0
LINE
  5
1ED
330
1F
100
AcDbEntity
  8
0
  6
CONTINUOUS
 62
     7
100
AcDbLine
 10
786.8492199519629
 20
205.0040313958411
 30
0.0
 11
784.0656652443919
 21
205.0040313958411
 31
0.0
  0
LINE
  5
1EE
330
1F
100
AcDbEntity
  8
0
  6
CONTINUOUS
 62
     7
100
AcDbLine
 10
581.9679496430315
 20
206.5694832938478
 30
0.0
 11
581.9679496430315
 21
241.5035690552087
 31
0.0
  0
LINE
  5
1EF
330
1F
100
AcDbEntity
  8
0
  6
CONTINUOUS
 62
     7
100
AcDbLine
 10
532.9679496430315
 20
188.5
 30
0.0
 11
579.9679496430315
 21
188.5
 31
0.0
  0
CIRCLE
  5
1F0
330
1F
100
AcDbEntity
  8
0
  6
CONTINUOUS
 62
     7
100
AcDbCircle
 10
810.0029931932788
 20
212.5041343277474
 30
0.0
 40
28.99957930164414
  0
LINE
  5
1F1
330
1F
100
AcDbEntity
  8
0
  6
CONTINUOUS
 62
     7
100
AcDbLine
 10
817.5030899430778
 20
189.3501614047264
 30
0.0
 11
817.5030899430778
 21
186.5666066971553
 31
0.0
  0
CIRCLE
  5
1F2
330
1F
100
AcDbEntity
  8
0
  6
CONTINUOUS
 62
     7
100
AcDbCircle
 10
470.0
 20
212.5
 30
0.0
 40
24.0
  0
LINE
  5
1F3
330
1F
100
AcDbEntity
  8
0
  6
CONTINUOUS
 62
     7
100
AcDbLine
 10
817.5030899430778
 20
235.6579013869559
 30
0.0
 11
817.5030899430778
 21
238.441456094527
 31
0.0
  0
LINE
  5
1F4
330
1F
100
AcDbEntity
  8
0
  6
CONTINUOUS
 62
     7
100
AcDbLine
 10
709.1152778459326
 20
239.5040313958411
 30
0.0
 11
703.5757263335275
 21
239.5040313958411
 31
0.0
  0
ENDSEC
  0
SECTION
  2
OBJECTS
  0
DICTIONARY
  5
C
330
0
100
AcDbDictionary
  3
ACAD_GROUP
350
D
  3
ACAD_LAYOUT
350
1A
  3
ACAD_MATERIAL
350
43
  3
ACAD_MLEADERSTYLE
350
6B
  3
ACAD_MLINESTYLE
350
17
  3
ACAD_PLOTSETTINGS
350
19
  3
ACAD_SCALELIST
350
47
  3
ACAD_VISUALSTYLE
350
2A
  3
ACDBHEADERROUNDTRIPXREC
350
1F5
  3
ACDBVARIABLEDICTIONARY
350
216
  0
DICTIONARY
  5
21D
330
8
100
AcDbDictionary
280
     1
  3
ACAD_XREC_ROUNDTRIP
360
21E
  0
DICTIONARY
  5
D
102
{ACAD_REACTORS
330
C
102
}
330
C
100
AcDbDictionary
  0
DICTIONARY
  5
1A
102
{ACAD_REACTORS
330
C
102
}
330
C
100
AcDbDictionary
  0
DICTIONARY
  5
43
102
{ACAD_REACTORS
330
C
102
}
330
C
100
AcDbDictionary
  3
BYBLOCK
350
45
  3
BYLAYER
350
44
  3
GLOBAL
350
46
  0
DICTIONARY
  5
6B
102
{ACAD_REACTORS
330
C
102
}
330
C
100
AcDbDictionary
  3
STANDARD
350
6C
  0
DICTIONARY
  5
17
102
{ACAD_REACTORS
330
C
102
}
330
C
100
AcDbDictionary
  3
STANDARD
350
18
  0
DICTIONARY
  5
19
102
{ACAD_REACTORS
330
C
102
}
330
C
100
AcDbDictionary
  0
DICTIONARY
  5
47
102
{ACAD_REACTORS
330
C
102
}
330
C
100
AcDbDictionary
  3
A0
350
48
  3
A1
350
49
  3
A2
350
4A
  3
A3
350
4B
  3
A4
350
4C
  3
A5
350
4D
  3
A6
350
4E
  3
A7
350
4F
  3
A8
350
50
  3
A9
350
51
  3
B0
350
52
  3
B1
350
53
  3
B2
350
54
  3
B3
350
55
  3
B4
350
56
  3
B5
350
57
  3
B6
350
58
  3
B7
350
59
  3
B8
350
5A
  3
B9
350
5B
  3
C0
350
5C
  3
C1
350
5D
  3
C2
350
5E
  3
C3
350
5F
  3
C4
350
60
  3
C5
350
61
  3
C6
350
62
  3
C7
350
63
  3
C8
350
64
  3
C9
350
65
  3
D0
350
66
  3
D1
350
67
  3
D2
350
68
  0
DICTIONARY
  5
2A
102
{ACAD_REACTORS
330
C
102
}
330
C
100
AcDbDictionary
  3
2DWIREFRAME
350
2F
  3
BASIC
350
32
  3
BRIGHTEN
350
36
  3
COLORCHANGE
350
3A
  3
CONCEPTUAL
350
34
  3
DIM
350
35
  3
EDGECOLOROFF
350
3D
  3
FACEPATTERN
350
39
  3
FLAT
350
2B
  3
FLATWITHEDGES
350
2C
  3
GOURAUD
350
2D
  3
GOURAUDWITHEDGES
350
2E
  3
HIDDEN
350
31
  3
JITTEROFF
350
3B
  3
LINEPATTERN
350
38
  3
OVERHANGOFF
350
3C
  3
REALISTIC
350
33
  3
SHADED
350
42
  3
SHADED_WITH_EDGES
350
41
  3
SHADES_OF_GRAY
350
3E
  3
SKETCHY
350
3F
  3
THICKEN
350
37
  3
WIREFRAME
350
30
  3
X-RAY
350
40
  0
DICTIONARY
  5
1F5
102
{ACAD_REACTORS
330
C
102
}
330
C
100
AcDbDictionary
  3
CEPSNID
350
1FF
  3
CEPSNTYPE
350
1FE
  3
DIMSTYLEDATA
350
215
  3
FINGERPRINTGUID
350
200
  3
HYPERLINKBASE
350
1F8
  3
INSUNITS
350
1FD
  3
LAYOUTDICT
350
1FA
  3
LWETCUNION
350
1FC
  3
PLOTSETDICT
350
1FB
  3
PSVPSCALE
350
202
  3
PUCSBASE
350
205
  3
PUCSORGBACK
350
20B
  3
PUCSORGBOTTOM
350
207
  3
PUCSORGFRONT
350
20A
  3
PUCSORGLEFT
350
208
  3
PUCSORGRIGHT
350
209
  3
PUCSORGTOP
350
206
  3
PUCSORTHOREF
350
203
  3
PUCSORTHOVIEW
350
204
  3
STYLESHEET
350
1F9
  3
TSTACKALIGN
350
1F6
  3
TSTACKSIZE
350
1F7
  3
UCSBASE
350
20E
  3
UCSORGBACK
350
214
  3
UCSORGBOTTOM
350
210
  3
UCSORGFRONT
350
213
  3
UCSORGLEFT
350
211
  3
UCSORGRIGHT
350
212
  3
UCSORGTOP
350
20F
  3
UCSORTHOREF
350
20C
  3
UCSORTHOVIEW
350
20D
  3
VERSIONGUID
350
201
  0
DICTIONARY
  5
216
102
{ACAD_REACTORS
330
C
102
}
330
C
100
AcDbDictionary
  3
CANNOSCALE
350
21F
  3
CMLEADERSTYLE
350
218
  3
CTABLESTYLE
350
217
  3
DIMASSOC
350
21B
  3
HIDETEXT
350
21C
  3
MSLTSCALE
350
220
  0
XRECORD
  5
21E
102
{ACAD_REACTORS
330
21D
102
}
330
21D
100
AcDbXrecord
102
VTR_0.000_0.000_1.000_1.000_VISUALSTYLE
340
2F
102
VTR_0.000_0.000_1.000_1.000_GRIDDISPLAY
 70
     3
102
VTR_0.000_0.000_1.000_1.000_GRIDMAJOR
 70
     5
102
VTR_0.000_0.000_1.000_1.000_DEFAULTLIGHTING
280
     1
102
VTR_0.000_0.000_1.000_1.000_DEFAULTLIGHTINGTYPE
 70
     1
102
VTR_0.000_0.000_1.000_1.000_BRIGHTNESS
141
0.0
102
VTR_0.000_0.000_1.000_1.000_CONTRAST
142
0.0
  0
MATERIAL
  5
45
102
{ACAD_REACTORS
330
43
102
}
102
{ACAD_XDICTIONARY
360
223
102
}
330
43
100
AcDbMaterial
  1
BYBLOCK
  0
MATERIAL
  5
44
102
{ACAD_REACTORS
330
43
102
}
102
{ACAD_XDICTIONARY
360
221
102
}
330
43
100
AcDbMaterial
  1
BYLAYER
  0
MATERIAL
  5
46
102
{ACAD_REACTORS
330
43
102
}
102
{ACAD_XDICTIONARY
360
225
102
}
330
43
100
AcDbMaterial
  1
GLOBAL
  0
ACAD_PROXY_OBJECT
  5
6C
102
{ACAD_REACTORS
330
6B
102
}
330
6B
100
AcDbProxyObject
 90
      499
 91
      505
 93
      610
310
40901902A4063FBFFFFFE056BD1B81E855B9FC0AD7A3703D0AD73F4214DD185B99185C9900AD7A3703D0AC73F90141901A02B5E8DC0F42B1CFC02B5E8DC0F42B1CFE5764000000000000300FC0
340
14
340
0
340
11
340
0
 94
        0
1001
ACAD_MLEADERVER
1070
     2
  0
MLINESTYLE
  5
18
102
{ACAD_REACTORS
330
17
102
}
330
17
100
AcDbMlineStyle
  2
Standard
 70
     0
  3

 62
   256
 51
90.0
 52
90.0
 71
     2
 49
0.5
 62
   256
  6
BYLAYER
 49
-0.5
 62
   256
  6
BYLAYER
  0
ACAD_PROXY_OBJECT
  5
48
102
{ACAD_REACTORS
330
47
102
}
330
47
100
AcDbProxyObject
 90
      499
 91
      503
 93
       41
310
903313A31580
  0
ACAD_PROXY_OBJECT
  5
49
102
{ACAD_REACTORS
330
47
102
}
330
47
100
AcDbProxyObject
 90
      499
 91
      503
 93
      105
310
903313A324000000000000004000
  0
ACAD_PROXY_OBJECT
  5
4A
102
{ACAD_REACTORS
330
47
102
}
330
47
100
AcDbProxyObject
 90
      499
 91
      503
 93
      105
310
903313A344000000000000104000
  0
ACAD_PROXY_OBJECT
  5
4B
102
{ACAD_REACTORS
330
47
102
}
330
47
100
AcDbProxyObject
 90
      499
 91
      503
 93
      105
310
903313A354000000000000144000
  0
ACAD_PROXY_OBJECT
  5
4C
102
{ACAD_REACTORS
330
47
102
}
330
47
100
AcDbProxyObject
 90
      499
 91
      503
 93
      105
310
903313A384000000000000204000
  0
ACAD_PROXY_OBJECT
  5
4D
102
{ACAD_REACTORS
330
47
102
}
330
47
100
AcDbProxyObject
 90
      499
 91
      503
 93
      113
310
904313A31304000000000000244000
  0
ACAD_PROXY_OBJECT
  5
4E
102
{ACAD_REACTORS
330
47
102
}
330
47
100
AcDbProxyObject
 90
      499
 91
      503
 93
      113
310
904313A31364000000000000304000
  0
ACAD_PROXY_OBJECT
  5
4F
102
{ACAD_REACTORS
330
47
102
}
330
47
100
AcDbProxyObject
 90
      499
 91
      503
 93
      113
310
904313A32304000000000000344000
  0
ACAD_PROXY_OBJECT
  5
50
102
{ACAD_REACTORS
330
47
102
}
330
47
100
AcDbProxyObject
 90
      499
 91
      503
 93
      113
310
904313A333040000000000003E4000
  0
ACAD_PROXY_OBJECT
  5
51
102
{ACAD_REACTORS
330
47
102
}
330
47
100
AcDbProxyObject
 90
      499
 91
      503
 93
      113
310
904313A34304000000000000444000
  0
ACAD_PROXY_OBJECT
  5
52
102
{ACAD_REACTORS
330
47
102
}
330
47
100
AcDbProxyObject
 90
      499
 91
      503
 93
      113
310
904313A35304000000000000494000
  0
ACAD_PROXY_OBJECT
  5
53
102
{ACAD_REACTORS
330
47
102
}
330
47
100
AcDbProxyObject
 90
      499
 91
      503
 93
      121
310
905313A3130304000000000000594000
  0
ACAD_PROXY_OBJECT
  5
54
102
{ACAD_REACTORS
330
47
102
}
330
47
100
AcDbProxyObject
 90
      499
 91
      503
 93
      105
310
903323A310000000000000010100
  0
ACAD_PROXY_OBJECT
  5
55
102
{ACAD_REACTORS
330
47
102
}
330
47
100
AcDbProxyObject
 90
      499
 91
      503
 93
      105
310
903343A310000000000000410100
  0
ACAD_PROXY_OBJECT
  5
56
102
{ACAD_REACTORS
330
47
102
}
330
47
100
AcDbProxyObject
 90
      499
 91
      503
 93
      105
310
903383A310000000000000810100
  0
ACAD_PROXY_OBJECT
  5
57
102
{ACAD_REACTORS
330
47
102
}
330
47
100
AcDbProxyObject
 90
      499
 91
      503
 93
      113
310
90431303A310000000000000910100
  0
ACAD_PROXY_OBJECT
  5
58
102
{ACAD_REACTORS
330
47
102
}
330
47
100
AcDbProxyObject
 90
      499
 91
      503
 93
      121
310
9053130303A310000000000001650100
  0
ACAD_PROXY_OBJECT
  5
59
102
{ACAD_REACTORS
330
47
102
}
330
47
100
AcDbProxyObject
 90
      499
 91
      503
 93
      257
310
90E312F31323822203D2031272D3022000000000000200FC000000000000284000
  0
ACAD_PROXY_OBJECT
  5
5A
102
{ACAD_REACTORS
330
47
102
}
330
47
100
AcDbProxyObject
 90
      499
 91
      503
 93
      249
310
90D312F363422203D2031272D3022000000000000240FC000000000000284000
  0
ACAD_PROXY_OBJECT
  5
5B
102
{ACAD_REACTORS
330
47
102
}
330
47
100
AcDbProxyObject
 90
      499
 91
      503
 93
      249
310
90D312F333222203D2031272D3022000000000000280FC000000000000284000
  0
ACAD_PROXY_OBJECT
  5
5C
102
{ACAD_REACTORS
330
47
102
}
330
47
100
AcDbProxyObject
 90
      499
 91
      503
 93
      249
310
90D312F313622203D2031272D30220000000000002C0FC000000000000284000
  0
ACAD_PROXY_OBJECT
  5
5D
102
{ACAD_REACTORS
330
47
102
}
330
47
100
AcDbProxyObject
 90
      499
 91
      503
 93
      249
310
90D332F333222203D2031272D30220000000000002E0FC000000000000284000
  0
ACAD_PROXY_OBJECT
  5
5E
102
{ACAD_REACTORS
330
47
102
}
330
47
100
AcDbProxyObject
 90
      499
 91
      503
 93
      241
310
90C312F3822203D2031272D3022000000000000300FC000000000000284000
  0
ACAD_PROXY_OBJECT
  5
5F
102
{ACAD_REACTORS
330
47
102
}
330
47
100
AcDbProxyObject
 90
      499
 91
      503
 93
      249
310
90D332F313622203D2031272D3022000000000000320FC000000000000284000
  0
ACAD_PROXY_OBJECT
  5
60
102
{ACAD_REACTORS
330
47
102
}
330
47
100
AcDbProxyObject
 90
      499
 91
      503
 93
      241
310
90C312F3422203D2031272D3022000000000000340FC000000000000284000
  0
ACAD_PROXY_OBJECT
  5
61
102
{ACAD_REACTORS
330
47
102
}
330
47
100
AcDbProxyObject
 90
      499
 91
      503
 93
      241
310
90C332F3822203D2031272D3022000000000000360FC000000000000284000
  0
ACAD_PROXY_OBJECT
  5
62
102
{ACAD_REACTORS
330
47
102
}
330
47
100
AcDbProxyObject
 90
      499
 91
      503
 93
      241
310
90C312F3222203D2031272D3022000000000000380FC000000000000284000
  0
ACAD_PROXY_OBJECT
  5
63
102
{ACAD_REACTORS
330
47
102
}
330
47
100
AcDbProxyObject
 90
      499
 91
      503
 93
      241
310
90C332F3422203D2031272D30220000000000003A0FC000000000000284000
  0
ACAD_PROXY_OBJECT
  5
64
102
{ACAD_REACTORS
330
47
102
}
330
47
100
AcDbProxyObject
 90
      499
 91
      503
 93
      161
310
90A3122203D2031272D30224000000000000284000
  0
ACAD_PROXY_OBJECT
  5
65
102
{ACAD_REACTORS
330
47
102
}
330
47
100
AcDbProxyObject
 90
      499
 91
      503
 93
      257
310
90E312D312F3222203D2031272D30220000000000003E0FC000000000000284000
  0
ACAD_PROXY_OBJECT
  5
66
102
{ACAD_REACTORS
330
47
102
}
330
47
100
AcDbProxyObject
 90
      499
 91
      503
 93
      225
310
90A3322203D2031272D302200000000000002100000000000000284000
  0
ACAD_PROXY_OBJECT
  5
67
102
{ACAD_REACTORS
330
47
102
}
330
47
100
AcDbProxyObject
 90
      499
 91
      503
 93
      225
310
90A3622203D2031272D302200000000000006100000000000000284000
  0
ACAD_PROXY_OBJECT
  5
68
102
{ACAD_REACTORS
330
47
102
}
330
47
100
AcDbProxyObject
 90
      499
 91
      503
 93
      249
310
90D31272D3022203D2031272D30220000000000000A100000000000000284000
  0
ACAD_PROXY_OBJECT
  5
2F
102
{ACAD_REACTORS
330
2A
102
}
330
2A
100
AcDbProxyObject
 90
      499
 91
      501
 93
      436
310
42CC9915DA5C99599C985B595049028333333333333E33F0000000000000F90107901411070040501600405405064090741402480A0340
1001
ACAD
1000
AcDbSavedByObjectVersion
1070
     0
  0
ACAD_PROXY_OBJECT
  5
32
102
{ACAD_REACTORS
330
2A
102
}
330
2A
100
AcDbProxyObject
 90
      499
 91
      501
 93
      388
310
4150985CDA58D07406404333333333333E33F0000000000000F90107A41107004050150841D405064090741402480A0350
1001
ACAD
1000
AcDbSavedByObjectVersion
1070
     0
  0
ACAD_PROXY_OBJECT
  5
36
102
{ACAD_REACTORS
330
2A
102
}
330
2A
100
AcDbProxyObject
 90
      499
 91
      501
 93
      428
310
42109C9A59DA1D195B90C409028333333333333E33F0000000000000F9010790141107004050150841D405064090741402480A029950
1001
ACAD
1000
AcDbSavedByObjectVersion
1070
     0
  0
ACAD_PROXY_OBJECT
  5
3A
102
{ACAD_REACTORS
330
2A
102
}
330
2A
100
AcDbProxyObject
 90
      499
 91
      501
 93
      452
310
42D0DBDB1BDC90DA185B99D95104090240C333333333333E33F0000000000000F90108901411070040501508421405064090741402480A0350
1001
ACAD
1000
AcDbSavedByObjectVersion
1070
     0
  0
ACAD_PROXY_OBJECT
  5
34
102
{ACAD_REACTORS
330
2A
102
}
330
2A
100
AcDbProxyObject
 90
      499
 91
      501
 93
      500
310
4290DBDB98D95C1D1D585B10940D028333333333333E33F0000000000000F90107902409070040501000000000018199010841D405064090740C02480A0340
1001
ACAD
1000
AcDbSavedByObjectVersion
1070
     0
  0
ACAD_PROXY_OBJECT
  5
35
102
{ACAD_REACTORS
330
2A
102
}
330
2A
100
AcDbProxyObject
 90
      499
 91
      501
 93
      412
310
40D11A5B50B409028333333333333E33F0000000000000F9010790141107004050150841D405064090741402480A02677FFFFFD0
1001
ACAD
1000
AcDbSavedByObjectVersion
1070
     0
  0
ACAD_PROXY_OBJECT
  5
3D
102
{ACAD_REACTORS
330
2A
102
}
330
2A
100
AcDbProxyObject
 90
      499
 91
      501
 93
      452
310
43115919D950DBDB1BDC93D999916409028333333333333E33F0000000000000F9010790141107004050150841D405064090741402480A0350
1001
ACAD
1000
AcDbSavedByObjectVersion
1070
     0
  0
ACAD_PROXY_OBJECT
  5
39
102
{ACAD_REACTORS
330
2A
102
}
330
2A
100
AcDbProxyObject
 90
      499
 91
      501
 93
      444
310
42D19858D95C185D1D195C9B90F409028333333333333E33F0000000000000F9010790141107004050150841D405064090741402480A0350
1001
ACAD
1000
AcDbSavedByObjectVersion
1070
     0
  0
ACAD_PROXY_OBJECT
  5
2B
102
{ACAD_REACTORS
330
2A
102
}
330
2A
100
AcDbProxyObject
 90
      499
 91
      501
 93
      380
310
41119B185D240901404333333333333E33F0000000000000F9010740A907004050150841D405064090741402480A1B50
1001
ACAD
1000
AcDbSavedByObjectVersion
1070
     0
  0
ACAD_PROXY_OBJECT
  5
2C
102
{ACAD_REACTORS
330
2A
102
}
330
2A
100
AcDbProxyObject
 90
      499
 91
      501
 93
      468
310
43519B185D15DA5D1A115919D95CD0140901404333333333333E33F0000000000000F90107409019070040501600405405064090741402480A1B50
1001
ACAD
1000
AcDbSavedByObjectVersion
1070
     0
  0
ACAD_PROXY_OBJECT
  5
2D
102
{ACAD_REACTORS
330
2A
102
}
330
2A
100
AcDbProxyObject
 90
      499
 91
      501
 93
      404
310
41D1DBDD5C985D5910240902404333333333333E33F0000000000000F9010740A9070040501641D405064090741402480A1B50
1001
ACAD
1000
AcDbSavedByObjectVersion
1070
     0
  0
ACAD_PROXY_OBJECT
  5
2E
102
{ACAD_REACTORS
330
2A
102
}
330
2A
100
AcDbProxyObject
 90
      499
 91
      501
 93
      492
310
4411DBDD5C985D5915DA5D1A115919D95CD0340902404333333333333E33F0000000000000F90107409019070040501600405405064090741402480A1B50
1001
ACAD
1000
AcDbSavedByObjectVersion
1070
     0
  0
ACAD_PROXY_OBJECT
  5
31
102
{ACAD_REACTORS
330
2A
102
}
330
2A
100
AcDbProxyObject
 90
      499
 91
      501
 93
      476
310
41921A5919195B90640502408333333333333E33F0000000000000F901079024090700405020000000000001110200405405064090740C02480A0340
1001
ACAD
1000
AcDbSavedByObjectVersion
1070
     0
  0
ACAD_PROXY_OBJECT
  5
3B
102
{ACAD_REACTORS
330
2A
102
}
330
2A
100
AcDbProxyObject
 90
      499
 91
      501
 93
      428
310
42529A5D1D195C93D999914409028333333333333E33F0000000000000F9010790141107004050150A41D405064090741402480A0350
1001
ACAD
1000
AcDbSavedByObjectVersion
1070
     0
  0
ACAD_PROXY_OBJECT
  5
38
102
{ACAD_REACTORS
330
2A
102
}
330
2A
100
AcDbProxyObject
 90
      499
 91
      501
 93
      444
310
42D31A5B995C185D1D195C9B90E409028333333333333E33F0000000000000F9010790141107004050750841D405064090741402483A0350
1001
ACAD
1000
AcDbSavedByObjectVersion
1070
     0
  0
ACAD_PROXY_OBJECT
  5
3C
102
{ACAD_REACTORS
330
2A
102
}
330
2A
100
AcDbProxyObject
 90
      499
 91
      501
 93
      444
310
42D3DD995C9A185B99D3D999915409028333333333333E33F0000000000000F9010790141107004050150941D405064090741402480A0350
1001
ACAD
1000
AcDbSavedByObjectVersion
1070
     0
  0
ACAD_PROXY_OBJECT
  5
33
102
{ACAD_REACTORS
330
2A
102
}
330
2A
100
AcDbProxyObject
 90
      499
 91
      501
 93
      428
310
425499585B1A5CDD1A58D08409038333333333333E33F0000000000000F9010740A907004050150800405405064090740C02480A1B40
1001
ACAD
1000
AcDbSavedByObjectVersion
1070
     0
  0
ACAD_PROXY_OBJECT
  5
42
102
{ACAD_REACTORS
330
2A
102
}
330
2A
100
AcDbProxyObject
 90
      499
 91
      501
 93
      420
310
4194DA1859195911B40902404333333333333E33F0000000000000F9010740A41107004050150800405405064090840C02480A0B40
1001
ACAD
1000
AcDbSavedByObjectVersion
1070
     0
  0
ACAD_PROXY_OBJECT
  5
41
102
{ACAD_REACTORS
330
2A
102
}
330
2A
100
AcDbProxyObject
 90
      499
 91
      501
 93
      516
310
4454DA18591959081DDA5D1A08195919D95CD1A40902404333333333333E33F0000000000000F901074090142907004050250800405405064090740C02480A0B40
1001
ACAD
1000
AcDbSavedByObjectVersion
1070
     0
  0
ACAD_PROXY_OBJECT
  5
3E
102
{ACAD_REACTORS
330
2A
102
}
330
2A
100
AcDbProxyObject
 90
      499
 91
      501
 93
      532
310
4394DA1859195CC81BD98811DC985E5174090240C333333333333E33F0000000000000F901079024090741D01000000000000111010841D405064090740C02480A0340
1001
ACAD
1000
AcDbSavedByObjectVersion
1070
     0
  0
ACAD_PROXY_OBJECT
  5
3F
102
{ACAD_REACTORS
330
2A
102
}
330
2A
100
AcDbProxyObject
 90
      499
 91
      501
 93
      476
310
41D4DAD95D18DA1E51840502408333333333333E33F0000000000000F901079024090741D01000000000000111010B41D405064090741802480A0340
1001
ACAD
1000
AcDbSavedByObjectVersion
1070
     0
  0
ACAD_PROXY_OBJECT
  5
37
102
{ACAD_REACTORS
330
2A
102
}
330
2A
100
AcDbProxyObject
 90
      499
 91
      501
 93
      412
310
41D51A1A58DAD95B90D409028333333333333E33F0000000000000F9010790141107004050150C41D405064090741402480A0350
1001
ACAD
1000
AcDbSavedByObjectVersion
1070
     0
  0
ACAD_PROXY_OBJECT
  5
30
102
{ACAD_REACTORS
330
2A
102
}
330
2A
100
AcDbProxyObject
 90
      499
 91
      501
 93
      420
310
4255DA5C99599C985B595059028333333333333E33F0000000000000F90107901411070040501600405405064090740C02480A0340
1001
ACAD
1000
AcDbSavedByObjectVersion
1070
     0
  0
ACAD_PROXY_OBJECT
  5
40
102
{ACAD_REACTORS
330
2A
102
}
330
2A
100
AcDbProxyObject
 90
      499
 91
      501
 93
      404
310
41560B54985E51940902404000000000000E03F0000000000000F9010740501907004050150841D405064090740C02480A1B40
1001
ACAD
1000
AcDbSavedByObjectVersion
1070
     0
  0
XRECORD
  5
1FF
102
{ACAD_REACTORS
330
1F5
102
}
330
1F5
100
AcDbXrecord
340
0
  0
XRECORD
  5
1FE
102
{ACAD_REACTORS
330
1F5
102
}
330
1F5
100
AcDbXrecord
 90
        0
  0
XRECORD
  5
215
102
{ACAD_REACTORS
330
1F5
102
}
330
1F5
100
AcDbXrecord
1000
DSTYLE
1002
{
1070
   179
 70
     2
1070
   171
 70
     2
1070
   143
 40
25.4
1070
   274
 70
     2
1070
    41
 40
3.0
1070
   141
 40
0.09
1070
    43
 40
0.38
1070
   278
 70
    46
1070
    44
 40
1.5
1070
    42
 40
0.0625
1070
   147
 40
1.5
1070
   272
 70
     4
1070
    73
 70
     1
1070
   172
 70
     0
1070
    74
 70
     1
1070
   283
 70
     1
1070
   340
340
6E
1070
   140
 40
3.0
1070
   284
 70
     0
1070
    78
 70
     0
1002
}
  0
XRECORD
  5
200
102
{ACAD_REACTORS
330
1F5
102
}
330
1F5
100
AcDbXrecord
  1
{21C077FC-DA4D-4D9D-ACE6-DCCAE8627579}
  0
XRECORD
  5
1F8
102
{ACAD_REACTORS
330
1F5
102
}
330
1F5
100
AcDbXrecord
  1

  0
XRECORD
  5
1FD
102
{ACAD_REACTORS
330
1F5
102
}
330
1F5
100
AcDbXrecord
 90
        4
  0
XRECORD
  5
1FA
102
{ACAD_REACTORS
330
1F5
102
}
330
1F5
100
AcDbXrecord
340
1A
  0
XRECORD
  5
1FC
102
{ACAD_REACTORS
330
1F5
102
}
330
1F5
100
AcDbXrecord
 90
    10269
  0
XRECORD
  5
1FB
102
{ACAD_REACTORS
330
1F5
102
}
330
1F5
100
AcDbXrecord
340
19
  0
XRECORD
  5
202
102
{ACAD_REACTORS
330
1F5
102
}
330
1F5
100
AcDbXrecord
 40
0.0
  0
XRECORD
  5
205
102
{ACAD_REACTORS
330
1F5
102
}
330
1F5
100
AcDbXrecord
340
0
  0
XRECORD
  5
20B
102
{ACAD_REACTORS
330
1F5
102
}
330
1F5
100
AcDbXrecord
 10
0.0
 20
0.0
 30
0.0
  0
XRECORD
  5
207
102
{ACAD_REACTORS
330
1F5
102
}
330
1F5
100
AcDbXrecord
 10
0.0
 20
0.0
 30
0.0
  0
XRECORD
  5
20A
102
{ACAD_REACTORS
330
1F5
102
}
330
1F5
100
AcDbXrecord
 10
0.0
 20
0.0
 30
0.0
  0
XRECORD
  5
208
102
{ACAD_REACTORS
330
1F5
102
}
330
1F5
100
AcDbXrecord
 10
0.0
 20
0.0
 30
0.0
  0
XRECORD
  5
209
102
{ACAD_REACTORS
330
1F5
102
}
330
1F5
100
AcDbXrecord
 10
0.0
 20
0.0
 30
0.0
  0
XRECORD
  5
206
102
{ACAD_REACTORS
330
1F5
102
}
330
1F5
100
AcDbXrecord
 10
0.0
 20
0.0
 30
0.0
  0
XRECORD
  5
203
102
{ACAD_REACTORS
330
1F5
102
}
330
1F5
100
AcDbXrecord
340
0
  0
XRECORD
  5
204
102
{ACAD_REACTORS
330
1F5
102
}
330
1F5
100
AcDbXrecord
 70
     0
  0
XRECORD
  5
1F9
102
{ACAD_REACTORS
330
1F5
102
}
330
1F5
100
AcDbXrecord
  1

  0
XRECORD
  5
1F6
102
{ACAD_REACTORS
330
1F5
102
}
330
1F5
100
AcDbXrecord
 90
        1
  0
XRECORD
  5
1F7
102
{ACAD_REACTORS
330
1F5
102
}
330
1F5
100
AcDbXrecord
 90
       70
  0
XRECORD
  5
20E
102
{ACAD_REACTORS
330
1F5
102
}
330
1F5
100
AcDbXrecord
340
0
  0
XRECORD
  5
214
102
{ACAD_REACTORS
330
1F5
102
}
330
1F5
100
AcDbXrecord
 10
0.0
 20
0.0
 30
0.0
  0
XRECORD
  5
210
102
{ACAD_REACTORS
330
1F5
102
}
330
1F5
100
AcDbXrecord
 10
0.0
 20
0.0
 30
0.0
  0
XRECORD
  5
213
102
{ACAD_REACTORS
330
1F5
102
}
330
1F5
100
AcDbXrecord
 10
0.0
 20
0.0
 30
0.0
  0
XRECORD
  5
211
102
{ACAD_REACTORS
330
1F5
102
}
330
1F5
100
AcDbXrecord
 10
0.0
 20
0.0
 30
0.0
  0
XRECORD
  5
212
102
{ACAD_REACTORS
330
1F5
102
}
330
1F5
100
AcDbXrecord
 10
0.0
 20
0.0
 30
0.0
  0
XRECORD
  5
20F
102
{ACAD_REACTORS
330
1F5
102
}
330
1F5
100
AcDbXrecord
 10
0.0
 20
0.0
 30
0.0
  0
XRECORD
  5
20C
102
{ACAD_REACTORS
330
1F5
102
}
330
1F5
100
AcDbXrecord
340
0
  0
XRECORD
  5
20D
102
{ACAD_REACTORS
330
1F5
102
}
330
1F5
100
AcDbXrecord
 70
     0
  0
XRECORD
  5
201
102
{ACAD_REACTORS
330
1F5
102
}
330
1F5
100
AcDbXrecord
  1
{FAEB1C32-E019-11D5-929B-00C0DF256EC4}
  0
DICTIONARYVAR
  5
21F
102
{ACAD_REACTORS
330
216
102
}
330
216
100
DictionaryVariables
280
     0
  1
1:1
  0
DICTIONARYVAR
  5
218
102
{ACAD_REACTORS
330
216
102
}
330
216
100
DictionaryVariables
280
     0
  1
Standard
  0
DICTIONARYVAR
  5
217
102
{ACAD_REACTORS
330
216
102
}
330
216
100
DictionaryVariables
280
     0
  1
Standard
  0
DICTIONARYVAR
  5
21B
102
{ACAD_REACTORS
330
216
102
}
330
216
100
DictionaryVariables
280
     0
  1
2
  0
DICTIONARYVAR
  5
21C
102
{ACAD_REACTORS
330
216
102
}
330
216
100
DictionaryVariables
280
     0
  1
1
  0
DICTIONARYVAR
  5
220
102
{ACAD_REACTORS
330
216
102
}
330
216
100
DictionaryVariables
280
     0
  1
1
  0
DICTIONARY
  5
223
330
45
100
AcDbDictionary
280
     1
  3
ACAD_XREC_ROUNDTRIP
360
224
  0
DICTIONARY
  5
221
330
44
100
AcDbDictionary
280
     1
  3
ACAD_XREC_ROUNDTRIP
360
222
  0
DICTIONARY
  5
225
330
46
100
AcDbDictionary
280
     1
  3
ACAD_XREC_ROUNDTRIP
360
226
  0
XRECORD
  5
224
102
{ACAD_REACTORS
330
223
102
}
330
223
100
AcDbXrecord
102
MATERIAL
148
0.0
149
0.0
149
0.0
 93
        0
 94
      127
282
     0
 72
     1
 77
     1
171
     1
175
     1
179
     1
273
     0
  0
XRECORD
  5
222
102
{ACAD_REACTORS
330
221
102
}
330
221
100
AcDbXrecord
102
MATERIAL
148
0.0
149
0.0
149
0.0
 93
        0
 94
      127
282
     0
 72
     1
 77
     1
171
     1
175
     1
179
     1
273
     0
  0
XRECORD
  5
226
102
{ACAD_REACTORS
330
225
102
}
330
225
100
AcDbXrecord
102
MATERIAL
148
0.0
149
0.0
149
0.0
 93
        0
 94
      127
282
     0
 72
     1
 77
     1
171
     1
175
     1
179
     1
273
     0
  0
ENDSEC
  0
EOF
