  0
SECTION
  2
HEADER
  9
$ACADVER
  1
AC1014
  9
$ACADMAINTVER
 70
     9
  9
$DWGCODEPAGE
  3
ANSI_932
  9
$INSBASE
 10
0.0
 20
0.0
 30
0.0
  9
$EXTMIN
 10
457.7689591386477
 20
139.7125109416031
 30
0.0
  9
$EXTMAX
 10
884.7304918174926
 20
252.3574462622513
 30
0.0
  9
$LIMMIN
 10
0.0
 20
0.0
  9
$LIMMAX
 10
12.0
 20
9.0
  9
$ORTHOMODE
 70
     0
  9
$REGENMODE
 70
     1
  9
$FILLMODE
 70
     1
  9
$QTEXTMODE
 70
     0
  9
$MIRRTEXT
 70
     1
  9
$DRAGMODE
 70
     2
  9
$LTSCALE
 40
1.0
  9
$OSMODE
 70
    37
  9
$ATTMODE
 70
     1
  9
$TEXTSIZE
 40
0.2
  9
$TRACEWID
 40
0.05
  9
$TEXTSTYLE
  7
STANDARD
  9
$CLAYER
  8
0
  9
$CELTYPE
  6
BYLAYER
  9
$CECOLOR
 62
   256
  9
$CELTSCALE
 40
1.0
  9
$DELOBJ
 70
     1
  9
$DISPSILH
 70
     0
  9
$DIMSCALE
 40
1.0
  9
$DIMASZ
 40
3.0
  9
$DIMEXO
 40
0.0625
  9
$DIMDLI
 40
0.38
  9
$DIMRND
 40
0.0
  9
$DIMDLE
 40
0.0
  9
$DIMEXE
 40
1.5
  9
$DIMTP
 40
0.0
  9
$DIMTM
 40
0.0
  9
$DIMTXT
 40
3.0
  9
$DIMCEN
 40
0.09
  9
$DIMTSZ
 40
0.0
  9
$DIMTOL
 70
     0
  9
$DIMLIM
 70
     0
  9
$DIMTIH
 70
     1
  9
$DIMTOH
 70
     1
  9
$DIMSE1
 70
     0
  9
$DIMSE2
 70
     0
  9
$DIMTAD
 70
     1
  9
$DIMZIN
 70
     0
  9
$DIMBLK
  1

  9
$DIMASO
 70
     1
  9
$DIMSHO
 70
     1
  9
$DIMPOST
  1

  9
$DIMAPOST
  1

  9
$DIMALT
 70
     0
  9
$DIMALTD
 70
     2
  9
$DIMALTF
 40
25.4
  9
$DIMLFAC
 40
1.0
  9
$DIMTOFL
 70
     0
  9
$DIMTVP
 40
0.0
  9
$DIMTIX
 70
     0
  9
$DIMSOXD
 70
     0
  9
$DIMSAH
 70
     0
  9
$DIMBLK1
  1

  9
$DIMBLK2
  1

  9
$DIMSTYLE
  2
STANDARD
  9
$DIMCLRD
 70
     0
  9
$DIMCLRE
 70
     0
  9
$DIMCLRT
 70
     0
  9
$DIMTFAC
 40
1.0
  9
$DIMGAP
 40
1.5
  9
$DIMJUST
 70
     0
  9
$DIMSD1
 70
     0
  9
$DIMSD2
 70
     0
  9
$DIMTOLJ
 70
     1
  9
$DIMTZIN
 70
     0
  9
$DIMALTZ
 70
     0
  9
$DIMALTTZ
 70
     0
  9
$DIMFIT
 70
     3
  9
$DIMUPT
 70
     0
  9
$DIMUNIT
 70
     2
  9
$DIMDEC
 70
     2
  9
$DIMTDEC
 70
     4
  9
$DIMALTU
 70
     2
  9
$DIMALTTD
 70
     2
  9
$DIMTXSTY
  7
ＭＳ_ゴシック
  9
$DIMAUNIT
 70
     0
  9
$LUNITS
 70
     2
  9
$LUPREC
 70
     4
  9
$SKETCHINC
 40
0.1
  9
$FILLETRAD
 40
0.5
  9
$AUNITS
 70
     0
  9
$AUPREC
 70
     0
  9
$MENU
  1
.
  9
$ELEVATION
 40
0.0
  9
$PELEVATION
 40
0.0
  9
$THICKNESS
 40
0.0
  9
$LIMCHECK
 70
     0
  9
$CHAMFERA
 40
0.0
  9
$CHAMFERB
 40
0.0
  9
$CHAMFERC
 40
0.0
  9
$CHAMFERD
 40
0.0
  9
$SKPOLY
 70
     0
  9
$TDCREATE
 40
2459548.622871308
  9
$TDUPDATE
 40
2459548.622871574
  9
$TDINDWG
 40
0.0000000116
  9
$TDUSRTIMER
 40
0.0000000116
  9
$USRTIMER
 70
     1
  9
$ANGBASE
 50
0.0
  9
$ANGDIR
 70
     0
  9
$PDMODE
 70
     0
  9
$PDSIZE
 40
0.0
  9
$PLINEWID
 40
0.0
  9
$COORDS
 70
     1
  9
$SPLFRAME
 70
     0
  9
$SPLINETYPE
 70
     6
  9
$SPLINESEGS
 70
     8
  9
$ATTDIA
 70
     0
  9
$ATTREQ
 70
     1
  9
$HANDLING
 70
     1
  9
$HANDSEED
  5
229
  9
$SURFTAB1
 70
     6
  9
$SURFTAB2
 70
     6
  9
$SURFTYPE
 70
     6
  9
$SURFU
 70
     6
  9
$SURFV
 70
     6
  9
$UCSNAME
  2

  9
$UCSORG
 10
0.0
 20
0.0
 30
0.0
  9
$UCSXDIR
 10
1.0
 20
0.0
 30
0.0
  9
$UCSYDIR
 10
0.0
 20
1.0
 30
0.0
  9
$PUCSNAME
  2

  9
$PUCSORG
 10
0.0
 20
0.0
 30
0.0
  9
$PUCSXDIR
 10
1.0
 20
0.0
 30
0.0
  9
$PUCSYDIR
 10
0.0
 20
1.0
 30
0.0
  9
$USERI1
 70
     0
  9
$USERI2
 70
     0
  9
$USERI3
 70
     0
  9
$USERI4
 70
     0
  9
$USERI5
 70
     0
  9
$USERR1
 40
0.0
  9
$USERR2
 40
0.0
  9
$USERR3
 40
0.0
  9
$USERR4
 40
0.0
  9
$USERR5
 40
0.0
  9
$WORLDVIEW
 70
     1
  9
$SHADEDGE
 70
     3
  9
$SHADEDIF
 70
    70
  9
$TILEMODE
 70
     1
  9
$MAXACTVP
 70
    64
  9
$PINSBASE
 10
0.0
 20
0.0
 30
0.0
  9
$PLIMCHECK
 70
     0
  9
$PEXTMIN
 10
1.000000000000000E+20
 20
1.000000000000000E+20
 30
1.000000000000000E+20
  9
$PEXTMAX
 10
-1.000000000000000E+20
 20
-1.000000000000000E+20
 30
-1.000000000000000E+20
  9
$PLIMMIN
 10
0.0
 20
0.0
  9
$PLIMMAX
 10
12.0
 20
9.0
  9
$UNITMODE
 70
     0
  9
$VISRETAIN
 70
     1
  9
$PLINEGEN
 70
     0
  9
$PSLTSCALE
 70
     1
  9
$TREEDEPTH
 70
  3020
  9
$PICKSTYLE
 70
     1
  9
$CMLSTYLE
  2
STANDARD
  9
$CMLJUST
 70
     0
  9
$CMLSCALE
 40
1.0
  9
$PROXYGRAPHICS
 70
     1
  9
$MEASUREMENT
 70
     1
  0
ENDSEC
  0
SECTION
  2
CLASSES
  0
CLASS
  1
ACDBDICTIONARYWDFLT
  2
AcDbDictionaryWithDefault
  3
ObjectDBX Classes
 90
        0
280
     0
281
     0
  0
CLASS
  1
VISUALSTYLE
  2
AcDbVisualStyle
  3
ObjectDBX Classes
 90
     4095
280
     0
281
     0
  0
CLASS
  1
MATERIAL
  2
AcDbMaterial
  3
ObjectDBX Classes
 90
     1153
280
     0
281
     0
  0
CLASS
  1
SCALE
  2
AcDbScale
  3
ObjectDBX Classes
 90
     1153
280
     0
281
     0
  0
CLASS
  1
TABLESTYLE
  2
AcDbTableStyle
  3
ObjectDBX Classes
 90
     4095
280
     0
281
     0
  0
CLASS
  1
MLEADERSTYLE
  2
AcDbMLeaderStyle
  3
ACDB_MLEADERSTYLE_CLASS
 90
     4095
280
     0
281
     0
  0
CLASS
  1
SUN
  2
AcDbSun
  3
SCENEOE
 90
     1153
280
     0
281
     0
  0
CLASS
  1
DICTIONARYVAR
  2
AcDbDictionaryVar
  3
ObjectDBX Classes
 90
        0
280
     0
281
     0
  0
CLASS
  1
XRECORD
  2
AcDbXrecord
  3
ObjectDBX Classes
 90
        0
280
     0
281
     0
  0
CLASS
  1
LWPOLYLINE
  2
AcDbPolyline
  3
ObjectDBX Classes
 90
        0
280
     0
281
     1
  0
CLASS
  1
HATCH
  2
AcDbHatch
  3
ObjectDBX Classes
 90
        0
280
     0
281
     1
  0
CLASS
  1
ACDBPLACEHOLDER
  2
AcDbPlaceHolder
  3
ObjectDBX Classes
 90
        0
280
     0
281
     0
  0
CLASS
  1
LAYOUT
  2
AcDbLayout
  3
ObjectDBX Classes
 90
        0
280
     0
281
     0
  0
ENDSEC
  0
SECTION
  2
TABLES
  0
TABLE
  2
VPORT
  5
8
102
{ACAD_XDICTIONARY
360
21E
102
}
330
0
100
AcDbSymbolTable
 70
     1
  0
VPORT
  5
29
330
8
100
AcDbSymbolTableRecord
100
AcDbViewportTableRecord
  2
*ACTIVE
 70
     0
 10
0.0
 20
0.0
 11
1.0
 21
1.0
 12
671.2497254780701
 22
196.0349786019272
 13
0.0
 23
0.0
 14
0.5
 24
0.5
 15
0.5
 25
0.5
 16
0.0
 26
0.0
 36
1.0
 17
0.0
 27
0.0
 37
0.0
 40
112.6449353206482
 41
1.6
 42
50.0
 43
0.0
 44
0.0
 50
0.0
 51
0.0
 71
     0
 72
   100
 73
     1
 74
     3
 75
     0
 76
     0
 77
     0
 78
     0
  0
ENDTAB
  0
TABLE
  2
LTYPE
  5
5
330
0
100
AcDbSymbolTable
 70
     2
  0
LTYPE
  5
14
330
5
100
AcDbSymbolTableRecord
100
AcDbLinetypeTableRecord
  2
BYBLOCK
 70
     0
  3

 72
    65
 73
     0
 40
0.0
  0
LTYPE
  5
15
330
5
100
AcDbSymbolTableRecord
100
AcDbLinetypeTableRecord
  2
BYLAYER
 70
     0
  3

 72
    65
 73
     0
 40
0.0
  0
LTYPE
  5
16
330
5
100
AcDbSymbolTableRecord
100
AcDbLinetypeTableRecord
  2
CONTINUOUS
 70
     0
  3
Solid line
 72
    65
 73
     0
 40
0.0
  0
LTYPE
  5
E9
330
5
100
AcDbSymbolTableRecord
100
AcDbLinetypeTableRecord
  2
CENTER
 70
     0
  3

 72
    65
 73
     0
 40
0.0
  0
ENDTAB
  0
TABLE
  2
LAYER
  5
2
330
0
100
AcDbSymbolTable
 70
     1
  0
LAYER
  5
10
330
2
100
AcDbSymbolTableRecord
100
AcDbLayerTableRecord
  2
0
 70
     0
 62
     7
  6
CONTINUOUS
  0
ENDTAB
  0
TABLE
  2
STYLE
  5
3
330
0
100
AcDbSymbolTable
 70
     2
  0
STYLE
  5
11
330
3
100
AcDbSymbolTableRecord
100
AcDbTextStyleTableRecord
  2
STANDARD
 70
     0
 40
0.0
 41
1.0
 50
0.0
 71
     0
 42
0.2
  3
txt
  4

  0
STYLE
  5
6E
330
3
100
AcDbSymbolTableRecord
100
AcDbTextStyleTableRecord
  2
ＭＳ_ゴシック
 70
     0
 40
0.0
 41
1.0
 50
0.0
 71
     0
 42
0.2
  3
ＭＳ ゴシック.shx
  4

  0
ENDTAB
  0
TABLE
  2
VIEW
  5
6
330
0
100
AcDbSymbolTable
 70
     0
  0
ENDTAB
  0
TABLE
  2
UCS
  5
7
330
0
100
AcDbSymbolTable
 70
     0
  0
ENDTAB
  0
TABLE
  2
APPID
  5
9
330
0
100
AcDbSymbolTable
 70
     2
  0
APPID
  5
12
330
9
100
AcDbSymbolTableRecord
100
AcDbRegAppTableRecord
  2
ACAD
 70
     0
  0
APPID
  5
228
330
9
100
AcDbSymbolTableRecord
100
AcDbRegAppTableRecord
  2
ACAD_MLEADERVER
 70
     0
  0
ENDTAB
  0
TABLE
  2
DIMSTYLE
  5
A
330
0
100
AcDbSymbolTable
 70
     1
  0
DIMSTYLE
105
27
330
A
100
AcDbSymbolTableRecord
100
AcDbDimStyleTableRecord
  2
STANDARD
 70
     0
  3

  4

  5

  6

  7

 40
1.0
 41
0.18
 42
0.0625
 43
0.38
 44
0.18
 45
0.0
 46
0.0
 47
0.0
 48
0.0
140
0.18
141
0.09
142
0.0
143
25.4
144
1.0
145
0.0
146
1.0
147
0.09
 71
     0
 72
     0
 73
     1
 74
     1
 75
     0
 76
     0
 77
     0
 78
     0
170
     0
171
     2
172
     0
173
     0
174
     0
175
     0
176
     0
177
     0
178
     0
270
     2
271
     4
272
     4
273
     2
274
     2
340
11
275
     0
280
     0
281
     0
282
     0
283
     1
284
     0
285
     0
286
     0
287
     3
288
     0
  0
ENDTAB
  0
TABLE
  2
BLOCK_RECORD
  5
1
330
0
100
AcDbSymbolTable
 70
     0
  0
BLOCK_RECORD
  5
1F
330
1
100
AcDbSymbolTableRecord
100
AcDbBlockTableRecord
  2
*MODEL_SPACE
  0
BLOCK_RECORD
  5
1B
330
1
100
AcDbSymbolTableRecord
100
AcDbBlockTableRecord
  2
*PAPER_SPACE
  0
ENDTAB
  0
ENDSEC
  0
SECTION
  2
BLOCKS
  0
BLOCK
  5
20
330
1F
100
AcDbEntity
  8
0
100
AcDbBlockBegin
  2
*MODEL_SPACE
 70
     0
 10
0.0
 20
0.0
 30
0.0
  3
*MODEL_SPACE
  1

  0
ENDBLK
  5
21
330
1F
100
AcDbEntity
  8
0
100
AcDbBlockEnd
  0
BLOCK
  5
1C
330
1B
100
AcDbEntity
 67
     1
  8
0
100
AcDbBlockBegin
  2
*PAPER_SPACE
 70
     0
 10
0.0
 20
0.0
 30
0.0
  3
*PAPER_SPACE
  1

  0
ENDBLK
  5
1D
330
1B
100
AcDbEntity
 67
     1
  8
0
100
AcDbBlockEnd
  0
ENDSEC
  0
SECTION
  2
ENTITIES
  0
LWPOLYLINE
  5
6F
330
1F
100
AcDbEntity
  8
0
  6
CONTINUOUS
 62
     7
100
AcDbPolyline
 90
       33
 70
     0
 43
0.0
 10
-757.6630405750316
 20
249.2794654501756
 10
-757.6752417478403
 20
249.3455034402847
 10
-757.6874429206495
 20
249.4094748429166
 10
-757.6996440934581
 20
249.4713738222176
 10
-757.7118452662671
 20
249.5311958554315
 10
-757.724046439076
 20
249.588939258886
 10
-757.7362476118849
 20
249.6446027193936
 10
-757.7484487846938
 20
249.6981849237672
 10
-757.7606499575027
 20
249.7496845588196
 10
-757.7728511303117
 20
249.7991003113636
 10
-757.7850523031203
 20
249.8464308682121
 10
-757.7972534759294
 20
249.8916749161775
 10
-757.8094546487382
 20
249.934831142073
 10
-757.8216558215471
 20
249.9758982327112
 10
-757.833856994356
 20
250.014874874905
 10
-757.8460581671649
 20
250.051759755467
 10
-757.8582593399738
 20
250.0865515612101
 10
-757.8704605127826
 20
250.1192489789471
 10
-757.8826616855914
 20
250.1498506954907
 10
-757.8948628584005
 20
250.1783553976538
 10
-757.9070640312093
 20
250.204761772249
 10
-757.9192652040181
 20
250.2290685060893
 10
-757.9314663768271
 20
250.2512742859875
 10
-757.943667549636
 20
250.2713777987562
 10
-757.9558687224447
 20
250.2893777312082
 10
-757.9680698952536
 20
250.3052727701564
 10
-757.9802710680626
 20
250.3190616024136
 10
-757.9924722408713
 20
250.3307429147924
 10
-758.0046734136803
 20
250.3403153941059
 10
-758.0168745864893
 20
250.3477777271666
 10
-758.0290757592979
 20
250.3531286007873
 10
-758.041276932107
 20
250.356366701781
 10
-758.0534781049156
 20
250.3574907169603
210
0.0
220
0.0
230
-1.0
  0
LWPOLYLINE
  5
70
330
1F
100
AcDbEntity
  8
0
  6
CONTINUOUS
 62
     7
100
AcDbPolyline
 90
        5
 70
     0
 43
0.0
 10
717.906775091994
 20
247.2879143561523
 10
717.8405472303326
 20
247.5155191254457
 10
717.7743449563218
 20
247.6855650772352
 10
717.7061886435994
 20
247.8001139440378
 10
717.6127646640866
 20
247.8578630770421
  0
LWPOLYLINE
  5
71
330
1F
100
AcDbEntity
  8
0
  6
CONTINUOUS
 62
     7
100
AcDbPolyline
 90
       33
 70
     0
 43
0.0
 10
-747.6626986193485
 20
249.2776262994741
 10
-747.6748975992529
 20
249.3436823234074
 10
-747.687096579157
 20
249.4076702076051
 10
-747.6992955590613
 20
249.4695882846718
 10
-747.7114945389657
 20
249.5294349451458
 10
-747.7236935188699
 20
249.5872085795654
 10
-747.7358924987741
 20
249.6429075784687
 10
-747.7480914786785
 20
249.6965303323945
 10
-747.7602904585827
 20
249.7480752318808
 10
-747.7724894384869
 20
249.7975406674661
 10
-747.7846884183912
 20
249.8449250296886
 10
-747.7968873982954
 20
249.8902267090866
 10
-747.8090863781998
 20
249.9334440961986
 10
-747.821285358104
 20
249.9745755815628
 10
-747.8334843380084
 20
250.0136195557176
 10
-747.8456833179127
 20
250.0505744092013
 10
-747.8578822978168
 20
250.0854385325522
 10
-747.8700812777212
 20
250.1182103163087
 10
-747.8822802576253
 20
250.148888151009
 10
-747.8944792375296
 20
250.1774704271916
 10
-747.9066782174339
 20
250.2039555353948
 10
-747.9188771973381
 20
250.2283418661568
 10
-747.9310761772424
 20
250.250627810016
 10
-747.9432751571467
 20
250.2708117575108
 10
-747.9554741370509
 20
250.2888920991794
 10
-747.9676731169552
 20
250.3048672255603
 10
-747.9798720968597
 20
250.3187355271917
 10
-747.992071076764
 20
250.3304953946119
 10
-748.0042700566681
 20
250.3401452183594
 10
-748.0164690365724
 20
250.3476833889724
 10
-748.0286680164768
 20
250.3531082969892
 10
-748.0408669963809
 20
250.3564183329482
 10
-748.0530659762854
 20
250.3576118873877
210
0.0
220
0.0
230
-1.0
  0
LWPOLYLINE
  5
72
330
1F
100
AcDbEntity
  8
0
  6
CONTINUOUS
 62
     7
100
AcDbPolyline
 90
        6
 70
     0
 43
0.0
 10
767.9651227875501
 20
247.0405340349192
 10
767.8988404513575
 20
247.3182143805419
 10
767.8325438163819
 20
247.5389473171958
 10
767.7663085343156
 20
247.7020874423108
 10
767.6981862626042
 20
247.8095005792458
 10
767.6128295489846
 20
247.8578630770095
  0
LWPOLYLINE
  5
73
330
1F
100
AcDbEntity
  8
0
  6
CONTINUOUS
 62
     7
100
AcDbPolyline
 90
       33
 70
     0
 43
0.0
 10
-687.6624142306434
 20
249.2755070725816
 10
-687.674622698916
 20
249.3416368454284
 10
-687.6868311671886
 20
249.4057144226129
 10
-687.6990396354612
 20
249.4677364197304
 10
-687.7112481037337
 20
249.5276994523761
 10
-687.7234565720064
 20
249.5856001361452
 10
-687.735665040279
 20
249.6414350866332
 10
-687.7478735085515
 20
249.6952009194349
 10
-687.7600819768243
 20
249.7468942501459
 10
-687.7722904450968
 20
249.7965116943613
 10
-687.7844989133694
 20
249.8440498676765
 10
-687.7967073816419
 20
249.8895053856864
 10
-687.8089158499145
 20
249.9328748639866
 10
-687.821124318187
 20
249.9741549181721
 10
-687.8333327864596
 20
250.0133421638384
 10
-687.8455412547322
 20
250.0504332165805
 10
-687.857749723005
 20
250.0854246919938
 10
-687.8699581912774
 20
250.1183132056733
 10
-687.8821666595499
 20
250.1490953732145
 10
-687.8943751278225
 20
250.1777678102127
 10
-687.9065835960953
 20
250.2043271322629
 10
-687.9187920643678
 20
250.2287699549605
 10
-687.9310005326404
 20
250.2510928939006
 10
-687.943209000913
 20
250.2712925646786
 10
-687.9554174691856
 20
250.2893657113718
 10
-687.9676259374581
 20
250.3053114441207
 10
-687.9798344057307
 20
250.3191309518735
 10
-687.9920428740032
 20
250.3308254943079
 10
-688.0042513422759
 20
250.3403963311018
 10
-688.0164598105484
 20
250.3478447219329
 10
-688.0286682788212
 20
250.353171926479
 10
-688.0408767470938
 20
250.3563792044176
 10
-688.0530852153663
 20
250.3574678154267
210
0.0
220
0.0
230
-1.0
  0
LWPOLYLINE
  5
74
330
1F
100
AcDbEntity
  8
0
  6
CONTINUOUS
 62
     7
100
AcDbPolyline
 90
       33
 70
     0
 43
0.0
 10
682.662381002648
 20
179.4404338817781
 10
682.6746135908066
 20
179.3741622057312
 10
682.6868461789653
 20
179.3099504013462
 10
682.6990787671239
 20
179.2478020200387
 10
682.7113113552825
 20
179.1877206132248
 10
682.7235439434412
 20
179.1297097323205
 10
682.7357765315999
 20
179.0737729287416
 10
682.7480091197584
 20
179.019913753904
 10
682.7602417079172
 20
178.9681357592239
 10
682.7724742960759
 20
178.9184424961169
 10
682.7847068842345
 20
178.8708375159992
 10
682.7969394723931
 20
178.8253243702865
 10
682.8091720605516
 20
178.7819066103949
 10
682.8214046487103
 20
178.7405877877403
 10
682.8336372368691
 20
178.7013714537386
 10
682.8458698250278
 20
178.6642611598057
 10
682.8581024131863
 20
178.6292604573576
 10
682.8703350013451
 20
178.5963728978103
 10
682.8825675895037
 20
178.5656020325795
 10
682.8948001776623
 20
178.5369514130813
 10
682.907032765821
 20
178.5104245907316
 10
682.9192653539797
 20
178.4860251169465
 10
682.9314979421383
 20
178.4637565431416
 10
682.943730530297
 20
178.4436220434033
 10
682.9559631184555
 20
178.4256218709118
 10
682.9681957066142
 20
178.4097549161052
 10
682.9804282947729
 20
178.3960200617584
 10
682.9926608829314
 20
178.384416190646
 10
683.0048934710901
 20
178.3749421855427
 10
683.0171260592488
 20
178.3675969292235
 10
683.0293586474077
 20
178.3623793044629
 10
683.0415912355662
 20
178.3592881940357
 10
683.0538238237248
 20
178.3583224807166
  0
LWPOLYLINE
  5
75
330
1F
100
AcDbEntity
  8
0
  6
CONTINUOUS
 62
     7
100
AcDbPolyline
 90
       33
 70
     0
 43
0.0
 10
-677.6622030609362
 20
249.2742903037942
 10
-677.6744256297442
 20
249.3405466259185
 10
-677.6866481985522
 20
249.4047467670646
 10
-677.6988707673602
 20
249.466887038282
 10
-677.7110933361681
 20
249.5269637506206
 10
-677.7233159049758
 20
249.5849732151299
 10
-677.7355384737841
 20
249.6409117428597
 10
-677.7477610425918
 20
249.6947756448598
 10
-677.7599836113999
 20
249.7465612321797
 10
-677.772206180208
 20
249.7962648158691
 10
-677.7844287490159
 20
249.8438827069779
 10
-677.7966513178238
 20
249.8894112165556
 10
-677.8088738866319
 20
249.932846655652
 10
-677.8210964554397
 20
249.9741853353168
 10
-677.8333190242478
 20
250.0134235665996
 10
-677.8455415930557
 20
250.0505576605502
 10
-677.8577641618635
 20
250.0855839282182
 10
-677.8699867306716
 20
250.1184986806534
 10
-677.8822092994795
 20
250.1492982289054
 10
-677.8944318682875
 20
250.1779788840239
 10
-677.9066544370954
 20
250.2045369570587
 10
-677.9188770059034
 20
250.2289687590594
 10
-677.9310995747112
 20
250.2512712585472
 10
-677.9433221435191
 20
250.2714445135468
 10
-677.9555447123273
 20
250.2894894887621
 10
-677.9677672811353
 20
250.3054071490164
 10
-677.9799898499431
 20
250.3191984591332
 10
-677.9922124187511
 20
250.3308643839358
 10
-678.0044349875591
 20
250.3404058882477
 10
-678.0166575563671
 20
250.3478239368921
 10
-678.0288801251752
 20
250.3531194946924
 10
-678.041102693983
 20
250.356293526472
 10
-678.0533252627911
 20
250.3573469970544
210
0.0
220
0.0
230
-1.0
  0
LWPOLYLINE
  5
76
330
1F
100
AcDbEntity
  8
0
  6
CONTINUOUS
 62
     7
100
AcDbPolyline
 90
        6
 70
     0
 43
0.0
 10
687.9364330074527
 20
247.1674975473805
 10
687.870262235516
 20
247.42036179923
 10
687.8040406310691
 20
247.6161965719251
 10
687.7378059379106
 20
247.7545688993245
 10
687.671595899839
 20
247.8350458152868
 10
687.6128125070547
 20
247.857863077019
  0
LWPOLYLINE
  5
77
330
1F
100
AcDbEntity
  8
0
  6
CONTINUOUS
 62
     7
100
AcDbPolyline
 90
        5
 70
     0
 43
0.0
 10
727.9196324404317
 20
247.2372648768753
 10
727.8514583840765
 20
247.4818676644741
 10
727.7832601228815
 20
247.6658725372275
 10
727.7150989881525
 20
247.7886917306658
 10
727.6127598451701
 20
247.8578630770661
  0
LWPOLYLINE
  5
78
330
1F
100
AcDbEntity
  8
0
  6
CONTINUOUS
 62
     7
100
AcDbPolyline
 90
       33
 70
     0
 43
0.0
 10
-731.5536682857874
 20
250.3577914796242
 10
-731.5658849126751
 20
250.3567182932483
 10
-731.5781015395628
 20
250.3535102958367
 10
-731.5903181664506
 20
250.3481692492487
 10
-731.6025347933382
 20
250.3406976055983
 10
-731.6147514202261
 20
250.3310978169994
 10
-731.6269680471138
 20
250.3193723355658
 10
-731.6391846740015
 20
250.3055236134115
 10
-731.6514013008893
 20
250.2895541026504
 10
-731.6636179277771
 20
250.2714662553965
 10
-731.6758345546647
 20
250.2512625237636
 10
-731.6880511815525
 20
250.2289453598656
 10
-731.7002678084403
 20
250.2045172158165
 10
-731.712484435328
 20
250.1779805437302
 10
-731.7247010622157
 20
250.1493377957205
 10
-731.7369176891035
 20
250.1185914239015
 10
-731.7491343159912
 20
250.0857438803871
 10
-731.7613509428791
 20
250.0507976172911
 10
-731.7735675697669
 20
250.0137550867274
 10
-731.7857841966545
 20
249.97461874081
 10
-731.7980008235421
 20
249.9333910316528
 10
-731.8102174504301
 20
249.8900744113698
 10
-731.8224340773177
 20
249.8446713320747
 10
-731.8346507042055
 20
249.7971842458816
 10
-731.8468673310931
 20
249.7476156049043
 10
-731.8590839579808
 20
249.6959678612569
 10
-731.8713005848688
 20
249.6422434670531
 10
-731.8835172117563
 20
249.5864448744069
 10
-731.8957338386442
 20
249.5285745354323
 10
-731.9079504655319
 20
249.468634902243
 10
-731.9201670924195
 20
249.4066284269531
 10
-731.9323837193074
 20
249.3425575616765
 10
-731.9446003461952
 20
249.2764247585262
210
0.0
220
0.0
230
-1.0
  0
LWPOLYLINE
  5
79
330
1F
100
AcDbEntity
  8
0
  6
CONTINUOUS
 62
     7
100
AcDbPolyline
 90
       33
 70
     0
 43
0.0
 10
-701.5538245292124
 20
250.3575994880343
 10
-701.5660316230872
 20
250.3564428202947
 10
-701.5782387169621
 20
250.3531674811575
 10
-701.5904458108373
 20
250.347775027541
 10
-701.6026529047122
 20
250.3402670163639
 10
-701.6148599985871
 20
250.3306450045446
 10
-701.627067092462
 20
250.3189105490019
 10
-701.6392741863369
 20
250.3050652066542
 10
-701.6514812802118
 20
250.2891105344201
 10
-701.6636883740867
 20
250.2710480892183
 10
-701.6758954679618
 20
250.2508794279672
 10
-701.6881025618367
 20
250.2286061075854
 10
-701.7003096557116
 20
250.2042296849915
 10
-701.7125167495865
 20
250.1777517171041
 10
-701.7247238434613
 20
250.1491737608417
 10
-701.7369309373364
 20
250.1184973731229
 10
-701.7491380312113
 20
250.0857241108662
 10
-701.7613451250863
 20
250.0508555309904
 10
-701.7735522189612
 20
250.0138931904138
 10
-701.7857593128361
 20
249.974838646055
 10
-701.797966406711
 20
249.9336934548326
 10
-701.8101735005861
 20
249.8904591736654
 10
-701.8223805944608
 20
249.8451373594716
 10
-701.8345876883359
 20
249.79772956917
 10
-701.8467947822108
 20
249.7482373596791
 10
-701.8590018760857
 20
249.6966622879174
 10
-701.8712089699607
 20
249.6430059108035
 10
-701.8834160638355
 20
249.5872697852561
 10
-701.8956231577105
 20
249.5294554681937
 10
-701.9078302515854
 20
249.4695645165348
 10
-701.9200373454604
 20
249.407598487198
 10
-701.9322444393352
 20
249.3435589371018
 10
-701.9444515332102
 20
249.2774479300207
210
0.0
220
0.0
230
-1.0
  0
LWPOLYLINE
  5
7A
330
1F
100
AcDbEntity
  8
0
  6
CONTINUOUS
 62
     7
100
AcDbPolyline
 90
       33
 70
     0
 43
0.0
 10
-691.553085229172
 20
250.3574758759515
 10
-691.5653152539091
 20
250.356443388627
 10
-691.5775452786462
 20
250.3532872759349
 10
-691.5897753033835
 20
250.3480088042379
 10
-691.6020053281205
 20
250.3406092398983
 10
-691.6142353528576
 20
250.3310898492786
 10
-691.6264653775949
 20
250.3194518987412
 10
-691.6386954023319
 20
250.3056966546486
 10
-691.6509254270691
 20
250.2898253833633
 10
-691.6631554518062
 20
250.2718393512476
 10
-691.6753854765434
 20
250.2517398246641
 10
-691.6876155012806
 20
250.2295280699751
 10
-691.6998455260177
 20
250.2052053535432
 10
-691.7120755507549
 20
250.1787729417308
 10
-691.7243055754919
 20
250.1502321009002
 10
-691.736535600229
 20
250.119584097414
 10
-691.7487656249662
 20
250.0868301976346
 10
-691.7609956497034
 20
250.0519716679246
 10
-691.7732256744406
 20
250.0150097746462
 10
-691.7854556991776
 20
249.975945784162
 10
-691.7976857239148
 20
249.9347809628343
 10
-691.809915748652
 20
249.8915165770258
 10
-691.822145773389
 20
249.8461538930987
 10
-691.8343757981263
 20
249.7986941774156
 10
-691.8466058228635
 20
249.7491386963389
 10
-691.8588358476006
 20
249.697488716231
 10
-691.8710658723377
 20
249.6437455034545
 10
-691.8832958970747
 20
249.5879103243716
 10
-691.895525921812
 20
249.529984445345
 10
-691.9077559465492
 20
249.4699691460679
 10
-691.9199859712862
 20
249.4078671740298
 10
-691.9322159960234
 20
249.343684052438
 10
-691.9444460207607
 20
249.2774256131924
210
0.0
220
0.0
230
-1.0
  0
LWPOLYLINE
  5
7B
330
1F
100
AcDbEntity
  8
0
  6
CONTINUOUS
 62
     7
100
AcDbPolyline
 90
       33
 70
     0
 43
0.0
 10
-707.6622389968899
 20
249.2747447514618
 10
-707.6744538079215
 20
249.3409163485897
 10
-707.686668618953
 20
249.4050301305772
 10
-707.6988834299846
 20
249.4670832955563
 10
-707.7110982410161
 20
249.5270730416595
 10
-707.7233130520478
 20
249.5849965670189
 10
-707.7355278630795
 20
249.6408510697669
 10
-707.747742674111
 20
249.6946337480356
 10
-707.7599574851425
 20
249.7463417999573
 10
-707.7721722961741
 20
249.7959724236645
 10
-707.7843871072056
 20
249.8435228172892
 10
-707.7966019182375
 20
249.8889901789637
 10
-707.808816729269
 20
249.9323717068203
 10
-707.8210315403005
 20
249.9736645989913
 10
-707.8332463513321
 20
250.012866053609
 10
-707.8454611623638
 20
250.0499732688055
 10
-707.8576759733953
 20
250.0849834427132
 10
-707.869890784427
 20
250.1178937734643
 10
-707.8821055954586
 20
250.1487014591912
 10
-707.8943204064901
 20
250.177403698026
 10
-707.9065352175217
 20
250.203997688101
 10
-707.9187500285532
 20
250.2284806275484
 10
-707.9309648395849
 20
250.2508497145008
 10
-707.9431796506167
 20
250.2711021470901
 10
-707.955394461648
 20
250.2892351234486
 10
-707.9676092726797
 20
250.3052458417087
 10
-707.9798240837113
 20
250.3191315000026
 10
-707.9920388947428
 20
250.3308892964626
 10
-708.0042537057743
 20
250.3405164292209
 10
-708.0164685168058
 20
250.3480104513505
 10
-708.0286833278376
 20
250.3533718046076
 10
-708.0408981388691
 20
250.3566023371594
 10
-708.0531129499007
 20
250.3577039065855
210
0.0
220
0.0
230
-1.0
  0
LWPOLYLINE
  5
7C
330
1F
100
AcDbEntity
  8
0
  6
CONTINUOUS
 62
     7
100
AcDbPolyline
 90
       33
 70
     0
 43
0.0
 10
-741.5531686604522
 20
250.3577269527885
 10
-741.5654042628045
 20
250.3567638783418
 10
-741.5776398651566
 20
250.3536638072528
 10
-741.5898754675087
 20
250.3484248164015
 10
-741.6021110698609
 20
250.3410451641971
 10
-741.6143466722132
 20
250.3315256707877
 10
-741.6265822745653
 20
250.3198690522109
 10
-741.6388178769175
 20
250.3060780690709
 10
-741.6510534792698
 20
250.2901554819721
 10
-741.6632890816218
 20
250.2721040515189
 10
-741.675524683974
 20
250.2519265383155
 10
-741.6877602863261
 20
250.2296257029663
 10
-741.6999958886784
 20
250.2052043060756
 10
-741.7122314910306
 20
250.1786651082477
 10
-741.7244670933827
 20
250.1500108700869
 10
-741.7367026957347
 20
250.1192443521975
 10
-741.7489382980868
 20
250.0863683151838
 10
-741.7611739004392
 20
250.0513855196503
 10
-741.7734095027913
 20
250.0142987262011
 10
-741.7856451051434
 20
249.9751106954406
 10
-741.7978807074957
 20
249.9338241879732
 10
-741.8101163098479
 20
249.8904419644032
 10
-741.8223519121999
 20
249.8449667853347
 10
-741.8345875145523
 20
249.7974014113723
 10
-741.8468231169045
 20
249.7477486031201
 10
-741.8590587192566
 20
249.6960111211826
 10
-741.871294321609
 20
249.6421917261639
 10
-741.8835299239609
 20
249.5862931786685
 10
-741.8957655263132
 20
249.5283182393007
 10
-741.9080011286654
 20
249.4682696686647
 10
-741.9202367310173
 20
249.4061502273649
 10
-741.9324723333696
 20
249.3419626760057
 10
-741.9447079357218
 20
249.2757097751913
210
0.0
220
0.0
230
-1.0
  0
LWPOLYLINE
  5
7D
330
1F
100
AcDbEntity
  8
0
  6
CONTINUOUS
 62
     7
100
AcDbPolyline
 90
       33
 70
     0
 43
0.0
 10
626.5533878733814
 20
178.3584674701142
 10
626.5656131120924
 20
178.3594606861583
 10
626.5778383508032
 20
178.3625732248612
 10
626.5900635895142
 20
178.3678057706759
 10
626.602288828225
 20
178.3751590080552
 10
626.6145140669358
 20
178.3846336214521
 10
626.6267393056468
 20
178.3962302953195
 10
626.6389645443577
 20
178.4099497141102
 10
626.6511897830683
 20
178.4257925622771
 10
626.6634150217794
 20
178.4437595242732
 10
626.6756402604901
 20
178.4638512845514
 10
626.687865499201
 20
178.4860685275644
 10
626.700090737912
 20
178.5104119377653
 10
626.7123159766229
 20
178.5368821996069
 10
626.7245412153338
 20
178.5654796218234
 10
626.7367664540445
 20
178.5962016043551
 10
626.7489916927553
 20
178.6290441899089
 10
626.7612169314664
 20
178.6640034135554
 10
626.7734421701772
 20
178.7010753103654
 10
626.7856674088882
 20
178.7402559154096
 10
626.7978926475989
 20
178.7815412637586
 10
626.8101178863099
 20
178.8249273904833
 10
626.8223431250207
 20
178.8704103306544
 10
626.8345683637317
 20
178.9179861193424
 10
626.8467936024425
 20
178.9676507916183
 10
626.8590188411533
 20
179.0194003825526
 10
626.8712440798643
 20
179.0732309272161
 10
626.8834693185752
 20
179.1291384606796
 10
626.8956945572861
 20
179.1871190180137
 10
626.907919795997
 20
179.2471686342892
 10
626.9201450347077
 20
179.3092833445767
 10
626.9323702734188
 20
179.373459183947
 10
626.9445955121296
 20
179.4396921874707
  0
LWPOLYLINE
  5
7E
330
1F
100
AcDbEntity
  8
0
  6
CONTINUOUS
 62
     7
100
AcDbPolyline
 90
       33
 70
     0
 43
0.0
 10
752.6652058525456
 20
179.4243646574049
 10
752.6773356295358
 20
179.3590843294256
 10
752.6894654065261
 20
179.2958497976684
 10
752.7015951835162
 20
179.2346644666308
 10
752.7137249605065
 20
179.1755298290512
 10
752.7258547374968
 20
179.1184473212378
 10
752.7379845144872
 20
179.0634183794984
 10
752.7501142914771
 20
179.0104444401412
 10
752.7622440684673
 20
178.9595269394741
 10
752.7743738454575
 20
178.9106673138051
 10
752.786503622448
 20
178.8638669994424
 10
752.7986333994381
 20
178.8191274326939
 10
752.8107631764284
 20
178.7764500498675
 10
752.8228929534187
 20
178.7358362872714
 10
752.8350227304089
 20
178.6972875812135
 10
752.8471525073991
 20
178.660805368002
 10
752.8592822843893
 20
178.6263910839447
 10
752.8714120613795
 20
178.5940461653497
 10
752.8835418383698
 20
178.5637720485251
 10
752.89567161536
 20
178.5355701697787
 10
752.9078013923502
 20
178.5094419654188
 10
752.9199311693404
 20
178.4853888717533
 10
752.9320609463307
 20
178.4634123250901
 10
752.9441907233211
 20
178.4435137617374
 10
752.9563205003112
 20
178.4256946180031
 10
752.9684502773014
 20
178.4099563301953
 10
752.9805800542916
 20
178.3963003346219
 10
752.992709831282
 20
178.3847280675911
 10
753.0048396082723
 20
178.3752409654107
 10
753.0169693852624
 20
178.3678404643889
 10
753.0290991622527
 20
178.3625280008337
 10
753.041228939243
 20
178.359305011053
 10
753.0533587162327
 20
178.3581729313548
  0
LWPOLYLINE
  5
7F
330
1F
100
AcDbEntity
  8
0
  6
CONTINUOUS
 62
     7
100
AcDbPolyline
 90
       33
 70
     0
 43
0.0
 10
722.6622467614786
 20
179.4407552863236
 10
722.6744607254155
 20
179.3745898050203
 10
722.6866746893522
 20
179.3104863850459
 10
722.698888653289
 20
179.2484473844017
 10
722.711102617226
 20
179.188475161089
 10
722.7233165811629
 20
179.1305720731091
 10
722.7355305450997
 20
179.0747404784633
 10
722.7477445090364
 20
179.0209827351528
 10
722.7599584729733
 20
178.9693012011789
 10
722.7721724369101
 20
178.9196982345429
 10
722.784386400847
 20
178.8721761932461
 10
722.7966003647838
 20
178.8267374352898
 10
722.8088143287205
 20
178.7833843186752
 10
722.8210282926574
 20
178.7421192014037
 10
722.8332422565943
 20
178.7029444414765
 10
722.8454562205311
 20
178.6658623968949
 10
722.857670184468
 20
178.6308754256602
 10
722.8698841484048
 20
178.5979858857736
 10
722.8820981123417
 20
178.5671961352365
 10
722.8943120762783
 20
178.53850853205
 10
722.9065260402151
 20
178.5119254342157
 10
722.9187400041519
 20
178.4874491997346
 10
722.9309539680888
 20
178.4650821866081
 10
722.9431679320255
 20
178.4448267528374
 10
722.9553818959625
 20
178.4266852564239
 10
722.9675958598993
 20
178.4106600553689
 10
722.9798098238361
 20
178.3967535076735
 10
722.992023787773
 20
178.3849679713391
 10
723.0042377517099
 20
178.375305804367
 10
723.0164517156467
 20
178.3677693647584
 10
723.0286656795836
 20
178.3623610105147
 10
723.0408796435206
 20
178.3590830996371
 10
723.0530936074572
 20
178.3579379851377
  0
LWPOLYLINE
  5
80
330
1F
100
AcDbEntity
  8
0
  6
CONTINUOUS
 62
     7
100
AcDbPolyline
 90
       33
 70
     0
 43
0.0
 10
-767.6627684941012
 20
249.2778787632052
 10
-767.6749793276108
 20
249.3440315236439
 10
-767.6871901611203
 20
249.4081190288775
 10
-767.6994009946297
 20
249.4701357021397
 10
-767.7116118281392
 20
249.5300759666646
 10
-767.7238226616488
 20
249.587934245686
 10
-767.7360334951583
 20
249.6437053541154
 10
-767.7482443286679
 20
249.6973869847289
 10
-767.7604551621774
 20
249.7489781135949
 10
-767.7726659956869
 20
249.7984777226957
 10
-767.7848768291964
 20
249.8458847940138
 10
-767.797087662706
 20
249.8911983095313
 10
-767.8092984962154
 20
249.9344172512306
 10
-767.821509329725
 20
249.975540601094
 10
-767.8337201632345
 20
250.0145673411039
 10
-767.8459309967441
 20
250.0514964532424
 10
-767.8581418302535
 20
250.086326919492
 10
-767.8703526637631
 20
250.119057721835
 10
-767.8825634972725
 20
250.1496878422535
 10
-767.8947743307821
 20
250.1782162627301
 10
-767.9069851642917
 20
250.204641965247
 10
-767.9191959978011
 20
250.2289639317865
 10
-767.9314068313108
 20
250.2511811443309
 10
-767.9436176648201
 20
250.2712925848624
 10
-767.9558284983298
 20
250.2892972353636
 10
-767.9680393318392
 20
250.3051940778165
 10
-767.9802501653488
 20
250.3189820942037
 10
-767.9924609988584
 20
250.3306602665072
 10
-768.0046718323679
 20
250.3402275767096
 10
-768.0168826658773
 20
250.347683006793
 10
-768.0290934993868
 20
250.3530255387398
 10
-768.0413043328963
 20
250.3562541545323
 10
-768.0535151664062
 20
250.3573678361529
210
0.0
220
0.0
230
-1.0
  0
LWPOLYLINE
  5
81
330
1F
100
AcDbEntity
  8
0
  6
CONTINUOUS
 62
     7
100
AcDbPolyline
 90
       33
 70
     0
 43
0.0
 10
712.6622237817047
 20
179.4410036858598
 10
712.6744594111557
 20
179.3747204658874
 10
712.6866950406067
 20
179.3105034177102
 10
712.6989306700575
 20
179.2483552092176
 10
712.7111662995085
 20
179.1882785082989
 10
712.7234019289594
 20
179.1302759828436
 10
712.7356375584104
 20
179.0743503007411
 10
712.7478731878615
 20
179.0205041298808
 10
712.7601088173122
 20
178.9687401381521
 10
712.7723444467632
 20
178.9190609934444
 10
712.7845800762142
 20
178.8714693636471
 10
712.7968157056652
 20
178.8259679166497
 10
712.809051335116
 20
178.7825593203415
 10
712.8212869645671
 20
178.7412462426119
 10
712.833522594018
 20
178.7020313513504
 10
712.8457582234689
 20
178.6649173144464
 10
712.8579938529197
 20
178.6299067997892
 10
712.8702294823707
 20
178.5970024752683
 10
712.8824651118216
 20
178.5662070087731
 10
712.8947007412727
 20
178.5375230681931
 10
712.9069363707237
 20
178.5109533214175
 10
712.9191720001745
 20
178.4865004363358
 10
712.9314076296254
 20
178.4641670808375
 10
712.9436432590763
 20
178.4439559228119
 10
712.9558788885273
 20
178.4258696301485
 10
712.9681145179782
 20
178.4099108707366
 10
712.9803501474291
 20
178.3960823124658
 10
712.9925857768801
 20
178.3843866232253
 10
713.004821406331
 20
178.3748264709045
 10
713.0170570357818
 20
178.367404523393
 10
713.029292665233
 20
178.3621232581217
 10
713.041528294684
 20
178.3589825652461
 10
713.0537639241345
 20
178.3579804695108
  0
LWPOLYLINE
  5
82
330
1F
100
AcDbEntity
  8
0
  6
CONTINUOUS
 62
     7
100
AcDbPolyline
 90
       33
 70
     0
 43
0.0
 10
702.662259168175
 20
179.4409292010028
 10
702.6744727630836
 20
179.3747639423757
 10
702.6866863579924
 20
179.310654942875
 10
702.698899952901
 20
179.2486051508254
 10
702.7111135478096
 20
179.1886175145515
 10
702.7233271427184
 20
179.1306949823778
 10
702.735540737627
 20
179.0748405026291
 10
702.7477543325357
 20
179.02105702363
 10
702.7599679274444
 20
178.9693474937052
 10
702.772181522353
 20
178.9197148611792
 10
702.7843951172617
 20
178.8721620743767
 10
702.7966087121705
 20
178.8266920816223
 10
702.8088223070791
 20
178.7833078312406
 10
702.8210359019879
 20
178.7420122715563
 10
702.8332494968967
 20
178.7028083508941
 10
702.8454630918053
 20
178.6656990175785
 10
702.8576766867138
 20
178.6306872199341
 10
702.8698902816228
 20
178.5977759062858
 10
702.8821038765313
 20
178.5669680249579
 10
702.89431747144
 20
178.5382665242752
 10
702.9065310663487
 20
178.5116743525623
 10
702.9187446612573
 20
178.4871944581439
 10
702.9309582561659
 20
178.4648297893445
 10
702.9431718510746
 20
178.4445832944889
 10
702.9553854459834
 20
178.4264579219016
 10
702.9675990408921
 20
178.4104566199073
 10
702.9798126358008
 20
178.3965823368306
 10
702.9920262307096
 20
178.3848380209961
 10
703.0042398256182
 20
178.3752259264713
 10
703.0164534205269
 20
178.3677452089944
 10
703.0286670154355
 20
178.3623941603157
 10
703.0408806103442
 20
178.3591710721475
 10
703.053094205253
 20
178.3580742362021
  0
LWPOLYLINE
  5
83
330
1F
100
AcDbEntity
  8
0
  6
CONTINUOUS
 62
     7
100
AcDbPolyline
 90
       33
 70
     0
 43
0.0
 10
662.6625750037913
 20
179.4393964167615
 10
662.6747902470291
 20
179.3732163336056
 10
662.687005490267
 20
179.3090903533391
 10
662.6992207335048
 20
179.2470225943511
 10
662.7114359767426
 20
179.1870171750309
 10
662.7236512199804
 20
179.1290782137679
 10
662.7358664632183
 20
179.0732098289512
 10
662.7480817064562
 20
179.0194161389703
 10
662.7602969496941
 20
178.9677012622142
 10
662.7725121929318
 20
178.9180693170724
 10
662.7847274361698
 20
178.8705244219342
 10
662.7969426794075
 20
178.8250706951886
 10
662.8091579226453
 20
178.7817122552252
 10
662.8213731658832
 20
178.740453220433
 10
662.8335884091211
 20
178.7012977092015
 10
662.8458036523588
 20
178.6642498399198
 10
662.8580188955966
 20
178.6293137309773
 10
662.8702341388345
 20
178.5964935007632
 10
662.8824493820724
 20
178.5657931413387
 10
662.8946646253102
 20
178.5372142917423
 10
662.906879868548
 20
178.5107565092999
 10
662.9190951117859
 20
178.4864192795272
 10
662.9313103550237
 20
178.4642020879393
 10
662.9435255982614
 20
178.4441044200519
 10
662.9557408414993
 20
178.4261257613803
 10
662.9679560847371
 20
178.41026559744
 10
662.9801713279751
 20
178.3965234137465
 10
662.9923865712128
 20
178.3848986958151
 10
663.0046018144503
 20
178.3753909291613
 10
663.0168170576883
 20
178.3679995993006
 10
663.0290323009262
 20
178.3627241917484
 10
663.0412475441641
 20
178.3595641920202
 10
663.0534627874018
 20
178.3585190856313
  0
LWPOLYLINE
  5
84
330
1F
100
AcDbEntity
  8
0
  6
CONTINUOUS
 62
     7
100
AcDbPolyline
 90
        6
 70
     0
 43
0.0
 10
757.9542000663423
 20
247.0900920935907
 10
757.8860097717941
 20
247.3655311041212
 10
757.8178527513405
 20
247.5802512057462
 10
757.7516219471358
 20
247.730372551669
 10
757.6853643756785
 20
247.8228393040535
 10
757.6128084039723
 20
247.8578630770394
  0
LWPOLYLINE
  5
85
330
1F
100
AcDbEntity
  8
0
  6
CONTINUOUS
 62
     7
100
AcDbPolyline
 90
       33
 70
     0
 43
0.0
 10
696.5531993785061
 20
178.3581867273326
 10
696.5654220695304
 20
178.3592386359556
 10
696.5776447605549
 20
178.3624130729875
 10
696.589867451579
 20
178.367708624879
 10
696.6020901426035
 20
178.3751238780809
 10
696.6143128336279
 20
178.3846574190438
 10
696.6265355246522
 20
178.3963078342186
 10
696.6387582156767
 20
178.410073710056
 10
696.650980906701
 20
178.4259536330066
 10
696.6632035977254
 20
178.4439461895213
 10
696.6754262887498
 20
178.4640499660508
 10
696.687648979774
 20
178.4862635490458
 10
696.6998716707985
 20
178.510585524957
 10
696.7120943618228
 20
178.5370144802351
 10
696.7243170528473
 20
178.5655490013311
 10
696.7365397438715
 20
178.5961876746954
 10
696.748762434896
 20
178.628929086779
 10
696.7609851259203
 20
178.6637718240324
 10
696.7732078169447
 20
178.7007144729065
 10
696.7854305079692
 20
178.739755619852
 10
696.7976531989934
 20
178.7808938513196
 10
696.8098758900177
 20
178.8241277537601
 10
696.8220985810422
 20
178.8694559136242
 10
696.8343212720665
 20
178.9168769173627
 10
696.8465439630909
 20
178.9663893514262
 10
696.8587666541152
 20
179.0179918022655
 10
696.8709893451395
 20
179.0716828563313
 10
696.883212036164
 20
179.1274611000744
 10
696.8954347271883
 20
179.1853251199456
 10
696.9076574182127
 20
179.2452735023955
 10
696.9198801092368
 20
179.3073048337246
 10
696.9321028002613
 20
179.3714168024097
 10
696.9443254912858
 20
179.4376040800884
  0
LWPOLYLINE
  5
86
330
1F
100
AcDbEntity
  8
0
  6
CONTINUOUS
 62
     7
100
AcDbPolyline
 90
        5
 70
     0
 43
0.0
 10
657.901818676418
 20
247.3067669269923
 10
657.8336963317033
 20
247.5356296292596
 10
657.7675299989205
 20
247.6995729384125
 10
657.7013049172709
 20
247.8059266788809
 10
657.6128635836825
 20
247.8578630770396
  0
LWPOLYLINE
  5
87
330
1F
100
AcDbEntity
  8
0
  6
CONTINUOUS
 62
     7
100
AcDbPolyline
 90
       33
 70
     0
 43
0.0
 10
672.6624490116776
 20
179.4400950277358
 10
672.6746542185814
 20
179.3739642009604
 10
672.6868594254853
 20
179.3098837023276
 10
672.6990646323892
 20
179.2478573504123
 10
672.711269839293
 20
179.1878889637899
 10
672.7234750461969
 20
179.1299823610357
 10
672.7356802531008
 20
179.0741413607249
 10
672.7478854600047
 20
179.0203697814326
 10
672.7600906669085
 20
178.9686714417342
 10
672.7722958738124
 20
178.9190501602048
 10
672.7845010807162
 20
178.8715097554197
 10
672.7967062876202
 20
178.8260540459541
 10
672.8089114945241
 20
178.7826868503833
 10
672.8211167014279
 20
178.7414119872825
 10
672.8333219083316
 20
178.7022332752269
 10
672.8455271152355
 20
178.6651545327918
 10
672.8577323221394
 20
178.6301795785523
 10
672.8699375290435
 20
178.5973122310838
 10
672.8821427359474
 20
178.5665563089615
 10
672.8943479428513
 20
178.5379156307606
 10
672.9065531497549
 20
178.5113940132886
 10
672.9187583566588
 20
178.4869941615526
 10
672.9309635635627
 20
178.4647157689203
 10
672.9431687704665
 20
178.4445580237767
 10
672.9553739773704
 20
178.4265201145068
 10
672.9675791842743
 20
178.4106012294957
 10
672.9797843911782
 20
178.3968005571284
 10
672.9919895980821
 20
178.38511728579
 10
673.0041948049861
 20
178.3755506038656
 10
673.0164000118899
 20
178.3680996997402
 10
673.0286052187938
 20
178.3627637617988
 10
673.0408104256975
 20
178.3595419784264
 10
673.0530156326016
 20
178.3584335380083
  0
LWPOLYLINE
  5
88
330
1F
100
AcDbEntity
  8
0
  6
CONTINUOUS
 62
     7
100
AcDbPolyline
 90
        5
 70
     0
 43
0.0
 10
737.9285792321338
 20
247.2008637392243
 10
737.8623791098892
 20
247.4468843492828
 10
737.7960894596337
 20
247.6358237015654
 10
737.7297902702907
 20
247.7672669541625
 10
737.6127667088077
 20
247.8578630770116
  0
LWPOLYLINE
  5
89
330
1F
100
AcDbEntity
  8
0
  6
CONTINUOUS
 62
     7
100
AcDbPolyline
 90
       33
 70
     0
 43
0.0
 10
762.663182682775
 20
179.4355200667276
 10
762.6753674737264
 20
179.3695833943512
 10
762.6875522646775
 20
179.3057055086889
 10
762.6997370556289
 20
179.2438920902924
 10
762.7119218465799
 20
179.1841488197054
 10
762.7241066375312
 20
179.1264805733826
 10
762.7362914284824
 20
179.0708892160673
 10
762.7484762194338
 20
179.0173759075195
 10
762.7606610103851
 20
178.9659418074995
 10
762.7728458013363
 20
178.9165880757676
 10
762.7850305922876
 20
178.8693158720838
 10
762.7972153832388
 20
178.8241263562083
 10
762.80940017419
 20
178.7810206879014
 10
762.8215849651414
 20
178.7400000269232
 10
762.8337697560926
 20
178.7010655330338
 10
762.8459545470438
 20
178.6642183659937
 10
762.8581393379951
 20
178.6294596855627
 10
762.8703241289463
 20
178.5967906515013
 10
762.8825089198976
 20
178.5662124235694
 10
762.8946937108491
 20
178.5377261615275
 10
762.9068785018001
 20
178.5113330251355
 10
762.9190632927516
 20
178.4870341741538
 10
762.9312480837025
 20
178.4648307683424
 10
762.943432874654
 20
178.4447239674618
 10
762.9556176656051
 20
178.4267149312717
 10
762.9678024565566
 20
178.4108048195328
 10
762.9799872475076
 20
178.3969947920048
 10
762.9921720384591
 20
178.3852860084484
 10
763.0043568294102
 20
178.3756796286233
 10
763.0165416203616
 20
178.36817681229
 10
763.028726411313
 20
178.3627787192086
 10
763.0409112022643
 20
178.3594865091392
 10
763.0530959932157
 20
178.3583013418421
  0
LWPOLYLINE
  5
8A
330
1F
100
AcDbEntity
  8
0
  6
CONTINUOUS
 62
     7
100
AcDbPolyline
 90
       33
 70
     0
 43
0.0
 10
-717.6621650760994
 20
249.2744614013053
 10
-717.6743809591777
 20
249.3406490456996
 10
-717.686596842256
 20
249.4047756876049
 10
-717.6988127253343
 20
249.4668388198625
 10
-717.7110286084128
 20
249.5268359353138
 10
-717.723244491491
 20
249.5847645268004
 10
-717.7354603745694
 20
249.6406220871635
 10
-717.7476762576475
 20
249.6944061092445
 10
-717.7598921407259
 20
249.7461140858849
 10
-717.7721080238042
 20
249.7957435099262
 10
-717.7843239068825
 20
249.8432918742095
 10
-717.7965397899608
 20
249.8887566715764
 10
-717.8087556730391
 20
249.9321353948685
 10
-717.8209715561175
 20
249.9734255369268
 10
-717.8331874391956
 20
250.0126245905929
 10
-717.8454033222741
 20
250.0497300487083
 10
-717.8576192053523
 20
250.0847394041142
 10
-717.8698350884307
 20
250.1176501496522
 10
-717.882050971509
 20
250.1484597781636
 10
-717.8942668545873
 20
250.1771657824897
 10
-717.9064827376656
 20
250.2037656554721
 10
-717.918698620744
 20
250.2282568899522
 10
-717.9309145038221
 20
250.2506369787712
 10
-717.9431303869005
 20
250.2709034147707
 10
-717.9553462699789
 20
250.2890536907921
 10
-717.9675621530572
 20
250.3050852996766
 10
-717.9797780361355
 20
250.3189957342658
 10
-717.9919939192139
 20
250.3307824874011
 10
-718.004209802292
 20
250.3404430519237
 10
-718.0164256853703
 20
250.3479749206753
 10
-718.0286415684487
 20
250.3533755864971
 10
-718.040857451527
 20
250.3566425843245
 10
-718.0530733346054
 20
250.3577753156871
210
0.0
220
0.0
230
-1.0
  0
LWPOLYLINE
  5
8B
330
1F
100
AcDbEntity
  8
0
  6
CONTINUOUS
 62
     7
100
AcDbPolyline
 90
        6
 70
     0
 43
0.0
 10
747.9432867533113
 20
247.1383366486988
 10
747.8770923654632
 20
247.3972433559981
 10
747.8089384231048
 20
247.6037548403857
 10
747.7407134942672
 20
247.7494949693805
 10
747.6725041664982
 20
247.8341477201427
 10
747.6127836800821
 20
247.8578630770251
  0
LWPOLYLINE
  5
8C
330
1F
100
AcDbEntity
  8
0
  6
CONTINUOUS
 62
     7
100
AcDbPolyline
 90
       33
 70
     0
 43
0.0
 10
736.5530536379181
 20
178.3579616462437
 10
736.5652526267806
 20
178.3589100551518
 10
736.5774516156429
 20
178.361985180696
 10
736.5896506045053
 20
178.3671886935474
 10
736.6018495933678
 20
178.3745193505445
 10
736.6140485822302
 20
178.3839745699219
 10
736.6262475710927
 20
178.3955517628687
 10
736.6384465599551
 20
178.4092483405738
 10
736.6506455488176
 20
178.4250617142262
 10
736.66284453768
 20
178.4429892950149
 10
736.6750435265425
 20
178.463028494129
 10
736.687242515405
 20
178.4851767227574
 10
736.6994415042673
 20
178.5094313920893
 10
736.7116404931297
 20
178.5357899133134
 10
736.7238394819923
 20
178.564249697619
 10
736.7360384708547
 20
178.594808156195
 10
736.7482374597171
 20
178.6274627002303
 10
736.7604364485795
 20
178.6622107409141
 10
736.772635437442
 20
178.6990496894354
 10
736.7848344263045
 20
178.7379769569831
 10
736.7970334151669
 20
178.7789899547462
 10
736.8092324040292
 20
178.8220860939138
 10
736.8214313928918
 20
178.8672627856749
 10
736.8336303817542
 20
178.9145174412185
 10
736.8458293706167
 20
178.9638474717336
 10
736.858028359479
 20
179.0152502884092
 10
736.8702273483415
 20
179.0687233024343
 10
736.8824263372039
 20
179.1242639249979
 10
736.8946253260663
 20
179.1818695672891
 10
736.9068243149287
 20
179.2415376404969
 10
736.9190233037912
 20
179.3032655558102
 10
736.9312222926536
 20
179.3670507244181
 10
736.9434212815157
 20
179.4328905575073
  0
LWPOLYLINE
  5
8D
330
1F
100
AcDbEntity
  8
0
  6
CONTINUOUS
 62
     7
100
AcDbPolyline
 90
       33
 70
     0
 43
0.0
 10
-631.5528282923628
 20
250.3572138172842
 10
-631.5650706246272
 20
250.3563082011125
 10
-631.5773129568912
 20
250.3532782376025
 10
-631.5895552891556
 20
250.3481233900126
 10
-631.6017976214199
 20
250.3408431216009
 10
-631.614039953684
 20
250.3314368956256
 10
-631.6262822859483
 20
250.319904175345
 10
-631.6385246182126
 20
250.3062444240173
 10
-631.6507669504766
 20
250.2904571049005
 10
-631.663009282741
 20
250.2725416812531
 10
-631.6752516150052
 20
250.252497616333
 10
-631.6874939472694
 20
250.2303243733986
 10
-631.6997362795337
 20
250.206021415708
 10
-631.711978611798
 20
250.1795882065196
 10
-631.7242209440622
 20
250.1510242090913
 10
-631.7364632763264
 20
250.1203290282058
 10
-631.7487056085906
 20
250.0875046923724
 10
-631.7609479408549
 20
250.0525552659936
 10
-631.7731902731192
 20
250.0154848766895
 10
-631.7854326053833
 20
249.97629765208
 10
-631.7976749376476
 20
249.9349977197851
 10
-631.8099172699118
 20
249.8915892074247
 10
-631.822159602176
 20
249.8460762426189
 10
-631.8344019344403
 20
249.7984629529877
 10
-631.8466442667046
 20
249.748753466151
 10
-631.8588865989689
 20
249.6969519097287
 10
-631.871128931233
 20
249.643062411341
 10
-631.8833712634973
 20
249.5870890986077
 10
-631.8956135957615
 20
249.5290360991488
 10
-631.9078559280258
 20
249.4689075405844
 10
-631.9200982602899
 20
249.4067075505343
 10
-631.9323405925543
 20
249.3424402566187
 10
-631.9445829248185
 20
249.2761097864572
210
0.0
220
0.0
230
-1.0
  0
LWPOLYLINE
  5
8E
330
1F
100
AcDbEntity
  8
0
  6
CONTINUOUS
 62
     7
100
AcDbPolyline
 90
       33
 70
     0
 43
0.0
 10
-667.6623736467625
 20
249.2752139020331
 10
-667.6746037056093
 20
249.3414984928142
 10
-667.6868337644562
 20
249.4057243229047
 10
-667.6990638233029
 20
249.4678874044666
 10
-667.7112938821499
 20
249.5279837496614
 10
-667.7235239409968
 20
249.5860093706512
 10
-667.7357539998435
 20
249.6419602795976
 10
-667.7479840586903
 20
249.6958324886624
 10
-667.7602141175372
 20
249.7476220100075
 10
-667.772444176384
 20
249.7973248557945
 10
-667.784674235231
 20
249.8449370381853
 10
-667.7969042940778
 20
249.8904545693416
 10
-667.8091343529245
 20
249.9338734614253
 10
-667.8213644117714
 20
249.9751897265981
 10
-667.8335944706182
 20
250.0143993770218
 10
-667.8458245294651
 20
250.0514984248582
 10
-667.8580545883119
 20
250.086482882269
 10
-667.8702846471588
 20
250.1193487614161
 10
-667.8825147060056
 20
250.1500920744613
 10
-667.8947447648525
 20
250.1787088694039
 10
-667.9069748236991
 20
250.2051969971189
 10
-667.919204882546
 20
250.2295569196283
 10
-667.931434941393
 20
250.2517893034307
 10
-667.9436650002398
 20
250.271894815025
 10
-667.9558950590866
 20
250.28987412091
 10
-667.9681251179334
 20
250.3057278875847
 10
-667.9803551767802
 20
250.3194567815477
 10
-667.9925852356271
 20
250.331061469298
 10
-668.0048152944739
 20
250.3405426173344
 10
-668.0170453533207
 20
250.3479008921556
 10
-668.0292754121677
 20
250.3531369602608
 10
-668.0415054710145
 20
250.3562514881483
 10
-668.0537355298612
 20
250.3572451423173
210
0.0
220
0.0
230
-1.0
  0
LWPOLYLINE
  5
8F
330
1F
100
AcDbEntity
  8
0
  6
CONTINUOUS
 62
     7
100
AcDbPolyline
 90
        5
 70
     0
 43
0.0
 10
667.9146849987842
 20
247.2567892561445
 10
667.8484290447548
 20
247.4912600866276
 10
667.7822565626551
 20
247.6682085366677
 10
667.714159467637
 20
247.7898917307533
 10
667.6128511266219
 20
247.857863077068
  0
LWPOLYLINE
  5
90
330
1F
100
AcDbEntity
  8
0
  6
CONTINUOUS
 62
     7
100
AcDbPolyline
 90
        6
 70
     0
 43
0.0
 10
707.9620878934953
 20
247.0540942998389
 10
707.8939367547976
 20
247.3365604883881
 10
707.8258417039249
 20
247.5583545475035
 10
707.75963364592
 20
247.7153885516378
 10
707.6933375053686
 20
247.8147998389227
 10
707.6127782886645
 20
247.8578630770172
  0
LWPOLYLINE
  5
91
330
1F
100
AcDbEntity
  8
0
  6
CONTINUOUS
 62
     7
100
AcDbPolyline
 90
       33
 70
     0
 43
0.0
 10
686.553823809901
 20
178.3583144201306
 10
686.566030298568
 20
178.3594682520798
 10
686.5782367872347
 20
178.3627361992257
 10
686.5904432759016
 20
178.3681171514789
 10
686.6026497645686
 20
178.3756099987497
 10
686.6148562532354
 20
178.3852136309485
 10
686.6270627419024
 20
178.3969269379857
 10
686.6392692305691
 20
178.4107488097717
 10
686.651475719236
 20
178.4266781362169
 10
686.6636822079029
 20
178.4447138072316
 10
686.6758886965697
 20
178.4648547127263
 10
686.6880951852366
 20
178.4870997426113
 10
686.7003016739036
 20
178.511447786797
 10
686.7125081625704
 20
178.5378977351939
 10
686.7247146512372
 20
178.5664484777123
 10
686.7369211399041
 20
178.5970989042627
 10
686.7491276285709
 20
178.6298479047553
 10
686.7613341172379
 20
178.6646943691006
 10
686.7735406059047
 20
178.7016371872089
 10
686.7857470945714
 20
178.7406752489908
 10
686.7979535832385
 20
178.7818074443566
 10
686.8101600719053
 20
178.8250326632165
 10
686.8223665605722
 20
178.8703497954812
 10
686.834573049239
 20
178.9177577310608
 10
686.846779537906
 20
178.9672553598659
 10
686.8589860265728
 20
179.0188415718068
 10
686.8711925152397
 20
179.0725152567939
 10
686.8833990039067
 20
179.1282753047377
 10
686.8956054925734
 20
179.1861205318073
 10
686.9078119812402
 20
179.2460476904062
 10
686.9200184699071
 20
179.3080512415071
 10
686.9322249585739
 20
179.3721255266521
 10
686.9444314472406
 20
179.4382648873826
  0
LWPOLYLINE
  5
92
330
1F
100
AcDbEntity
  8
0
  6
CONTINUOUS
 62
     7
100
AcDbPolyline
 90
       97
 70
     0
 43
0.0
 10
618.5536413139461
 20
248.5949335410405
 10
618.5964431604075
 20
248.2835403985262
 10
618.6392450068689
 20
247.9475602299707
 10
618.6820468533302
 20
247.5871637605031
 10
618.7248486997918
 20
247.2026224503973
 10
618.7676505462532
 20
246.7942846174399
 10
618.8104523927144
 20
246.3625005170919
 10
618.8532542391757
 20
245.9076204048139
 10
618.8960560856373
 20
245.4299945360669
 10
618.9388579320986
 20
244.9299731663115
 10
618.9816597785599
 20
244.4079065510087
 10
619.0244616250213
 20
243.8641449456192
 10
619.0672634714826
 20
243.2990386056037
 10
619.1100653179442
 20
242.7129377864233
 10
619.1528671644055
 20
242.1062154830473
 10
619.1956690108667
 20
241.4793495536045
 10
619.2384708573284
 20
240.8328480638365
 10
619.2812727037898
 20
240.1672190822779
 10
619.3240745502509
 20
239.482970677464
 10
619.3668763967124
 20
238.7806109179295
 10
619.4096782431737
 20
238.0606478722096
 10
619.4524800896351
 20
237.3235896088391
 10
619.4952819360966
 20
236.5699441963532
 10
619.5380837825579
 20
235.8002197032867
 10
619.5808856290192
 20
235.0149247320274
 10
619.6236874754807
 20
234.214608563016
 10
619.6664893219421
 20
233.3998890772286
 10
619.7092911684035
 20
232.5713907567007
 10
619.7520930148648
 20
231.7297380834674
 10
619.7948948613263
 20
230.8755555395643
 10
619.8376967077877
 20
230.0094676070264
 10
619.880498554249
 20
229.1320987678893
 10
619.9233004007106
 20
228.2440735041882
 10
619.9661022471719
 20
227.3460162979582
 10
620.0089040936331
 20
226.4385516312349
 10
620.0517059400945
 20
225.5223070012562
 10
620.0945077865559
 20
224.5979470070217
 10
620.1373096330174
 20
223.666161194971
 10
620.1801114794787
 20
222.7276395752012
 10
620.2229133259402
 20
221.78307215781
 10
620.2657151724014
 20
220.8331489528941
 10
620.3085170188629
 20
219.8785599705511
 10
620.3513188653243
 20
218.9199952208781
 10
620.3941207117857
 20
217.9581447139723
 10
620.436922558247
 20
216.993698459931
 10
620.4797244047086
 20
216.0273464688514
 10
620.5225262511698
 20
215.0597803032209
 10
620.5653280976313
 20
214.0916977276056
 10
620.6081299440926
 20
213.1237980552222
 10
620.6509317905541
 20
212.156780599288
 10
620.6937336370154
 20
211.1913446730198
 10
620.7365354834769
 20
210.2281895896348
 10
620.7793373299382
 20
209.2680146623498
 10
620.8221391763998
 20
208.311519204382
 10
620.8649410228611
 20
207.3594025289483
 10
620.9077428693224
 20
206.4123639492658
 10
620.9505447157838
 20
205.471102438845
 10
620.9933465622452
 20
204.5362987932696
 10
621.0361484087065
 20
203.6086068316994
 10
621.078950255168
 20
202.6886781874716
 10
621.1217521016293
 20
201.7771644939233
 10
621.1645539480908
 20
200.8747173843915
 10
621.2073557945522
 20
199.9819884922134
 10
621.2501576410135
 20
199.0996294507261
 10
621.292959487475
 20
198.2282918932666
 10
621.3357613339364
 20
197.3686274531721
 10
621.3785631803977
 20
196.5212877637796
 10
621.421365026859
 20
195.6869187242091
 10
621.4641668733204
 20
194.8661068091465
 10
621.5069687197819
 20
194.0594033326758
 10
621.5497705662433
 20
193.2673591504126
 10
621.5925724127046
 20
192.490525117973
 10
621.635374259166
 20
191.7294520909726
 10
621.6781761056275
 20
190.9846909250273
 10
621.7209779520889
 20
190.2567924757531
 10
621.7637797985503
 20
189.5463075987656
 10
621.8065816450116
 20
188.8537871496807
 10
621.8493834914731
 20
188.1797819814021
 10
621.8921853379345
 20
187.5248150010304
 10
621.9349871843958
 20
186.8893123362258
 10
621.9777890308571
 20
186.2736791788365
 10
622.0205908773186
 20
185.6783207207111
 10
622.0633927237799
 20
185.1036421536976
 10
622.1061945702413
 20
184.5500486696445
 10
622.1489964167027
 20
184.0179454604002
 10
622.1917982631642
 20
183.5077377178129
 10
622.2346001096255
 20
183.0198306337309
 10
622.2774019560869
 20
182.5546294000027
 10
622.3202038025482
 20
182.1125373392642
 10
622.3630056490098
 20
181.6938839862671
 10
622.4058074954711
 20
181.2989023683443
 10
622.4486093419324
 20
180.9278189968304
 10
622.4914111883938
 20
180.5808603830602
 10
622.5342130348553
 20
180.2582530383683
 10
622.5770148813167
 20
179.9602234740893
 10
622.6198167277781
 20
179.6869982015579
 10
622.6626185742394
 20
179.4388037321085
  0
LWPOLYLINE
  5
93
330
1F
100
AcDbEntity
  8
0
  6
CONTINUOUS
 62
     7
100
AcDbPolyline
 90
        5
 70
     0
 43
0.0
 10
627.9355245219303
 20
247.1715571927052
 10
627.867295104801
 20
247.4302654437306
 10
627.7990769218475
 20
247.6284703219899
 10
627.7309616041831
 20
247.7655452518592
 10
627.6603424988203
 20
247.842934377574
  0
LWPOLYLINE
  5
94
330
1F
100
AcDbEntity
  8
0
  6
CONTINUOUS
 62
     7
100
AcDbPolyline
 90
        5
 70
     0
 43
0.0
 10
777.9116874528056
 20
247.2688955885881
 10
777.8434589265071
 20
247.5064350743927
 10
777.7752429277825
 20
247.6833318469733
 10
777.7071299755294
 20
247.7990175584244
 10
777.6603299740716
 20
247.8429343775747
  0
LWPOLYLINE
  5
95
330
1F
100
AcDbEntity
  8
0
  6
CONTINUOUS
 62
     7
100
AcDbPolyline
 90
        6
 70
     0
 43
0.0
 10
647.959136302256
 20
247.0677609063036
 10
647.8928960287021
 20
247.3403227482438
 10
647.8247630377127
 20
247.5609897239863
 10
647.7566081346895
 20
247.7209770900516
 10
647.6884635008696
 20
247.819929479198
 10
647.6128677465633
 20
247.8578630770351
  0
LWPOLYLINE
  5
96
330
1F
100
AcDbEntity
  8
0
  6
CONTINUOUS
 62
     7
100
AcDbPolyline
 90
        5
 70
     0
 43
0.0
 10
677.9275083615411
 20
247.2048203613022
 10
677.859347499126
 20
247.4564787696498
 10
677.7912004931457
 20
247.6475861334363
 10
677.723102431396
 20
247.7775348481657
 10
677.6128327740913
 20
247.8578630770372
  0
LWPOLYLINE
  5
97
330
1F
100
AcDbEntity
  8
0
  6
CONTINUOUS
 62
     7
100
AcDbPolyline
 90
       33
 70
     0
 43
0.0
 10
692.6623341361156
 20
179.4406191003091
 10
692.6745486745089
 20
179.3744504684867
 10
692.6867632129022
 20
179.3103366680224
 10
692.6989777512955
 20
179.2482809418245
 10
692.7111922896886
 20
179.1882865328008
 10
692.7234068280819
 20
179.1303566838595
 10
692.7356213664752
 20
179.0744946379084
 10
692.7478359048685
 20
179.0207036378555
 10
692.7600504432618
 20
178.9689869266088
 10
692.7722649816551
 20
178.9193477470763
 10
692.7844795200482
 20
178.871789342166
 10
692.7966940584415
 20
178.8263149547859
 10
692.8089085968348
 20
178.7829278278439
 10
692.8211231352279
 20
178.7416312042481
 10
692.8333376736213
 20
178.7024283269063
 10
692.8455522120145
 20
178.6653224387267
 10
692.857766750408
 20
178.6303167826172
 10
692.869981288801
 20
178.5974146014856
 10
692.8821958271944
 20
178.5666191382402
 10
692.8944103655875
 20
178.5379336357888
 10
692.9066249039809
 20
178.5113613370394
 10
692.9188394423741
 20
178.4869054849001
 10
692.9310539807673
 20
178.4645693222787
 10
692.9432685191605
 20
178.4443560920832
 10
692.9554830575538
 20
178.4262690372218
 10
692.9676975959471
 20
178.4103113643035
 10
692.9799121343403
 20
178.3964844725327
 10
692.9921266727334
 20
178.3847871541533
 10
693.0043412111269
 20
178.3752179984433
 10
693.0165557495202
 20
178.3677755946801
 10
693.0287702879134
 20
178.3624585321415
 10
693.0409848263066
 20
178.3592654001053
 10
693.0531993646997
 20
178.3581947878491
  0
LWPOLYLINE
  5
98
330
1F
100
AcDbEntity
  8
0
  6
CONTINUOUS
 62
     7
100
AcDbPolyline
 90
       33
 70
     0
 43
0.0
 10
746.5535640744182
 20
178.3580459009354
 10
746.5657881657479
 20
178.3590673140208
 10
746.5780122570776
 20
178.362219410545
 10
746.5902363484071
 20
178.3675039591421
 10
746.6024604397368
 20
178.374922728446
 10
746.6146845310664
 20
178.3844774158304
 10
746.6269086223961
 20
178.396167627667
 10
746.6391327137256
 20
178.4099905923292
 10
746.6513568050553
 20
178.4259434092329
 10
746.663580896385
 20
178.4440231777941
 10
746.6758049877145
 20
178.4642269974289
 10
746.6880290790442
 20
178.4865519675532
 10
746.7002531703739
 20
178.510995187583
 10
746.7124772617036
 20
178.5375537569344
 10
746.7247013530333
 20
178.5662247750233
 10
746.7369254443628
 20
178.5970053412657
 10
746.7491495356926
 20
178.6298925550777
 10
746.7613736270222
 20
178.6648835158752
 10
746.7735977183518
 20
178.7019753230742
 10
746.7858218096816
 20
178.7411650760907
 10
746.7980459010109
 20
178.7824498743407
 10
746.8102699923406
 20
178.8258268172403
 10
746.8224940836703
 20
178.8712930042054
 10
746.834718175
 20
178.918845534652
 10
746.8469422663295
 20
178.9684815079961
 10
746.8591663576592
 20
179.0201980236537
 10
746.8713904489888
 20
179.0739921810408
 10
746.8836145403184
 20
179.1298610795735
 10
746.8958386316483
 20
179.1878018186677
 10
746.908062722978
 20
179.2478114977393
 10
746.9202868143075
 20
179.3098872162045
 10
746.9325109056371
 20
179.3740260734791
 10
746.9447349969663
 20
179.4402251689772
  0
LWPOLYLINE
  5
99
330
1F
100
AcDbEntity
  8
0
  6
CONTINUOUS
 62
     7
100
AcDbPolyline
 90
       33
 70
     0
 43
0.0
 10
-697.6623934155234
 20
249.2754811890205
 10
-697.6746256378264
 20
249.3417280894855
 10
-697.6868578601295
 20
249.4059133898114
 10
-697.6990900824327
 20
249.4680339804433
 10
-697.7113223047356
 20
249.5280867518263
 10
-697.7235545270388
 20
249.5860685944056
 10
-697.7357867493417
 20
249.6419763986264
 10
-697.7480189716449
 20
249.695807054934
 10
-697.7602511939481
 20
249.7475574537734
 10
-697.7724834162511
 20
249.7972244855899
 10
-697.7847156385542
 20
249.8448050408286
 10
-697.7969478608572
 20
249.8902960099347
 10
-697.8091800831604
 20
249.9336942833534
 10
-697.8214123054632
 20
249.9749967515298
 10
-697.8336445277663
 20
250.0142003049093
 10
-697.8458767500697
 20
250.0513018339368
 10
-697.8581089723726
 20
250.0862982290577
 10
-697.8703411946757
 20
250.1191863807171
 10
-697.8825734169787
 20
250.14996317936
 10
-697.894805639282
 20
250.178625515432
 10
-697.907037861585
 20
250.2051702793779
 10
-697.9192700838881
 20
250.2295943616431
 10
-697.9315023061912
 20
250.2518946526725
 10
-697.9437345284941
 20
250.2720680429116
 10
-697.9559667507973
 20
250.2901114228055
 10
-697.9681989731002
 20
250.3060216827992
 10
-697.9804311954035
 20
250.3197957203778
 10
-697.9926634177065
 20
250.3314317795872
 10
-698.0048956400096
 20
250.340931040185
 10
-698.0171278623127
 20
250.3482950687238
 10
-698.029360084616
 20
250.3535254317567
 10
-698.0415923069189
 20
250.3566236958362
 10
-698.0538245292219
 20
250.3575914275154
210
0.0
220
0.0
230
-1.0
  0
LWPOLYLINE
  5
9A
330
1F
100
AcDbEntity
  8
0
  6
CONTINUOUS
 62
     7
100
AcDbPolyline
 90
       33
 70
     0
 43
0.0
 10
-621.5536457902934
 20
250.3573075220599
 10
-621.5658651522159
 20
250.3562761177849
 10
-621.5780845141384
 20
250.3531263522262
 10
-621.590303876061
 20
250.3478573922347
 10
-621.6025232379833
 20
250.3404684046614
 10
-621.6147425999058
 20
250.3309585563574
 10
-621.6269619618283
 20
250.3193270141737
 10
-621.6391813237506
 20
250.3055729449612
 10
-621.6514006856731
 20
250.2896955155711
 10
-621.6636200475956
 20
250.2716938928543
 10
-621.6758394095182
 20
250.2515672436617
 10
-621.6880587714405
 20
250.2293147348445
 10
-621.700278133363
 20
250.2049355332536
 10
-621.7124974952854
 20
250.1784295667995
 10
-621.724716857208
 20
250.1497998611133
 10
-621.7369362191304
 20
250.1190502298608
 10
-621.7491555810528
 20
250.0861844867081
 10
-621.7613749429753
 20
250.0512064453213
 10
-621.7735943048976
 20
250.0141199193662
 10
-621.7858136668202
 20
249.9749287225091
 10
-621.7980330287427
 20
249.9336366684158
 10
-621.8102523906651
 20
249.8902475707525
 10
-621.8224717525875
 20
249.8447652431851
 10
-621.83469111451
 20
249.7971934993798
 10
-621.8469104764325
 20
249.7475361530025
 10
-621.859129838355
 20
249.6957970177191
 10
-621.8713492002775
 20
249.641979907196
 10
-621.8835685621999
 20
249.5860886350989
 10
-621.8957879241223
 20
249.528127015094
 10
-621.908007286045
 20
249.4680988608474
 10
-621.9202266479674
 20
249.4060079860248
 10
-621.9324460098899
 20
249.3418582042926
 10
-621.9446653718122
 20
249.2756533293166
210
0.0
220
0.0
230
-1.0
  0
LWPOLYLINE
  5
9B
330
1F
100
AcDbEntity
  8
0
  6
CONTINUOUS
 62
     7
100
AcDbPolyline
 90
        6
 70
     0
 43
0.0
 10
697.9511643663487
 20
247.1034529339622
 10
697.8849888664549
 20
247.3691917039372
 10
697.8168967177025
 20
247.5827846933611
 10
697.7487148012011
 20
247.7356509934338
 10
697.6805090177696
 20
247.8274551591079
 10
697.6127941469322
 20
247.8578630770679
  0
LWPOLYLINE
  5
9C
330
1F
100
AcDbEntity
  8
0
  6
CONTINUOUS
 62
     7
100
AcDbPolyline
 90
        5
 70
     0
 43
0.0
 10
637.9444448367268
 20
247.1333096511156
 10
637.8736536779872
 20
247.4088326988008
 10
637.8028920826739
 20
247.6191014307745
 10
637.7316198245087
 20
247.7645255286406
 10
637.6603602345195
 20
247.8429343775746
  0
MTEXT
  5
9D
330
1F
100
AcDbEntity
  8
0
 62
     4
100
AcDbMText
 10
650.1498917539247
 20
142.371601850694
 30
0.0
 40
3.0
 41
0.0
 71
     1
 72
     1
  1
{\fＭＳ ゴシック;BML-50}
  0
LWPOLYLINE
  5
9E
330
1F
100
AcDbEntity
  8
0
  6
CONTINUOUS
 62
     7
100
AcDbPolyline
 90
      105
 70
     0
 43
0.0
 10
-648.053580044298
 20
250.3571468826101
 10
-648.0978984593693
 20
250.3432107202582
 10
-648.1422168744409
 20
250.3014593419968
 10
-648.1865352895122
 20
250.2318958755228
 10
-648.2308537045838
 20
250.1345234485336
 10
-648.2751721196552
 20
250.0093451887261
 10
-648.3194905347265
 20
249.8563775475754
 10
-648.363808949798
 20
249.6757682968549
 10
-648.4081273648694
 20
249.467739935602
 10
-648.4524457799408
 20
249.232515827497
 10
-648.4967641950124
 20
248.9703193362201
 10
-648.5410826100838
 20
248.6813738254515
 10
-648.5854010251551
 20
248.3659026588717
 10
-648.6297194402268
 20
248.0241292001607
 10
-648.6740378552981
 20
247.656276812999
 10
-648.7183562703696
 20
247.2625688610667
 10
-648.7626746854411
 20
246.8432313307156
 10
-648.8069931005124
 20
246.398577577149
 10
-648.8513115155839
 20
245.9290266665102
 10
-648.8956299306552
 20
245.4350039978449
 10
-648.9399483457267
 20
244.9169349701988
 10
-648.984266760798
 20
244.3752449826174
 10
-649.0285851758695
 20
243.8103594341465
 10
-649.072903590941
 20
243.2227037238318
 10
-649.1172220060124
 20
242.612703250719
 10
-649.1615404210838
 20
241.9807834138537
 10
-649.2058588361552
 20
241.3273696901135
 10
-649.2501772512267
 20
240.6529286581516
 10
-649.294495666298
 20
239.9580353943202
 10
-649.3388140813694
 20
239.2432826697162
 10
-649.3831324964408
 20
238.5092632554368
 10
-649.4274509115123
 20
237.7565699225789
 10
-649.4717693265837
 20
236.9857954422394
 10
-649.516087741655
 20
236.1975325855153
 10
-649.5604061567265
 20
235.3923741235038
 10
-649.6047245717979
 20
234.5709128273017
 10
-649.6490429868693
 20
233.733741468006
 10
-649.6933614019407
 20
232.8814651986866
 10
-649.7376798170121
 20
232.014766215425
 10
-649.7819982320837
 20
231.1343562987446
 10
-649.8263166471551
 20
230.2409472902968
 10
-649.8706350622265
 20
229.3352510317328
 10
-649.9149534772979
 20
228.4179793647041
 10
-649.9592718923693
 20
227.4898441308618
 10
-650.0035903074407
 20
226.5515571718574
 10
-650.0479087225123
 20
225.6038303293422
 10
-650.0922271375837
 20
224.6473754449674
 10
-650.1365455526552
 20
223.6829062276386
 10
-650.1808639677264
 20
222.7111681703792
 10
-650.2251823827978
 20
221.7329333622318
 10
-650.2695007978695
 20
220.7489747115323
 10
-650.3138192129406
 20
219.7600651266168
 10
-650.3581376280122
 20
218.7669775158217
 10
-650.4024560430836
 20
217.7704847874828
 10
-650.446774458155
 20
216.7713598499364
 10
-650.4910928732264
 20
215.7703756115186
 10
-650.5354112882978
 20
214.7683049805655
 10
-650.5797297033694
 20
213.7659208582671
 10
-650.6240481184407
 20
212.7639955026555
 10
-650.668366533512
 20
211.7633000269643
 10
-650.7126849485836
 20
210.7646054263732
 10
-650.757003363655
 20
209.7686826960616
 10
-650.8013217787263
 20
208.776302831209
 10
-650.8456401937979
 20
207.788236826995
 10
-650.8899586088693
 20
206.8052556785991
 10
-650.9342770239408
 20
205.8281303812008
 10
-650.978595439012
 20
204.8576319299797
 10
-651.0229138540835
 20
203.8945313201153
 10
-651.0672322691549
 20
202.9395888971291
 10
-651.1115506842264
 20
201.9935218496887
 10
-651.1558690992977
 20
201.0570364358686
 10
-651.2001875143692
 20
200.1308389137423
 10
-651.2445059294406
 20
199.2156355413836
 10
-651.288824344512
 20
198.3121325768662
 10
-651.3331427595834
 20
197.4210362782637
 10
-651.3774611746547
 20
196.5430529036497
 10
-651.4217795897263
 20
195.6788887110978
 10
-651.4660980047977
 20
194.8292499586819
 10
-651.5104164198691
 20
193.9948356289736
 10
-651.5547348349406
 20
193.1762720079969
 10
-651.5990532500119
 20
192.3741435680889
 10
-651.6433716650832
 20
191.5890342813213
 10
-651.6876900801549
 20
190.8215281197659
 10
-651.7320084952262
 20
190.0722090554945
 10
-651.7763269102975
 20
189.3416610605789
 10
-651.8206453253689
 20
188.6304681070908
 10
-651.8649637404403
 20
187.939214167102
 10
-651.9092821555117
 20
187.2684832126843
 10
-651.9536005705834
 20
186.6188570715534
 10
-651.9979189856547
 20
185.9908445520109
 10
-652.0422374007262
 20
185.3848651914633
 10
-652.0865558157975
 20
184.801333091465
 10
-652.130874230869
 20
184.2406623535711
 10
-652.1751926459405
 20
183.7032670793359
 10
-652.219511061012
 20
183.1895613703145
 10
-652.2638294760834
 20
182.6999593280614
 10
-652.3081478911548
 20
182.2348750541313
 10
-652.3524663062262
 20
181.7947226500791
 10
-652.3967847212979
 20
181.3799161305418
 10
-652.4411031363692
 20
180.9908200003461
 10
-652.4854215514406
 20
180.627666572991
 10
-652.5297399665119
 20
180.2906663367677
 10
-652.5740583815834
 20
179.980029779967
 10
-652.6183767966548
 20
179.6959673908798
 10
-652.6626952117263
 20
179.4386896577967
210
0.0
220
0.0
230
-1.0
  0
LWPOLYLINE
  5
9F
330
1F
100
AcDbEntity
  8
0
  6
CONTINUOUS
 62
     7
100
AcDbPolyline
 90
       33
 70
     0
 43
0.0
 10
-781.5530939592702
 20
250.3572676990763
 10
-781.5653309477601
 20
250.3563250006552
 10
-781.5775679362503
 20
250.3532586719998
 10
-781.5898049247403
 20
250.348067989093
 10
-781.6020419132302
 20
250.3407522279177
 10
-781.6142789017202
 20
250.3313106644569
 10
-781.6265158902104
 20
250.3197425746937
 10
-781.6387528787004
 20
250.3060472346108
 10
-781.6509898671904
 20
250.2902239201914
 10
-781.6632268556804
 20
250.2722719074183
 10
-781.6754638441703
 20
250.2521904722745
 10
-781.6877008326604
 20
250.229978890743
 10
-781.6999378211503
 20
250.2056364388068
 10
-781.7121748096406
 20
250.1791623927427
 10
-781.7244117981304
 20
250.1505569860663
 10
-781.7366487866207
 20
250.1198235380412
 10
-781.7488857751106
 20
250.0869659885258
 10
-781.7611227636005
 20
250.0519882773789
 10
-781.7733597520906
 20
250.0148943444589
 10
-781.7855967405807
 20
249.9756881296244
 10
-781.7978337290707
 20
249.9343735727341
 10
-781.8100707175606
 20
249.8909546136465
 10
-781.8223077060508
 20
249.8454351922202
 10
-781.8345446945409
 20
249.7978192483139
 10
-781.846781683031
 20
249.7481107217859
 10
-781.859018671521
 20
249.696313552495
 10
-781.8712556600111
 20
249.6424316802998
 10
-781.883492648501
 20
249.5864690450588
 10
-781.895729636991
 20
249.5284295866304
 10
-781.9079666254811
 20
249.4683172448736
 10
-781.9202036139714
 20
249.4061359596467
 10
-781.9324406024612
 20
249.3418896708084
 10
-781.9446775909516
 20
249.275582318215
210
0.0
220
0.0
230
-1.0
  0
LWPOLYLINE
  5
A0
330
1F
100
AcDbEntity
  8
0
  6
CONTINUOUS
 62
     7
100
AcDbPolyline
 90
      105
 70
     0
 43
0.0
 10
-638.0535065551786
 20
250.357158662904
 10
-638.0978254864316
 20
250.3433278141833
 10
-638.1421444176843
 20
250.3016641496282
 10
-638.1864633489371
 20
250.2321564988536
 10
-638.2307822801897
 20
250.1347936914741
 10
-638.2751012114427
 20
250.0095664220568
 10
-638.3194201426954
 20
249.8565525654738
 10
-638.3637390739481
 20
249.6759525573149
 10
-638.4080580052009
 20
249.4679760325842
 10
-638.4523769364538
 20
249.2328326262854
 10
-638.4966958677064
 20
248.9707319734221
 10
-638.5410147989594
 20
248.6818837089984
 10
-638.5853337302121
 20
248.3664974680179
 10
-638.629652661465
 20
248.0247828854845
 10
-638.6739715927179
 20
247.6569495964021
 10
-638.7182905239706
 20
247.2632072558255
 10
-638.7626094552234
 20
246.843808675524
 10
-638.8069283864762
 20
246.3991411090721
 10
-638.8512473177288
 20
245.9296179149156
 10
-638.8955662489816
 20
245.4356524515005
 10
-638.9398851802345
 20
244.9176580772726
 10
-638.9842041114872
 20
244.3760481506778
 10
-639.0285230427401
 20
243.811236030162
 10
-639.0728419739928
 20
243.2236350741709
 10
-639.1171609052456
 20
242.6136586411506
 10
-639.1614798364983
 20
241.9817200895467
 10
-639.2057987677513
 20
241.3282471652346
 10
-639.2501176990038
 20
240.6537747220279
 10
-639.2944366302568
 20
239.9588859251168
 10
-639.3387555615095
 20
239.2441641741939
 10
-639.3830744927623
 20
238.5101928689521
 10
-639.427393424015
 20
237.7575554090844
 10
-639.4717123552679
 20
236.9868351942834
 10
-639.5160312865206
 20
236.1986156242421
 10
-639.5603502177735
 20
235.3934800986534
 10
-639.6046691490261
 20
234.5720120172099
 10
-639.648988080279
 20
233.7347975131788
 10
-639.6933070115318
 20
232.8824823015774
 10
-639.7376259427846
 20
232.015769906527
 10
-639.7819448740374
 20
231.1353662310923
 10
-639.8262638052902
 20
230.2419771783377
 10
-639.870582736543
 20
229.3363086513278
 10
-639.9149016677959
 20
228.419066553127
 10
-639.9592205990488
 20
227.4909567867999
 10
-640.0035395303016
 20
226.552685255411
 10
-640.0478584615544
 20
225.6049578620248
 10
-640.0921773928071
 20
224.6484806337602
 10
-640.1364963240599
 20
223.6839790313265
 10
-640.1808152553127
 20
222.712218907869
 10
-640.2251341865655
 20
221.7339711498556
 10
-640.2694531178182
 20
220.7500066437539
 10
-640.3137720490711
 20
219.7610962760321
 10
-640.3580909803237
 20
218.7680109331576
 10
-640.4024099115765
 20
217.7715215015984
 10
-640.4467288428293
 20
216.7723988678225
 10
-640.4910477740822
 20
215.7714139182974
 10
-640.5353667053349
 20
214.7693375394911
 10
-640.5796856365877
 20
213.7669409173211
 10
-640.6240045678404
 20
212.764996675489
 10
-640.6683234990933
 20
211.764277868694
 10
-640.7126424303461
 20
210.7655575517162
 10
-640.7569613615988
 20
209.7696087793356
 10
-640.8012802928515
 20
208.7772046063324
 10
-640.8455992241045
 20
207.7891180874868
 10
-640.8899181553572
 20
206.8061222775789
 10
-640.93423708661
 20
205.8289902313886
 10
-640.978556017863
 20
204.8584950036964
 10
-641.0228749491157
 20
203.895406825361
 10
-641.0671938803684
 20
202.9404614282759
 10
-641.1115128116212
 20
201.9943714669582
 10
-641.1558317428739
 20
201.0578491727263
 10
-641.2001506741268
 20
200.1316067768983
 10
-641.2444696053795
 20
199.2163565107922
 10
-641.2887885366323
 20
198.3128106057264
 10
-641.3331074678852
 20
197.4216812930189
 10
-641.377426399138
 20
196.543680803988
 10
-641.4217453303906
 20
195.6795213699517
 10
-641.4660642616435
 20
194.8299142435178
 10
-641.5103831928961
 20
193.9955239949629
 10
-641.5547021241491
 20
193.1769490225248
 10
-641.599021055402
 20
192.3747826984384
 10
-641.6433399866545
 20
191.5896183949387
 10
-641.6876589179075
 20
190.8220494842607
 10
-641.7319778491601
 20
190.0726693386392
 10
-641.7762967804128
 20
189.3420713303095
 10
-641.8206157116657
 20
188.6308488315063
 10
-641.8649346429185
 20
187.9395952144646
 10
-641.9092535741713
 20
187.2689038367315
 10
-641.9535725054242
 20
186.6193329328557
 10
-641.9978914366769
 20
185.9913303112936
 10
-642.0422103679298
 20
185.3853221347168
 10
-642.0865292991824
 20
184.8017345657967
 10
-642.1308482304352
 20
184.2409937672049
 10
-642.175167161688
 20
183.703525901613
 10
-642.2194860929409
 20
183.1897571316924
 10
-642.2638050241936
 20
182.7001136201147
 10
-642.3081239554465
 20
182.2350215295514
 10
-642.3524428866991
 20
181.794907022674
 10
-642.3967618179519
 20
181.3801793759185
 10
-642.4410807492047
 20
180.9911208857043
 10
-642.4853996804575
 20
180.6279560711827
 10
-642.5297186117102
 20
180.2909091599243
 10
-642.5740375429632
 20
179.9802043794996
 10
-642.6183564742158
 20
179.6960659574791
 10
-642.6626754054685
 20
179.4387181214344
210
0.0
220
0.0
230
-1.0
  0
LWPOLYLINE
  5
A1
330
1F
100
AcDbEntity
  8
0
  6
CONTINUOUS
 62
     7
100
AcDbPolyline
 90
       33
 70
     0
 43
0.0
 10
-771.5535151663968
 20
250.3573758966216
 10
-771.5657394746423
 20
250.3563713506682
 10
-771.5779637828879
 20
250.3532451581472
 10
-771.5901880911335
 20
250.3479962976668
 10
-771.602412399379
 20
250.340623747835
 10
-771.6146367076248
 20
250.3311264872605
 10
-771.6268610158704
 20
250.319503494551
 10
-771.6390853241157
 20
250.3057537483149
 10
-771.6513096323615
 20
250.2898762271603
 10
-771.6635339406068
 20
250.2718699096955
 10
-771.6757582488525
 20
250.2517337745287
 10
-771.687982557098
 20
250.2294668861374
 10
-771.7002068653435
 20
250.2050704820244
 10
-771.7124311735892
 20
250.1785480887809
 10
-771.7246554818347
 20
250.1499033421005
 10
-771.7368797900804
 20
250.1191398776764
 10
-771.7491040983258
 20
250.0862613312021
 10
-771.7613284065714
 20
250.051271338371
 10
-771.7735527148169
 20
250.0141735348763
 10
-771.7857770230623
 20
249.9749715564116
 10
-771.7980013313079
 20
249.9336690386702
 10
-771.8102256395537
 20
249.8902696173455
 10
-771.8224499477992
 20
249.8447769281308
 10
-771.8346742560448
 20
249.7971946067196
 10
-771.8468985642903
 20
249.7475262888052
 10
-771.8591228725357
 20
249.695775610081
 10
-771.8713471807814
 20
249.6419462062404
 10
-771.8835714890268
 20
249.5860417129768
 10
-771.8957957972725
 20
249.5280657659836
 10
-771.9080201055181
 20
249.4680220009541
 10
-771.9202444137636
 20
249.4059140535817
 10
-771.9324687220092
 20
249.3417455595599
 10
-771.9446930302544
 20
249.2755201545839
210
0.0
220
0.0
230
-1.0
  0
LWPOLYLINE
  5
A2
330
1F
100
AcDbEntity
  8
0
  6
CONTINUOUS
 62
     7
100
AcDbPolyline
 90
       33
 70
     0
 43
0.0
 10
-761.5534781049063
 20
250.3574987774566
 10
-761.5657076661768
 20
250.3565026190625
 10
-761.5779372274473
 20
250.3533798835688
 10
-761.5901667887177
 20
250.3481292486007
 10
-761.6023963499883
 20
250.3407493917831
 10
-761.6146259112589
 20
250.3312389907409
 10
-761.6268554725295
 20
250.3195967230991
 10
-761.6390850338
 20
250.3058212664826
 10
-761.6513145950706
 20
250.2899112985166
 10
-761.6635441563411
 20
250.2718660043814
 10
-761.6757737176116
 20
250.2516876052219
 10
-761.6880032788822
 20
250.2293794460687
 10
-761.7002328401529
 20
250.2049448737741
 10
-761.7124624014233
 20
250.1783872351905
 10
-761.7246919626939
 20
250.1497098771704
 10
-761.7369215239645
 20
250.1189161465661
 10
-761.7491510852351
 20
250.0860093902301
 10
-761.7613806465056
 20
250.0509929550145
 10
-761.7736102077761
 20
250.013870187772
 10
-761.7858397690467
 20
249.9746444353548
 10
-761.7980693303173
 20
249.9333190446154
 10
-761.810298891588
 20
249.8898973624061
 10
-761.8225284528584
 20
249.8443827355792
 10
-761.8347580141287
 20
249.7967785109873
 10
-761.8469875753995
 20
249.7470880354826
 10
-761.8592171366699
 20
249.6953146559176
 10
-761.8714466979404
 20
249.6414617191447
 10
-761.883676259211
 20
249.5855325720161
 10
-761.8959058204815
 20
249.5275305613844
 10
-761.9081353817521
 20
249.4674590341019
 10
-761.9203649430228
 20
249.405321337021
 10
-761.9325945042932
 20
249.341120816994
 10
-761.9448240655636
 20
249.2748608208748
210
0.0
220
0.0
230
-1.0
  0
LWPOLYLINE
  5
A3
330
1F
100
AcDbEntity
  8
0
  6
CONTINUOUS
 62
     7
100
AcDbPolyline
 90
      105
 70
     0
 43
0.0
 10
-628.0528282785585
 20
250.3572057566753
 10
-628.097153268562
 20
250.3438472144322
 10
-628.1414782585658
 20
250.3026222082282
 10
-628.1858032485694
 20
250.2335052627948
 10
-628.2301282385731
 20
250.1364709029563
 10
-628.2744532285767
 20
250.0115320778697
 10
-628.3187782185804
 20
249.8588492850602
 10
-628.363103208584
 20
249.6786184329292
 10
-628.4074281985875
 20
249.4710354298779
 10
-628.4517531885913
 20
249.2362961843078
 10
-628.496078178595
 20
248.9745966046203
 10
-628.5404031685983
 20
248.6861325992168
 10
-628.5847281586022
 20
248.3711000764984
 10
-628.6290531486059
 20
248.0296949448668
 10
-628.6733781386095
 20
247.6621131127232
 10
-628.7177031286129
 20
247.2685637447512
 10
-628.7620281186166
 20
246.8493798978249
 10
-628.8063531086202
 20
246.4049622181063
 10
-628.8506780986239
 20
245.9357120342212
 10
-628.8950030886276
 20
245.4420306747955
 10
-628.9393280786311
 20
244.924319468455
 10
-628.9836530686349
 20
244.3829797438256
 10
-629.0279780586385
 20
243.818412829533
 10
-629.0723030486423
 20
243.2310200542033
 10
-629.1166280386458
 20
242.6212027464622
 10
-629.1609530286496
 20
241.9893647563381
 10
-629.205278018653
 20
241.3359865410005
 10
-629.2496030086568
 20
240.6616372023398
 10
-629.2939279986604
 20
239.9668907872517
 10
-629.338252988664
 20
239.2523213426323
 10
-629.3825779786678
 20
238.5185029153774
 10
-629.4269029686714
 20
237.7660095523828
 10
-629.4712279586751
 20
236.9954153005444
 10
-629.5155529486786
 20
236.207294206758
 10
-629.5598779386823
 20
235.4022203179197
 10
-629.604202928686
 20
234.5807677658586
 10
-629.6485279186896
 20
233.743543051498
 10
-629.6928529086932
 20
232.8912336942351
 10
-629.7371778986967
 20
232.0245396834659
 10
-629.7815028887006
 20
231.1441610085867
 10
-629.8258278787042
 20
230.2507976589933
 10
-629.8701528687076
 20
229.3451496240818
 10
-629.9144778587115
 20
228.4279168932483
 10
-629.958802848715
 20
227.4997994558888
 10
-630.0031278387187
 20
226.5614973013994
 10
-630.0474528287223
 20
225.6137104191762
 10
-630.091777818726
 20
224.6571464813915
 10
-630.1361028087294
 20
223.6925580808283
 10
-630.1804277987331
 20
222.7207140886374
 10
-630.2247527887369
 20
221.7423833986172
 10
-630.2690777787404
 20
220.7583349045665
 10
-630.3134027687441
 20
219.7693375002837
 10
-630.3577277587477
 20
218.7761600795675
 10
-630.4020527487513
 20
217.7795715362165
 10
-630.4463777387549
 20
216.7803407640292
 10
-630.4907027287587
 20
215.7792366568043
 10
-630.5350277187623
 20
214.7770283221624
 10
-630.5793527087659
 20
213.774488199479
 10
-630.6236776987696
 20
212.7723913623404
 10
-630.6680026887732
 20
211.7715129562276
 10
-630.7123276787769
 20
210.7726281266222
 10
-630.7566526687806
 20
209.7765120190052
 10
-630.8009776587842
 20
208.7839397788579
 10
-630.8453026487878
 20
207.7956865516616
 10
-630.8896276387915
 20
206.8125274828976
 10
-630.933952628795
 20
205.8352377180471
 10
-630.9782776187988
 20
204.8645921332429
 10
-631.0226026088023
 20
203.9013455976821
 10
-631.0669275988059
 20
202.9462195293531
 10
-631.1112525888096
 20
201.9999321632864
 10
-631.1555775788133
 20
201.0632017345126
 10
-631.1999025688172
 20
200.1367464780621
 10
-631.2442275588206
 20
199.2212846289653
 10
-631.2885525488242
 20
198.3175344222529
 10
-631.3328775388278
 20
197.4262140929552
 10
-631.3772025288315
 20
196.5480418761028
 10
-631.4215275188351
 20
195.6837360065644
 10
-631.4658525088387
 20
194.8339942830189
 10
-631.5101774988424
 20
193.9994375945334
 10
-631.5545024888461
 20
193.1806687408584
 10
-631.5988274788498
 20
192.3782905217444
 10
-631.6431524688534
 20
191.5929057369422
 10
-631.687477458857
 20
190.8251171862023
 10
-631.7318024488607
 20
190.0755276692754
 10
-631.7761274388643
 20
189.344739985912
 10
-631.8204524288678
 20
188.6333569358627
 10
-631.8647774188714
 20
187.9419813188782
 10
-631.9091024088752
 20
187.2712050191622
 10
-631.9534273988788
 20
186.6215202024952
 10
-631.9977523888823
 20
185.9933656217154
 10
-632.042077378886
 20
185.3871795226194
 10
-632.0864023688898
 20
184.8034001510038
 10
-632.1307273588934
 20
184.2424657526653
 10
-632.1750523488971
 20
183.7048145734003
 10
-632.2193773389006
 20
183.1908848590055
 10
-632.2637023289043
 20
182.7011148552776
 10
-632.3080273189079
 20
182.235942808013
 10
-632.3523523089115
 20
181.7958039047374
 10
-632.396677298915
 20
181.3810436372504
 10
-632.4410022889189
 20
180.9919055154749
 10
-632.4853272789226
 20
180.6286275211318
 10
-632.529652268926
 20
180.2914476359419
 10
-632.5739772589296
 20
179.9806038416262
 10
-632.6183022489333
 20
179.6963341199056
 10
-632.6626272389371
 20
179.4388764525001
210
0.0
220
0.0
230
-1.0
  0
LWPOLYLINE
  5
A4
330
1F
100
AcDbEntity
  8
0
  6
CONTINUOUS
 62
     7
100
AcDbPolyline
 90
       33
 70
     0
 43
0.0
 10
786.5535897006212
 20
178.3584975023687
 10
786.565810183669
 20
178.3595297441829
 10
786.5780306667167
 20
178.3626789931769
 10
786.5902511497643
 20
178.3679458206739
 10
786.6024716328121
 20
178.3753307979969
 10
786.6146921158597
 20
178.3848344964691
 10
786.6269125989074
 20
178.3964574874137
 10
786.6391330819554
 20
178.4102003421537
 10
786.6513535650029
 20
178.4260636320124
 10
786.6635740480506
 20
178.4440479283128
 10
786.6757945310984
 20
178.4641538023782
 10
786.6880150141461
 20
178.4863818255316
 10
786.7002354971938
 20
178.5107325690961
 10
786.7124559802417
 20
178.537206604395
 10
786.7246764632894
 20
178.5658045027514
 10
786.7368969463371
 20
178.5965262684764
 10
786.7491174293847
 20
178.6293688547953
 10
786.7613379124325
 20
178.6643281931655
 10
786.7735583954801
 20
178.7014002143095
 10
786.785778878528
 20
178.7405808489502
 10
786.7979993615756
 20
178.7818660278101
 10
786.8102198446234
 20
178.8252516816117
 10
786.8224403276712
 20
178.8707337410778
 10
786.8346608107188
 20
178.9183081369308
 10
786.8468812937665
 20
178.9679707998935
 10
786.8591017768143
 20
179.0197176606885
 10
786.8713222598619
 20
179.0735446500383
 10
786.8835427429096
 20
179.1294476986656
 10
786.8957632259574
 20
179.1874227372929
 10
786.9079837090052
 20
179.247465696643
 10
786.9202041920529
 20
179.3095725074384
 10
786.9324246751005
 20
179.3737391004018
 10
786.9446451581485
 20
179.4399614062572
  0
LWPOLYLINE
  5
A5
330
1F
100
AcDbEntity
  8
0
  6
CONTINUOUS
 62
     7
100
AcDbPolyline
 90
       33
 70
     0
 43
0.0
 10
776.5534391007955
 20
178.358406371114
 10
776.5656648336437
 20
178.3594018340416
 10
776.577890566492
 20
178.3625181472204
 10
776.5901162993404
 20
178.3677561825718
 10
776.6023420321887
 20
178.3751168120175
 10
776.6145677650369
 20
178.3846009074791
 10
776.6267934978852
 20
178.3962093408781
 10
776.6390192307335
 20
178.4099429841363
 10
776.6512449635818
 20
178.4258027091751
 10
776.6634706964302
 20
178.4437893879163
 10
776.6756964292783
 20
178.4639038922813
 10
776.6879221621267
 20
178.4861470941919
 10
776.7001478949751
 20
178.5105198481988
 10
776.7123736278234
 20
178.5370214442165
 10
776.7245993606716
 20
178.5656483864634
 10
776.7368250935199
 20
178.5963968917997
 10
776.7490508263683
 20
178.6292631770858
 10
776.7612765592166
 20
178.6642434591821
 10
776.7735022920648
 20
178.7013339549488
 10
776.7857280249132
 20
178.7405308812463
 10
776.7979537577615
 20
178.781830454935
 10
776.8101794906097
 20
178.8252288928751
 10
776.8224052234582
 20
178.8707224119271
 10
776.8346309563062
 20
178.9183072289511
 10
776.8468566891547
 20
178.9679795608077
 10
776.8590824220029
 20
179.0197356243569
 10
776.8713081548514
 20
179.0735716364595
 10
776.8835338876995
 20
179.1294838139754
 10
776.895759620548
 20
179.1874683737651
 10
776.907985353396
 20
179.2475215326889
 10
776.9202110862445
 20
179.3096395076073
 10
776.9324368190929
 20
179.3738185153804
 10
776.9446625519415
 20
179.4400547728709
  0
LWPOLYLINE
  5
A6
330
1F
100
AcDbEntity
  8
0
  6
CONTINUOUS
 62
     7
100
AcDbPolyline
 90
       33
 70
     0
 43
0.0
 10
766.5530959932064
 20
178.3582932813605
 10
766.565334622737
 20
178.3592250750942
 10
766.5775732522677
 20
178.3622849184108
 10
766.5898118817984
 20
178.3674739865119
 10
766.6020505113288
 20
178.3747934545993
 10
766.6142891408595
 20
178.3842444978747
 10
766.6265277703902
 20
178.3958282915398
 10
766.6387663999208
 20
178.4095460107963
 10
766.6510050294514
 20
178.4253988308459
 10
766.6632436589821
 20
178.4433879268902
 10
766.6754822885126
 20
178.4635142600025
 10
766.6877209180433
 20
178.4857761458995
 10
766.6999595475739
 20
178.510170116438
 10
766.7121981771045
 20
178.5366926700764
 10
766.7244368066351
 20
178.5653403052728
 10
766.7366754361658
 20
178.5961095204854
 10
766.7489140656963
 20
178.6289968141723
 10
766.7611526952271
 20
178.6639986847918
 10
766.7733913247578
 20
178.7011116308021
 10
766.7856299542885
 20
178.7403321506612
 10
766.797868583819
 20
178.7816567428274
 10
766.8101072133495
 20
178.8250819057589
 10
766.8223458428802
 20
178.8706041379139
 10
766.8345844724108
 20
178.9182199377504
 10
766.8468231019413
 20
178.9679258037268
 10
766.8590617314721
 20
179.0197182343011
 10
766.8713003610028
 20
179.0735937279317
 10
766.8835389905333
 20
179.1295487830765
 10
766.8957776200639
 20
179.1875798981939
 10
766.9080162495945
 20
179.247683571742
 10
766.9202548791253
 20
179.309856302179
 10
766.9324935086559
 20
179.3740945879629
 10
766.944732138186
 20
179.4403949275503
  0
LWPOLYLINE
  5
A7
330
1F
100
AcDbEntity
  8
0
  6
CONTINUOUS
 62
     7
100
AcDbPolyline
 90
       33
 70
     0
 43
0.0
 10
756.5533587162233
 20
178.3581648708445
 10
756.5655905170385
 20
178.3591420920561
 10
756.5778223178536
 20
178.3622484785593
 10
756.590054118669
 20
178.3674855032105
 10
756.6022859194842
 20
178.3748546388662
 10
756.6145177202992
 20
178.384357358383
 10
756.6267495211144
 20
178.3959951346172
 10
756.6389813219298
 20
178.4097694403187
 10
756.6512131227447
 20
178.4256808427701
 10
756.66344492356
 20
178.4437268051821
 10
756.6756767243753
 20
178.4639041261371
 10
756.6879085251904
 20
178.4862096042176
 10
756.7001403260057
 20
178.5106400380058
 10
756.7123721268208
 20
178.5371922260843
 10
756.724603927636
 20
178.5658629670355
 10
756.7368357284512
 20
178.5966490594417
 10
756.7490675292664
 20
178.6295473018854
 10
756.7612993300817
 20
178.6645544929489
 10
756.7735311308967
 20
178.7016674312148
 10
756.785762931712
 20
178.7408829152653
 10
756.7979947325272
 20
178.782197743683
 10
756.8102265333423
 20
178.8256087150502
 10
756.8224583341578
 20
178.8711126279494
 10
756.8346901349727
 20
178.9187062809629
 10
756.846921935788
 20
178.9683864726732
 10
756.8591537366033
 20
179.0201500016626
 10
756.8713855374185
 20
179.0739936665136
 10
756.8836173382338
 20
179.1299142658087
 10
756.8958491390489
 20
179.1879085981301
 10
756.908080939864
 20
179.2479734620603
 10
756.9203127406792
 20
179.3101056561818
 10
756.9325445414944
 20
179.374301979077
 10
756.9447763423095
 20
179.4405592293276
  0
LWPOLYLINE
  5
A8
330
1F
100
AcDbEntity
  8
0
  6
CONTINUOUS
 62
     7
100
AcDbPolyline
 90
       33
 70
     0
 43
0.0
 10
-751.5530659762761
 20
250.3576199479112
 10
-751.565309452484
 20
250.3566881599025
 10
-751.5775529286915
 20
250.3536211734608
 10
-751.5897964048992
 20
250.348417361448
 10
-751.6020398811069
 20
250.3410750967261
 10
-751.6142833573144
 20
250.3315927521568
 10
-751.6265268335222
 20
250.3199687095972
 10
-751.6387703097297
 20
250.3062027544713
 10
-751.6510137859375
 20
250.290297586654
 10
-751.6632572621451
 20
250.2722562687732
 10
-751.6755007383529
 20
250.252081863457
 10
-751.6877442145603
 20
250.2297774333335
 10
-751.6999876907679
 20
250.2053460410305
 10
-751.7122311669757
 20
250.1787907491763
 10
-751.7244746431834
 20
250.1501146203989
 10
-751.736718119391
 20
250.1193207173262
 10
-751.7489615955985
 20
250.0864121025864
 10
-751.7612050718063
 20
250.0513918388074
 10
-751.7734485480138
 20
250.0142629886174
 10
-751.7856920242217
 20
249.9750286146443
 10
-751.7979355004292
 20
249.9336917795161
 10
-751.810178976637
 20
249.8902555458611
 10
-751.8224224528444
 20
249.844722976307
 10
-751.8346659290522
 20
249.7970971334821
 10
-751.8469094052599
 20
249.7473810800143
 10
-751.8591528814675
 20
249.6955778785317
 10
-751.8713963576752
 20
249.6416905916624
 10
-751.8836398338829
 20
249.5857222820343
 10
-751.8958833100904
 20
249.5276760122755
 10
-751.9081267862982
 20
249.4675548450141
 10
-751.9203702625057
 20
249.4053618428781
 10
-751.9326137387136
 20
249.3411000684954
 10
-751.9448572149212
 20
249.2747725844941
210
0.0
220
0.0
230
-1.0
  0
LWPOLYLINE
  5
A9
330
1F
100
AcDbEntity
  8
0
  6
CONTINUOUS
 62
     7
100
AcDbPolyline
 90
        6
 70
     0
 43
0.0
 10
706.6710396643078
 20
181.5466143725401
 10
706.7372913800531
 20
181.2937265234775
 10
706.8035170514277
 20
181.09825730572
 10
706.8716739390786
 20
180.9574235321065
 10
706.9398704001612
 20
180.8777041665601
 10
706.9943526622233
 20
180.8578630771301
  0
LWPOLYLINE
  5
AA
330
1F
100
AcDbEntity
  8
0
  6
CONTINUOUS
 62
     7
100
AcDbPolyline
 90
      105
 70
     0
 43
0.0
 10
741.9447079357218
 20
249.2757097751913
 10
741.9890238601324
 20
249.018505902276
 10
742.0333397845428
 20
248.7343760702556
 10
742.0776557089536
 20
248.4234596023441
 10
742.1219716333641
 20
248.0860115464228
 10
742.1662875577746
 20
247.7223728747081
 10
742.2106034821851
 20
247.3328865945859
 10
742.2549194065957
 20
246.9178957134419
 10
742.2992353310063
 20
246.4777432386618
 10
742.3435512554169
 20
246.0127721776312
 10
742.3878671798275
 20
245.523325537736
 10
742.432183104238
 20
245.0097463263618
 10
742.4764990286486
 20
244.4723775508943
 10
742.5208149530591
 20
243.9115632889639
 10
742.5651308774696
 20
243.3277149334789
 10
742.6094468018803
 20
242.7213500390361
 10
742.6537627262907
 20
242.0929955088622
 10
742.6980786507013
 20
241.4431782461841
 10
742.7423945751118
 20
240.7724251542286
 10
742.7867104995222
 20
240.0812631362226
 10
742.8310264239328
 20
239.3702190953929
 10
742.8753423483433
 20
238.6398199349663
 10
742.919658272754
 20
237.8905925581697
 10
742.9639741971644
 20
237.1230638697332
 10
743.008290121575
 20
236.3377871951725
 10
743.0526060459856
 20
235.5354096133761
 10
743.0969219703962
 20
234.7165989891078
 10
743.1412378948066
 20
233.8820231871311
 10
743.1855538192173
 20
233.03235007221
 10
743.2298697436279
 20
232.1682475091081
 10
743.2741856680385
 20
231.2903833625891
 10
743.318501592449
 20
230.3994254974168
 10
743.3628175168595
 20
229.4960417783549
 10
743.4071334412702
 20
228.5809000701672
 10
743.4514493656807
 20
227.6546743992363
 10
743.4957652900914
 20
226.7180918630798
 10
743.5400812145019
 20
225.7719066505644
 10
743.5843971389125
 20
224.8168731675442
 10
743.6287130633231
 20
223.8537458198732
 10
743.6730289877336
 20
222.8832790134052
 10
743.7173449121441
 20
221.9062271539944
 10
743.7616608365547
 20
220.9233446474946
 10
743.8059767609652
 20
219.9353858997598
 10
743.8502926853758
 20
218.9431053166439
 10
743.8946086097866
 20
217.9472577275701
 10
743.9389245341971
 20
216.9486094391729
 10
743.9832404586076
 20
215.9479392909947
 10
744.0275563830182
 20
214.9460267577989
 10
744.0718723074287
 20
213.9436513143488
 10
744.1161882318393
 20
212.9415924354076
 10
744.1605041562498
 20
211.9406295957388
 10
744.2048200806602
 20
210.9415422701056
 10
744.249136005071
 20
209.9451099332715
 10
744.2934519294813
 20
208.9521120599996
 10
744.3377678538919
 20
207.9633280880428
 10
744.3820837783023
 20
206.9795270906654
 10
744.4263997027131
 20
206.001453637099
 10
744.4707156271234
 20
205.0298487561146
 10
744.5150315515339
 20
204.0654534764832
 10
744.5593474759444
 20
203.1090088269758
 10
744.603663400355
 20
202.1612558363636
 10
744.6479793247656
 20
201.2229355334176
 10
744.692295249176
 20
200.2947889469087
 10
744.7366111735865
 20
199.3775571056081
 10
744.7809270979972
 20
198.4719810382868
 10
744.8252430224077
 20
197.5787900612843
 10
744.8695589468183
 20
196.6986486849578
 10
744.9138748712287
 20
195.8321991303525
 10
744.9581907956393
 20
194.9800835980877
 10
745.00250672005
 20
194.1429442887825
 10
745.0468226444606
 20
193.3214234030561
 10
745.091138568871
 20
192.5161631415278
 10
745.1354544932817
 20
191.7278057048168
 10
745.1797704176923
 20
190.9569932935423
 10
745.224086342103
 20
190.2043681083235
 10
745.2684022665136
 20
189.4705667513941
 10
745.3127181909241
 20
188.7561439205647
 10
745.3570341153347
 20
188.0615922034087
 10
745.4013500397452
 20
187.3874026431698
 10
745.4456659641559
 20
186.7340662830918
 10
745.4899818885664
 20
186.1020741664187
 10
745.534297812977
 20
185.4919173363942
 10
745.5786137373875
 20
184.904086836262
 10
745.622929661798
 20
184.339073709266
 10
745.6672455862087
 20
183.79736899865
 10
745.711561510619
 20
183.2794627148569
 10
745.7558774350297
 20
182.7857759106357
 10
745.8001933594403
 20
182.3166185289101
 10
745.8445092838508
 20
181.8722904432673
 10
745.8888252082614
 20
181.4530915272947
 10
745.9331411326718
 20
181.0593216545796
 10
745.9774570570825
 20
180.6912806987092
 10
746.0217729814931
 20
180.3492685332708
 10
746.0660889059035
 20
180.0335850318517
 10
746.110404830314
 20
179.7445300680393
 10
746.1547207547246
 20
179.4824035142445
 10
746.1990366791352
 20
179.2474657534613
 10
746.2433526035456
 20
179.0398336493704
 10
746.2876685279562
 20
178.8595914709338
 10
746.3319844523668
 20
178.7068234871138
 10
746.3763003767773
 20
178.5816139668723
 10
746.4206163011879
 20
178.4840471791717
 10
746.4649322255983
 20
178.4142073929739
 10
746.509248150009
 20
178.372178877241
 10
746.5535640744182
 20
178.3580459009354
  0
LWPOLYLINE
  5
AB
330
1F
100
AcDbEntity
  8
0
  6
CONTINUOUS
 62
     7
100
AcDbPolyline
 90
        6
 70
     0
 43
0.0
 10
736.6413778630621
 20
181.6783079385363
 10
736.7075417366149
 20
181.400268504444
 10
736.7737788876609
 20
181.1790552942908
 10
736.8400385551367
 20
181.0151670782178
 10
736.9062699779795
 20
180.9091026263658
 10
736.9943614988173
 20
180.8578630771213
  0
LWPOLYLINE
  5
AC
330
1F
100
AcDbEntity
  8
0
  6
CONTINUOUS
 62
     7
100
AcDbPolyline
 90
      105
 70
     0
 43
0.0
 10
701.9444515332102
 20
249.2774479300207
 10
701.9887654050566
 20
249.0201315131882
 10
702.0330792769032
 20
248.735873874913
 10
702.0773931487497
 20
248.4249657522214
 10
702.1217070205962
 20
248.0876978821401
 10
702.1660208924427
 20
247.7243610016955
 10
702.2103347642891
 20
247.335245847914
 10
702.2546486361358
 20
246.9206431578224
 10
702.2989625079821
 20
246.4808436684468
 10
702.3432763798286
 20
246.016138116814
 10
702.387590251675
 20
245.5268172399503
 10
702.4319041235216
 20
245.013199644081
 10
702.4762179953681
 20
244.4757319147267
 10
702.5205318672146
 20
243.914897350889
 10
702.5648457390612
 20
243.3311792546854
 10
702.6091596109076
 20
242.7250609282334
 10
702.6534734827541
 20
242.0970256736507
 10
702.6977873546005
 20
241.4475567930549
 10
702.742101226447
 20
240.7771375885634
 10
702.7864150982936
 20
240.0862513622938
 10
702.8307289701401
 20
239.3753814163637
 10
702.8750428419864
 20
238.6450186187921
 10
702.919356713833
 20
237.8957417792041
 10
702.9636705856793
 20
237.1281864380493
 10
703.0079844575258
 20
236.3429890810348
 10
703.0522983293725
 20
235.5407861938679
 10
703.0966122012188
 20
234.7222142622558
 10
703.1409260730653
 20
233.8879097719059
 10
703.1852399449118
 20
233.0385092085253
 10
703.2295538167583
 20
232.1746490578212
 10
703.2738676886048
 20
231.296965805501
 10
703.3181815604513
 20
230.406096859274
 10
703.3624954322978
 20
229.5027202574503
 10
703.4068093041441
 20
228.5875697689241
 10
703.4511231759908
 20
227.6613831994438
 10
703.4954370478372
 20
226.724898354758
 10
703.5397509196838
 20
225.7788530406152
 10
703.5840647915302
 20
224.8239850627641
 10
703.6283786633766
 20
223.8610322269531
 10
703.672692535223
 20
222.8907323389307
 10
703.7170064070694
 20
221.9138232044457
 10
703.7613202789161
 20
220.9310426345997
 10
703.8056341507624
 20
219.9431373616256
 10
703.8499480226088
 20
218.9508812518337
 10
703.8942618944556
 20
217.9550533114799
 10
703.9385757663018
 20
216.9564325468199
 10
703.9828896381483
 20
215.9557979641096
 10
704.0272035099947
 20
214.953928569605
 10
704.0715173818413
 20
213.9516033695615
 10
704.1158312536879
 20
212.9496013702354
 10
704.1601451255342
 20
211.9487015778821
 10
704.2044589973808
 20
210.9496829987577
 10
704.2487728692272
 20
209.9533227045098
 10
704.2930867410737
 20
208.9603836826621
 10
704.3374006129201
 20
207.9716226909083
 10
704.3817144847665
 20
206.9877964592859
 10
704.4260283566132
 20
206.0096617178323
 10
704.4703422284596
 20
205.0379751965849
 10
704.5146561003061
 20
204.0734936255811
 10
704.5589699721526
 20
203.1169737348582
 10
704.6032838439991
 20
202.1691722544538
 10
704.6475977158454
 20
201.2308459144053
 10
704.6919115876918
 20
200.3027495074376
 10
704.7362254595383
 20
199.3855967016011
 10
704.780539331385
 20
198.4800618619017
 10
704.8248532032313
 20
197.5868177805933
 10
704.8691670750778
 20
196.7065372499295
 10
704.9134809469243
 20
195.8398930621645
 10
704.9577948187707
 20
194.9875580095518
 10
705.0021086906172
 20
194.1502048843455
 10
705.0464225624638
 20
193.3285064787994
 10
705.0907364343102
 20
192.5231355851673
 10
705.1350503061566
 20
191.7347647142065
 10
705.1793641780032
 20
190.9640244638021
 10
705.2236780498497
 20
190.2114594232435
 10
705.2679919216961
 20
189.4776036250417
 10
705.3123057935427
 20
188.7629911017076
 10
705.3566196653891
 20
188.068155885752
 10
705.4009335372357
 20
187.3936320096859
 10
705.4452474090822
 20
186.7399535060201
 10
705.4895612809286
 20
186.1076544072654
 10
705.5338751527751
 20
185.4972687459328
 10
705.5781890246216
 20
184.9093305545331
 10
705.6225028964681
 20
184.3443484153425
 10
705.6668167683146
 20
183.8027099753705
 10
705.7111306401611
 20
183.2847669978728
 10
705.7554445120076
 20
182.7908712403887
 10
705.799758383854
 20
182.3213744604579
 10
705.8440722557004
 20
181.8766284156197
 10
705.8883861275469
 20
181.4569848634136
 10
705.9326999993933
 20
181.0627955613789
 10
705.9770138712399
 20
180.6944122670552
 10
706.0213277430864
 20
180.3521867379819
 10
706.0656416149329
 20
180.0364608359889
 10
706.1099554867793
 20
179.7474565346625
 10
706.1542693586258
 20
179.485316092981
 10
706.1985832304723
 20
179.2501803308197
 10
706.2428971023188
 20
179.0421900680542
 10
706.2872109741654
 20
178.8614861245597
 10
706.3315248460117
 20
178.7082093202117
 10
706.3758387178583
 20
178.5825004748856
 10
706.4201525897048
 20
178.4845004084568
 10
706.4644664615512
 20
178.4143499408007
 10
706.5087803333976
 20
178.3721880440203
 10
706.5530942052437
 20
178.3580661756697
  0
LWPOLYLINE
  5
AD
330
1F
100
AcDbEntity
  8
0
  6
CONTINUOUS
 62
     7
100
AcDbPolyline
 90
      105
 70
     0
 43
0.0
 10
671.9443683455088
 20
249.2776374762717
 10
671.9886822617309
 20
249.0202958592671
 10
672.0329961779528
 20
248.7361332178858
 10
672.0773100941747
 20
248.425400081787
 10
672.1216240103968
 20
248.0883469806299
 10
672.1659379266187
 20
247.7252244440734
 10
672.2102518428406
 20
247.3362830017769
 10
672.2545657590626
 20
246.9217731833994
 10
672.2988796752846
 20
246.4819455186001
 10
672.3431935915066
 20
246.0170769080206
 10
672.3875075077284
 20
245.5275755161134
 10
672.4318214239505
 20
245.0138902698205
 10
672.4761353401724
 20
244.4764701087693
 10
672.5204492563944
 20
243.915763972588
 10
672.5647631726165
 20
243.3322208009043
 10
672.6090770888384
 20
242.726289533346
 10
672.6533910050604
 20
242.0984191095412
 10
672.6977049212823
 20
241.4490584691176
 10
672.7420188375042
 20
240.7786565517031
 10
672.7863327537261
 20
240.0876693677714
 10
672.8306466699481
 20
239.3766436167675
 10
672.8749605861701
 20
238.6461888085524
 10
672.9192745023921
 20
237.8969157112226
 10
672.9635884186141
 20
237.1294350928741
 10
673.0079023348361
 20
236.3443577216033
 10
673.0522162510581
 20
235.5422943655065
 10
673.09653016728
 20
234.7238557926797
 10
673.1408440835021
 20
233.8896527712195
 10
673.185157999724
 20
233.040296069222
 10
673.229471915946
 20
232.1763972741502
 10
673.2737858321681
 20
231.2986109229804
 10
673.3180997483898
 20
230.4076547786075
 10
673.3624136646118
 20
229.5042516696277
 10
673.4067275808337
 20
228.589124424637
 10
673.4510414970558
 20
227.6629958722314
 10
673.4953554132777
 20
226.7265888410068
 10
673.5396693294997
 20
225.7806261595593
 10
673.5839832457217
 20
224.8258306564851
 10
673.6282971619436
 20
223.8629251603801
 10
673.6726110781656
 20
222.8926325023147
 10
673.7169249943876
 20
221.9156862171807
 10
673.7612389106097
 20
220.9328550610681
 10
673.8055528268317
 20
219.9449150239404
 10
673.8498667430536
 20
218.9526420957612
 10
673.8941806592755
 20
217.9568122664938
 10
673.9384945754975
 20
216.9582015261019
 10
673.9828084917194
 20
215.9575858645489
 10
674.0271224079414
 20
214.9557412717985
 10
674.0714363241635
 20
213.953443737814
 10
674.1157502403855
 20
212.9514692525591
 10
674.1600641566075
 20
211.9505930155604
 10
674.2043780728294
 20
210.951583954324
 10
674.2486919890515
 20
209.9552080075875
 10
674.2930059052732
 20
208.9622310957361
 10
674.3373198214952
 20
207.9734191391559
 10
674.3816337377172
 20
206.9895380582321
 10
674.4259476539393
 20
206.0113537733505
 10
674.4702615701611
 20
205.0396322048964
 10
674.5145754863831
 20
204.0751392732556
 10
674.5588894026051
 20
203.1186408988138
 10
674.603203318827
 20
202.1709015745126
 10
674.6475172350491
 20
201.2326514853637
 10
674.6918311512709
 20
200.3045856674211
 10
674.7361450674929
 20
199.387397561059
 10
674.7804589837149
 20
198.4817806066514
 10
674.8247728999368
 20
197.5884282445723
 10
674.8690868161589
 20
196.7080339151958
 10
674.9134007323808
 20
195.8412910588958
 10
674.9577146486027
 20
194.9888931160465
 10
675.0020285648247
 20
194.1515335270219
 10
675.0463424810467
 20
193.3299055513165
 10
675.0906563972686
 20
192.5246657084938
 10
675.1349703134906
 20
191.7363893217143
 10
675.1792842297126
 20
190.9656408468848
 10
675.2235981459345
 20
190.2129847399123
 10
675.2679120621566
 20
189.4789854567037
 10
675.3122259783786
 20
188.7642074531657
 10
675.3565398946006
 20
188.0692151852055
 10
675.4008538108225
 20
187.3945731087297
 10
675.4451677270446
 20
186.7408456796454
 10
675.4894816432665
 20
186.1085973538594
 10
675.5337955594885
 20
185.4983701682376
 10
675.5781094757104
 20
184.9105906880888
 10
675.6224233919326
 20
184.3456484078401
 10
675.6667373081543
 20
183.8039328046759
 10
675.7110512243764
 20
183.2858333557805
 10
675.7553651405985
 20
182.7917395383381
 10
675.7996790568203
 20
182.322040829533
 10
675.8439929730423
 20
181.8771267065493
 10
675.8883068892643
 20
181.4573866465714
 10
675.9326208054864
 20
181.0632101267835
 10
675.9769347217083
 20
180.6949780610631
 10
676.0212486379303
 20
180.3529567562173
 10
676.0655625541524
 20
180.0373307374184
 10
676.1098764703742
 20
179.7482827668792
 10
676.1541903865962
 20
179.4859956068125
 10
676.1985043028182
 20
179.2506520194312
 10
676.2428182190401
 20
179.0424347669478
 10
676.287132135262
 20
178.8615266115754
 10
676.3314460514839
 20
178.7081103155265
 10
676.375759967706
 20
178.582368641014
 10
676.4200738839279
 20
178.4844828803192
 10
676.4643878001499
 20
178.4145510544237
 10
676.5087017163718
 20
178.3725448685017
 10
676.5530156325931
 20
178.3584254775564
  0
LWPOLYLINE
  5
AE
330
1F
100
AcDbEntity
  8
0
  6
CONTINUOUS
 62
     7
100
AcDbPolyline
 90
      105
 70
     0
 43
0.0
 10
661.9434994710475
 20
249.2822932036246
 10
661.9878260412642
 20
249.0254297110725
 10
662.0321526114808
 20
248.7417481213976
 10
662.0764791816976
 20
248.4314855901456
 10
662.1208057519142
 20
248.0948792728623
 10
662.1651323221307
 20
247.7321663250934
 10
662.2094588923475
 20
247.3435839023848
 10
662.2537854625641
 20
246.9293691602821
 10
662.2981120327806
 20
246.4897653826215
 10
662.3424386029974
 20
246.0251201588579
 10
662.3867651732139
 20
245.5358683534758
 10
662.4310917434306
 20
245.0224475191668
 10
662.4754183136473
 20
244.4852952086221
 10
662.5197448838638
 20
243.9248489745331
 10
662.5640714540805
 20
243.3415463695914
 10
662.6083980242972
 20
242.7358249464882
 10
662.6527245945139
 20
242.1081222579152
 10
662.6970511647304
 20
241.4588758565636
 10
662.7413777349473
 20
240.7885239230999
 10
662.7857043051638
 20
240.0975602300193
 10
662.8300308753804
 20
239.3865769888451
 10
662.8743574455971
 20
238.6561764957696
 10
662.9186840158137
 20
237.9069610469854
 10
662.9630105860304
 20
237.1395329386849
 10
663.007337156247
 20
236.3544944670608
 10
663.0516637264635
 20
235.5524479283054
 10
663.0959902966803
 20
234.7339956186113
 10
663.1403168668969
 20
233.899739834171
 10
663.1846434371134
 20
233.050282871177
 10
663.2289700073302
 20
232.1862462726278
 10
663.2732965775468
 20
231.3083286920616
 10
663.3176231477636
 20
230.41724809153
 10
663.3619497179802
 20
229.5137224330844
 10
663.406276288197
 20
228.5984696787765
 10
663.4506028584135
 20
227.6722077906576
 10
663.4949294286301
 20
226.7356547307794
 10
663.5392559988468
 20
225.7895284611933
 10
663.5835825690635
 20
224.8345469439508
 10
663.6279091392802
 20
223.8714281411036
 10
663.6722357094968
 20
222.9008934982995
 10
663.7165622797135
 20
221.9236985906111
 10
663.76088884993
 20
220.9406183230001
 10
663.8052154201467
 20
219.9524278207911
 10
663.8495419903634
 20
218.9599022093093
 10
663.8938685605799
 20
217.9638166138793
 10
663.9381951307967
 20
216.9649461598262
 10
663.9825217010132
 20
215.9640659724748
 10
664.0268482712298
 20
214.9619511771501
 10
664.0711748414465
 20
213.9593768991769
 10
664.1155014116632
 20
212.957118184026
 10
664.1598279818799
 20
211.955947469492
 10
664.2041545520965
 20
210.9566340681164
 10
664.2484811223131
 20
209.9599471080065
 10
664.2928076925298
 20
208.9666557172695
 10
664.3371342627463
 20
207.9775290240127
 10
664.381460832963
 20
206.9933361563434
 10
664.4257874031796
 20
206.0148462423689
 10
664.4701139733963
 20
205.0428284101964
 10
664.514440543613
 20
204.0780517879331
 10
664.5587671138295
 20
203.1212854678456
 10
664.6030936840463
 20
202.1732814466875
 10
664.6474202542629
 20
201.2347473041852
 10
664.6917468244794
 20
200.3063834994161
 10
664.7360733946962
 20
199.3888904914575
 10
664.7803999649128
 20
198.4829687393866
 10
664.8247265351295
 20
197.5893187022807
 10
664.869053105346
 20
196.7086408392172
 10
664.9133796755629
 20
195.8416356092733
 10
664.9577062457795
 20
194.9890034715263
 10
665.002032815996
 20
194.1514448850535
 10
665.0463593862128
 20
193.3296468894367
 10
665.0906859564293
 20
192.5242149260572
 10
665.135012526646
 20
191.7357237637711
 10
665.1793390968627
 20
190.9647481162566
 10
665.2236656670793
 20
190.2118626971917
 10
665.2679922372959
 20
189.4776422202545
 10
665.3123188075127
 20
188.7626613991232
 10
665.3566453777293
 20
188.0674949474756
 10
665.4009719479459
 20
187.3927175789899
 10
665.4452985181625
 20
186.7389040073443
 10
665.4896250883792
 20
186.1066234057186
 10
665.5339516585958
 20
185.4963541921698
 10
665.5782782288123
 20
184.9085006736735
 10
665.622604799029
 20
184.3434649884065
 10
665.6669313692456
 20
183.8016492745453
 10
665.7112579394623
 20
183.2834556702669
 10
665.7555845096788
 20
182.789286313748
 10
665.7999110798955
 20
182.3195433431654
 10
665.8442376501123
 20
181.8746288966958
 10
665.8885642203288
 20
181.454945112516
 10
665.9328907905456
 20
181.0608932666975
 10
665.9772173607621
 20
180.6928040776467
 10
666.0215439309786
 20
180.350886427368
 10
666.0658705011956
 20
180.0353371106167
 10
666.1101970714122
 20
179.7463529221482
 10
666.1545236416288
 20
179.4841306567179
 10
666.1988502118455
 20
179.2488671090812
 10
666.2431767820622
 20
179.0407590739934
 10
666.2875033522789
 20
178.86000334621
 10
666.3318299224956
 20
178.7067967204862
 10
666.3761564927122
 20
178.5813359915528
 10
666.4204830629288
 20
178.4837800802741
 10
666.4648096331456
 20
178.4141403383434
 10
666.5091362033622
 20
178.3723921814254
 10
666.5534627735791
 20
178.3585110251847
  0
LWPOLYLINE
  5
AF
330
1F
100
AcDbEntity
  8
0
  6
CONTINUOUS
 62
     7
100
AcDbPolyline
 90
      105
 70
     0
 43
0.0
 10
631.9445829248185
 20
249.2761097864572
 10
631.9889008570727
 20
249.0188012401717
 10
632.0332187893271
 20
248.7347050723936
 10
632.0775367215812
 20
248.4240170980013
 10
632.1218546538354
 20
248.086933131873
 10
632.1661725860897
 20
247.7236489888869
 10
632.2104905183439
 20
247.3343666962978
 10
632.2548084505983
 20
246.9193949086867
 10
632.2991263828526
 20
246.479131970097
 10
632.3434443151068
 20
246.0139790175675
 10
632.387762247361
 20
245.524337188137
 10
632.4320801796154
 20
245.0106076188441
 10
632.4763981118697
 20
244.4731914467278
 10
632.5207160441238
 20
243.9124898088265
 10
632.5650339763781
 20
243.3289038421792
 10
632.6093519086323
 20
242.7228346838245
 10
632.6536698408867
 20
242.0946841013061
 10
632.697987773141
 20
241.4449116574908
 10
632.7423057053952
 20
240.7740803785469
 10
632.7866236376494
 20
240.0827640373307
 10
632.8309415699036
 20
239.3715364066983
 10
632.8752595021581
 20
238.6409712595059
 10
632.9195774344122
 20
237.8916423686097
 10
632.9638953666664
 20
237.1241235068657
 10
633.0082132989206
 20
236.3389884471302
 10
633.052531231175
 20
235.5368109622593
 10
633.0968491634293
 20
234.7181648251092
 10
633.1411670956835
 20
233.8836443789596
 10
633.1854850279376
 20
233.0339278832817
 10
633.2298029601919
 20
232.1697149933033
 10
633.2741208924461
 20
231.291705364258
 10
633.3184388247004
 20
230.4005986513795
 10
633.3627567569547
 20
229.4970945099013
 10
633.4070746892089
 20
228.5818925950571
 10
633.4513926214631
 20
227.6556925620805
 10
633.4957105537176
 20
226.7191940662053
 10
633.5400284859717
 20
225.7730967626649
 10
633.584346418226
 20
224.8181043640333
 10
633.62866435048
 20
223.8549614524823
 10
633.6729822827344
 20
222.8844362661769
 10
633.7173002149887
 20
221.9072973318596
 10
633.761618147243
 20
220.9243131762729
 10
633.8059360794973
 20
219.9362523261593
 10
633.8502540117515
 20
218.9438833082611
 10
633.8945719440059
 20
217.9479746493208
 10
633.93888987626
 20
216.9492948760809
 10
633.9832078085144
 20
215.9486125152839
 10
634.0275257407686
 20
214.946696171195
 10
634.071843673023
 20
213.9443171241146
 10
634.1161616052772
 20
212.9422499469762
 10
634.1604795375314
 20
211.9412694152206
 10
634.2047974697856
 20
210.9421503042884
 10
634.2491154020398
 20
209.9456673896204
 10
634.293433334294
 20
208.9525954466571
 10
634.3377512665484
 20
207.9637092508392
 10
634.3820691988027
 20
206.9797835776075
 10
634.4263871310568
 20
206.0015932024025
 10
634.4707050633111
 20
205.0299128777171
 10
634.5150229955653
 20
204.0655036128194
 10
634.5593409278197
 20
203.1090894514207
 10
634.6036588600739
 20
202.1613882856792
 10
634.6479767923281
 20
201.2231180077527
 10
634.6922947245823
 20
200.2949965097992
 10
634.7366126568367
 20
199.3777416839766
 10
634.7809305890909
 20
198.4720714224428
 10
634.8252485213452
 20
197.5787036173557
 10
634.8695664535994
 20
196.6983561608735
 10
634.9138843858536
 20
195.8317469451539
 10
634.9582023181082
 20
194.9795821410531
 10
635.0025202503622
 20
194.142493466336
 10
635.0468381826166
 20
193.3210835006862
 10
635.0911561148708
 20
192.5159547560884
 10
635.1354740471251
 20
191.7277097445273
 10
635.1797919793793
 20
190.9569509779877
 10
635.2241099116336
 20
190.2042809684545
 10
635.2684278438878
 20
189.4703022279124
 10
635.3127457761419
 20
188.7556172683462
 10
635.3570637083964
 20
188.0608286017407
 10
635.4013816406506
 20
187.3865338876423
 10
635.4456995729048
 20
186.7332458287216
 10
635.4900175051591
 20
186.1014047731416
 10
635.5343354374133
 20
185.491448757488
 10
635.5786533696676
 20
184.9038158183469
 10
635.6229713019219
 20
184.3389439923041
 10
635.6672892341761
 20
183.7972713159454
 10
635.7116071664304
 20
183.2792358258569
 10
635.7559250986847
 20
182.7852755586245
 10
635.8002430309389
 20
182.3158285508339
 10
635.8445609631932
 20
181.8713321445679
 10
635.8888788954473
 20
181.45215729783
 10
635.9331968277017
 20
181.0585545872426
 10
635.9775147599559
 20
180.6907618809185
 10
636.0218326922102
 20
180.3490170469703
 10
636.0661506244644
 20
180.0335579535106
 10
636.1104685567185
 20
179.7446224686522
 10
636.154786488973
 20
179.4824484605078
 10
636.1991044212272
 20
179.24727379719
 10
636.2434223534815
 20
179.0393363468114
 10
636.2877402857358
 20
178.8588739774849
 10
636.33205821799
 20
178.7060891920903
 10
636.3763761502443
 20
178.5810381540726
 10
636.4206940824985
 20
178.4837391806238
 10
636.4650120147527
 20
178.4142105888832
 10
636.509329947007
 20
178.37247069599
 10
636.5536478792613
 20
178.3585378190833
  0
LWPOLYLINE
  5
B0
330
1F
100
AcDbEntity
  8
0
  6
CONTINUOUS
 62
     7
100
AcDbPolyline
 90
      105
 70
     0
 43
0.0
 10
621.9446653718122
 20
249.2756533293166
 10
621.9889800112504
 20
249.0183743105298
 10
622.0332946506885
 20
248.7342984184216
 10
622.0776092901266
 20
248.4236075555195
 10
622.1219239295648
 20
248.0864836243514
 10
622.166238569003
 20
247.7231089256667
 10
622.2105532084412
 20
247.333727697196
 10
622.2548678478794
 20
246.9187126816601
 10
622.2991824873175
 20
246.4784526010927
 10
622.3434971267556
 20
246.0133361775274
 10
622.3878117661939
 20
245.5237521329979
 10
622.432126405632
 20
245.0100891895378
 10
622.4764410450701
 20
244.4727360691808
 10
622.5207556845081
 20
243.9120814939605
 10
622.5650703239463
 20
243.3285141859107
 10
622.6093849633846
 20
242.7224228670649
 10
622.6536996028227
 20
242.0942204203124
 10
622.698014242261
 20
241.4444358579809
 10
622.742328881699
 20
240.7736330402377
 10
622.7866435211373
 20
240.0823758339065
 10
622.8309581605755
 20
239.371228105811
 10
622.8752728000136
 20
238.6407537227747
 10
622.9195874394517
 20
237.8915165516214
 10
622.96390207889
 20
237.1240804591748
 10
623.0082167183281
 20
236.3390093122586
 10
623.0525313577664
 20
235.5368669776965
 10
623.0968459972045
 20
234.7182232837174
 10
623.1411606366428
 20
233.8837212502883
 10
623.1854752760809
 20
233.0340530333134
 10
623.2297899155188
 20
232.1699116981518
 10
623.2741045549571
 20
231.2919903101628
 10
623.3184191943953
 20
230.4009819347056
 10
623.3627338338335
 20
229.4975796371394
 10
623.4070484732717
 20
228.5824764828232
 10
623.4513631127098
 20
227.6563655371165
 10
623.4956777521479
 20
226.7199398653783
 10
623.5399923915862
 20
225.7738931203978
 10
623.5843070310244
 20
224.8189474044792
 10
623.6286216704626
 20
223.855865398153
 10
623.6729363099007
 20
222.885412891416
 10
623.7172509493388
 20
221.9083556742652
 10
623.7615655887771
 20
220.9254595366975
 10
623.8058802282152
 20
219.9374902687098
 10
623.8501948676533
 20
218.9452136602989
 10
623.8945095070916
 20
217.9493955014619
 10
623.9388241465297
 20
216.9508015821955
 10
623.9831387859679
 20
215.9501976932959
 10
624.027453425406
 20
214.9483517746836
 10
624.071768064844
 20
213.9460385899832
 10
624.1160827042822
 20
212.9440342540203
 10
624.1603973437204
 20
211.9431148816205
 10
624.2047119831587
 20
210.9440565876097
 10
624.2490266225967
 20
209.9476354868131
 10
624.2933412620349
 20
208.9546276940567
 10
624.3376559014731
 20
207.9658093241659
 10
624.3819705409113
 20
206.9819564919665
 10
624.4262851803495
 20
206.003845312284
 10
624.4705998197876
 20
205.032247547013
 10
624.5149144592257
 20
204.0679017638524
 10
624.5592290986639
 20
203.1115312426868
 10
624.6035437381021
 20
202.1638591820505
 10
624.6478583775404
 20
201.2256087804782
 10
624.6921730169786
 20
200.2975032365046
 10
624.7364876564167
 20
199.3802657486643
 10
624.7808022958548
 20
198.4746195154919
 10
624.825116935293
 20
197.5812877355221
 10
624.869431574731
 20
196.7009936072895
 10
624.9137462141694
 20
195.8344579552635
 10
624.9580608536075
 20
194.9823477931409
 10
625.0023754930456
 20
194.1452767606012
 10
625.0466901324837
 20
193.3238562106119
 10
625.091004771922
 20
192.51869749614
 10
625.1353194113602
 20
191.7304119701527
 10
625.1796340507982
 20
190.9596109856173
 10
625.2239486902364
 20
190.2069058955009
 10
625.2682633296747
 20
189.4729080527709
 10
625.3125779691128
 20
188.7582288103943
 10
625.3568926085509
 20
188.0634792499317
 10
625.4012072479892
 20
187.3892230967384
 10
625.4455218874272
 20
186.7359230280238
 10
625.4898365268655
 20
186.1040287355612
 10
625.5341511663036
 20
185.4939899111241
 10
625.5784658057418
 20
184.9062562464856
 10
625.6227804451801
 20
184.3412774334195
 10
625.6670950846182
 20
183.7995031636989
 10
625.7114097240562
 20
183.2813831290972
 10
625.7557243634944
 20
182.7873670213879
 10
625.8000390029325
 20
182.3179045323443
 10
625.8443536423707
 20
181.8734188710226
 10
625.8886682818089
 20
181.4542020130261
 10
625.9329829212471
 20
181.0605053580698
 10
625.9772975606852
 20
180.692580293945
 10
626.0216122001234
 20
180.3506782084428
 10
626.0659268395616
 20
180.0350504893547
 10
626.1102414789998
 20
179.7459485244716
 10
626.1545561184378
 20
179.4836237015849
 10
626.1988707578761
 20
179.248327408486
 10
626.2431853973143
 20
179.0403110329659
 10
626.2875000367526
 20
178.859816329476
 10
626.3318146761906
 20
178.7069622547502
 10
626.3761293156289
 20
178.5817830863997
 10
626.420443955067
 20
178.4843114240925
 10
626.464758594505
 20
178.4145798674971
 10
626.5090732339434
 20
178.3726210162816
 10
626.5533878733814
 20
178.3584674701142
  0
LWPOLYLINE
  5
B1
330
1F
100
AcDbEntity
  8
0
  6
CONTINUOUS
 62
     7
100
AcDbPolyline
 90
      105
 70
     0
 43
0.0
 10
-778.0530939592794
 20
250.3572596386317
 10
-778.0974159860352
 20
250.3437596080969
 10
-778.1417380127912
 20
250.302375455636
 10
-778.1860600395469
 20
250.233072779235
 10
-778.2303820663028
 20
250.1358201289835
 10
-778.2747040930586
 20
250.0106824222178
 10
-778.3190261198145
 20
249.8578400504654
 10
-778.3633481465704
 20
249.6774802179818
 10
-778.4076701733264
 20
249.4697901290221
 10
-778.4519922000823
 20
249.2349569878418
 10
-778.4963142268382
 20
248.9731679986962
 10
-778.5406362535941
 20
248.6846103658406
 10
-778.58495828035
 20
248.3694712935306
 10
-778.6292803071058
 20
248.0279379860212
 10
-778.6736023338618
 20
247.6601977531045
 10
-778.7179243606174
 20
247.2664891519044
 10
-778.7622463873734
 20
246.8471842666948
 10
-778.8065684141293
 20
246.4026766538055
 10
-778.8508904408851
 20
245.9333598695666
 10
-778.8952124676408
 20
245.4396274703078
 10
-778.9395344943968
 20
244.9218730123593
 10
-778.9838565211526
 20
244.380490052051
 10
-779.0281785479082
 20
243.8158721457128
 10
-779.072500574664
 20
243.2284128496748
 10
-779.11682260142
 20
242.6185057202669
 10
-779.1611446281757
 20
241.986562781412
 10
-779.2054666549315
 20
241.3331090636775
 10
-779.2497886816873
 20
240.6587123269131
 10
-779.2941107084432
 20
239.9639404108886
 10
-779.3384327351988
 20
239.2493611553733
 10
-779.3827547619547
 20
238.5155424001372
 10
-779.4270767887106
 20
237.7630519849498
 10
-779.4713988154664
 20
236.9924577495809
 10
-779.5157208422222
 20
236.2043275338001
 10
-779.5600428689779
 20
235.399229177377
 10
-779.604364895734
 20
234.5777345641839
 10
-779.6486869224898
 20
233.7404826694242
 10
-779.6930089492457
 20
232.888167701916
 10
-779.7373309760015
 20
232.0214855148815
 10
-779.7816530027574
 20
231.1411319615433
 10
-779.8259750295134
 20
230.2478028951237
 10
-779.8702970562691
 20
229.3421941688453
 10
-779.914619083025
 20
228.4250016359303
 10
-779.9589411097811
 20
227.4969211496013
 10
-780.0032631365368
 20
226.5586485630807
 10
-780.0475851632929
 20
225.6108800164488
 10
-780.0919071900485
 20
224.6543359567875
 10
-780.1362292168045
 20
223.6897792776317
 10
-780.1805512435603
 20
222.7179771445917
 10
-780.2248732703163
 20
221.7396967232782
 10
-780.2691952970721
 20
220.7557051793016
 10
-780.3135173238278
 20
219.7667696782723
 10
-780.3578393505837
 20
218.7736573858008
 10
-780.4021613773394
 20
217.7771354674977
 10
-780.4464834040953
 20
216.7779710889735
 10
-780.4908054308511
 20
215.7769314158385
 10
-780.5351274576069
 20
214.7747850961244
 10
-780.5794494843627
 20
213.7723066447439
 10
-780.6237715111184
 20
212.7702720277959
 10
-780.6680935378741
 20
211.769457211379
 10
-780.71241556463
 20
210.770638161592
 10
-780.7567375913857
 20
209.7745908445335
 10
-780.8010596181416
 20
208.7820912263026
 10
-780.8453816448974
 20
207.7939152729976
 10
-780.8897036716533
 20
206.8108389507175
 10
-780.934025698409
 20
205.833638225561
 10
-780.9783477251648
 20
204.8630857043676
 10
-781.0226697519206
 20
203.8999214237737
 10
-781.0669917786765
 20
202.9448671245665
 10
-781.1113138054324
 20
201.9986443443324
 10
-781.1556358321885
 20
201.0619746206573
 10
-781.1999578589443
 20
200.1355794911275
 10
-781.2442798857
 20
199.2201804933292
 10
-781.288601912456
 20
198.3164991648486
 10
-781.3329239392119
 20
197.4252570432718
 10
-781.3772459659679
 20
196.547175666185
 10
-781.4215679927238
 20
195.682975042769
 10
-781.4658900194796
 20
194.8333258056838
 10
-781.5102120462354
 20
193.9988397159347
 10
-781.5545340729914
 20
193.1801250886601
 10
-781.5988560997473
 20
192.3777902389981
 10
-781.643178126503
 20
191.5924434820872
 10
-781.6875001532592
 20
190.8246931330656
 10
-781.7318221800149
 20
190.0751475070714
 10
-781.7761442067706
 20
189.3444149192431
 10
-781.8204662335264
 20
188.6331036847189
 10
-781.8647882602821
 20
187.9418220320581
 10
-781.9091102870381
 20
187.2711375702436
 10
-781.953432313794
 20
186.621512649958
 10
-781.9977543405496
 20
185.9933927958002
 10
-782.0420763673054
 20
185.3872235323697
 10
-782.0863983940611
 20
184.8034503842653
 10
-782.130720420817
 20
184.2425188760865
 10
-782.1750424475728
 20
183.7048745324322
 10
-782.2193644743286
 20
183.1909628779016
 10
-782.2636865010844
 20
182.701229437094
 10
-782.3080085278402
 20
182.2361197346084
 10
-782.3523305545963
 20
181.7960580577704
 10
-782.396652581352
 20
181.3813395053958
 10
-782.440974608108
 20
180.9922105959344
 10
-782.4852966348636
 20
180.628917760217
 10
-782.5296186616195
 20
180.2917074290743
 10
-782.5739406883754
 20
179.9808260333368
 10
-782.6182627151311
 20
179.6965200038355
 10
-782.6625847418862
 20
179.4390357714053
210
0.0
220
0.0
230
-1.0
  0
LWPOLYLINE
  5
B2
330
1F
100
AcDbEntity
  8
0
  6
CONTINUOUS
 62
     7
100
AcDbPolyline
 90
      105
 70
     0
 43
0.0
 10
-708.0531129499007
 20
250.3577039065855
 10
-708.0974313232836
 20
250.3438546943735
 10
-708.1417496966661
 20
250.3020925855614
 10
-708.1860680700489
 20
250.2325063036309
 10
-708.2303864434317
 20
250.1351845720636
 10
-708.2747048168144
 20
250.010216114341
 10
-708.319023190197
 20
249.8576896539449
 10
-708.3633415635799
 20
249.677693914357
 10
-708.4076599369625
 20
249.4703176190588
 10
-708.4519783103452
 20
249.235649491532
 10
-708.4962966837279
 20
248.9737935687995
 10
-708.5406150571106
 20
248.684985907993
 10
-708.5849334304935
 20
248.3695300102922
 10
-708.629251803876
 20
248.0277299185753
 10
-708.6735701772589
 20
247.6598896757205
 10
-708.7178885506415
 20
247.266313324606
 10
-708.7622069240242
 20
246.8473049081102
 10
-708.8065252974069
 20
246.4031684691113
 10
-708.8508436707898
 20
245.9342080504875
 10
-708.8951620441724
 20
245.440727695117
 10
-708.939480417555
 20
244.9230346713902
 10
-708.983798790938
 20
244.3815235196083
 10
-709.0281171643206
 20
243.8166840070285
 10
-709.0724355377032
 20
243.2290107212256
 10
-709.116753911086
 20
242.6189982497743
 10
-709.1610722844687
 20
241.9871411802493
 10
-709.2053906578515
 20
241.3339341002256
 10
-709.2497090312343
 20
240.6598715972776
 10
-709.2940274046169
 20
239.9654482589802
 10
-709.3383457779998
 20
239.2511586729083
 10
-709.3826641513825
 20
238.5174975733588
 10
-709.4269825247653
 20
237.7650002796754
 10
-709.471300898148
 20
236.9942978306572
 10
-709.5156192715308
 20
236.2060350574872
 10
-709.5599376449135
 20
235.4008567913484
 10
-709.6042560182963
 20
234.5794078634239
 10
-709.648574391679
 20
233.7423331048966
 10
-709.6928927650617
 20
232.8902773469498
 10
-709.7372111384445
 20
232.0238854207664
 10
-709.7815295118271
 20
231.1438021575295
 10
-709.8258478852099
 20
230.2506723884221
 10
-709.8701662585925
 20
229.3451525790213
 10
-709.9144846319754
 20
228.427963288524
 10
-709.9588030053582
 20
227.49984702875
 10
-710.0031213787408
 20
226.5615463309179
 10
-710.0474397521235
 20
225.6138037262458
 10
-710.0917581255061
 20
224.657361745952
 10
-710.1360764988888
 20
223.692962921255
 10
-710.1803948722716
 20
222.7213497833729
 10
-710.2247132456544
 20
221.7432648635241
 10
-710.2690316190369
 20
220.759450692927
 10
-710.3133499924197
 20
219.7706511940663
 10
-710.3576683658025
 20
218.7776304849118
 10
-710.4019867391851
 20
217.7811679178596
 10
-710.446305112568
 20
216.7820432195783
 10
-710.4906234859508
 20
215.781036116736
 10
-710.5349418593333
 20
214.7789263360009
 10
-710.5792602327159
 20
213.7764936040413
 10
-710.6235786060988
 20
212.7745176475256
 10
-710.6678969794816
 20
211.7737781931218
 10
-710.7122153528644
 20
210.7750549674984
 10
-710.7565337262471
 20
209.7791275515592
 10
-710.8008520996297
 20
208.7867659799726
 10
-710.8451704730124
 20
207.7987250112019
 10
-710.8894888463951
 20
206.8157580319374
 10
-710.9338072197779
 20
205.8386184288694
 10
-710.9781255931606
 20
204.868059588688
 10
-711.0224439665432
 20
203.9048348980836
 10
-711.066762339926
 20
202.9496977437466
 10
-711.1110807133086
 20
202.0034015123669
 10
-711.1553990866914
 20
201.0666995906352
 10
-711.1997174600742
 20
200.1403453646081
 10
-711.2440358334569
 20
199.2250760059774
 10
-711.2883542068397
 20
198.3215703066812
 10
-711.3326725802224
 20
197.4304939242967
 10
-711.3769909536051
 20
196.5525125164011
 10
-711.4213093269877
 20
195.6882917405716
 10
-711.4656277003705
 20
194.8384972543856
 10
-711.5099460737531
 20
194.00379471542
 10
-711.5542644471359
 20
193.1848497812523
 10
-711.5985828205187
 20
192.3823281094595
 10
-711.6429011939015
 20
191.5968953576189
 10
-711.6872195672842
 20
190.8292072475919
 10
-711.731537940667
 20
190.0798326861697
 10
-711.7758563140495
 20
189.3492957361358
 10
-711.8201746874322
 20
188.6381200853587
 10
-711.8644930608151
 20
187.9468294217065
 10
-711.9088114341978
 20
187.2759474330478
 10
-711.9531298075805
 20
186.6259978072508
 10
-711.9974481809633
 20
185.9975042321839
 10
-712.0417665543458
 20
185.3909903957156
 10
-712.0860849277284
 20
184.8069799857141
 10
-712.1304033011114
 20
184.2459936447051
 10
-712.174721674494
 20
183.7084679233889
 10
-712.2190400478769
 20
183.1947466452238
 10
-712.2633584212596
 20
182.7051688560659
 10
-712.3076767946422
 20
182.2400736017716
 10
-712.351995168025
 20
181.7997999281972
 10
-712.3963135414078
 20
181.384686881199
 10
-712.4406319147906
 20
180.9950735066332
 10
-712.4849502881732
 20
180.6312988503562
 10
-712.529268661556
 20
180.2937019582244
 10
-712.5735870349387
 20
179.9826216823855
 10
-712.6179054083213
 20
179.6983400742907
 10
-712.6622237817047
 20
179.4410036858598
210
0.0
220
0.0
230
-1.0
  0
LWPOLYLINE
  5
B3
330
1F
100
AcDbEntity
  8
0
  6
CONTINUOUS
 62
     7
100
AcDbPolyline
 90
      105
 70
     0
 43
0.0
 10
-698.0538245292219
 20
250.3575914275154
 10
-698.0981364007503
 20
250.3432833158295
 10
-698.1424482722786
 20
250.3011114929687
 10
-698.186760143807
 20
250.2311504302829
 10
-698.2310720153355
 20
250.1334745991221
 10
-698.2753838868639
 20
250.0081584708363
 10
-698.3196957583923
 20
249.8552765167753
 10
-698.3640076299205
 20
249.6749032082892
 10
-698.408319501449
 20
249.4671130167281
 10
-698.4526313729773
 20
249.2319831991069
 10
-698.4969432445058
 20
248.9696843655452
 10
-698.5412551160341
 20
248.6805003975474
 10
-698.5855669875625
 20
248.3647219927053
 10
-698.6298788590909
 20
248.0226398486107
 10
-698.6741907306194
 20
247.6545446628554
 10
-698.7185026021477
 20
247.260727133031
 10
-698.7628144736763
 20
246.8414779567295
 10
-698.8071263452047
 20
246.3970878315425
 10
-698.8514382167331
 20
245.9278474550618
 10
-698.8957500882615
 20
245.4340476095485
 10
-698.9400619597899
 20
244.9160260540362
 10
-698.9843738313183
 20
244.3742454844707
 10
-699.0286857028467
 20
243.809189137416
 10
-699.072997574375
 20
243.2213402494358
 10
-699.1173094459034
 20
242.611182057094
 10
-699.1616213174317
 20
241.9791977969546
 10
-699.2059331889602
 20
241.3258707055813
 10
-699.2502450604887
 20
240.6516840195382
 10
-699.2945569320169
 20
239.9571209753889
 10
-699.3388688035454
 20
239.2426648096975
 10
-699.3831806750737
 20
238.5088144571029
 10
-699.4274925466023
 20
237.7561677887024
 10
-699.4718044181304
 20
236.9853611183772
 10
-699.516116289659
 20
236.1970308455031
 10
-699.5604281611874
 20
235.3918133694565
 10
-699.6047400327158
 20
234.5703450896136
 10
-699.6490519042443
 20
233.7332624053505
 10
-699.6933637757727
 20
232.8812017160435
 10
-699.737675647301
 20
232.0147994210687
 10
-699.7819875188295
 20
231.1346919198024
 10
-699.8262993903578
 20
230.2415186180312
 10
-699.8706112618861
 20
229.3359713151505
 10
-699.9149231334146
 20
228.4187863037511
 10
-699.9592350049429
 20
227.4907012895077
 10
-700.0035468764714
 20
226.552453978095
 10
-700.0478587479996
 20
225.6047820751878
 10
-700.0921706195282
 20
224.6484232864609
 10
-700.1364824910565
 20
223.6841153175889
 10
-700.1807943625851
 20
222.7125958742466
 10
-700.2251062341135
 20
221.7346026621087
 10
-700.2694181056416
 20
220.7508735293036
 10
-700.3137299771703
 20
219.762159977554
 10
-700.3580418486986
 20
218.7692382887163
 10
-700.4023537202271
 20
217.7728873633842
 10
-700.4466655917554
 20
216.7738861021514
 10
-700.4909774632838
 20
215.7730134056115
 10
-700.5352893348121
 20
214.7710481743582
 10
-700.5796012063406
 20
213.7687693089854
 10
-700.623913077869
 20
212.7669557100866
 10
-700.6682249493974
 20
211.7663862782555
 10
-700.7125368209258
 20
210.7678399140859
 10
-700.7568486924542
 20
209.7720919490205
 10
-700.8011605639824
 20
208.7799028694516
 10
-700.8454724355109
 20
207.7920293027843
 10
-700.8897843070392
 20
206.8092278764153
 10
-700.9340961785678
 20
205.8322552177412
 10
-700.9784080500962
 20
204.8618679541591
 10
-701.0227199216245
 20
203.8988227130654
 10
-701.0670317931529
 20
202.9438761218571
 10
-701.1113436646813
 20
201.9977848079309
 10
-701.1556555362096
 20
201.0613053986836
 10
-701.1999674077381
 20
200.1351897404068
 10
-701.2442792792663
 20
199.2201401805682
 10
-701.2885911507949
 20
198.3168298009119
 10
-701.3329030223232
 20
197.425931302436
 10
-701.3772148938516
 20
196.548117386139
 10
-701.4215267653799
 20
195.684060753019
 10
-701.4658386369083
 20
194.8344341040744
 10
-701.5101505084368
 20
193.9999101403035
 10
-701.5544623799652
 20
193.1811615627043
 10
-701.5987742514935
 20
192.3788610722754
 10
-701.643086123022
 20
191.5936797600745
 10
-701.6873979945505
 20
190.8262301449899
 10
-701.7317098660787
 20
190.0770509027259
 10
-701.7760217376073
 20
189.3466759933584
 10
-701.8203336091356
 20
188.635639376964
 10
-701.8646454806639
 20
187.9444750136188
 10
-701.9089573521923
 20
187.273716863399
 10
-701.9532692237208
 20
186.6238988863811
 10
-701.9975810952491
 20
185.9955550426412
 10
-702.0418929667776
 20
185.3892192922556
 10
-702.086204838306
 20
184.80542553796
 10
-702.1305167098343
 20
184.2446648254786
 10
-702.1748285813627
 20
183.7073093121071
 10
-702.2191404528911
 20
183.1937107076736
 10
-702.2634523244196
 20
182.7042207220061
 10
-702.3077641959479
 20
182.2391910649327
 10
-702.3520760674764
 20
181.7989734462816
 10
-702.3963879390046
 20
181.3839195758806
 10
-702.4406998105334
 20
180.9943811635582
 10
-702.4850116820617
 20
180.630709919142
 10
-702.5293235535901
 20
180.2932575524603
 10
-702.5736354251186
 20
179.9823552505529
 10
-702.6179472966468
 20
179.6981988145927
 10
-702.662259168175
 20
179.4409292010028
210
0.0
220
0.0
230
-1.0
  0
LWPOLYLINE
  5
B4
330
1F
100
AcDbEntity
  8
0
  6
CONTINUOUS
 62
     7
100
AcDbPolyline
 90
        5
 70
     0
 43
0.0
 10
666.691854014965
 20
181.4610858797014
 10
666.7600185724476
 20
181.2203110254025
 10
666.8262339819872
 20
181.0447203381971
 10
666.8924669187486
 20
180.9266595334064
 10
666.9942767731973
 20
180.8578630770704
  0
LWPOLYLINE
  5
B5
330
1F
100
AcDbEntity
  8
0
  6
CONTINUOUS
 62
     7
100
AcDbPolyline
 90
        5
 70
     0
 43
0.0
 10
726.6928166837114
 20
181.4570498814275
 10
726.7609284492775
 20
181.2173988303886
 10
726.8291369088555
 20
181.0382959007873
 10
726.8973611479752
 20
180.9201486316943
 10
726.994369412206
 20
180.8578630770742
  0
LWPOLYLINE
  5
B6
330
1F
100
AcDbEntity
  8
0
  6
CONTINUOUS
 62
     7
100
AcDbPolyline
 90
      105
 70
     0
 43
0.0
 10
-688.0530852153663
 20
250.3574678154267
 10
-688.0974049165274
 20
250.34363337226
 10
-688.1417246176883
 20
250.3019546017415
 10
-688.1860443188494
 20
250.2324917690419
 10
-688.2303640200104
 20
250.1353051393316
 10
-688.2746837211714
 20
250.0104549777813
 10
-688.3190034223327
 20
249.8580015495615
 10
-688.3633231234936
 20
249.6780051198429
 10
-688.4076428246547
 20
249.4705259657526
 10
-688.4519625258157
 20
249.2356685678311
 10
-688.496282226977
 20
248.973681251412
 10
-688.540601928138
 20
248.6848415519755
 10
-688.584921629299
 20
248.3694270050017
 10
-688.6292413304602
 20
248.0277151459708
 10
-688.6735610316211
 20
247.6599835103629
 10
-688.7178807327822
 20
247.2665096336582
 10
-688.7622004339433
 20
246.8475710513368
 10
-688.8065201351043
 20
246.4034452988787
 10
-688.8508398362653
 20
245.9344099117643
 10
-688.8951595374266
 20
245.4407580076127
 10
-688.9394792385874
 20
244.9229043124132
 10
-688.9837989397485
 20
244.3813206863047
 10
-689.0281186409096
 20
243.8164793203116
 10
-689.0724383420708
 20
243.2288524054585
 10
-689.1167580432317
 20
242.61891213277
 10
-689.1610777443927
 20
241.9871306932707
 10
-689.2053974455538
 20
241.333980277985
 10
-689.2497171467149
 20
240.6599330779377
 10
-689.294036847876
 20
239.965461284153
 10
-689.338356549037
 20
239.2510402861578
 10
-689.382676250198
 20
238.5172200313802
 10
-689.4269959513591
 20
237.7646255806608
 10
-689.4713156525199
 20
236.9938853044459
 10
-689.5156353536811
 20
236.2056275731819
 10
-689.5599550548424
 20
235.4004807573154
 10
-689.6042747560033
 20
234.5790732272926
 10
-689.6485944571643
 20
233.7420333535602
 10
-689.6929141583255
 20
232.8899895065646
 10
-689.7372338594864
 20
232.023570056752
 10
-689.7815535606475
 20
231.1434035393317
 10
-689.8258732618084
 20
230.2501489162589
 10
-689.8701929629696
 20
229.3445309471828
 10
-689.9145126641307
 20
228.4272829796892
 10
-689.9588323652916
 20
227.4991383613637
 10
-690.0031520664527
 20
226.5608304397922
 10
-690.0474717676137
 20
225.6130925625604
 10
-690.0917914687748
 20
224.656658077254
 10
-690.1361111699358
 20
223.6922603314589
 10
-690.1804308710967
 20
222.7206326727606
 10
-690.2247505722579
 20
221.7425084487451
 10
-690.269070273419
 20
220.7586269757367
 10
-690.31338997458
 20
219.7697574737059
 10
-690.3577096757411
 20
218.7766785079581
 10
-690.4020293769021
 20
217.7801686469544
 10
-690.4463490780632
 20
216.7810064591559
 10
-690.4906687792242
 20
215.7799705130234
 10
-690.5349884803853
 20
214.7778393770181
 10
-690.5793081815463
 20
213.7753916196006
 10
-690.6236278827074
 20
212.7734058092323
 10
-690.6679475838685
 20
211.7726605143741
 10
-690.7122672850295
 20
210.7739335103794
 10
-690.7565869861905
 20
209.7779923696832
 10
-690.8009066873517
 20
208.7855975831842
 10
-690.8452263885126
 20
207.7975094991664
 10
-690.8895460896738
 20
206.8144884659136
 10
-690.933865790835
 20
205.8372948317098
 10
-690.9781854919959
 20
204.8666889448389
 10
-691.0225051931569
 20
203.9034311535848
 10
-691.0668248943181
 20
202.9482818062315
 10
-691.1111445954789
 20
202.0020012510628
 10
-691.15546429664
 20
201.0653492474331
 10
-691.1997839978011
 20
200.139054796571
 10
-691.244103698962
 20
199.2238016855263
 10
-691.2884234001233
 20
198.3202700860108
 10
-691.3327431012843
 20
197.4291401697361
 10
-691.3770628024452
 20
196.5510921084138
 10
-691.4213825036062
 20
195.6868060737556
 10
-691.4657022047675
 20
194.8369622374733
 10
-691.5100219059285
 20
194.0022407712784
 10
-691.5543416070896
 20
193.1833218468826
 10
-691.5986613082506
 20
192.3808856291248
 10
-691.6429810094118
 20
191.5955848375495
 10
-691.6873007105727
 20
190.8279823843918
 10
-691.7316204117337
 20
190.0786228415224
 10
-691.7759401128948
 20
189.3480507808117
 10
-691.8202598140559
 20
188.6368107741304
 10
-691.8645795152169
 20
187.945447393349
 10
-691.908899216378
 20
187.2745052103379
 10
-691.9532189175391
 20
186.6245287969679
 10
-691.9975386187
 20
185.9960627251093
 10
-692.0418583198613
 20
185.3896515666329
 10
-692.0861780210222
 20
184.8058255895236
 10
-692.1304977221832
 20
184.2450027482659
 10
-692.1748174233444
 20
183.707547954783
 10
-692.2191371245053
 20
183.1938258070842
 10
-692.2634568256665
 20
182.7042009031789
 10
-692.3077765268275
 20
182.2390378410764
 10
-692.3520962279887
 20
181.7987012187861
 10
-692.3964159291496
 20
181.3835556343172
 10
-692.4407356303108
 20
180.9939656856793
 10
-692.4850553314718
 20
180.6302959708815
 10
-692.5293750326327
 20
180.2929068419883
 10
-692.5736947337938
 20
179.9820587972356
 10
-692.6180144349548
 20
179.6979112449553
 10
-692.6623341361156
 20
179.4406191003091
210
0.0
220
0.0
230
-1.0
  0
LWPOLYLINE
  5
B7
330
1F
100
AcDbEntity
  8
0
  6
CONTINUOUS
 62
     7
100
AcDbPolyline
 90
      105
 70
     0
 43
0.0
 10
-668.0537355298612
 20
250.3572451423173
 10
-668.098050082571
 20
250.3430910220948
 10
-668.142364635281
 20
250.3011321518352
 10
-668.1866791879905
 20
250.2314002383714
 10
-668.2309937407006
 20
250.1339269885365
 10
-668.2753082934103
 20
250.0087441091631
 10
-668.31962284612
 20
249.8558833070843
 10
-668.3639373988296
 20
249.67537861688
 10
-668.4082519515396
 20
249.4673547626228
 10
-668.4525665042494
 20
249.2320543921057
 10
-668.496881056959
 20
248.9697280457267
 10
-668.5411956096688
 20
248.6806262638847
 10
-668.5855101623787
 20
248.3649995869778
 10
-668.6298247150883
 20
248.0230985554045
 10
-668.6741392677981
 20
247.6551737095631
 10
-668.7184538205079
 20
247.2614755898521
 10
-668.7627683732177
 20
246.8422547366699
 10
-668.8070829259274
 20
246.3977617374415
 10
-668.8513974786372
 20
245.9282925192165
 10
-668.895712031347
 20
245.4342729199658
 10
-668.9400265840567
 20
244.9161518985617
 10
-668.9843411367665
 20
244.3743784138763
 10
-669.0286556894762
 20
243.8094014247818
 10
-669.072970242186
 20
243.2216698901505
 10
-669.1172847948956
 20
242.6116327688543
 10
-669.1615993476055
 20
241.9797390197658
 10
-669.2059139003152
 20
241.3264376017569
 10
-669.2502284530251
 20
240.6521774736999
 10
-669.2945430057347
 20
239.9574227552234
 10
-669.3388575584445
 20
239.2427409472866
 10
-669.3831721111542
 20
238.5087427002953
 10
-669.427486663864
 20
237.7560388085273
 10
-669.4718012165737
 20
236.9852400662597
 10
-669.5161157692836
 20
236.1969572677704
 10
-669.5604303219933
 20
235.3918012073368
 10
-669.6047448747031
 20
234.5703826792365
 10
-669.6490594274129
 20
233.7333124777471
 10
-669.6933739801227
 20
232.8812013971461
 10
-669.7376885328325
 20
232.0146631418187
 10
-669.7820030855421
 20
231.1343677388993
 10
-669.8263176382519
 20
230.241036207351
 10
-669.8706321909616
 20
229.3353914067548
 10
-669.9149467436715
 20
228.4181561966916
 10
-669.9592612963813
 20
227.4900534367422
 10
-670.0035758490909
 20
226.5518059864877
 10
-670.0478904018008
 20
225.604136705509
 10
-670.0922049545105
 20
224.6477684533869
 10
-670.1365195072203
 20
223.6834240897024
 10
-670.1808340599301
 20
222.7118266140234
 10
-670.2251486126398
 20
221.7337158102307
 10
-670.2694631653496
 20
220.7498639772747
 10
-670.3137777180593
 20
219.7610471383826
 10
-670.3580922707692
 20
218.7680413167815
 10
-670.402406823479
 20
217.7716225356987
 10
-670.4467213761886
 20
216.7725668183616
 10
-670.4910359288986
 20
215.7716501879972
 10
-670.5353504816084
 20
214.7696486678329
 10
-670.579665034318
 20
213.7673382810958
 10
-670.6239795870277
 20
212.7654950510133
 10
-670.6682941397376
 20
211.7648934984743
 10
-670.7126086924472
 20
210.7663014440226
 10
-670.756923245157
 20
209.7704848409562
 10
-670.8012377978669
 20
208.7782096424924
 10
-670.8455523505766
 20
207.7902418018491
 10
-670.8898669032864
 20
206.8073472722439
 10
-670.9341814559963
 20
205.8302920068945
 10
-670.978496008706
 20
204.8598419590185
 10
-671.0228105614158
 20
203.8967630818336
 10
-671.0671251141254
 20
202.9418213285574
 10
-671.1114396668353
 20
201.9957789110886
 10
-671.1557542195449
 20
201.0593560753074
 10
-671.2000687722547
 20
200.1332467000315
 10
-671.2443833249644
 20
199.2181442553603
 10
-671.2886978776743
 20
198.314742211393
 10
-671.333012430384
 20
197.4237340382286
 10
-671.3773269830937
 20
196.5458132059663
 10
-671.4216415358035
 20
195.6816731847055
 10
-671.4659560885134
 20
194.8320074445452
 10
-671.510270641223
 20
193.9975094555846
 10
-671.5545851939329
 20
193.1788714185994
 10
-671.5988997466425
 20
192.3767329508168
 10
-671.6432142993524
 20
191.5916634266119
 10
-671.687528852062
 20
190.8242273260876
 10
-671.7318434047719
 20
190.0749891293469
 10
-671.7761579574817
 20
189.3445133164929
 10
-671.8204725101914
 20
188.6333643676283
 10
-671.8647870629012
 20
187.9421067628562
 10
-671.909101615611
 20
187.2713049822795
 10
-671.9534161683207
 20
186.6215235060013
 10
-671.9977307210305
 20
185.9933267829766
 10
-672.0420452737404
 20
185.3872403337509
 10
-672.0863598264501
 20
184.8036747562698
 10
-672.1306743791599
 20
184.243019544413
 10
-672.1749889318697
 20
183.7056641920602
 10
-672.2193034845794
 20
183.191998193091
 10
-672.2636180372892
 20
182.7024110413851
 10
-672.3079325899992
 20
182.2372922308221
 10
-672.3522471427087
 20
181.7970312552816
 10
-672.3965616954185
 20
181.3820176086434
 10
-672.4408762481283
 20
180.9926407847871
 10
-672.4851908008382
 20
180.6292716233557
 10
-672.5295053535477
 20
180.2921495660849
 10
-672.5738199062577
 20
179.981457601027
 10
-672.6181344589675
 20
179.6973784982289
 10
-672.6624490116776
 20
179.4400950277358
210
0.0
220
0.0
230
-1.0
  0
LWPOLYLINE
  5
B8
330
1F
100
AcDbEntity
  8
0
  6
CONTINUOUS
 62
     7
100
AcDbPolyline
 90
        5
 70
     0
 43
0.0
 10
766.6760073189209
 20
181.5258995618483
 10
766.744110191074
 20
181.2710252025911
 10
766.8102758576712
 20
181.0816438760748
 10
766.876519891134
 20
180.9497167850294
 10
766.9943112369801
 20
180.8578630771195
  0
LWPOLYLINE
  5
B9
330
1F
100
AcDbEntity
  8
0
  6
CONTINUOUS
 62
     7
100
AcDbPolyline
 90
        6
 70
     0
 43
0.0
 10
646.6661719837051
 20
181.5674956728676
 10
646.734383906215
 20
181.3039479197876
 10
646.8025757355314
 20
181.100869556581
 10
646.8706732623915
 20
180.9589006638359
 10
646.9368438006835
 20
180.8797899867729
 10
646.9942672252388
 20
180.8578630771124
  0
LWPOLYLINE
  5
BA
330
1F
100
AcDbEntity
  8
0
  6
CONTINUOUS
 62
     7
100
AcDbPolyline
 90
        5
 70
     0
 43
0.0
 10
776.6849557849248
 20
181.4889479659817
 10
776.7530605697638
 20
181.2422433554771
 10
776.821207024426
 20
181.0560343572083
 10
776.8893596279137
 20
180.9307483358693
 10
776.9942904294617
 20
180.8578630770721
  0
LWPOLYLINE
  5
BB
330
1F
100
AcDbEntity
  8
0
  6
CONTINUOUS
 62
     7
100
AcDbPolyline
 90
      105
 70
     0
 43
0.0
 10
761.9448240655636
 20
249.2748608208748
 10
761.9891343725603
 20
249.0175902497361
 10
762.0334446795567
 20
248.7334866763342
 10
762.0777549865534
 20
248.4227092915562
 10
762.1220652935499
 20
248.0854182193027
 10
762.1663756005464
 20
247.7218462723688
 10
762.210685907543
 20
247.3323497605536
 10
762.2549962145397
 20
246.9172969920048
 10
762.2993065215363
 20
246.4770562748698
 10
762.3436168285328
 20
246.0119959172961
 10
762.3879271355297
 20
245.5224842274315
 10
762.4322374425262
 20
245.0088895134232
 10
762.4765477495228
 20
244.4715800834191
 10
762.5208580565195
 20
243.9109242455665
 10
762.5651683635161
 20
243.3272903080526
 10
762.6094786705127
 20
242.7210774243638
 10
762.6537889775093
 20
242.0928041304667
 10
762.6980992845058
 20
241.4430178404633
 10
762.7424095915023
 20
240.7722659684552
 10
762.786719898499
 20
240.0810959285442
 10
762.8310302054955
 20
239.3700551348321
 10
762.875340512492
 20
238.6396910014206
 10
762.9196508194885
 20
237.8905509424115
 10
762.9639611264852
 20
237.1231823719065
 10
763.0082714334816
 20
236.3381327040073
 10
763.0525817404782
 20
235.535957818562
 10
763.0968920474749
 20
234.7172943610216
 10
763.1412023544713
 20
233.8828237684597
 10
763.1855126614679
 20
233.0332279553151
 10
763.2298229684642
 20
232.1691888360267
 10
763.2741332754608
 20
231.2913883250333
 10
763.3184435824571
 20
230.4005083367737
 10
763.3627538894538
 20
229.4972307856869
 10
763.4070641964504
 20
228.5822375862116
 10
763.451374503447
 20
227.6562106527868
 10
763.4956848104434
 20
226.7198329802035
 10
763.5399951174401
 20
225.7738220895148
 10
763.5843054244367
 20
224.818936453111
 10
763.6286157314332
 20
223.8559369204944
 10
763.6729260384299
 20
222.8855843411673
 10
763.7172363454267
 20
221.9086395646322
 10
763.7615466524231
 20
220.925863440391
 10
763.8058569594198
 20
219.9380168179463
 10
763.8501672664164
 20
218.9458605468004
 10
763.8944775734132
 20
217.9501554764554
 10
763.9387878804098
 20
216.9516624652893
 10
763.9830981874063
 20
215.9511465904495
 10
764.0274084944027
 20
214.9493838840855
 10
764.0717188013994
 20
213.9471521335266
 10
764.116029108396
 20
212.9452291261018
 10
764.1603394153925
 20
211.9443926491404
 10
764.204649722389
 20
210.9454204899715
 10
764.2489600293856
 20
209.9490904359243
 10
764.2932703363822
 20
208.956180274328
 10
764.3375806433787
 20
207.9674677925117
 10
764.3818909503752
 20
206.9837307778045
 10
764.4262012573719
 20
206.0057421230491
 10
764.4705115643685
 20
205.0342446273526
 10
764.5148218713648
 20
204.069969660474
 10
764.5591321783616
 20
203.1136485701667
 10
764.6034424853581
 20
202.1660127041846
 10
764.6477527923545
 20
201.2277934102813
 10
764.6920630993513
 20
200.2997220362104
 10
764.7363734063476
 20
199.3825299297256
 10
764.7806837133444
 20
198.4769484385806
 10
764.8249940203409
 20
197.5837089105289
 10
764.8693043273373
 20
196.7035394175929
 10
764.9136146343341
 20
195.8371127228469
 10
764.9579249413306
 20
194.9850555445284
 10
765.0022352483272
 20
194.1479931975059
 10
765.0465455553237
 20
193.3265509966486
 10
765.0908558623205
 20
192.5213542568252
 10
765.1351661693171
 20
191.7330282929046
 10
765.1794764763135
 20
190.9621984197557
 10
765.2237867833102
 20
190.2094899522472
 10
765.2680970903067
 20
189.4755282052482
 10
765.3124073973033
 20
188.7609379068069
 10
765.3567177043
 20
188.066291002662
 10
765.4010280112965
 20
187.3920655057186
 10
765.4453383182931
 20
186.7387297446597
 10
765.4896486252898
 20
186.106752048168
 10
765.5339589322863
 20
185.4966007449265
 10
765.5782692392827
 20
184.9087441636179
 10
765.6225795462794
 20
184.3436506329253
 10
765.666889853276
 20
183.8017884815312
 10
765.7112001602726
 20
183.2836260381189
 10
765.7555104672691
 20
182.7896316313709
 10
765.7998207742656
 20
182.3202416619492
 10
765.8441310812622
 20
181.8757624394857
 10
765.8884413882586
 20
181.4564671450825
 10
765.9327516952553
 20
181.0626289598338
 10
765.9770620022518
 20
180.6945210648338
 10
766.0213723092482
 20
180.3524166411769
 10
766.0656826162449
 20
180.0365888699574
 10
766.1099929232415
 20
179.7473109322695
 10
766.1543032302379
 20
179.4848560092076
 10
766.1986135372345
 20
179.2494972818659
 10
766.2429238442312
 20
179.0414951975492
 10
766.2872341512275
 20
178.8609813259518
 10
766.3315444582245
 20
178.7080123643826
 10
766.3758547652209
 20
178.5826440863958
 10
766.4201650722175
 20
178.4849322655459
 10
766.4644753792143
 20
178.4149326753872
 10
766.5087856862108
 20
178.3727010894739
 10
766.5530959932064
 20
178.3582932813605
  0
LWPOLYLINE
  5
BC
330
1F
100
AcDbEntity
  8
0
  6
CONTINUOUS
 62
     7
100
AcDbPolyline
 90
      105
 70
     0
 43
0.0
 10
731.9446003461952
 20
249.2764247585262
 10
731.9889123970772
 20
249.0192834974645
 10
732.0332244479591
 20
248.735164280364
 10
732.077536498841
 20
248.4242546735644
 10
732.1218485497228
 20
248.0868708629981
 10
732.1661606006049
 20
247.7233428740238
 10
732.2104726514868
 20
247.3340007320003
 10
732.2547847023687
 20
246.9191744622861
 10
732.2990967532505
 20
246.4791940902398
 10
732.3434088041327
 20
246.0143896412204
 10
732.3877208550144
 20
245.5250911405862
 10
732.4320329058964
 20
245.0116286136961
 10
732.4763449567783
 20
244.4743320859087
 10
732.5206570076602
 20
243.9135609329966
 10
732.5649690585423
 20
243.3297985462798
 10
732.6092811094242
 20
242.7235610665333
 10
732.6535931603062
 20
242.0953646347217
 10
732.6979052111881
 20
241.4457253918096
 10
732.7422172620702
 20
240.7751594787613
 10
732.7865293129521
 20
240.0841830365414
 10
732.830841363834
 20
239.3733122061143
 10
732.8751534147159
 20
238.6430631284445
 10
732.919465465598
 20
237.8939519444965
 10
732.9637775164798
 20
237.126502819831
 10
733.0080895673618
 20
236.3413245321066
 10
733.052401618244
 20
235.5390765924516
 10
733.0967136691258
 20
234.7204192000865
 10
733.1410257200077
 20
233.8860125542323
 10
733.1853377708896
 20
233.0365168541097
 10
733.2296498217717
 20
232.1725922989394
 10
733.2739618726537
 20
231.294899087942
 10
733.3182739235355
 20
230.4040974203384
 10
733.3625859744174
 20
229.5008474953493
 10
733.4068980252993
 20
228.5858105206129
 10
733.4512100761813
 20
227.6596855027877
 10
733.4955221270632
 20
226.7232197540947
 10
733.5398341779452
 20
225.7771637361851
 10
733.584146228827
 20
224.8222679107101
 10
733.6284582797089
 20
223.8592827393209
 10
733.6727703305908
 20
222.8889586836687
 10
733.7170823814728
 20
221.9120462054047
 10
733.7613944323547
 20
220.92929576618
 10
733.8057064832366
 20
219.9414578276458
 10
733.8500185341186
 20
218.9492828595195
 10
733.8943305850006
 20
217.9535280878529
 10
733.9386426358824
 20
216.9549697621194
 10
733.9829546867645
 20
215.9543874556102
 10
734.0272667376464
 20
214.9525607416162
 10
734.0715787885284
 20
213.9502691934287
 10
734.1158908394103
 20
212.9482923843387
 10
734.1602028902923
 20
211.9474098876374
 10
734.2045149411742
 20
210.9484012766158
 10
734.2488269920564
 20
209.9520461245651
 10
734.2931390429384
 20
208.9591240047765
 10
734.3374510938203
 20
207.9704112028496
 10
734.3817631447022
 20
206.9866619662891
 10
734.426075195584
 20
206.0086214849239
 10
734.470387246466
 20
205.037034920755
 10
734.5146992973478
 20
204.072647435783
 10
734.5590113482297
 20
203.1162041920092
 10
734.6033233991117
 20
202.1684503514343
 10
734.6476354499935
 20
201.2301310760593
 10
734.6919475008754
 20
200.3019915278851
 10
734.7362595517573
 20
199.3847768689126
 10
734.7805716026392
 20
198.4792297234294
 10
734.8248836535212
 20
197.586044626571
 10
734.8691957044032
 20
196.7058731238785
 10
734.9135077552852
 20
195.8393652471099
 10
734.9578198061671
 20
194.9871710280235
 10
735.0021318570491
 20
194.1499404983773
 10
735.046443907931
 20
193.3283236899296
 10
735.090755958813
 20
192.5229706344384
 10
735.135068009695
 20
191.734531363662
 10
735.1793800605769
 20
190.9636559093585
 10
735.2236921114591
 20
190.2109938930893
 10
735.2680041623411
 20
189.4771477652656
 10
735.312316213223
 20
188.7626296584562
 10
735.356628264105
 20
188.0679415068384
 10
735.4009403149869
 20
187.3935852445898
 10
735.4452523658689
 20
186.7400628058876
 10
735.4895644167508
 20
186.1078761249095
 10
735.5338764676327
 20
185.4975271358328
 10
735.5781885185146
 20
184.9095177728349
 10
735.6225005693965
 20
184.3443499700934
 10
735.6668126202784
 20
183.8025256617857
 10
735.7111246711604
 20
183.2845182608901
 10
735.7554367220423
 20
182.7906753793657
 10
735.7997487729242
 20
182.3213099551769
 10
735.844060823806
 20
181.8767349251999
 10
735.8883728746879
 20
181.4572632263111
 10
735.9326849255697
 20
181.0632077953867
 10
735.9769969764516
 20
180.694881569303
 10
736.0213090273335
 20
180.3525974849362
 10
736.0656210782154
 20
180.0366684791628
 10
736.1099331290973
 20
179.747407488859
 10
736.1542451799792
 20
179.4851162261783
 10
736.1985572308611
 20
179.2499718894031
 10
736.2428692817431
 20
179.0420740936855
 10
736.2871813326251
 20
178.8615212791797
 10
736.331493383507
 20
178.7084118860404
 10
736.3758054343889
 20
178.5828443544218
 10
736.4201174852709
 20
178.4849171244783
 10
736.4644295361529
 20
178.4147286363646
 10
736.5087415870349
 20
178.3723773302349
 10
736.5530536379181
 20
178.3579616462437
  0
LWPOLYLINE
  5
BD
330
1F
100
AcDbEntity
  8
0
  6
CONTINUOUS
 62
     7
100
AcDbPolyline
 90
      113
 70
     0
 43
0.0
 10
721.9448379100505
 20
249.2752300266104
 10
721.9859830502058
 20
249.0371714139062
 10
722.0271281903613
 20
248.775806920671
 10
722.0682733305165
 20
248.4913472978517
 10
722.1094184706719
 20
248.1840462444446
 10
722.1505636108272
 20
247.8541575536534
 10
722.1917087509826
 20
247.5019350186815
 10
722.2328538911379
 20
247.1276324327326
 10
722.2739990312932
 20
246.7315035890104
 10
722.3151441714485
 20
246.3138022807182
 10
722.3562893116039
 20
245.8747823010599
 10
722.3974344517592
 20
245.414697443239
 10
722.4385795919146
 20
244.9338015004589
 10
722.4797247320698
 20
244.4323598072867
 10
722.5208698722251
 20
243.9107312371369
 10
722.5620150123805
 20
243.3693200446743
 10
722.6031601525358
 20
242.8085307840786
 10
722.6443052926911
 20
242.2287680095299
 10
722.6854504328463
 20
241.6304362752082
 10
722.7265955730018
 20
241.0139401352934
 10
722.7677407131571
 20
240.3796841439656
 10
722.8088858533124
 20
239.7280728554047
 10
722.8500309934677
 20
239.0595108237907
 10
722.8911761336232
 20
238.3744026033036
 10
722.9323212737784
 20
237.6731592529778
 10
722.9734664139336
 20
236.9562609071155
 10
723.014611554089
 20
236.2242293422763
 10
723.0557566942443
 20
235.4775869088303
 10
723.0969018343997
 20
234.7168559571478
 10
723.138046974555
 20
233.9425588375987
 10
723.1791921147102
 20
233.1552179005533
 10
723.2203372548657
 20
232.3553554963817
 10
723.2614823950211
 20
231.5434939754541
 10
723.3026275351763
 20
230.7201556881404
 10
723.3437726753316
 20
229.885862984811
 10
723.3849178154869
 20
229.0411410952019
 10
723.4260629556421
 20
228.1865562909431
 10
723.4672080957976
 20
227.3227054249612
 10
723.5083532359529
 20
226.4501860804982
 10
723.5494983761082
 20
225.5695958407963
 10
723.5906435162635
 20
224.6815322890975
 10
723.631788656419
 20
223.7865930086438
 10
723.6729337965743
 20
222.8853755826775
 10
723.7140789367296
 20
221.9784775944404
 10
723.7552240768849
 20
221.0664966271747
 10
723.7963692170401
 20
220.1500302641226
 10
723.8375143571956
 20
219.2296767574233
 10
723.8786594973509
 20
218.3060476119286
 10
723.9198046375063
 20
217.3797664989853
 10
723.9609497776615
 20
216.4514575410967
 10
724.002094917817
 20
215.5217448607658
 10
724.0432400579724
 20
214.5912525804957
 10
724.0843851981277
 20
213.6606048227895
 10
724.1255303382832
 20
212.7304257101503
 10
724.1666754784383
 20
211.8013393650811
 10
724.2078206185938
 20
210.8739699100851
 10
724.2489657587491
 20
209.9489414676653
 10
724.2901108989045
 20
209.0268777831455
 10
724.3312560390598
 20
208.1083916737755
 10
724.372401179215
 20
207.1940836078619
 10
724.4135463193704
 20
206.2845533910268
 10
724.4546914595257
 20
205.3804008288922
 10
724.4958365996812
 20
204.4822257270798
 10
724.5369817398363
 20
203.5906278912115
 10
724.5781268799917
 20
202.7062071269093
 10
724.6192720201472
 20
201.8295632397952
 10
724.6604171603024
 20
200.9612960354908
 10
724.7015623004577
 20
200.1020053196183
 10
724.742707440613
 20
199.2522902618228
 10
724.7838525807683
 20
198.4127209626027
 10
724.8249977209236
 20
197.5838270345979
 10
724.866142861079
 20
196.7661350918493
 10
724.9072880012342
 20
195.9601717483976
 10
724.9484331413896
 20
195.1664636182838
 10
724.9895782815449
 20
194.3855373155488
 10
725.0307234217001
 20
193.6179194542333
 10
725.0718685618556
 20
192.8641366483785
 10
725.1130137020109
 20
192.1247155120251
 10
725.1541588421662
 20
191.4001826592139
 10
725.1953039823217
 20
190.6910642123704
 10
725.2364491224769
 20
189.9978463358348
 10
725.2775942626322
 20
189.3209463513396
 10
725.3187394027876
 20
188.6607747706044
 10
725.359884542943
 20
188.017742105349
 10
725.401029683098
 20
187.3922588672932
 10
725.4421748232536
 20
186.7847355681566
 10
725.483319963409
 20
186.1955827196589
 10
725.5244651035642
 20
185.62521083352
 10
725.5656102437196
 20
185.0740304214594
 10
725.606755383875
 20
184.542451995197
 10
725.6479005240303
 20
184.0308858208789
 10
725.6890456641859
 20
183.5396985090246
 10
725.7301908043411
 20
183.0691631048386
 10
725.7713359444964
 20
182.6195405674877
 10
725.8124810846517
 20
182.1910918561387
 10
725.853626224807
 20
181.7840779299584
 10
725.8947713649621
 20
181.3987597481135
 10
725.9359165051176
 20
181.0353982697707
 10
725.9770616452729
 20
180.6942544540969
 10
726.0182067854283
 20
180.3755892602589
 10
726.0593519255835
 20
180.0796636474233
 10
726.1004970657389
 20
179.8067385050543
 10
726.1416422058942
 20
179.5570333995272
 10
726.1827873460496
 20
179.3306569133352
 10
726.223932486205
 20
179.1276991890353
 10
726.2650776263602
 20
178.9482503691841
 10
726.3062227665156
 20
178.7924005963386
 10
726.3473679066709
 20
178.6602400130555
 10
726.3885130468263
 20
178.5518587618916
 10
726.4296581869817
 20
178.4673469854037
 10
726.4708033271368
 20
178.4067948261486
 10
726.5119484672923
 20
178.3702924266831
 10
726.5530936074477
 20
178.3579299245747
  0
LWPOLYLINE
  5
BE
330
1F
100
AcDbEntity
  8
0
  6
CONTINUOUS
 62
     7
100
AcDbPolyline
 90
      105
 70
     0
 43
0.0
 10
691.9444460207607
 20
249.2774256131924
 10
691.9887609568929
 20
249.020048984733
 10
692.033075893025
 20
248.735778651986
 10
692.0773908291573
 20
248.4248920609859
 10
692.1217057652893
 20
248.087666657767
 10
692.1660207014216
 20
247.7243798883633
 10
692.2103356375537
 20
247.3353091988093
 10
692.2546505736859
 20
246.9207320351392
 10
692.2989655098181
 20
246.4809258433874
 10
692.3432804459503
 20
246.016168069588
 10
692.3875953820825
 20
245.5267436132055
 10
692.4319103182146
 20
245.0130435472987
 10
692.4762252543467
 20
244.4755380240582
 10
692.520540190479
 20
243.914699082328
 10
692.5648551266111
 20
243.330998760952
 10
692.6091700627431
 20
242.7249090987739
 10
692.6534849988753
 20
242.0969021346377
 10
692.6977999350077
 20
241.4474499073874
 10
692.7421148711398
 20
240.7770244558667
 10
692.7864298072719
 20
240.0860978189195
 10
692.8307447434041
 20
239.3751429323074
 10
692.8750596795362
 20
238.6446897360194
 10
692.9193746156685
 20
237.8953584108549
 10
692.9636895518007
 20
237.1277771247453
 10
693.0080044879328
 20
236.3425740456217
 10
693.0523194240649
 20
235.5403773414156
 10
693.096634360197
 20
234.7218151800582
 10
693.1409492963293
 20
233.887515729481
 10
693.1852642324612
 20
233.038107157615
 10
693.2295791685935
 20
232.1742176323916
 10
693.2738941047255
 20
231.296475322729
 10
693.3182090408579
 20
230.4055279748368
 10
693.36252397699
 20
229.5020931457121
 10
693.4068389131222
 20
228.5869039465929
 10
693.4511538492543
 20
227.6606934887172
 10
693.4954687853865
 20
226.7241948833229
 10
693.5397837215187
 20
225.7781412416479
 10
693.5840986576507
 20
224.8232656749301
 10
693.6284135937827
 20
223.8603012944074
 10
693.672728529915
 20
222.8899812113179
 10
693.7170434660472
 20
221.9130385368993
 10
693.7613584021796
 20
220.9302095770906
 10
693.8056733383116
 20
219.9422583263641
 10
693.8499882744438
 20
218.9499629863145
 10
693.894303210576
 20
217.954101874481
 10
693.9386181467081
 20
216.9554533084026
 10
693.9829330828403
 20
215.9547956056185
 10
694.0272480189725
 20
214.9529070836677
 10
694.0715629551047
 20
213.9505660600892
 10
694.1158778912368
 20
212.9485508524222
 10
694.160192827369
 20
211.9476397782059
 10
694.2045077635012
 20
210.9486108513674
 10
694.2488226996333
 20
209.9522337713524
 10
694.2931376357657
 20
208.9592691083982
 10
694.3374525718976
 20
207.9704769657389
 10
694.3817675080297
 20
206.9866174466087
 10
694.426082444162
 20
206.0084506542418
 10
694.4703973802941
 20
205.0367366918721
 10
694.5147123164262
 20
204.072235662734
 10
694.5590272525584
 20
203.1157076700615
 10
694.6033421886906
 20
202.1679128170887
 10
694.6476571248226
 20
201.2296111328589
 10
694.6919720609549
 20
200.3015411566951
 10
694.736286997087
 20
199.3843902851708
 10
694.7806019332191
 20
198.478838470788
 10
694.8249168693512
 20
197.585565666048
 10
694.8692318054833
 20
196.7052518234527
 10
694.9135467416157
 20
195.8385768955038
 10
694.9578616777479
 20
194.9862208347029
 10
695.00217661388
 20
194.1488635935517
 10
695.0464915500122
 20
193.3271851245518
 10
695.0908064861443
 20
192.521865380205
 10
695.1351214222765
 20
191.7335683856423
 10
695.1794363584087
 20
190.9628693451374
 10
695.2237512945409
 20
190.2103126851204
 10
695.2680662306731
 20
189.4764428019536
 10
695.3123811668052
 20
188.7618040919998
 10
695.3566961029373
 20
188.0669409516213
 10
695.4010110390694
 20
187.3923977771807
 10
695.4453259752015
 20
186.7387189650406
 10
695.4896409113338
 20
186.1064489115635
 10
695.5339558474659
 20
185.4961320131119
 10
695.5782707835983
 20
184.908306094162
 10
695.6225857197305
 20
184.3434117712663
 10
695.6669006558625
 20
183.8018154023569
 10
695.7112155919947
 20
183.2838814679384
 10
695.7555305281269
 20
182.789974448515
 10
695.799845464259
 20
182.3204588245912
 10
695.8441604003912
 20
181.8756990766715
 10
695.8884753365234
 20
181.4560596852604
 10
695.9327902726554
 20
181.0619051308621
 10
695.9771052087876
 20
180.6935998939811
 10
696.0214201449197
 20
180.3515073545251
 10
696.0657350810519
 20
180.0359157026513
 10
696.110050017184
 20
179.7469909919254
 10
696.1543649533162
 20
179.4848880875803
 10
696.1986798894486
 20
179.2497618548486
 10
696.2429948255807
 20
179.041767158963
 10
696.2873097617129
 20
178.8610588651564
 10
696.331624697845
 20
178.7077918386614
 10
696.3759396339773
 20
178.5821209447107
 10
696.4202545701094
 20
178.4842010485371
 10
696.4645695062413
 20
178.4141870144938
 10
696.5088844423736
 20
178.3721933850359
 10
696.5531993785061
 20
178.3581867273326
  0
LWPOLYLINE
  5
BF
330
1F
100
AcDbEntity
  8
0
  6
CONTINUOUS
 62
     7
100
AcDbPolyline
 90
      105
 70
     0
 43
0.0
 10
751.9448572149212
 20
249.2747725844941
 10
751.9891697293567
 20
249.0174953826345
 10
752.0334822437924
 20
248.733344444188
 10
752.077794758228
 20
248.422464966679
 10
752.1221072726635
 20
248.0850330418484
 10
752.1664197870991
 20
247.7213647448382
 10
752.2107323015348
 20
247.331815778608
 10
752.2550448159705
 20
246.9167418486269
 10
752.2993573304061
 20
246.4764986603644
 10
752.3436698448417
 20
246.0114419192896
 10
752.3879823592772
 20
245.5219273308718
 10
752.432294873713
 20
245.0083106005802
 10
752.4766073881485
 20
244.4709474338843
 10
752.5209199025841
 20
243.9101935362532
 10
752.5652324170197
 20
243.326413746612
 10
752.6095449314552
 20
242.7200774888853
 10
752.6538574458909
 20
242.0917209131293
 10
752.6981699603265
 20
241.4418812483717
 10
752.742482474762
 20
240.77109572364
 10
752.7867949891976
 20
240.0799015679617
 10
752.8311075036333
 20
239.3688360103645
 10
752.8754200180689
 20
238.638436279876
 10
752.9197325325044
 20
237.8892396055237
 10
752.9640450469399
 20
237.1217832163352
 10
753.0083575613755
 20
236.336605633066
 10
753.0526700758111
 20
235.5343009639593
 10
753.0969825902469
 20
234.7155387983606
 10
753.1412951046822
 20
233.8809941131616
 10
753.1856076191178
 20
233.0313418852539
 10
753.2299201335535
 20
232.1672570915295
 10
753.2742326479889
 20
231.28941470888
 10
753.3185451624245
 20
230.3984897141971
 10
753.3628576768601
 20
229.4951570843725
 10
753.4071701912957
 20
228.580091796298
 10
753.4514827057313
 20
227.653968838892
 10
753.4957952201671
 20
226.7174812867718
 10
753.5401077346027
 20
225.7713766606008
 10
753.5844202490382
 20
224.816412685162
 10
753.6287327634737
 20
223.8533470852383
 10
753.6730452779092
 20
222.8829375856126
 10
753.717357792345
 20
221.9059419110678
 10
753.7616703067808
 20
220.923117786387
 10
753.8059828212163
 20
219.9352229363529
 10
753.8502953356518
 20
218.9430150857486
 10
753.8946078500874
 20
217.9472519593569
 10
753.9389203645231
 20
216.9486931279631
 10
753.9832328789587
 20
215.9481114650975
 10
754.0275453933943
 20
214.9462856759912
 10
754.0718579078298
 20
213.9439944906971
 10
754.1161704222654
 20
212.9420166392682
 10
754.1604829367011
 20
211.9411308517573
 10
754.2047954511366
 20
210.9421158582173
 10
754.2491079655723
 20
209.9457503887012
 10
754.2934204800077
 20
208.9528131732617
 10
754.3377329944435
 20
207.9640829419518
 10
754.3820455088791
 20
206.9803374286731
 10
754.4263580233146
 20
206.0023334947668
 10
754.4706705377502
 20
205.0308082025852
 10
754.5149830521858
 20
204.0664978332318
 10
754.5592955666215
 20
203.11013866781
 10
754.6036080810569
 20
202.162466987423
 10
754.6479205954925
 20
201.2242190731743
 10
754.692233109928
 20
200.2961312061672
 10
754.7365456243637
 20
199.3789396675051
 10
754.7808581387992
 20
198.4733807382914
 10
754.8251706532347
 20
197.5801904847931
 10
754.8694831676704
 20
196.7000738589981
 10
754.9137956821061
 20
195.833672414242
 10
754.9581081965416
 20
194.9816199873793
 10
755.0024207109772
 20
194.1445504152643
 10
755.0467332254128
 20
193.3230975347512
 10
755.0910457398485
 20
192.5178951826945
 10
755.1353582542839
 20
191.7295771959484
 10
755.1796707687196
 20
190.9587774113674
 10
755.2239832831551
 20
190.2061296658057
 10
755.2682957975909
 20
189.4722677961178
 10
755.3126083120266
 20
188.7578039700361
 10
755.3569208264621
 20
188.063248081608
 10
755.4012333408976
 20
187.3890798800171
 10
755.4455458553333
 20
186.7357791101601
 10
755.4898583697689
 20
186.1038255169336
 10
755.5341708842045
 20
185.4936988452343
 10
755.5784833986402
 20
184.9058788399589
 10
755.6227959130757
 20
184.3408452460041
 10
755.6671084275113
 20
183.7990778082664
 10
755.711420941947
 20
183.2810562716427
 10
755.7557334563827
 20
182.7872512379925
 10
755.8000459708181
 20
182.3180233215801
 10
755.8443584852538
 20
181.8736603796815
 10
755.8886709996893
 20
181.4544489735916
 10
755.932983514125
 20
181.0606756646056
 10
755.9772960285607
 20
180.6926270140184
 10
756.0216085429961
 20
180.3505895831251
 10
756.0659210574318
 20
180.0348499332209
 10
756.1102335718673
 20
179.7456946256006
 10
756.1545460863028
 20
179.4834102215594
 10
756.1988586007384
 20
179.248281459701
 10
756.243171115174
 20
179.0405076449457
 10
756.2874836296097
 20
178.8601678441565
 10
756.3317961440454
 20
178.7073320848002
 10
756.3761086584809
 20
178.5820703943433
 10
756.4204211729165
 20
178.4844528002527
 10
756.4647336873521
 20
178.4145493299949
 10
756.5090462017878
 20
178.3724300110367
 10
756.5533587162233
 20
178.3581648708445
  0
LWPOLYLINE
  5
C0
330
1F
100
AcDbEntity
  8
0
  6
CONTINUOUS
 62
     7
100
AcDbPolyline
 90
      105
 70
     0
 43
0.0
 10
651.9445967623087
 20
249.2761548855032
 10
651.9889142214347
 20
249.0187248495801
 10
652.0332316805607
 20
248.734507380145
 10
652.0775491396867
 20
248.4237258264746
 10
652.1218665988124
 20
248.0866035378457
 10
652.1661840579385
 20
247.723363863535
 10
652.2105015170644
 20
247.3342301528194
 10
652.2548189761902
 20
246.9194262798744
 10
652.2991364353163
 20
246.4792397517188
 10
652.3434538944423
 20
246.0140817244518
 10
652.387771353568
 20
245.5243775696874
 10
652.4320888126941
 20
245.0105526590397
 10
652.47640627182
 20
244.4730323641225
 10
652.520723730946
 20
243.9122420565502
 10
652.5650411900717
 20
243.3286071079365
 10
652.6093586491978
 20
242.7225528898955
 10
652.6536761083237
 20
242.0945047740413
 10
652.6979935674495
 20
241.4448881319878
 10
652.7423110265755
 20
240.7741532697452
 10
652.7866284857015
 20
240.0828618463074
 10
652.8309459448275
 20
239.3716065931689
 10
652.8752634039532
 20
238.6409802432022
 10
652.9195808630792
 20
237.8915755292798
 10
652.9638983222051
 20
237.1239851842739
 10
653.008215781331
 20
236.3388019410571
 10
653.052533240457
 20
235.5366185325019
 10
653.0968506995829
 20
234.7180276914805
 10
653.1411681587089
 20
233.8836221508655
 10
653.1854856178347
 20
233.0340007955456
 10
653.2298030769607
 20
232.1698314587397
 10
653.2741205360866
 20
231.2918252662877
 10
653.3184379952127
 20
230.4006940139382
 10
653.3627554543385
 20
229.4971494974399
 10
653.4070729134644
 20
228.5819035125412
 10
653.4513903725904
 20
227.6556678549907
 10
653.4957078317165
 20
226.7191543205369
 10
653.5400252908422
 20
225.7730747049283
 10
653.5843427499683
 20
224.8181408039136
 10
653.6286602090942
 20
223.855065018351
 10
653.6729776682201
 20
222.8845846784755
 10
653.7172951273459
 20
221.9074703362206
 10
653.7616125864719
 20
220.9244948500819
 10
653.8059300455978
 20
219.9364310785549
 10
653.8502475047236
 20
218.944051880135
 10
653.8945649638497
 20
217.9481301133178
 10
653.9388824229757
 20
216.9494386365987
 10
653.9831998821014
 20
215.9487503084732
 10
654.0275173412274
 20
214.9468379874368
 10
654.0718348003534
 20
213.9444745316284
 10
654.1161522594793
 20
212.9424323718229
 10
654.1604697186051
 20
211.941482682983
 10
654.2047871777312
 20
210.9423964105707
 10
654.2491046368572
 20
209.9459445000485
 10
654.293422095983
 20
208.9528978968785
 10
654.337739555109
 20
207.964027546523
 10
654.382057014235
 20
206.9801043944443
 10
654.4263744733609
 20
206.0018993861047
 10
654.470691932487
 20
205.0301834669665
 10
654.5150093916127
 20
204.0657275824918
 10
654.5593268507387
 20
203.1092967880941
 10
654.6036443098646
 20
202.1616149472499
 10
654.6479617689905
 20
201.2233883382845
 10
654.6922792281165
 20
200.2953231737286
 10
654.7365966872424
 20
199.3781256661134
 10
654.7809141463683
 20
198.4725020279696
 10
654.8252316054941
 20
197.5791584718283
 10
654.8695490646202
 20
196.6988012102205
 10
654.913866523746
 20
195.8321364556769
 10
654.958183982872
 20
194.9798704207286
 10
655.0025014419979
 20
194.1427062701082
 10
655.0468189011237
 20
193.321286254005
 10
655.0911363602497
 20
192.5161964119496
 10
655.1354538193756
 20
191.7280206783566
 10
655.1797712785014
 20
190.9573429876407
 10
655.2240887376274
 20
190.2047472742165
 10
655.2684061967533
 20
189.4708174724985
 10
655.3127236558792
 20
188.7561375169013
 10
655.3570411150051
 20
188.0612913418396
 10
655.4013585741311
 20
187.3868628817281
 10
655.4456760332572
 20
186.7334356582281
 10
655.4899934923831
 20
186.1015403046114
 10
655.534310951509
 20
185.4916031135316
 10
655.5786284106349
 20
184.9040381598403
 10
655.6229458697609
 20
184.3392595183889
 10
655.6672633288869
 20
183.7976812640291
 10
655.7115807880128
 20
183.2797174716125
 10
655.7558982471388
 20
182.7857822159905
 10
655.8002157062647
 20
182.3162895720149
 10
655.8445331653905
 20
181.8716536145371
 10
655.8888506245166
 20
181.4522884184087
 10
655.9331680836425
 20
181.0585782428528
 10
655.9774855427685
 20
180.6907719686885
 10
656.0218030018943
 20
180.3490800731846
 10
656.0661204610203
 20
180.0337130310587
 10
656.1104379201463
 20
179.7448813170284
 10
656.1547553792722
 20
179.4827954058116
 10
656.1990728383981
 20
179.2476657721259
 10
656.243390297524
 20
179.0397028906889
 10
656.28770775665
 20
178.8591172362185
 10
656.3320252157757
 20
178.7061192834321
 10
656.3763426749015
 20
178.5809083772752
 10
656.4206601340276
 20
178.4835566273223
 10
656.4649775931535
 20
178.4140550644941
 10
656.5092950522794
 20
178.3723934130038
 10
656.5536125114056
 20
178.3585613970649
  0
LWPOLYLINE
  5
C1
330
1F
100
AcDbEntity
  8
0
  6
CONTINUOUS
 62
     7
100
AcDbPolyline
 90
      105
 70
     0
 43
0.0
 10
641.9446342557898
 20
249.2758701611615
 10
641.9889438780641
 20
249.0185207548293
 10
642.0332535003386
 20
248.7343983135378
 10
642.077563122613
 20
248.423712340267
 10
642.1218727448875
 20
248.0866723379968
 10
642.1661823671618
 20
247.7234878097073
 10
642.2104919894363
 20
247.3343682583784
 10
642.2548016117105
 20
246.9195485821523
 10
642.299111233985
 20
246.4793977623211
 10
642.3434208562594
 20
246.0143288705093
 10
642.3877304785339
 20
245.5247550048381
 10
642.4320401008083
 20
245.0110892634288
 10
642.4763497230826
 20
244.4737447444025
 10
642.5206593453572
 20
243.9131345458805
 10
642.5649689676314
 20
243.3296717659838
 10
642.6092785899059
 20
242.723769502834
 10
642.6535882121804
 20
242.095840854552
 10
642.6978978344547
 20
241.446305655995
 10
642.742207456729
 20
240.7756771177104
 10
642.7865170790035
 20
240.0845367128778
 10
642.8308267012779
 20
239.3734674737771
 10
642.8751363235522
 20
238.6430524326877
 10
642.9194459458266
 20
237.8938746218896
 10
642.963755568101
 20
237.1265170736624
 10
643.0080651903754
 20
236.3415628202858
 10
643.0523748126498
 20
235.5395948940395
 10
643.0966844349241
 20
234.7211963272032
 10
643.1409940571986
 20
233.8869508938409
 10
643.185303679473
 20
233.0374875428272
 10
643.2296133017476
 20
232.1735056306718
 10
643.273922924022
 20
231.295710615876
 10
643.3182325462963
 20
230.4048079569411
 10
643.3625421685708
 20
229.5015031123684
 10
643.4068517908452
 20
228.5865015406592
 10
643.4511614131197
 20
227.6605087003146
 10
643.4954710353942
 20
226.724230049836
 10
643.5397806576685
 20
225.7783710477246
 10
643.5840902799431
 20
224.8236371533393
 10
643.6283999022173
 20
223.8607461017823
 10
643.6727095244917
 20
222.8904588059098
 10
643.7170191467661
 20
221.9135456667011
 10
643.7613287690406
 20
220.9307770851355
 10
643.8056383913149
 20
219.9429234621925
 10
643.8499480135893
 20
218.9507551988513
 10
643.8942576358636
 20
217.9550426960913
 10
643.938567258138
 20
216.9565563548919
 10
643.9828768804125
 20
215.9560665762325
 10
644.027186502687
 20
214.9543437610924
 10
644.0714961249613
 20
213.9521584656532
 10
644.1158057472359
 20
212.9502825762698
 10
644.1601153695101
 20
211.9494886555327
 10
644.2044249917845
 20
210.9505492713681
 10
644.2487346140591
 20
209.9542369917021
 10
644.2930442363333
 20
208.9613243844607
 10
644.3373538586078
 20
207.9725840175701
 10
644.3816634808823
 20
206.9887884589563
 10
644.4259731031566
 20
206.0107102765456
 10
644.4702827254312
 20
205.0391220382639
 10
644.5145923477054
 20
204.0747952848111
 10
644.5589019699801
 20
203.1184737267198
 10
644.6032115922544
 20
202.1708706867475
 10
644.6475212145288
 20
201.2326979476636
 10
644.6918308368031
 20
200.3046672922376
 10
644.7361404590775
 20
199.387490503239
 10
644.7804500813519
 20
198.4818793634373
 10
644.8247597036263
 20
197.5885456556021
 10
644.8690693259008
 20
196.7082011625029
 10
644.913378948175
 20
195.8415576669092
 10
644.9576885704495
 20
194.9893268399621
 10
645.001998192724
 20
194.1521884377683
 10
645.0463078149984
 20
193.3307464550835
 10
645.0906174372727
 20
192.5255938904492
 10
645.1349270595472
 20
191.7373237424067
 10
645.1792366818215
 20
190.9665290094972
 10
645.223546304096
 20
190.2138026902623
 10
645.2678559263704
 20
189.4797377832431
 10
645.3121655486448
 20
188.764927286981
 10
645.3564751709192
 20
188.0699642000173
 10
645.4007847931936
 20
187.3954415208934
 10
645.445094415468
 20
186.7419326363579
 10
645.4894040377425
 20
186.1099014523548
 10
645.5337136600169
 20
185.499773900575
 10
645.5780232822912
 20
184.9119758753015
 10
645.6223329045657
 20
184.3469332708174
 10
645.6666425268402
 20
183.8050719814056
 10
645.7109521491144
 20
183.2868179013494
 10
645.7552617713889
 20
182.7925969249315
 10
645.7995713936633
 20
182.3228349464353
 10
645.8438810159378
 20
181.8779578601435
 10
645.8881906382121
 20
181.4583842462931
 10
645.9325002604866
 20
181.0644238260824
 10
645.9768098827609
 20
180.6963028168473
 10
646.0211195050352
 20
180.3542453049442
 10
646.0654291273096
 20
180.0384753767298
 10
646.1097387495839
 20
179.7492171185607
 10
646.1540483718585
 20
179.4866946167936
 10
646.1983579941328
 20
179.2511319577849
 10
646.2426676164073
 20
179.0427532278914
 10
646.2869772386817
 20
178.8617825134696
 10
646.3312868609563
 20
178.7084427759193
 10
646.3755964832305
 20
178.5828784489345
 10
646.419906105505
 20
178.4851054427576
 10
646.4642157277794
 20
178.4151277763144
 10
646.5085253500538
 20
178.3729494685306
 10
646.5528349723285
 20
178.3585745383321
  0
LWPOLYLINE
  5
C2
330
1F
100
AcDbEntity
  8
0
  6
CONTINUOUS
 62
     7
100
AcDbPolyline
 90
      105
 70
     0
 43
0.0
 10
-758.0534781049156
 20
250.3574907169603
 10
-758.0978021873951
 20
250.3437634322301
 10
-758.1421262698743
 20
250.302056197293
 10
-758.1864503523537
 20
250.2323220680738
 10
-758.2307744348333
 20
250.1346506836621
 10
-758.2750985173126
 20
250.0092008456555
 10
-758.3194225997919
 20
249.8561318934228
 10
-758.3637466822713
 20
249.6756031663326
 10
-758.4080707647507
 20
249.4677740037535
 10
-758.4523948472302
 20
249.2328037450542
 10
-758.4967189297097
 20
248.9708517296034
 10
-758.541043012189
 20
248.6820772967695
 10
-758.5853670946685
 20
248.3666397859213
 10
-758.6296911771481
 20
248.0247021838517
 10
-758.6740152596275
 20
247.6565239511198
 10
-758.718339342107
 20
247.2624685780794
 10
-758.7626634245865
 20
246.8429047164086
 10
-758.8069875070657
 20
246.3982010177853
 10
-758.8513115895454
 20
245.9287261338878
 10
-758.895635672025
 20
245.4348487163941
 10
-758.9399597545043
 20
244.9169374169821
 10
-758.9842838369839
 20
244.3753608873301
 10
-759.0286079194633
 20
243.8104877791161
 10
-759.0729320019427
 20
243.2226869367076
 10
-759.1172560844224
 20
242.6123762954801
 10
-759.1615801669018
 20
241.9800876729836
 10
-759.2059042493811
 20
241.3263689939073
 10
-759.2502283318606
 20
240.65176818294
 10
-759.2945524143398
 20
239.9568331647709
 10
-759.3388764968192
 20
239.242111864089
 10
-759.3832005792987
 20
238.5081522055831
 10
-759.4275246617781
 20
237.7555021139426
 10
-759.4718487442574
 20
236.9847095138562
 10
-759.5161728267368
 20
236.196322330013
 10
-759.5604969092161
 20
235.3909049081048
 10
-759.6048209916955
 20
234.5691100944297
 10
-759.649145074175
 20
233.7316204178076
 10
-759.6934691566544
 20
232.8791184287167
 10
-759.7377932391337
 20
232.0122866776347
 10
-759.7821173216132
 20
231.1318077150399
 10
-759.8264414040924
 20
230.2383640914103
 10
-759.870765486572
 20
229.3326383572241
 10
-759.9150895690514
 20
228.4153130629591
 10
-759.9594136515308
 20
227.4870707590933
 10
-760.0037377340102
 20
226.5485970771879
 10
-760.0480618164897
 20
225.6006209167558
 10
-760.092385898969
 20
224.6439030925483
 10
-760.1367099814487
 20
223.679205163732
 10
-760.181034063928
 20
222.7072886894729
 10
-760.2253581464076
 20
221.7289152289375
 10
-760.269682228887
 20
220.7448463412919
 10
-760.3140063113664
 20
219.7558435857025
 10
-760.358330393846
 20
218.7626685213354
 10
-760.4026544763254
 20
217.7660827073571
 10
-760.4469785588049
 20
216.7668478056284
 10
-760.4913026412843
 20
215.765731733496
 10
-760.5356267237638
 20
214.7635121586323
 10
-760.5799508062431
 20
213.7609675938286
 10
-760.6242748887225
 20
212.7588765518765
 10
-760.668598971202
 20
211.7580175455675
 10
-760.7129230536816
 20
210.7591690876931
 10
-760.7572471361609
 20
209.7631096910447
 10
-760.8015712186401
 20
208.7706178684139
 10
-760.8458953011195
 20
207.782472132592
 10
-760.8902193835991
 20
206.7994509956029
 10
-760.9345434660786
 20
205.8223240992971
 10
-760.9788675485577
 20
204.8518301941754
 10
-761.0231916310373
 20
203.8887013101384
 10
-761.0675157135169
 20
202.9336694770868
 10
-761.1118397959962
 20
201.9874667249211
 10
-761.1561638784755
 20
201.0508250835418
 10
-761.200487960955
 20
200.1244765828498
 10
-761.2448120434344
 20
199.2091532527453
 10
-761.2891361259138
 20
198.3055871231291
 10
-761.3334602083934
 20
197.4145102239017
 10
-761.3777842908727
 20
196.5366467797758
 10
-761.4221083733521
 20
195.6726555858317
 10
-761.4664324558318
 20
194.8231627807229
 10
-761.5107565383112
 20
193.9887942625655
 10
-761.5550806207905
 20
193.1701759294758
 10
-761.5994047032701
 20
192.3679336795699
 10
-761.6437287857495
 20
191.5826934109641
 10
-761.6880528682289
 20
190.8150810217744
 10
-761.7323769507082
 20
190.0657224101171
 10
-761.7767010331878
 20
189.3352434741084
 10
-761.8210251156673
 20
188.6242672812037
 10
-761.8653491981465
 20
187.9333439499085
 10
-761.909673280626
 20
187.2629460062112
 10
-761.9539973631055
 20
186.6135422156169
 10
-761.9983214455849
 20
185.9856013436305
 10
-762.0426455280643
 20
185.3795921557573
 10
-762.0869696105439
 20
184.7959834175025
 10
-762.1312936930233
 20
184.235243894371
 10
-762.1756177755028
 20
183.697842351868
 10
-762.2199418579821
 20
183.1842475554986
 10
-762.2642659404615
 20
182.6949280425616
 10
-762.308590022941
 20
182.2302982114267
 10
-762.3529141054203
 20
181.7906487105417
 10
-762.3972381878999
 20
181.3762529758041
 10
-762.4415622703791
 20
180.987384443111
 10
-762.4858863528584
 20
180.6243165483597
 10
-762.530210435338
 20
180.2873227274479
 10
-762.5745345178173
 20
179.9766764162726
 10
-762.6188586002967
 20
179.6926510507314
 10
-762.663182682775
 20
179.4355200667276
210
0.0
220
0.0
230
-1.0
  0
LWPOLYLINE
  5
C3
330
1F
100
AcDbEntity
  8
0
  6
CONTINUOUS
 62
     7
100
AcDbPolyline
 90
      113
 70
     0
 43
0.0
 10
711.9447314278974
 20
249.2758927134971
 10
711.9858835037566
 20
249.037761329723
 10
712.0270355796157
 20
248.7763321545353
 10
712.0681876554748
 20
248.491846124057
 10
712.109339731334
 20
248.1845466596784
 10
712.1504918071932
 20
247.8546771827898
 10
712.1916438830525
 20
247.5024811147814
 10
712.2327959589117
 20
247.1282018770437
 10
712.2739480347706
 20
246.7320828909667
 10
712.3151001106298
 20
246.3143675779408
 10
712.356252186489
 20
245.8752993593564
 10
712.3974042623483
 20
245.4151216566037
 10
712.4385563382074
 20
244.9340807031816
 10
712.4797084140666
 20
244.4324939107324
 10
712.5208604899257
 20
243.9107536789185
 10
712.562012565785
 20
243.3692559821358
 10
712.6031646416441
 20
242.8083967947804
 10
712.6443167175032
 20
242.2285720912482
 10
712.6854687933624
 20
241.6301778459351
 10
712.7266208692216
 20
241.0136100332371
 10
712.7677729450808
 20
240.3792646275504
 10
712.80892502094
 20
239.7275376032706
 10
712.8500770967992
 20
239.0588249347939
 10
712.8912291726583
 20
238.3735239016791
 10
712.9323812485176
 20
237.6720818438422
 10
712.9735333243767
 20
236.9550107419215
 10
713.0146854002361
 20
236.2228268576493
 10
713.0558374760952
 20
235.4760464527583
 10
713.0969895519543
 20
234.7151857889808
 10
713.1381416278136
 20
233.9407611280496
 10
713.1792937036728
 20
233.153288731697
 10
713.2204457795319
 20
232.3532848616555
 10
713.2615978553912
 20
231.5412657796576
 10
713.3027499312503
 20
230.7177477474359
 10
713.3439020071094
 20
229.8832474724012
 10
713.3850540829687
 20
229.0383101745136
 10
713.4262061588279
 20
228.1835263182753
 10
713.467358234687
 20
227.3194903855652
 10
713.5085103105462
 20
226.4467968582622
 10
713.5496623864053
 20
225.5660402182448
 10
713.5908144622645
 20
224.6778149473921
 10
713.6319665381237
 20
223.7827155275828
 10
713.6731186139828
 20
222.8813364406955
 10
713.7142706898419
 20
221.9742721686091
 10
713.755422765701
 20
221.0621171932025
 10
713.7965748415604
 20
220.1454660709838
 10
713.8377269174194
 20
219.2249226799445
 10
713.8788789932786
 20
218.3011091606218
 10
713.920031069138
 20
217.374649774142
 10
713.9611831449968
 20
216.4461687816314
 10
714.0023352208563
 20
215.5162904442164
 10
714.0434872967152
 20
214.5856390230234
 10
714.0846393725744
 20
213.6548387791786
 10
714.1257914484338
 20
212.7245139738085
 10
714.166943524293
 20
211.7952888680394
 10
714.2080956001519
 20
210.8677877229975
 10
714.2492476760111
 20
209.9426347828173
 10
714.2903997518704
 20
209.0204487435346
 10
714.3315518277295
 20
208.1018347943593
 10
714.3727039035887
 20
207.1873961082277
 10
714.4138559794478
 20
206.2777358580757
 10
714.455008055307
 20
205.3734572168395
 10
714.4961601311662
 20
204.4751633574551
 10
714.5373122070253
 20
203.5834574528587
 10
714.5784642828846
 20
202.6989426759863
 10
714.6196163587437
 20
201.822222199774
 10
714.6607684346028
 20
200.953899197158
 10
714.701920510462
 20
200.094576832148
 10
714.7430725863212
 20
199.2448430877878
 10
714.7842246621803
 20
198.4052396817303
 10
714.8253767380396
 20
197.5762995496386
 10
714.8665288138988
 20
196.7585556271758
 10
714.9076808897578
 20
195.9525408500047
 10
714.948832965617
 20
195.1587881537884
 10
714.9899850414763
 20
194.3778304741899
 10
715.0311371173353
 20
193.6102007468723
 10
715.0722891931946
 20
192.8564319074985
 10
715.1134412690539
 20
192.1170568917315
 10
715.1545933449129
 20
191.3926086351864
 10
715.1957454207721
 20
190.6836003446945
 10
715.2368974966313
 20
189.9904694726369
 10
715.2780495724903
 20
189.3136352915508
 10
715.3192016483496
 20
188.6535170739736
 10
715.3603537242088
 20
188.0105340924424
 10
715.4015058000679
 20
187.3851056194945
 10
715.4426578759271
 20
186.7776509276671
 10
715.4838099517863
 20
186.1885892894976
 10
715.5249620276454
 20
185.618339977523
 10
715.5661141035046
 20
185.0673222642808
 10
715.6072661793638
 20
184.5359554223081
 10
715.648418255223
 20
184.0246385271004
 10
715.6895703310822
 20
183.5336726906448
 10
715.7307224069414
 20
183.0633293647423
 10
715.7718744828005
 20
182.6138799947041
 10
715.8130265586599
 20
182.1855960258416
 10
715.8541786345189
 20
181.7787489034659
 10
715.8953307103781
 20
181.3936100728882
 10
715.9364827862373
 20
181.0304509794198
 10
715.9776348620966
 20
180.6895430683718
 10
716.0187869379558
 20
180.3711577850557
 10
716.0599390138149
 20
180.0755665747825
 10
716.1010910896741
 20
179.8030229820241
 10
716.1422431655332
 20
179.5536704304094
 10
716.1833952413924
 20
179.3276105003272
 10
716.2245473172517
 20
179.1249446913503
 10
716.2656993931108
 20
178.9457745030514
 10
716.3068514689701
 20
178.7902014350034
 10
716.3480035448291
 20
178.6583269867788
 10
716.3891556206883
 20
178.5502526579507
 10
716.4303076965473
 20
178.4660799480918
 10
716.4714597724067
 20
178.4059103567747
 10
716.5126118482657
 20
178.3698453835723
 10
716.5537639241253
 20
178.3579724089574
  0
LWPOLYLINE
  5
C4
330
1F
100
AcDbEntity
  8
0
  6
CONTINUOUS
 62
     7
100
AcDbPolyline
 90
      113
 70
     0
 43
0.0
 10
-738.0531686604617
 20
250.3577188922411
 10
-738.0943237669077
 20
250.3459815699259
 10
-738.1354788733538
 20
250.3100450693956
 10
-738.1766339797999
 20
250.2499841627241
 10
-738.2177890862461
 20
250.1659039006617
 10
-738.258944192692
 20
250.0579093339664
 10
-738.3000992991383
 20
249.9261055133963
 10
-738.3412544055843
 20
249.7705974897094
 10
-738.3824095120306
 20
249.5914903136639
 10
-738.4235646184767
 20
249.3888890360176
 10
-738.4647197249226
 20
249.1628987075288
 10
-738.5058748313689
 20
248.9136243789555
 10
-738.5470299378151
 20
248.6411711010556
 10
-738.5881850442612
 20
248.3456657082224
 10
-738.6293401507073
 20
248.0273470212129
 10
-738.6704952571536
 20
247.6864897467422
 10
-738.7116503635996
 20
247.3233686078756
 10
-738.7528054700458
 20
246.9382583276781
 10
-738.793960576492
 20
246.5314336292151
 10
-738.8351156829381
 20
246.1031692355515
 10
-738.8762707893842
 20
245.6537398697527
 10
-738.9174258958302
 20
245.1834202548836
 10
-738.9585810022764
 20
244.6924851140097
 10
-738.9997361087227
 20
244.1812091701959
 10
-739.0408912151688
 20
243.6498816844912
 10
-739.0820463216148
 20
243.0988866309313
 10
-739.1232014280611
 20
242.528645918322
 10
-739.1643565345071
 20
241.9395815564379
 10
-739.2055116409531
 20
241.3321155550536
 10
-739.2466667473993
 20
240.7066699239436
 10
-739.2878218538453
 20
240.0636666728825
 10
-739.3289769602914
 20
239.4035278116448
 10
-739.3701320667376
 20
238.7266753500053
 10
-739.4112871731836
 20
238.0335312977384
 10
-739.4524422796297
 20
237.3245176646187
 10
-739.4935973860759
 20
236.600064814113
 10
-739.534752492522
 20
235.8606727799865
 10
-739.5759075989681
 20
235.1068762206548
 10
-739.6170627054141
 20
234.3392100454601
 10
-739.6582178118604
 20
233.5582091637444
 10
-739.6993729183065
 20
232.7644084848498
 10
-739.7405280247526
 20
231.9583429181183
 10
-739.7816831311987
 20
231.1405473728919
 10
-739.8228382376448
 20
230.3115567585126
 10
-739.863993344091
 20
229.4719059843226
 10
-739.9051484505371
 20
228.6221299596638
 10
-739.9463035569833
 20
227.7627673223719
 10
-739.9874586634296
 20
226.8943971560543
 10
-740.0286137698755
 20
226.0176233251164
 10
-740.0697688763219
 20
225.1330500517916
 10
-740.1109239827679
 20
224.2412815583129
 10
-740.1520790892141
 20
223.3429220669133
 10
-740.1932341956602
 20
222.4385757998261
 10
-740.2343893021066
 20
221.5288469792844
 10
-740.2755444085526
 20
220.6143398275212
 10
-740.3166995149986
 20
219.6956585667698
 10
-740.3578546214449
 20
218.7734074192633
 10
-740.399009727891
 20
217.8481913631871
 10
-740.4401648343372
 20
216.9206262931246
 10
-740.4813199407832
 20
215.9913363096286
 10
-740.5224750472294
 20
215.0609457132393
 10
-740.5636301536754
 20
214.1300788044971
 10
-740.6047852601217
 20
213.1993598839422
 10
-740.6459403665676
 20
212.2694132521145
 10
-740.6870954730138
 20
211.3408632095546
 10
-740.7282505794599
 20
210.4143340568026
 10
-740.769405685906
 20
209.4904500943987
 10
-740.8105607923521
 20
208.569835622883
 10
-740.8517158987983
 20
207.6531141695631
 10
-740.8928710052444
 20
206.7408938974545
 10
-740.9340261116904
 20
205.8337688404166
 10
-740.9751812181364
 20
204.9323325066473
 10
-741.0163363245827
 20
204.0371784043446
 10
-741.0574914310286
 20
203.1489000417062
 10
-741.0986465374747
 20
202.2680909269302
 10
-741.1398016439207
 20
201.3953445682143
 10
-741.1809567503668
 20
200.5312544737563
 10
-741.2221118568128
 20
199.6764141517544
 10
-741.2632669632591
 20
198.8314171104062
 10
-741.3044220697053
 20
197.9968556135965
 10
-741.3455771761514
 20
197.1732862497311
 10
-741.3867322825974
 20
196.3612255063027
 10
-741.4278873890437
 20
195.5611877376078
 10
-741.4690424954897
 20
194.7736872979427
 10
-741.5101976019359
 20
193.9992385416041
 10
-741.5513527083821
 20
193.2383558228882
 10
-741.5925078148282
 20
192.4915534960916
 10
-741.6336629212744
 20
191.7593459155108
 10
-741.6748180277207
 20
191.0422474354422
 10
-741.7159731341668
 20
190.3407724101823
 10
-741.7571282406129
 20
189.6554341017612
 10
-741.7982833470592
 20
188.9866973104699
 10
-741.8394384535051
 20
188.3349601738356
 10
-741.8805935599513
 20
187.700615980489
 10
-741.9217486663974
 20
187.0840580190609
 10
-741.9629037728436
 20
186.4856795781822
 10
-742.0040588792897
 20
185.9058739464833
 10
-742.0452139857358
 20
185.3450344125953
 10
-742.0863690921819
 20
184.8035542651488
 10
-742.1275241986281
 20
184.2818267927745
 10
-742.1686793050742
 20
183.7802452841032
 10
-742.2098344115201
 20
183.2992023292759
 10
-742.2509895179664
 20
182.839037070246
 10
-742.2921446244126
 20
182.3999983847901
 10
-742.3332997308586
 20
181.9823264490514
 10
-742.3744548373048
 20
181.5862614391735
 10
-742.415609943751
 20
181.2120435312997
 10
-742.4567650501971
 20
180.8599129015735
 10
-742.4979201566432
 20
180.5301097261382
 10
-742.5390752630893
 20
180.2228741811373
 10
-742.5802303695356
 20
179.9384464427142
 10
-742.6213854759815
 20
179.6770666870123
 10
-742.6625405824276
 20
179.4389747647241
210
0.0
220
0.0
230
-1.0
  0
LWPOLYLINE
  5
C5
330
1F
100
AcDbEntity
  8
0
  6
CONTINUOUS
 62
     7
100
AcDbPolyline
 90
      113
 70
     0
 43
0.0
 10
-728.0536682857968
 20
250.3577834190623
 10
-728.0948171925068
 20
250.3456573126113
 10
-728.1359660992167
 20
250.3093699956773
 10
-728.1771150059267
 20
250.2490144827366
 10
-728.2182639126365
 20
250.1646844785197
 10
-728.2594128193465
 20
250.0564736877576
 10
-728.3005617260566
 20
249.9244758151808
 10
-728.3417106327664
 20
249.7687845655201
 10
-728.3828595394765
 20
249.5894936435063
 10
-728.4240084461865
 20
249.38669675387
 10
-728.4651573528964
 20
249.1604876013419
 10
-728.5063062596064
 20
248.9109598906528
 10
-728.5474551663164
 20
248.6382146414969
 10
-728.5886040730262
 20
248.3424481044223
 10
-728.629752979736
 20
248.0239231841467
 10
-728.6709018864462
 20
247.6829041559642
 10
-728.712050793156
 20
247.3196552951685
 10
-728.753199699866
 20
246.934440877054
 10
-728.7943486065759
 20
246.5275251769143
 10
-728.8354975132856
 20
246.0991724700437
 10
-728.8766464199956
 20
245.6496470317361
 10
-728.9177953267056
 20
245.1792131372855
 10
-728.9589442334154
 20
244.688135061986
 10
-729.0000931401254
 20
244.176681384208
 10
-729.0412420468354
 20
243.6451973105514
 10
-729.0823909535453
 20
243.094093999813
 10
-729.1235398602553
 20
242.5237847635809
 10
-729.1646887669652
 20
241.9346829134433
 10
-729.2058376736752
 20
241.3272017609883
 10
-729.2469865803852
 20
240.7017546178041
 10
-729.2881354870952
 20
240.0587547954789
 10
-729.3292843938051
 20
239.398615605601
 10
-729.3704333005152
 20
238.7217503597584
 10
-729.411582207225
 20
238.0285723695394
 10
-729.4527311139351
 20
237.3194970578888
 10
-729.493880020645
 20
236.5949935879802
 10
-729.5350289273549
 20
235.8555879083545
 10
-729.5761778340649
 20
235.1018086885173
 10
-729.6173267407748
 20
234.3341845979741
 10
-729.6584756474849
 20
233.5532443062302
 10
-729.6996245541948
 20
232.7595164827913
 10
-729.7407734609047
 20
231.9535297971627
 10
-729.7819223676146
 20
231.1358129188498
 10
-729.8230712743245
 20
230.3068945173583
 10
-729.8642201810345
 20
229.4673032621935
 10
-729.9053690877445
 20
228.6175685955249
 10
-729.9465179944544
 20
227.7582499453544
 10
-729.9876669011643
 20
226.8899456625846
 10
-730.0288158078741
 20
226.0132566964102
 10
-730.0699647145841
 20
225.1287839960259
 10
-730.111113621294
 20
224.2371285106263
 10
-730.1522625280039
 20
223.338891189406
 10
-730.1934114347138
 20
222.4346729815597
 10
-730.2345603414237
 20
221.5250748362821
 10
-730.2757092481337
 20
220.6106977027677
 10
-730.3168581548435
 20
219.6921425302113
 10
-730.3580070615536
 20
218.7700103971684
 10
-730.3991559682636
 20
217.8449108355167
 10
-730.4403048749734
 20
216.9174668937673
 10
-730.4814537816835
 20
215.9883028329209
 10
-730.5226026883934
 20
215.0580429139783
 10
-730.5637515951033
 20
214.1273113979406
 10
-730.6049005018134
 20
213.1967325458085
 10
-730.6460494085234
 20
212.2669306185828
 10
-730.6871983152332
 20
211.3385298772644
 10
-730.7283472219432
 20
210.4121545828542
 10
-730.7694961286533
 20
209.488428996353
 10
-730.8106450353631
 20
208.5679773127634
 10
-730.851793942073
 20
207.6514151684052
 10
-730.8929428487832
 20
206.7393412599569
 10
-730.9340917554929
 20
205.8323522927977
 10
-730.9752406622029
 20
204.9310449723073
 10
-731.0163895689127
 20
204.036016003865
 10
-731.0575384756227
 20
203.1478620928504
 10
-731.0986873823327
 20
202.2671799446429
 10
-731.1398362890425
 20
201.3945662646219
 10
-731.1809851957523
 20
200.5306177581668
 10
-731.2221341024622
 20
199.6759311306573
 10
-731.2632830091721
 20
198.8311030309173
 10
-731.3044319158821
 20
197.9967102829244
 10
-731.345580822592
 20
197.1732808181944
 10
-731.3867297293021
 20
196.3613351644064
 10
-731.427878636012
 20
195.5613938492396
 10
-731.469027542722
 20
194.773977400373
 10
-731.5101764494319
 20
193.9996063454858
 10
-731.5513253561418
 20
193.2388012122571
 10
-731.5924742628519
 20
192.4920825283661
 10
-731.6336231695618
 20
191.7599708214917
 10
-731.6747720762718
 20
191.0429866193132
 10
-731.7159209829816
 20
190.341650436958
 10
-731.7570698896917
 20
189.6564575269736
 10
-731.7982187964018
 20
188.9878249187543
 10
-731.8393677031116
 20
188.3361545474811
 10
-731.8805166098216
 20
187.7018483483354
 10
-731.9216655165316
 20
187.085308256498
 10
-731.9628144232414
 20
186.4869362071503
 10
-732.0039633299515
 20
185.9071341354734
 10
-732.0451122366613
 20
185.3463039766482
 10
-732.0862611433713
 20
184.8048476658562
 10
-732.1274100500812
 20
184.2831671382782
 10
-732.1685589567911
 20
183.7816643290854
 10
-732.2097078635011
 20
183.3007153877195
 10
-732.250856770211
 20
182.840595575893
 10
-732.2920056769208
 20
182.4015554849101
 10
-732.3331545836306
 20
181.9838457060749
 10
-732.3743034903407
 20
181.5877168306912
 10
-732.4154523970506
 20
181.2134194500632
 10
-732.4566013037603
 20
180.8612041554947
 10
-732.4977502104701
 20
180.5313215382899
 10
-732.5388991171801
 20
180.2240221897527
 10
-732.58004802389
 20
179.9395567011872
 10
-732.6211969305999
 20
179.6781756638974
 10
-732.6623458373105
 20
179.440106732807
210
0.0
220
0.0
230
-1.0
  0
LWPOLYLINE
  5
C6
330
1F
100
AcDbEntity
  8
0
  6
CONTINUOUS
 62
     7
100
AcDbPolyline
 90
      105
 70
     0
 43
0.0
 10
-678.0533252627911
 20
250.3573469970544
 10
-678.0976431064433
 20
250.3433977899527
 10
-678.1419609500961
 20
250.3016278836372
 10
-678.1862787937484
 20
250.2320832715811
 10
-678.2305966374009
 20
250.1348099472577
 10
-678.2749144810532
 20
250.0098539041402
 10
-678.3192323247057
 20
249.8572611357019
 10
-678.3635501683581
 20
249.6770776354163
 10
-678.4078680120105
 20
249.4693636851306
 10
-678.4521858556632
 20
249.2343114501951
 10
-678.4965036993156
 20
248.9721843278514
 10
-678.5408215429682
 20
248.6832464108759
 10
-678.5851393866205
 20
248.3677617920443
 10
-678.6294572302731
 20
248.025994564133
 10
-678.6737750739254
 20
247.658208819918
 10
-678.718092917578
 20
247.2646686521755
 10
-678.7624107612303
 20
246.8456381536814
 10
-678.8067286048828
 20
246.401381417212
 10
-678.8510464485354
 20
245.9321654445257
 10
-678.8953642921878
 20
245.4383446847138
 10
-678.9396821358403
 20
244.9203742432638
 10
-678.9839999794928
 20
244.3787147928578
 10
-679.0283178231451
 20
243.8138270061779
 10
-679.0726356667975
 20
243.2261715559063
 10
-679.1169535104501
 20
242.6162091147252
 10
-679.1612713541026
 20
241.9844003553167
 10
-679.2055891977551
 20
241.3312059503631
 10
-679.2499070414075
 20
240.6570865725463
 10
-679.29422488506
 20
239.9625030025257
 10
-679.3385427287126
 20
239.2479569324407
 10
-679.3828605723648
 20
238.5140523500203
 10
-679.4271784160175
 20
237.7614089702936
 10
-679.47149625967
 20
236.9906465082896
 10
-679.5158141033223
 20
236.2023846790371
 10
-679.5601319469749
 20
235.3972431975652
 10
-679.6044497906273
 20
234.5758417789029
 10
-679.6487676342797
 20
233.7388001380792
 10
-679.6930854779322
 20
232.886737990123
 10
-679.7374033215847
 20
232.0202750500634
 10
-679.7817211652371
 20
231.1400430816668
 10
-679.8260390088897
 20
230.2467445800349
 10
-679.870356852542
 20
229.3411077687407
 10
-679.9146746961947
 20
228.4238609081573
 10
-679.958992539847
 20
227.4957322586581
 10
-680.0033103834994
 20
226.5574500806163
 10
-680.0476282271518
 20
225.6097426344052
 10
-680.0919460708043
 20
224.653338180398
 10
-680.1362639144567
 20
223.6889649789678
 10
-680.1805817581092
 20
222.7173512904882
 10
-680.2248996017616
 20
221.7392270329977
 10
-680.269217445414
 20
220.7553482640792
 10
-680.3135352890665
 20
219.7664918695251
 10
-680.3578531327189
 20
218.7734353133163
 10
-680.4021709763715
 20
217.7769560594339
 10
-680.4464888200239
 20
216.7778315718589
 10
-680.4908066636764
 20
215.7768393145724
 10
-680.535124507329
 20
214.7747567515554
 10
-680.5794423509814
 20
213.7723613467888
 10
-680.623760194634
 20
212.770430564254
 10
-680.6680780382864
 20
211.7697418039693
 10
-680.7123958819388
 20
210.7710675358728
 10
-680.7567137255913
 20
209.775171883637
 10
-680.8010315692437
 20
208.7828181637962
 10
-680.8453494128964
 20
207.7947696928847
 10
-680.889667256549
 20
206.8117897874367
 10
-680.9339851002013
 20
205.8346417639863
 10
-680.9783029438538
 20
204.8640889390679
 10
-681.0226207875063
 20
203.9008946292156
 10
-681.0669386311587
 20
202.9458221509638
 10
-681.1112564748112
 20
201.9996348208113
 10
-681.1555743184636
 20
201.0630826869699
 10
-681.1998921621159
 20
200.1368649154912
 10
-681.2442100057685
 20
199.221668477202
 10
-681.288527849421
 20
198.3181803429287
 10
-681.3328456930735
 20
197.4270874834981
 10
-681.3771635367259
 20
196.5490768697368
 10
-681.4214813803783
 20
195.6848354724714
 10
-681.4657992240307
 20
194.8350502625286
 10
-681.5101170676833
 20
194.0004082107351
 10
-681.5544349113356
 20
193.1815962879173
 10
-681.5987527549883
 20
192.3792929683989
 10
-681.6430705986406
 20
191.594096989977
 10
-681.6873884422931
 20
190.8265634460314
 10
-681.7317062859456
 20
190.0772469843916
 10
-681.776024129598
 20
189.3467022528874
 10
-681.8203419732507
 20
188.6354838993481
 10
-681.8646598169031
 20
187.9441465716033
 10
-681.9089776605556
 20
187.2732449174826
 10
-681.953295504208
 20
186.6233335848155
 10
-681.9976133478607
 20
185.9949672214316
 10
-682.0419311915132
 20
185.3886979336653
 10
-682.0862490351656
 20
184.8049994227332
 10
-682.1305668788181
 20
184.2442539800619
 10
-682.1748847224704
 20
183.7068387354321
 10
-682.219202566123
 20
183.1931308186243
 10
-682.2635204097753
 20
182.7035073594191
 10
-682.3078382534278
 20
182.2383454875971
 10
-682.3521560970802
 20
181.7980223329388
 10
-682.3964739407327
 20
181.3829150252249
 10
-682.4407917843849
 20
180.993400694236
 10
-682.4851096280374
 20
180.629856340958
 10
-682.5294274716899
 20
180.29260602869
 10
-682.5737453153424
 20
179.9818395936703
 10
-682.6180631589948
 20
179.6977259175005
 10
-682.662381002648
 20
179.4404338817781
210
0.0
220
0.0
230
-1.0
  0
LWPOLYLINE
  5
C7
330
1F
100
AcDbEntity
  8
0
  6
CONTINUOUS
 62
     7
100
AcDbPolyline
 90
      105
 70
     0
 43
0.0
 10
681.9445455726291
 20
249.2767805121253
 10
681.9888655556798
 20
249.0192890537352
 10
682.0331855387304
 20
248.734938685544
 10
682.0775055217812
 20
248.4239935386355
 10
682.1218255048318
 20
248.086717744093
 10
682.1661454878825
 20
247.7233754330001
 10
682.2104654709332
 20
247.3342307364401
 10
682.2547854539838
 20
246.9195477854968
 10
682.2991054370347
 20
246.4795907112537
 10
682.3434254200852
 20
246.0146243199173
 10
682.3877454031359
 20
245.5249784978214
 10
682.4320653861867
 20
245.0111014529487
 10
682.4763853692374
 20
244.4734539248031
 10
682.520705352288
 20
243.9124966528887
 10
682.5650253353386
 20
243.3286903767096
 10
682.6093453183893
 20
242.7224958357698
 10
682.65366530144
 20
242.0943737695733
 10
682.6979852844905
 20
241.4447849176242
 10
682.7423052675413
 20
240.7741900194265
 10
682.7866252505921
 20
240.0830498144844
 10
682.8309452336429
 20
239.3718506278512
 10
682.8752652166934
 20
238.6411848062746
 10
682.9195851997441
 20
237.8916721546317
 10
682.9639051827949
 20
237.123932477843
 10
683.0082251658456
 20
236.3385855808289
 10
683.0525451488962
 20
235.5362512685096
 10
683.096865131947
 20
234.7175493458057
 10
683.1411851149976
 20
233.8830996176376
 10
683.1855050980483
 20
233.0335218889257
 10
683.2298250810991
 20
232.1694359645903
 10
683.2741450641498
 20
231.291467917297
 10
683.3184650472006
 20
230.4003080051879
 10
683.3627850302511
 20
229.4966841169507
 10
683.4071050133018
 20
228.5813246185949
 10
683.4514249963523
 20
227.6549578761299
 10
683.4957449794032
 20
226.7183122555652
 10
683.5400649624538
 20
225.7721161229103
 10
683.5843849455044
 20
224.8170978441747
 10
683.6287049285551
 20
223.8539857853679
 10
683.6730249116057
 20
222.8835083124992
 10
683.7173448946563
 20
221.9063943837189
 10
683.7616648777071
 20
220.923393894293
 10
683.8059848607578
 20
219.9352827906816
 10
683.8503048438084
 20
218.9428386496393
 10
683.8946248268592
 20
217.9468390479204
 10
683.9389448099099
 20
216.9480615622793
 10
683.9832647929605
 20
215.9472837694704
 10
684.0275847760112
 20
214.9452832462481
 10
684.071904759062
 20
213.9428375693669
 10
684.1162247421125
 20
212.9407243155811
 10
684.1605447251634
 20
211.9397210564067
 10
684.204864708214
 20
210.9406019772745
 10
684.2491846912648
 20
209.9441320557924
 10
684.2935046743155
 20
208.9510747192155
 10
684.3378246573661
 20
207.9621933947995
 10
684.3821446404168
 20
206.9782515097998
 10
684.4264646234676
 20
206.0000124914718
 10
684.4707846065184
 20
205.0282397670711
 10
684.515104589569
 20
204.063696763853
 10
684.5594245726197
 20
203.1071469090731
 10
684.6037445556703
 20
202.1593536299868
 10
684.6480645387211
 20
201.2210726874386
 10
684.6923845217716
 20
200.2930106392104
 10
684.7367045048223
 20
199.3758546035687
 10
684.7810244878729
 20
198.4702916509873
 10
684.8253444709236
 20
197.5770088519397
 10
684.8696644539742
 20
196.6966932768998
 10
684.913984437025
 20
195.8300319963412
 10
684.9583044200756
 20
194.9777120807376
 10
685.0026244031262
 20
194.1404206005628
 10
685.0469443861768
 20
193.3188446262904
 10
685.0912643692276
 20
192.5136673828426
 10
685.1355843522783
 20
191.725503957427
 10
685.1799043353291
 20
190.9549109746237
 10
685.2242243183797
 20
190.2024431627154
 10
685.2685443014306
 20
189.4686552499849
 10
685.3128642844812
 20
188.7541019647149
 10
685.3571842675319
 20
188.0593380351882
 10
685.4015042505827
 20
187.3849181896876
 10
685.4458242336333
 20
186.731397156496
 10
685.490144216684
 20
186.099329663896
 10
685.5344641997347
 20
185.489269839888
 10
685.5787841827854
 20
184.9017132088496
 10
685.6231041658361
 20
184.3370483378339
 10
685.6674241488868
 20
183.7956524113252
 10
685.7117441319375
 20
183.2779026138078
 10
685.756064114988
 20
182.7841761297661
 10
685.8003840980389
 20
182.3148501436844
 10
685.8447040810894
 20
181.8703018400469
 10
685.8890240641401
 20
181.4509084033381
 10
685.9333440471908
 20
181.0570470180422
 10
685.9776640302415
 20
180.6890948686436
 10
686.021984013292
 20
180.3473957816666
 10
686.0663039963429
 20
180.0321547673507
 10
686.1106239793934
 20
179.7435407318735
 10
686.1549439624441
 20
179.4817225813333
 10
686.1992639454946
 20
179.2468692218282
 10
686.2435839285456
 20
179.0391495594566
 10
686.2879039115962
 20
178.8587325003167
 10
686.332223894647
 20
178.7057869505067
 10
686.3765438776976
 20
178.5804818161247
 10
686.4208638607482
 20
178.4829860032692
 10
686.465183843799
 20
178.4134556757266
 10
686.5095038268496
 20
178.3719158630918
 10
686.553823809901
 20
178.3583144201306
  0
LWPOLYLINE
  5
C8
330
1F
100
AcDbEntity
  8
0
  6
CONTINUOUS
 62
     7
100
AcDbPolyline
 90
      105
 70
     0
 43
0.0
 10
-748.0530659762854
 20
250.3576118873877
 10
-748.0974134750954
 20
250.3440928999401
 10
-748.1417609739057
 20
250.302506947776
 10
-748.186108472716
 20
250.2328724639495
 10
-748.2304559715261
 20
250.1353271992504
 10
-748.2748034703363
 20
250.0100166953387
 10
-748.3191509691466
 20
249.8570864938749
 10
-748.3634984679568
 20
249.676682136519
 10
-748.4078459667669
 20
249.4689491649311
 10
-748.4521934655771
 20
249.2340331207715
 10
-748.4965409643873
 20
248.9720795457003
 10
-748.5408884631976
 20
248.6832339813777
 10
-748.5852359620077
 20
248.3676420403396
 10
-748.6295834608179
 20
248.0254993001686
 10
-748.6739309596281
 20
247.6571388556741
 10
-748.7182784584385
 20
247.2629172553908
 10
-748.7626259572486
 20
246.843191047853
 10
-748.8069734560587
 20
246.3983167815956
 10
-748.8513209548689
 20
245.9286510051529
 10
-748.895668453679
 20
245.4345502670597
 10
-748.9400159524895
 20
244.9163711158506
 10
-748.9843634512997
 20
244.37447010006
 10
-749.0287109501098
 20
243.8092037682227
 10
-749.0730584489198
 20
243.2209470817272
 10
-749.1174059477302
 20
242.610192360107
 10
-749.1617534465404
 20
241.9774779966046
 10
-749.2061009453505
 20
241.3233424935457
 10
-749.2504484441608
 20
240.6483243532562
 10
-749.2947959429711
 20
239.952962078062
 10
-749.3391434417812
 20
239.2377941702889
 10
-749.3834909405913
 20
238.5033591322629
 10
-749.4278384394015
 20
237.7501954663097
 10
-749.4721859382116
 20
236.9788416747551
 10
-749.5165334370218
 20
236.1898404601743
 10
-749.5608809358321
 20
235.3838063117334
 10
-749.6052284346421
 20
234.5614139410695
 10
-749.6495759334523
 20
233.7233399248518
 10
-749.6939234322625
 20
232.8702608397496
 10
-749.7382709310727
 20
232.0028532624321
 10
-749.7826184298829
 20
231.1217937695685
 10
-749.8269659286931
 20
230.227758937828
 10
-749.8713134275032
 20
229.3214253438799
 10
-749.9156609263133
 20
228.4034695643934
 10
-749.9600084251234
 20
227.4745685052721
 10
-750.0043559239338
 20
226.5354272736546
 10
-750.0487034227439
 20
225.5868003944624
 10
-750.0930509215542
 20
224.6294473883785
 10
-750.1373984203643
 20
223.6641277760859
 10
-750.1817459191744
 20
222.6916010782677
 10
-750.2260934179849
 20
221.7126268156069
 10
-750.270440916795
 20
220.7279645087863
 10
-750.3147884156052
 20
219.7383736784892
 10
-750.3591359144153
 20
218.7446138453984
 10
-750.4034834132256
 20
217.7474445301989
 10
-750.4478309120358
 20
216.747628849537
 10
-750.492178410846
 20
215.7459439553598
 10
-750.5365259096562
 20
214.7431704234055
 10
-750.5808734084665
 20
213.7400888294119
 10
-750.6252209072767
 20
212.7374797491173
 10
-750.669568406087
 20
211.7361237582597
 10
-750.7139159048971
 20
210.7368014325768
 10
-750.7582634037074
 20
209.740293347807
 10
-750.8026109025175
 20
208.7473800796882
 10
-750.8469584013276
 20
207.7588422039584
 10
-750.891305900138
 20
206.7754575529589
 10
-750.9356533989479
 20
205.7979783006777
 10
-750.9800008977581
 20
204.8271426149928
 10
-751.0243483965684
 20
203.8636885220835
 10
-751.0686958953785
 20
202.9083540481292
 10
-751.1130433941886
 20
201.9618772193091
 10
-751.1573908929989
 20
201.0249960618025
 10
-751.201738391809
 20
200.0984486017888
 10
-751.2460858906192
 20
199.1829728654473
 10
-751.2904333894294
 20
198.2793068789573
 10
-751.3347808882394
 20
197.3881871181826
 10
-751.3791283870496
 20
196.5103041806391
 10
-751.4234758858598
 20
195.6462962667372
 10
-751.46782338467
 20
194.7967987156019
 10
-751.5121708834802
 20
193.9624468663581
 10
-751.5565183822903
 20
193.1438760581306
 10
-751.6008658811006
 20
192.3417216300444
 10
-751.6452133799108
 20
191.5566189212246
 10
-751.689560878721
 20
190.7892032707958
 10
-751.7339083775312
 20
190.0401100178833
 10
-751.7782558763414
 20
189.3099743760832
 10
-751.8226033751515
 20
188.5993908759148
 10
-751.8669508739617
 20
187.9088551413843
 10
-751.911298372772
 20
187.2388480544421
 10
-751.9556458715822
 20
186.589850497039
 10
-751.9999933703925
 20
185.9623433511253
 10
-752.0443408692024
 20
185.3568074986516
 10
-752.088688368013
 20
184.7737238215687
 10
-752.1330358668231
 20
184.2135732018269
 10
-752.1773833656332
 20
183.6768365213767
 10
-752.2217308644434
 20
183.1639946621689
 10
-752.2660783632538
 20
182.6755057511437
 10
-752.310425862064
 20
182.211701033522
 10
-752.3547733608741
 20
181.7728677926926
 10
-752.3991208596843
 20
181.3592932691354
 10
-752.4434683584944
 20
180.9712647033309
 10
-752.4878158573048
 20
180.6090693357593
 10
-752.5321633561149
 20
180.2729944069006
 10
-752.5765108549251
 20
179.9633271572354
 10
-752.6208583537351
 20
179.6803548272437
 10
-752.6652058525456
 20
179.4243646574049
210
0.0
220
0.0
230
-1.0
  0
LWPOLYLINE
  5
C9
330
1F
100
AcDbEntity
  8
0
  6
CONTINUOUS
 62
     7
100
AcDbPolyline
 90
        6
 70
     0
 43
0.0
 10
756.6631511653362
 20
181.5807590096505
 10
756.7293823076242
 20
181.3210266888129
 10
756.7955520195122
 20
181.1186716958267
 10
756.8636715101916
 20
180.9707156864823
 10
756.9318877092793
 20
180.8838436477286
 10
756.9943314344307
 20
180.8578630770988
  0
LWPOLYLINE
  5
CA
330
1F
100
AcDbEntity
  8
0
  6
CONTINUOUS
 62
     7
100
AcDbPolyline
 90
      105
 70
     0
 43
0.0
 10
-768.0535151664062
 20
250.3573678361529
 10
-768.0978329809313
 20
250.3436263962712
 10
-768.1421507954562
 20
250.3019640453005
 10
-768.1864686099813
 20
250.2323321491004
 10
-768.2307864245063
 20
250.1347309261376
 10
-768.2751042390314
 20
250.0093064976128
 10
-768.3194220535562
 20
249.8562321039676
 10
-768.3637398680813
 20
249.6756809856435
 10
-768.4080576826063
 20
249.4678263830821
 10
-768.4523754971315
 20
249.232841536725
 10
-768.4966933116565
 20
248.9708996870137
 10
-768.5410111261815
 20
248.6821740743899
 10
-768.5853289407064
 20
248.366837939295
 10
-768.6296467552315
 20
248.0250645221707
 10
-768.6739645697567
 20
247.6570455937862
 10
-768.7182823842816
 20
247.2631047887909
 10
-768.7626001988068
 20
246.8436229101983
 10
-768.8069180133317
 20
246.398980991749
 10
-768.8512358278568
 20
245.9295600671838
 10
-768.8955536423821
 20
245.4357411702435
 10
-768.9398714569071
 20
244.9179053346686
 10
-768.9841892714322
 20
244.3764335942001
 10
-769.0285070859574
 20
243.8117069825785
 10
-769.0728249004824
 20
243.2241065335446
 10
-769.1171427150075
 20
242.6140175535565
 10
-769.1614605295324
 20
241.9819128169383
 10
-769.2057783440575
 20
241.3283469537456
 10
-769.2500961585826
 20
240.6538777427766
 10
-769.2944139731075
 20
239.9590629628301
 10
-769.3387317876326
 20
239.2444603927045
 10
-769.3830496021576
 20
238.5106278111985
 10
-769.4273674166826
 20
237.7581229971104
 10
-769.4716852312077
 20
236.9875037292391
 10
-769.5160030457328
 20
236.1993277863828
 10
-769.5603208602578
 20
235.3941532460627
 10
-769.6046386747829
 20
234.5725786113017
 10
-769.6489564893079
 20
233.7352833117728
 10
-769.693274303833
 20
232.8829564211561
 10
-769.7375921183582
 20
232.0162870131311
 10
-769.7819099328831
 20
231.1359641613781
 10
-769.8262277474082
 20
230.2426769395768
 10
-769.8705455619332
 20
229.337114421407
 10
-769.9148633764582
 20
228.4199656805488
 10
-769.9591811909835
 20
227.4919197906821
 10
-770.0034990055085
 20
226.5536658254866
 10
-770.0478168200334
 20
225.6059036843338
 10
-770.0921346345585
 20
224.6493831990944
 10
-770.1364524490837
 20
223.6848685883551
 10
-770.1807702636086
 20
222.7131240720382
 10
-770.2250880781337
 20
221.734913870066
 10
-770.2694058926587
 20
220.751002202361
 10
-770.3137237071837
 20
219.7621532888454
 10
-770.358041521709
 20
218.7691313494418
 10
-770.4023593362339
 20
217.7727006040724
 10
-770.4466771507589
 20
216.7736252726596
 10
-770.490994965284
 20
215.7726702094405
 10
-770.5353127798089
 20
214.7706076562125
 10
-770.5796305943339
 20
213.7682146274314
 10
-770.6239484088591
 20
212.7662682173893
 10
-770.6682662233841
 20
211.7655455203784
 10
-770.7125840379091
 20
210.7668236306909
 10
-770.7569018524341
 20
209.7708796426188
 10
-770.8012196669592
 20
208.7784906504545
 10
-770.8455374814844
 20
207.7904337484901
 10
-770.8898552960092
 20
206.8074860310176
 10
-770.9341731105343
 20
205.8304241319333
 10
-770.9784909250594
 20
204.8600044431133
 10
-771.0228087395845
 20
203.8969556186373
 10
-771.0671265541098
 20
202.9420043062364
 10
-771.1114443686348
 20
201.9958771536419
 10
-771.15576218316
 20
201.0593008085849
 10
-771.2000799976848
 20
200.1330019187965
 10
-771.2443978122101
 20
199.217707132008
 10
-771.2887156267351
 20
198.3141430959505
 10
-771.3330334412602
 20
197.4230364583552
 10
-771.3773512557854
 20
196.5451138521013
 10
-771.4216690703104
 20
195.6810780845109
 10
-771.4659868848355
 20
194.831559768682
 10
-771.5103046993605
 20
193.9971758954533
 10
-771.5546225138855
 20
193.1785434556633
 10
-771.5989403284107
 20
192.3762794401508
 10
-771.6432581429358
 20
191.5910008397543
 10
-771.6875759574609
 20
190.8233246453123
 10
-771.7318937719859
 20
190.0738678476637
 10
-771.7762115865108
 20
189.3432474376469
 10
-771.8205294010359
 20
188.6320804061005
 10
-771.8648472155609
 20
187.9409697402089
 10
-771.9091650300859
 20
187.2704171936379
 10
-771.9534828446108
 20
186.6208800172371
 10
-771.9978006591359
 20
185.9928152699287
 10
-772.0421184736608
 20
185.3866800106346
 10
-772.086436288186
 20
184.8029312982769
 10
-772.1307541027109
 20
184.2420261917777
 10
-772.1750719172358
 20
183.7044217500591
 10
-772.2193897317609
 20
183.1905750320429
 10
-772.2637075462858
 20
182.7009430966514
 10
-772.3080253608109
 20
182.2359783692792
 10
-772.352343175336
 20
181.7960362933602
 10
-772.3966609898612
 20
181.3813803762522
 10
-772.4409788043862
 20
180.9922705018658
 10
-772.4852966189114
 20
180.6289665541119
 10
-772.5296144334363
 20
180.2917284169011
 10
-772.5739322479617
 20
179.9808159741442
 10
-772.6182500624867
 20
179.6964891097518
 10
-772.6625678770121
 20
179.4390077076336
210
0.0
220
0.0
230
-1.0
  0
LWPOLYLINE
  5
CB
330
1F
100
AcDbEntity
  8
0
  6
CONTINUOUS
 62
     7
100
AcDbPolyline
 90
        5
 70
     0
 43
0.0
 10
656.6790230132641
 20
181.5132954287035
 10
656.7453212936243
 20
181.2672567470229
 10
656.8115300897686
 20
181.0786760238514
 10
656.8796242226132
 20
180.9449659867898
 10
656.9942696879384
 20
180.8578630771122
  0
LWPOLYLINE
  5
CC
330
1F
100
AcDbEntity
  8
0
  6
CONTINUOUS
 62
     7
100
AcDbPolyline
 90
      105
 70
     0
 43
0.0
 10
-718.0530733346054
 20
250.3577753156871
 10
-718.0973923098637
 20
250.3439998205798
 10
-718.1417112851224
 20
250.3022614338033
 10
-718.1860302603807
 20
250.2326630725629
 10
-718.230349235639
 20
250.1353076540638
 10
-718.2746682108975
 20
250.0102980955116
 10
-718.3189871861559
 20
249.8577373141113
 10
-718.3633061614144
 20
249.6777282270682
 10
-718.4076251366728
 20
249.4703737515878
 10
-718.4519441119312
 20
249.2357768048753
 10
-718.4962630871896
 20
248.9740403335863
 10
-718.540582062448
 20
248.6853138933232
 10
-718.5849010377066
 20
248.369888079616
 10
-718.6292200129648
 20
248.0280800633996
 10
-718.6735389882232
 20
247.6602070156093
 10
-718.7178579634817
 20
247.2665861071805
 10
-718.76217693874
 20
246.8475345090482
 10
-718.8064959139986
 20
246.4033693921478
 10
-718.8508148892568
 20
245.9344079274143
 10
-718.8951338645152
 20
245.4409672857831
 10
-718.9394528397736
 20
244.9233646381894
 10
-718.9837718150319
 20
244.3819336975064
 10
-719.0280907902904
 20
243.8171274810464
 10
-719.0724097655487
 20
243.2294513454963
 10
-719.116728740807
 20
242.6194108710914
 10
-719.1610477160655
 20
241.9875116380675
 10
-719.2053666913238
 20
241.3342592266595
 10
-719.2496856665822
 20
240.660159217103
 10
-719.2940046418406
 20
239.9657171896334
 10
-719.338323617099
 20
239.2514387244861
 10
-719.3826425923575
 20
238.5178294018966
 10
-719.4269615676158
 20
237.7653982814913
 10
-719.4712805428742
 20
236.9947269207178
 10
-719.5155995181326
 20
236.2064654238755
 10
-719.559918493391
 20
235.4012665836832
 10
-719.6042374686493
 20
234.5797831928598
 10
-719.6485564439078
 20
233.7426680441243
 10
-719.6928754191661
 20
232.8905739301954
 10
-719.7371943944245
 20
232.0241536437921
 10
-719.7815133696829
 20
231.1440599776334
 10
-719.8258323449413
 20
230.250945724438
 10
-719.8701513201996
 20
229.3454638811434
 10
-719.9144702954582
 20
228.4282961682873
 10
-719.9587892707165
 20
227.5001823923744
 10
-720.0031082459749
 20
226.5618693662942
 10
-720.0474272212332
 20
225.6141039029365
 10
-720.0917461964916
 20
224.657632815191
 10
-720.1360651717503
 20
223.6932029159473
 10
-720.1803841470085
 20
222.7215610180952
 10
-720.2247031222669
 20
221.7434539345242
 10
-720.2690220975251
 20
220.7596284781243
 10
-720.3133410727837
 20
219.7708314617851
 10
-720.357660048042
 20
218.7778144254991
 10
-720.4019790233004
 20
217.7813509369042
 10
-720.4462979985589
 20
216.7822209748613
 10
-720.4906169738174
 20
215.781204518957
 10
-720.5349359490758
 20
214.7790815487777
 10
-720.5792549243341
 20
213.7766320439099
 10
-720.6235738995925
 20
212.7746359839403
 10
-720.667892874851
 20
211.7738733484552
 10
-720.7122118501094
 20
210.7751241170412
 10
-720.7565308253677
 20
209.7791682692848
 10
-720.8008498006262
 20
208.7867843084976
 10
-720.8451687758845
 20
207.7987333477354
 10
-720.8894877511431
 20
206.8157651710421
 10
-720.9338067264015
 20
205.8386293686644
 10
-720.9781257016598
 20
204.8680755308488
 10
-721.0224446769181
 20
203.9048532478418
 10
-721.0667636521765
 20
202.94971210989
 10
-721.111082627435
 20
202.0034017072398
 10
-721.1554016026934
 20
201.0666716301379
 10
-721.1997205779518
 20
200.1402714688307
 10
-721.2440395532102
 20
199.2249499974929
 10
-721.2883585284684
 20
198.321419461242
 10
-721.3326775037268
 20
197.4303416696236
 10
-721.3769964789852
 20
196.5523747437593
 10
-721.4213154542437
 20
195.688176804771
 10
-721.465634429502
 20
194.8384059737803
 10
-721.5099534047605
 20
194.0037203719092
 10
-721.5542723800188
 20
193.1847781202794
 10
-721.5985913552771
 20
192.3822373400126
 10
-721.6429103305356
 20
191.5967561522306
 10
-721.687229305794
 20
190.8289926599943
 10
-721.7315482810525
 20
190.0795736585711
 10
-721.7758672563108
 20
189.3490303530207
 10
-721.8201862315692
 20
188.6378757688465
 10
-721.8645052068276
 20
187.9466229315521
 10
-721.908824182086
 20
187.2757848666411
 10
-721.9531431573444
 20
186.625874599617
 10
-721.9974621326028
 20
185.9974051559832
 10
-722.0417811078611
 20
185.3908895612433
 10
-722.0861000831196
 20
184.8068408409008
 10
-722.130419058378
 20
184.2457720204592
 10
-722.1747380336365
 20
183.7081799012761
 10
-722.219057008895
 20
183.1944431254565
 10
-722.2633759841534
 20
182.7048880518689
 10
-722.3076949594116
 20
182.2398408069099
 10
-722.35201393467
 20
181.7996275169762
 10
-722.3963329099283
 20
181.3845743084646
 10
-722.4406518851869
 20
180.9950073077715
 10
-722.4849708604452
 20
180.6312526412936
 10
-722.5292898357036
 20
180.2936364354276
 10
-722.573608810962
 20
179.9824848165702
 10
-722.6179277862203
 20
179.6981189536508
 10
-722.6622467614786
 20
179.4407552863236
210
0.0
220
0.0
230
-1.0
  0
LWPOLYLINE
  5
CD
330
1F
100
AcDbEntity
  8
0
  6
CONTINUOUS
 62
     7
100
AcDbPolyline
 90
        5
 70
     0
 43
0.0
 10
716.6838816259094
 20
181.493084688388
 10
716.7519904147379
 20
181.2452568116867
 10
716.8182176080011
 20
181.0627683593406
 10
716.8845186176799
 20
180.9377725690423
 10
716.9943663938409
 20
180.8578630770961
  0
LWPOLYLINE
  5
CE
330
1F
100
AcDbEntity
  8
0
  6
CONTINUOUS
 62
     7
100
AcDbPolyline
 90
        5
 70
     0
 43
0.0
 10
786.6996499193531
 20
181.4306514349323
 10
786.7658925167224
 20
181.2025662825763
 10
786.8321177397296
 20
181.0317654331417
 10
786.8982888531357
 20
180.9187658454645
 10
786.9942737927721
 20
180.8578630770813
  0
LWPOLYLINE
  5
CF
330
1F
100
AcDbEntity
  8
0
  6
CONTINUOUS
 62
     7
100
AcDbPolyline
 90
      105
 70
     0
 43
0.0
 10
771.9446930302544
 20
249.2755201545839
 10
771.9890078963174
 20
249.0182568259251
 10
772.0333227623801
 20
248.7341832534211
 10
772.0776376284429
 20
248.4234726429774
 10
772.1219524945059
 20
248.0862982004999
 10
772.1662673605688
 20
247.7228421321337
 10
772.2105822266317
 20
247.3334028696704
 10
772.2548970926948
 20
246.9183597309915
 10
772.2992119587575
 20
246.4780936738779
 10
772.3435268248205
 20
246.0129856561099
 10
772.3878416908834
 20
245.5234166354684
 10
772.4321565569463
 20
245.0097675697338
 10
772.4764714230091
 20
244.4724194166867
 10
772.520786289072
 20
243.9117531341079
 10
772.565101155135
 20
243.3281496797779
 10
772.609416021198
 20
242.7219912860647
 10
772.6537308872607
 20
242.0937277249294
 10
772.6980457533236
 20
241.4439086164899
 10
772.7423606193865
 20
240.77309162835
 10
772.7866754854493
 20
240.0818344281136
 10
772.8309903515121
 20
239.3706946833844
 10
772.8753052175753
 20
238.6402300617663
 10
772.919620083638
 20
237.8909982308629
 10
772.963934949701
 20
237.1235568582783
 10
773.0082498157636
 20
236.3384636116161
 10
773.0525646818267
 20
235.5362761642122
 10
773.0968795478898
 20
234.717578518837
 10
773.1411944139525
 20
233.8830416704613
 10
773.1855092800155
 20
233.0333545553964
 10
773.2298241460783
 20
232.1692061099535
 10
773.2741390121412
 20
231.2912852704436
 10
773.318453878204
 20
230.4002809731782
 10
773.3627687442671
 20
229.4968821544682
 10
773.4070836103299
 20
228.5817777506248
 10
773.4513984763927
 20
227.6556566979594
 10
773.4957133424556
 20
226.7192079327831
 10
773.5400282085183
 20
225.7731262627506
 10
773.5843430745814
 20
224.8181532601638
 10
773.6286579406443
 20
223.8550528535161
 10
773.6729728067072
 20
222.8845891103805
 10
773.71728767277
 20
221.9075260983302
 10
773.7616025388327
 20
220.924627884938
 10
773.8059174048958
 20
219.9366585377773
 10
773.8502322709586
 20
218.9443821244209
 10
773.8945471370216
 20
217.9485627124419
 10
773.9388620030843
 20
216.9499643694133
 10
773.9831768691472
 20
215.9493514149608
 10
774.02749173521
 20
214.9474942539006
 10
774.071806601273
 20
213.9451695406643
 10
774.1161214673358
 20
212.9431542146282
 10
774.1604363333986
 20
211.9422252151684
 10
774.2047511994615
 20
210.9431594816614
 10
774.2490660655246
 20
209.9467339534835
 10
774.2933809315873
 20
208.9537255700109
 10
774.3376957976501
 20
207.96491127062
 10
774.382010663713
 20
206.9810679946871
 10
774.4263255297758
 20
206.002972611604
 10
774.4706403958388
 20
205.0313876475877
 10
774.5149552619018
 20
204.0670438663776
 10
774.5592701279646
 20
203.1106677708455
 10
774.6035849940276
 20
202.1629858638634
 10
774.6478998600903
 20
201.2247246483032
 10
774.6922147261533
 20
200.296610627037
 10
774.7365295922165
 20
199.3793703029366
 10
774.7808444582793
 20
198.4737301788742
 10
774.8251593243422
 20
197.5804167577216
 10
774.8694741904051
 20
196.7001565423508
 10
774.9137890564681
 20
195.8336620114977
 10
774.958103922531
 20
194.9815733023685
 10
775.0024187885939
 20
194.1445072937997
 10
775.0467336546568
 20
193.323080853631
 10
775.0910485207197
 20
192.5179108497022
 10
775.1353633867826
 20
191.7296141498531
 10
775.1796782528456
 20
190.9588076219235
 10
775.2239931189083
 20
190.2061081337533
 10
775.2683079849712
 20
189.4721325531823
 10
775.312622851034
 20
188.7574977480503
 10
775.3569377170968
 20
188.0628139709205
 10
775.4012525831597
 20
187.3886028460294
 10
775.4455674492226
 20
186.735322707917
 10
775.4898823152854
 20
186.1034305243894
 10
775.5341971813481
 20
185.4933832632527
 10
775.578512047411
 20
184.9056378923131
 10
775.6228269134737
 20
184.3406513793764
 10
775.6671417795367
 20
183.7988806922491
 10
775.7114566455997
 20
183.2807827987371
 10
775.7557715116625
 20
182.7868146666465
 10
775.8000863777252
 20
182.3174319567997
 10
775.8444012437882
 20
181.8730162613225
 10
775.8887161098511
 20
181.453836799794
 10
775.9330309759141
 20
181.0601534043163
 10
775.977345841977
 20
180.6922259069914
 10
776.0216607080399
 20
180.3503141399217
 10
776.065975574103
 20
180.0346779352093
 10
776.1102904401658
 20
179.7455771249561
 10
776.1546053062286
 20
179.4832715412646
 10
776.1989201722918
 20
179.2480210162368
 10
776.2432350383548
 20
179.0400853761621
 10
776.2875499044176
 20
178.8596818359344
 10
776.3318647704805
 20
178.7068826971483
 10
776.3761796365434
 20
178.5817294839832
 10
776.4204945026063
 20
178.484263720618
 10
776.4648093686692
 20
178.4145269312319
 10
776.5091242347321
 20
178.3725606400043
 10
776.5534391007955
 20
178.358406371114
  0
LWPOLYLINE
  5
D0
330
1F
100
AcDbEntity
  8
0
  6
CONTINUOUS
 62
     7
100
AcDbPolyline
 90
        5
 70
     0
 43
0.0
 10
626.7087904114571
 20
181.3957158812903
 10
626.7768918560234
 20
181.1701907810475
 10
626.8450386300731
 20
181.0053127803224
 10
626.9131936601894
 20
180.901450560326
 10
626.9942772312132
 20
180.8578630771189
  0
LWPOLYLINE
  5
D1
330
1F
100
AcDbEntity
  8
0
  6
CONTINUOUS
 62
     7
100
AcDbPolyline
 90
        5
 70
     0
 43
0.0
 10
676.7007650152007
 20
181.4259690619383
 10
676.7689228811709
 20
181.1933792034038
 10
676.8371273669396
 20
181.0213874026718
 10
676.9053108206007
 20
180.9103819375936
 10
676.9942886338818
 20
180.8578630771033
  0
LWPOLYLINE
  5
D2
330
1F
100
AcDbEntity
  8
0
  6
CONTINUOUS
 62
     7
100
AcDbPolyline
 90
        6
 70
     0
 43
0.0
 10
696.6581872714391
 20
181.6021429764563
 10
696.7263875912636
 20
181.3315552781093
 10
696.7946073483522
 20
181.1213868044099
 10
696.8627703168509
 20
180.9722967617086
 10
696.9289788116319
 20
180.8862419396026
 10
696.9943307809593
 20
180.8578630770703
  0
LWPOLYLINE
  5
D3
330
1F
100
AcDbEntity
  8
0
  6
CONTINUOUS
 62
     7
100
AcDbPolyline
 90
      105
 70
     0
 43
0.0
 10
781.9446775909516
 20
249.275582318215
 10
781.9889940535447
 20
249.0182629790327
 10
782.0333105161377
 20
248.7341508000912
 10
782.0776269787307
 20
248.4234329151921
 10
782.1219434413238
 20
248.0862964581369
 10
782.1662599039169
 20
247.7229285627273
 10
782.2105763665097
 20
247.3335486857019
 10
782.2548928291027
 20
246.9185137155465
 10
782.2992092916957
 20
246.4782170601875
 10
782.3435257542886
 20
246.0130521278411
 10
782.3878422168815
 20
245.5234123267234
 10
782.4321586794744
 20
245.0096910650504
 10
782.4764751420674
 20
244.4722817510385
 10
782.5207916046602
 20
243.9115777929035
 10
782.5651080672533
 20
243.3279725988617
 10
782.6094245298461
 20
242.7218595771291
 10
782.6537409924391
 20
242.0936417962122
 10
782.698057455032
 20
241.4438245638297
 10
782.7423739176248
 20
240.7729746652375
 10
782.7866903802179
 20
240.0816597265005
 10
782.8310068428108
 20
239.3704473736835
 10
782.8753233054036
 20
238.639905232851
 10
782.9196397679966
 20
237.890600930068
 10
782.9639562305896
 20
237.1231020913991
 10
783.0082726931827
 20
236.337976342909
 10
783.0525891557756
 20
235.5357913106625
 10
783.0969056183689
 20
234.7171160500047
 10
783.1412220809617
 20
233.8825732012072
 10
783.1855385435548
 20
233.0328538898951
 10
783.2298550061477
 20
232.1686537074082
 10
783.2741714687409
 20
231.2906682450866
 10
783.3184879313337
 20
230.3995930942701
 10
783.3628043939269
 20
229.496123846299
 10
783.4071208565199
 20
228.5809560925129
 10
783.4514373191129
 20
227.654785424252
 10
783.4957537817058
 20
226.7183074328563
 10
783.5400702442989
 20
225.7722177299167
 10
783.5843867068919
 20
224.8172285134355
 10
783.6287031694849
 20
223.8540985486871
 10
783.6730196320779
 20
222.8835947125611
 10
783.7173360946709
 20
221.9064838819475
 10
783.7616525572638
 20
220.923532933736
 10
783.8059690198568
 20
219.9355087448165
 10
783.8502854824497
 20
218.9431781920789
 10
783.8946019450427
 20
217.9473081524128
 10
783.9389184076354
 20
216.9486655027081
 10
783.9832348702286
 20
215.9480171198547
 10
784.0275513328213
 20
214.9461307273638
 10
784.0718677954143
 20
213.943779687953
 10
784.1161842580071
 20
212.941739668825
 10
784.1605007206001
 20
211.940786344046
 10
784.204817183193
 20
210.941695387682
 10
784.249133645786
 20
209.945242473799
 10
784.293450108379
 20
208.952203276463
 10
784.3377665709718
 20
207.96335346974
 10
784.3820830335649
 20
206.9794687276963
 10
784.4263994961578
 20
206.0013247243976
 10
784.4707159587507
 20
205.0296956580044
 10
784.5150324213437
 20
204.0653281237869
 10
784.5593488839368
 20
203.1089442364093
 10
784.6036653465296
 20
202.161265261909
 10
784.6479818091228
 20
201.2230124663235
 10
784.6922982717158
 20
200.2949071156903
 10
784.7366147343087
 20
199.3776704760468
 10
784.7809311969019
 20
198.4720238134307
 10
784.825247659495
 20
197.5786883938794
 10
784.869564122088
 20
196.6983854834303
 10
784.913880584681
 20
195.8318360194259
 10
784.9581970472739
 20
194.9797245872858
 10
785.0025135098671
 20
194.1426669402223
 10
785.04682997246
 20
193.321271164436
 10
785.0911464350529
 20
192.5161453461275
 10
785.1354628976459
 20
191.7278975714974
 10
785.1797793602389
 20
190.957135926746
 10
785.2240958228318
 20
190.2044684980741
 10
785.2684122854249
 20
189.4705033716822
 10
785.3127287480179
 20
188.7558486337708
 10
785.3570452106107
 20
188.0611123705405
 10
785.4013616732038
 20
187.3868777216208
 10
785.4456781357967
 20
186.7336194616505
 10
785.4899945983897
 20
186.1017829481195
 10
785.5343110609826
 20
185.491813537955
 10
785.5786275235755
 20
184.9041565880843
 10
785.6229439861685
 20
184.3392574554345
 10
785.6672604487615
 20
183.7975614969328
 10
785.7115769113543
 20
183.2795140695065
 10
785.7558933739473
 20
182.7855605300826
 10
785.8002098365403
 20
182.3161462355884
 10
785.8445262991335
 20
181.8717058447328
 10
785.8888427617261
 20
181.4525578990506
 10
785.9331592243192
 20
181.0589497656252
 10
785.9774756869122
 20
180.6911277825435
 10
786.0217921495051
 20
180.3493382878926
 10
786.066108612098
 20
180.0338276197599
 10
786.110425074691
 20
179.7448421162322
 10
786.154741537284
 20
179.4826281153969
 10
786.1990579998769
 20
179.2474319553408
 10
786.2433744624699
 20
179.0394999741513
 10
786.2876909250629
 20
178.8590761894771
 10
786.332007387656
 20
178.7063139058008
 10
786.3763238502488
 20
178.5812482943512
 10
786.420640312842
 20
178.4839066017057
 10
786.464956775435
 20
178.4143160744418
 10
786.5092732380278
 20
178.372503959137
 10
786.5535897006212
 20
178.3584975023687
  0
LWPOLYLINE
  5
D4
330
1F
100
AcDbEntity
  8
0
  6
CONTINUOUS
 62
     7
100
AcDbPolyline
 90
        6
 70
     0
 43
0.0
 10
686.6492469963603
 20
181.6419344089857
 10
686.7154694577623
 20
181.3707139744146
 10
686.7817714967404
 20
181.1563766365199
 10
686.8480663119166
 20
180.9994032455053
 10
686.9142671019129
 20
180.9002746515742
 10
686.994306682863
 20
180.8578630771286
  0
LWPOLYLINE
  5
D5
330
1F
100
AcDbEntity
  8
0
  6
CONTINUOUS
 62
     7
100
AcDbPolyline
 90
        6
 70
     0
 43
0.0
 10
746.6503260910007
 20
181.6376037535155
 10
746.7184730392835
 20
181.3599838067392
 10
746.7866202780568
 20
181.1427307376601
 10
746.8547357222864
 20
180.9865235870496
 10
746.9209665740892
 20
180.8935273716993
 10
746.994346835027
 20
180.8578630771037
  0
LWPOLYLINE
  5
D6
330
1F
100
AcDbEntity
  8
0
  6
CONTINUOUS
 62
     7
100
AcDbPolyline
 90
        6
 70
     0
 43
0.0
 10
636.6572656031295
 20
181.6063741358441
 10
636.7234869208335
 20
181.3419791239759
 10
636.7897267645453
 20
181.1345226467547
 10
636.8559501384592
 20
180.9844680569032
 10
636.9221220467689
 20
180.892278707144
 10
636.9942674396885
 20
180.8578630770859
  0
LWPOLYLINE
  5
D7
330
1F
100
AcDbEntity
  8
0
  6
CONTINUOUS
 62
     7
100
AcDbPolyline
 90
      105
 70
     0
 43
0.0
 10
-658.0528934284783
 20
250.3571749523241
 10
-658.0972172897793
 20
250.3436035107319
 10
-658.1415411510806
 20
250.3022172431967
 10
-658.1858650123817
 20
250.2330335804812
 10
-658.2301888736828
 20
250.1360699533484
 10
-658.2745127349839
 20
250.0113437925611
 10
-658.3188365962849
 20
249.8588725312709
 10
-658.3631604575861
 20
249.6787148089905
 10
-658.4074843188872
 20
249.4710753705286
 10
-658.4518081801883
 20
249.2361913279007
 10
-658.4961320414893
 20
248.9742997931228
 10
-658.5404559027903
 20
248.6856378782103
 10
-658.5847797640915
 20
248.3704426951791
 10
-658.6291036253928
 20
248.0289513560448
 10
-658.6734274866938
 20
247.6614009728232
 10
-658.717751347995
 20
247.2680286575299
 10
-658.762075209296
 20
246.8490715221807
 10
-658.806399070597
 20
246.4047810640882
 10
-658.8507229318981
 20
245.9355318201522
 10
-658.8950467931992
 20
245.4417607731168
 10
-658.9393706545004
 20
244.9239053953601
 10
-658.9836945158014
 20
244.3824031592608
 10
-659.0280183771024
 20
243.8176915371969
 10
-659.0723422384034
 20
243.2302080015469
 10
-659.1166660997045
 20
242.620390024689
 10
-659.1609899610055
 20
241.9886750790017
 10
-659.2053138223067
 20
241.3355006368631
 10
-659.2496376836078
 20
240.6613070249331
 10
-659.2939615449089
 20
239.9666103955214
 10
-659.33828540621
 20
239.2520088524879
 10
-659.3826092675112
 20
238.5181045814736
 10
-659.4269331288122
 20
237.7654997681188
 10
-659.4712569901133
 20
236.9947965980644
 10
-659.5155808514143
 20
236.2065972569509
 10
-659.5599047127154
 20
235.4015039304188
 10
-659.6042285740165
 20
234.5801188041089
 10
-659.6485524353176
 20
233.7430440636617
 10
-659.6928762966187
 20
232.8908820171698
 10
-659.7372001579197
 20
232.02426657219
 10
-659.7815240192209
 20
231.1439051331363
 10
-659.825847880522
 20
230.2505155302781
 10
-659.870171741823
 20
229.3448155938841
 10
-659.9144956031241
 20
228.4275231542236
 10
-659.9588194644252
 20
227.4993560415656
 10
-660.0031433257262
 20
226.5610320861792
 10
-660.0474671870273
 20
225.6132691183335
 10
-660.0917910483284
 20
224.6567849682976
 10
-660.1361149096296
 20
223.6922974663405
 10
-660.1804387709307
 20
222.7205313912779
 10
-660.2247626322318
 20
221.7422490828741
 10
-660.2690864935328
 20
220.7582255147088
 10
-660.3134103548339
 20
219.7692356698322
 10
-660.3577342161349
 20
218.7760545312944
 10
-660.4020580774361
 20
217.7794570821455
 10
-660.4463819387373
 20
216.7802183054355
 10
-660.4907058000383
 20
215.7791131842145
 10
-660.5350296613392
 20
214.7769167015327
 10
-660.5793535226405
 20
213.7744038404403
 10
-660.6236773839415
 20
212.7723493513279
 10
-660.6680012452427
 20
211.7715247042775
 10
-660.7123251065436
 20
210.7726989431731
 10
-660.7566489678449
 20
209.7766410549481
 10
-660.800972829146
 20
208.7841200265357
 10
-660.845296690447
 20
207.7959048448691
 10
-660.8896205517482
 20
206.8127644968817
 10
-660.9339444130491
 20
205.8354679695066
 10
-660.9782682743502
 20
204.8647842496771
 10
-661.0225921356512
 20
203.9014823243266
 10
-661.0669159969525
 20
202.9463307685666
 10
-661.1112398582535
 20
202.0000728743799
 10
-661.1555637195545
 20
201.0634124113382
 10
-661.1998875808557
 20
200.1370497099493
 10
-661.2442114421568
 20
199.2216851007204
 10
-661.2885353034578
 20
198.3180189141592
 10
-661.3328591647589
 20
197.4267514807732
 10
-661.37718302606
 20
196.5485831310699
 10
-661.421506887361
 20
195.6842141955569
 10
-661.4658307486623
 20
194.8343450047417
 10
-661.5101546099633
 20
193.9996758872038
 10
-661.5544784712642
 20
193.1808832575769
 10
-661.5988023325656
 20
192.378559966067
 10
-661.6431261938667
 20
191.5932806208632
 10
-661.6874500551677
 20
190.8256198301544
 10
-661.7317739164687
 20
190.0761522021296
 10
-661.7760977777697
 20
189.3454523449778
 10
-661.820421639071
 20
188.6340948668879
 10
-661.864745500372
 20
187.9426543760489
 10
-661.909069361673
 20
187.2717054806499
 10
-661.9533932229742
 20
186.6218227888797
 10
-661.9977170842752
 20
185.993568278716
 10
-662.0420409455763
 20
185.3873976360408
 10
-662.0863648068773
 20
184.8037133221169
 10
-662.1306886681785
 20
184.2429174013083
 10
-662.1750125294797
 20
183.705411937979
 10
-662.2193363907805
 20
183.191598996493
 10
-662.2636602520818
 20
182.7018806412144
 10
-662.3079841133829
 20
182.2366589365072
 10
-662.352307974684
 20
181.7963359467353
 10
-662.3966318359849
 20
181.3813137362629
 10
-662.4409556972862
 20
180.9919906996641
 10
-662.4852795585872
 20
180.6286700794307
 10
-662.5296034198883
 20
180.2915535823899
 10
-662.5739272811893
 20
179.9808379671754
 10
-662.6182511424904
 20
179.6967199924209
 10
-662.6625750037913
 20
179.4393964167615
210
0.0
220
0.0
230
-1.0
  0
ARC
  5
D8
330
1F
100
AcDbEntity
  8
0
  6
CONTINUOUS
 62
     7
100
AcDbCircle
 10
710.4249965000835
 20
249.3375413533193
 30
0.0
 40
1.520984814391422
100
AcDbArc
 50
357.6770479869463
 51
42.12345541238607
  0
ARC
  5
D9
330
1F
100
AcDbEntity
  8
0
  6
CONTINUOUS
 62
     7
100
AcDbCircle
 10
664.7300027108788
 20
179.6293639503824
 30
0.0
 40
2.222627669616801
100
AcDbArc
 50
325.1255912395865
 51
355.0705564205039
  0
ARC
  5
DA
330
1F
100
AcDbEntity
  8
0
  6
CONTINUOUS
 62
     7
100
AcDbCircle
 10
659.876084043737
 20
249.1394280069292
 30
0.0
 40
2.072345775566588
100
AcDbArc
 50
3.953042278261421
 51
35.98840615961677
  0
ARC
  5
DB
330
1F
100
AcDbEntity
  8
0
  6
CONTINUOUS
 62
     7
100
AcDbCircle
 10
705.4273821813766
 20
179.3770622889001
 30
0.0
 40
1.518413856449437
100
AcDbArc
 50
317.8485613507621
 51
2.329188055986833
  0
ARC
  5
DC
330
1F
100
AcDbEntity
  8
0
  6
CONTINUOUS
 62
     7
100
AcDbCircle
 10
669.589198159327
 20
249.0359545348259
 30
0.0
 40
2.367538225682028
100
AcDbArc
 50
5.859071618772987
 51
33.92378957075391
  0
ARC
  5
DD
330
1F
100
AcDbEntity
  8
0
  6
CONTINUOUS
 62
     7
100
AcDbCircle
 10
654.9919225463638
 20
179.5343195444901
 30
0.0
 40
1.954810161665179
100
AcDbArc
 50
323.0248044395694
 51
357.184121245157
  0
ARC
  5
DE
330
1F
100
AcDbEntity
  8
0
  6
CONTINUOUS
 62
     7
100
AcDbCircle
 10
650.1162490113585
 20
249.2260282478238
 30
0.0
 40
1.829034766812832
100
AcDbArc
 50
1.570448239850407
 51
38.20144460658514
  0
ARC
  5
DF
330
1F
100
AcDbEntity
  8
0
  6
CONTINUOUS
 62
     7
100
AcDbCircle
 10
679.3041298814895
 20
248.9319298251941
 30
0.0
 40
2.662840028671042
100
AcDbArc
 50
7.440980187396861
 51
32.36443638526805
  0
ARC
  5
E0
330
1F
100
AcDbEntity
  8
0
  6
CONTINUOUS
 62
     7
100
AcDbCircle
 10
674.4543626835655
 20
179.7300503533816
 30
0.0
 40
2.507129633753476
100
AcDbArc
 50
326.8324154918482
 51
353.3322053221544
  0
ARC
  5
E1
330
1F
100
AcDbEntity
  8
0
  6
CONTINUOUS
 62
     7
100
AcDbCircle
 10
993.4292401841757
 20
215.8802241852527
 30
0.0
 40
298.7441124077445
100
AcDbArc
 50
181.4341915133349
 51
186.588663968949
  0
LINE
  5
E2
330
1F
100
AcDbEntity
  8
0
  6
CONTINUOUS
 62
     7
100
AcDbLine
 10
565.5536413139462
 20
184.3578630770682
 30
0.0
 11
618.5536413139461
 21
184.3578630770682
 31
0.0
  0
ARC
  5
E3
330
1F
100
AcDbEntity
  8
0
  6
CONTINUOUS
 62
     7
100
AcDbCircle
 10
172.4106775908277
 20
191.6425222776898
 30
0.0
 40
582.610417242009
100
AcDbArc
 50
1.642459040326116
 51
5.422867893045122
  0
ARC
  5
E4
330
1F
100
AcDbEntity
  8
0
  6
CONTINUOUS
 62
     7
100
AcDbCircle
 10
1049.860996053577
 20
216.3297766261909
 30
0.0
 40
305.1888878019351
100
AcDbArc
 50
181.4574007970414
 51
186.5271741127289
  0
ARC
  5
E5
330
1F
100
AcDbEntity
  8
0
  6
CONTINUOUS
 62
     7
100
AcDbCircle
 10
111.0238215932957
 20
194.3568838632805
 30
0.0
 40
543.9143693560973
100
AcDbArc
 50
1.587734624218172
 51
5.522601675152601
  0
ARC
  5
E6
330
1F
100
AcDbEntity
  8
0
  6
CONTINUOUS
 62
     7
100
AcDbCircle
 10
1026.841583087467
 20
216.4839572457518
 30
0.0
 40
302.1856485890834
100
AcDbArc
 50
181.4080638913686
 51
186.6562238128338
  0
ARC
  5
E7
330
1F
100
AcDbEntity
  8
0
  6
CONTINUOUS
 62
     7
100
AcDbCircle
 10
169.8731286299059
 20
192.1699779580008
 30
0.0
 40
575.1315120138632
100
AcDbArc
 50
1.633795481333379
 51
5.440878490150284
  0
LINE
  5
E8
330
1F
100
AcDbEntity
  8
0
  6
CENTER
 62
     1
100
AcDbLine
 10
846.7308487934306
 20
176.3579726840317
 30
0.0
 11
846.7308487934306
 21
252.3572587321557
 31
0.0
  0
LINE
  5
EA
330
1F
100
AcDbEntity
  8
0
  6
CENTER
 62
     1
100
AcDbLine
 10
495.7683076138052
 20
176.3587493119362
 30
0.0
 11
495.7683076138052
 21
252.3574462622513
 31
0.0
  0
ARC
  5
EB
330
1F
100
AcDbEntity
  8
0
  6
CONTINUOUS
 62
     7
100
AcDbCircle
 10
113.9298367977017
 20
191.7534456717084
 30
0.0
 40
581.0874528298159
100
AcDbArc
 50
1.64188991352853
 51
5.426312265560796
  0
ARC
  5
EC
330
1F
100
AcDbEntity
  8
0
  6
CONTINUOUS
 62
     7
100
AcDbCircle
 10
969.4016744128913
 20
217.3804917256261
 30
0.0
 40
314.7727949944448
100
AcDbArc
 50
181.4477836324463
 51
186.5428531653106
  0
ARC
  5
ED
330
1F
100
AcDbEntity
  8
0
  6
CONTINUOUS
 62
     7
100
AcDbCircle
 10
937.0968774603809
 20
215.4360033902443
 30
0.0
 40
292.3988209598008
100
AcDbArc
 50
181.4104873447527
 51
186.6514910684164
  0
ARC
  5
EE
330
1F
100
AcDbEntity
  8
0
  6
CONTINUOUS
 62
     7
100
AcDbCircle
 10
58.31869399510392
 20
192.0663901028713
 30
0.0
 40
576.6886876390706
100
AcDbArc
 50
1.637241418397253
 51
5.436493113701546
  0
ARC
  5
EF
330
1F
100
AcDbEntity
  8
0
  6
CONTINUOUS
 62
     7
100
AcDbCircle
 10
992.9043583909802
 20
216.5724938677922
 30
0.0
 40
308.2407131438615
100
AcDbArc
 50
181.4620194286127
 51
186.5068697411322
  0
ARC
  5
F0
330
1F
100
AcDbEntity
  8
0
  6
CONTINUOUS
 62
     7
100
AcDbCircle
 10
1082.888373012945
 20
216.2406267336841
 30
0.0
 40
298.227252390039
100
AcDbArc
 50
181.3839338580588
 51
186.7030142153607
  0
ARC
  5
F1
330
1F
100
AcDbEntity
  8
0
  6
CONTINUOUS
 62
     7
100
AcDbCircle
 10
1083.255641700359
 20
216.9323121177082
 30
0.0
 40
308.6127306594003
100
AcDbArc
 50
181.431318110931
 51
186.5948223545972
  0
LINE
  5
F2
330
1F
100
AcDbEntity
  8
0
  6
CONTINUOUS
 62
     7
100
AcDbLine
 10
618.5536413139462
 20
244.3578630770682
 30
0.0
 11
565.5536413139462
 21
244.3578630770682
 31
0.0
  0
ARC
  5
F3
330
1F
100
AcDbEntity
  8
0
  6
CONTINUOUS
 62
     7
100
AcDbCircle
 10
222.3268661401867
 20
194.456699323774
 30
0.0
 40
542.6078229561997
100
AcDbArc
 50
1.587716658870534
 51
5.525308622888247
  0
ARC
  5
F4
330
1F
100
AcDbEntity
  8
0
  6
CONTINUOUS
 62
     7
100
AcDbCircle
 10
1024.855239876739
 20
217.0637631733095
 30
0.0
 40
310.2174386040197
100
AcDbArc
 50
181.4293667817661
 51
186.584228012215
  0
ARC
  5
F5
330
1F
100
AcDbEntity
  8
0
  6
CONTINUOUS
 62
     7
100
AcDbCircle
 10
1050.96820570983
 20
215.7184669946274
 30
0.0
 40
296.2783290031609
100
AcDbArc
 50
181.4267361765122
 51
186.6164154936243
  0
ARC
  5
F6
330
1F
100
AcDbEntity
  8
0
  6
CONTINUOUS
 62
     7
100
AcDbCircle
 10
725.4232978510596
 20
179.3790305146209
 30
0.0
 40
1.522854184137615
100
AcDbArc
 50
317.8929710967387
 51
2.327236708130499
  0
ARC
  5
F7
330
1F
100
AcDbEntity
  8
0
  6
CONTINUOUS
 62
     7
100
AcDbCircle
 10
166.4577227082639
 20
194.041375248452
 30
0.0
 40
548.4896016156439
100
AcDbArc
 50
1.596804248601927
 51
5.509683554591902
  0
ARC
  5
F8
330
1F
100
AcDbEntity
  8
0
  6
CONTINUOUS
 62
     7
100
AcDbCircle
 10
720.4240293628701
 20
249.3370299405678
 30
0.0
 40
1.522063686756216
100
AcDbArc
 50
357.6729962748137
 51
42.11630927467036
  0
ARC
  5
F9
330
1F
100
AcDbEntity
  8
0
  6
CONTINUOUS
 62
     7
100
AcDbCircle
 10
715.4144344368791
 20
179.381684879818
 30
0.0
 40
1.531684988339367
100
AcDbArc
 50
318.0596120392187
 51
2.224953197748051
  0
ARC
  5
FA
330
1F
100
AcDbEntity
  8
0
  6
CONTINUOUS
 62
     7
100
AcDbCircle
 10
113.1513503541125
 20
193.0858694912249
 30
0.0
 40
561.8261304503233
100
AcDbArc
 50
1.612280201103772
 51
5.476554336671709
  0
ARC
  5
FB
330
1F
100
AcDbEntity
  8
0
  6
CONTINUOUS
 62
     7
100
AcDbCircle
 10
994.6212161299503
 20
215.2714469499427
 30
0.0
 40
289.9183824095472
100
AcDbArc
 50
181.4021739275917
 51
186.6800701863409
  0
ARC
  5
FC
330
1F
100
AcDbEntity
  8
0
  6
CONTINUOUS
 62
     7
100
AcDbCircle
 10
114.3769423701997
 20
192.4898491777632
 30
0.0
 40
570.617570468617
100
AcDbArc
 50
1.628681086647646
 51
5.451891639241694
  0
LINE
  5
FD
330
1F
100
AcDbEntity
  8
0
  6
CENTER
 62
     1
100
AcDbLine
 10
552.5536413139462
 20
215.0
 30
0.0
 11
791.5536413139461
 21
215.0
 31
0.0
  0
ARC
  5
FE
330
1F
100
AcDbEntity
  8
0
  6
CONTINUOUS
 62
     7
100
AcDbCircle
 10
170.0537132507826
 20
192.8917277693218
 30
0.0
 40
564.9285096679199
100
AcDbArc
 50
1.621043786630594
 51
5.465819089855018
  0
ARC
  5
FF
330
1F
100
AcDbEntity
  8
0
  6
CONTINUOUS
 62
     7
100
AcDbCircle
 10
110.9172444948775
 20
193.6471437901601
 30
0.0
 40
554.0421965490059
100
AcDbArc
 50
1.604481993313527
 51
5.495341552271669
  0
ARC
  5
100
330
1F
100
AcDbEntity
  8
0
  6
CONTINUOUS
 62
     7
100
AcDbCircle
 10
968.2613921129422
 20
216.6056049010835
 30
0.0
 40
303.6104799341938
100
AcDbArc
 50
181.4051924235154
 51
186.6471909003514
  0
LINE
  5
101
330
1F
100
AcDbEntity
  8
0
  6
CENTER
 62
     1
100
AcDbLine
 10
457.7689591386477
 20
214.3580977870938
 30
0.0
 11
533.7676560889627
 21
214.3580977870938
 31
0.0
  0
ARC
  5
102
330
1F
100
AcDbEntity
  8
0
  6
CONTINUOUS
 62
     7
100
AcDbCircle
 10
1049.467522888837
 20
217.027386293516
 30
0.0
 40
314.8170172532514
100
AcDbArc
 50
181.4842652219349
 51
186.4470250835108
  0
ARC
  5
103
330
1F
100
AcDbEntity
  8
0
  6
CONTINUOUS
 62
     7
100
AcDbCircle
 10
57.92087997323647
 20
191.3331481110203
 30
0.0
 40
587.1092134608882
100
AcDbArc
 50
1.650021113886851
 51
5.411639054824206
  0
ARC
  5
104
330
1F
100
AcDbEntity
  8
0
  6
CONTINUOUS
 62
     7
100
AcDbCircle
 10
224.7557370158031
 20
193.9068193644725
 30
0.0
 40
550.1967066499717
100
AcDbArc
 50
1.59524746446067
 51
5.506425233447203
  0
ARC
  5
105
330
1F
100
AcDbEntity
  8
0
  6
CONTINUOUS
 62
     7
100
AcDbCircle
 10
970.3805717945581
 20
216.0319716600072
 30
0.0
 40
295.711691222681
100
AcDbArc
 50
181.3832829472144
 51
186.7205044811942
  0
ARC
  5
106
330
1F
100
AcDbEntity
  8
0
  6
CONTINUOUS
 62
     7
100
AcDbCircle
 10
168.5407869893102
 20
193.4734785395286
 30
0.0
 40
556.424696890496
100
AcDbArc
 50
1.605008265485822
 51
5.489401333102477
  0
ARC
  5
107
330
1F
100
AcDbEntity
  8
0
  6
CONTINUOUS
 62
     7
100
AcDbCircle
 10
56.97979456154278
 20
192.6573196486563
 30
0.0
 40
568.0106476311378
100
AcDbArc
 50
1.621323862123518
 51
5.459885525274843
  0
ARC
  5
108
330
1F
100
AcDbEntity
  8
0
  6
CONTINUOUS
 62
     7
100
AcDbCircle
 10
116.370922463934
 20
191.2192551769722
 30
0.0
 40
588.6630304941901
100
AcDbArc
 50
1.650771393487389
 51
5.408524715357771
  0
ARC
  5
109
330
1F
100
AcDbEntity
  8
0
  6
CONTINUOUS
 62
     7
100
AcDbCircle
 10
936.4060174814424
 20
216.1202496771551
 30
0.0
 40
301.7292194294208
100
AcDbArc
 50
181.4389728689867
 51
186.5682647031491
  0
ARC
  5
10A
330
1F
100
AcDbEntity
  8
0
  6
CONTINUOUS
 62
     7
100
AcDbCircle
 10
226.3999514016682
 20
193.3322712918559
 30
0.0
 40
558.5690073568061
100
AcDbArc
 50
1.611231601213433
 51
5.48295864728351
  0
LINE
  5
10B
330
1F
100
AcDbEntity
  8
0
  6
CENTER
 62
     1
100
AcDbLine
 10
808.7312057693687
 20
214.3576157080937
 30
0.0
 11
884.7304918174926
 21
214.3576157080937
 31
0.0
  0
LINE
  5
10C
330
1F
100
AcDbEntity
  8
0
  6
CONTINUOUS
 62
     7
100
AcDbLine
 10
565.5536413139462
 20
184.3578630770682
 30
0.0
 11
565.5536413139462
 21
244.3578630770682
 31
0.0
  0
ARC
  5
10D
330
1F
100
AcDbEntity
  8
0
  6
CONTINUOUS
 62
     7
100
AcDbCircle
 10
914.0554993266908
 20
215.5868393662701
 30
0.0
 40
289.3737445753868
100
AcDbArc
 50
181.3580886151532
 51
186.7856679617068
  0
ARC
  5
10E
330
1F
100
AcDbEntity
  8
0
  6
CONTINUOUS
 62
     7
100
AcDbCircle
 10
1081.442056169305
 20
217.5209161138954
 30
0.0
 40
316.8174659412968
100
AcDbArc
 50
181.4523641458552
 51
186.5237104425473
  0
LINE
  5
10F
330
1F
100
AcDbEntity
  8
0
  6
CONTINUOUS
 62
     7
100
AcDbLine
 10
762.4149672362258
 20
246.6944685614127
 30
0.0
 11
761.9447198940833
 21
249.27543391116
 31
0.0
  0
LINE
  5
110
330
1F
100
AcDbEntity
  8
0
  6
CONTINUOUS
 62
     7
100
AcDbLine
 10
702.4144212898699
 20
246.6978288492349
 30
0.0
 11
701.944354202031
 21
249.2779832354554
 31
0.0
  0
LINE
  5
111
330
1F
100
AcDbEntity
  8
0
  6
CONTINUOUS
 62
     7
100
AcDbLine
 10
788.5536413139461
 20
221.8578630770682
 30
0.0
 11
788.5536413139461
 21
247.0075185116972
 31
0.0
  0
LINE
  5
112
330
1F
100
AcDbEntity
  8
0
  6
CONTINUOUS
 62
     7
100
AcDbLine
 10
626.9445287071022
 20
179.439324673256
 30
0.0
 11
627.2027166161254
 21
180.8579036453857
 31
0.0
  0
LINE
  5
113
330
1F
100
AcDbEntity
  8
0
  6
CONTINUOUS
 62
     7
100
AcDbLine
 10
772.4148813416908
 20
246.6948530086821
 30
0.0
 11
771.944618252449
 21
249.2759315100371
 31
0.0
  0
LINE
  5
114
330
1F
100
AcDbEntity
  8
0
  6
CONTINUOUS
 62
     7
100
AcDbLine
 10
782.4141819777017
 20
246.698627468932
 30
0.0
 11
781.9446747924659
 21
249.2755977174105
 31
0.0
  0
LINE
  5
115
330
1F
100
AcDbEntity
  8
0
  6
CONTINUOUS
 62
     7
100
AcDbLine
 10
783.0535897144434
 20
178.3585055627751
 30
0.0
 11
786.553589714434
 21
178.3584975023392
 31
0.0
  0
LINE
  5
116
330
1F
100
AcDbEntity
  8
0
  6
CONTINUOUS
 62
     7
100
AcDbLine
 10
787.5536413139461
 20
181.7082076424392
 30
0.0
 11
788.5536413139461
 21
181.7082076424392
 31
0.0
  0
LINE
  5
117
330
1F
100
AcDbEntity
  8
0
  6
CONTINUOUS
 62
     7
100
AcDbLine
 10
642.414391668969
 20
246.6974675940507
 30
0.0
 11
641.9445475729635
 21
249.2763472370275
 31
0.0
  0
ARC
  5
118
330
1F
100
AcDbEntity
  8
0
  6
CONTINUOUS
 62
     7
100
AcDbCircle
 10
629.9040344121754
 20
249.077939333746
 30
0.0
 40
2.250219262644282
100
AcDbArc
 50
145.3537886026028
 51
174.9266306382792
  0
ARC
  5
119
330
1F
100
AcDbEntity
  8
0
  6
CONTINUOUS
 62
     7
100
AcDbCircle
 10
625.0364234725479
 20
179.6866036524787
 30
0.0
 40
2.386703688305002
100
AcDbArc
 50
185.9594839072907
 51
213.8119991185614
  0
LINE
  5
11A
330
1F
100
AcDbEntity
  8
0
  6
CONTINUOUS
 62
     7
100
AcDbLine
 10
636.944471288324
 20
179.4389854870355
 30
0.0
 11
637.2027169669805
 21
180.8579031420593
 31
0.0
  0
LINE
  5
11B
330
1F
100
AcDbEntity
  8
0
  6
CONTINUOUS
 62
     7
100
AcDbLine
 10
652.4148329858456
 20
246.6950908752772
 30
0.0
 11
651.9445297520267
 21
249.2765237375438
 31
0.0
  0
LINE
  5
11C
330
1F
100
AcDbEntity
  8
0
  6
CONTINUOUS
 62
     7
100
AcDbLine
 10
773.0534391146184
 20
178.3584144314972
 30
0.0
 11
776.553439114609
 21
178.3584063710409
 31
0.0
  0
LINE
  5
11D
330
1F
100
AcDbEntity
  8
0
  6
CONTINUOUS
 62
     7
100
AcDbLine
 10
622.2054363102474
 20
247.8429343775746
 30
0.0
 11
627.6603424988203
 21
247.842934377574
 31
0.0
  0
LINE
  5
11E
330
1F
100
AcDbEntity
  8
0
  6
CONTINUOUS
 62
     7
100
AcDbLine
 10
763.0530960070303
 20
178.3583013416933
 30
0.0
 11
766.5530960070206
 21
178.3582932812117
 31
0.0
  0
LINE
  5
11F
330
1F
100
AcDbEntity
  8
0
  6
CONTINUOUS
 62
     7
100
AcDbLine
 10
753.0533587300481
 20
178.3581729312567
 30
0.0
 11
756.5533587300386
 21
178.3581648707464
 31
0.0
  0
LINE
  5
120
330
1F
100
AcDbEntity
  8
0
  6
CONTINUOUS
 62
     7
100
AcDbLine
 10
743.0535640744274
 20
178.3580539614724
 30
0.0
 11
746.5535640744182
 21
178.3580459009354
 31
0.0
  0
LINE
  5
121
330
1F
100
AcDbEntity
  8
0
  6
CONTINUOUS
 62
     7
100
AcDbLine
 10
696.9443145892002
 20
179.4375441210965
 30
0.0
 11
697.2028149488256
 21
180.8579009970399
 31
0.0
  0
LINE
  5
122
330
1F
100
AcDbEntity
  8
0
  6
CONTINUOUS
 62
     7
100
AcDbLine
 10
787.4057612929797
 20
247.8429305494099
 30
0.0
 11
787.5536413139461
 21
248.6551846161676
 31
0.0
  0
LINE
  5
123
330
1F
100
AcDbEntity
  8
0
  6
CONTINUOUS
 62
     7
100
AcDbLine
 10
752.4144906859082
 20
246.6971850600534
 30
0.0
 11
751.9447472226808
 21
249.2753776400407
 31
0.0
  0
LINE
  5
124
330
1F
100
AcDbEntity
  8
0
  6
CONTINUOUS
 62
     7
100
AcDbLine
 10
733.0530536248434
 20
178.3579697069221
 30
0.0
 11
736.5530536248339
 21
178.3579616463662
 31
0.0
  0
LINE
  5
125
330
1F
100
AcDbEntity
  8
0
  6
CONTINUOUS
 62
     7
100
AcDbLine
 10
756.9447479805939
 20
179.4404032181962
 30
0.0
 11
757.2027474348275
 21
180.8579044798765
 31
0.0
  0
LINE
  5
126
330
1F
100
AcDbEntity
  8
0
  6
CONTINUOUS
 62
     7
100
AcDbLine
 10
723.0530936074731
 20
178.3579379851376
 30
0.0
 11
726.553093607464
 21
178.3579299245746
 31
0.0
  0
LINE
  5
127
330
1F
100
AcDbEntity
  8
0
  6
CONTINUOUS
 62
     7
100
AcDbLine
 10
676.944460807158
 20
179.4385369561373
 30
0.0
 11
677.2037450189464
 21
180.8632114240663
 31
0.0
  0
LINE
  5
128
330
1F
100
AcDbEntity
  8
0
  6
CONTINUOUS
 62
     7
100
AcDbLine
 10
692.4141258608563
 20
246.6993578280214
 30
0.0
 11
691.9443359598417
 21
249.2780311255869
 31
0.0
  0
LINE
  5
129
330
1F
100
AcDbEntity
  8
0
  6
CONTINUOUS
 62
     7
100
AcDbLine
 10
672.413785158359
 20
246.7010036579083
 30
0.0
 11
671.9443337005864
 21
249.2778281097144
 31
0.0
  0
LINE
  5
12A
330
1F
100
AcDbEntity
  8
0
  6
CONTINUOUS
 62
     7
100
AcDbLine
 10
686.9443896477029
 20
179.4380348844592
 30
0.0
 11
687.202797840145
 21
180.857901798757
 31
0.0
  0
LINE
  5
12B
330
1F
100
AcDbEntity
  8
0
  6
CONTINUOUS
 62
     7
100
AcDbLine
 10
742.4138583827001
 20
246.7007617972871
 30
0.0
 11
741.9446263769396
 21
249.2761582282982
 31
0.0
  0
LINE
  5
12C
330
1F
100
AcDbEntity
  8
0
  6
CONTINUOUS
 62
     7
100
AcDbLine
 10
713.0537639103202
 20
178.3579804694357
 30
0.0
 11
716.553763910311
 21
178.3579724088823
 31
0.0
  0
LINE
  5
12D
330
1F
100
AcDbEntity
  8
0
  6
CONTINUOUS
 62
     7
100
AcDbLine
 10
703.0530942052532
 20
178.3580742362021
 30
0.0
 11
706.5530942052438
 21
178.3580661756696
 31
0.0
  0
LINE
  5
12E
330
1F
100
AcDbEntity
  8
0
  6
CONTINUOUS
 62
     7
100
AcDbLine
 10
726.9447846837003
 20
179.4402563732211
 30
0.0
 11
727.2028086760882
 21
180.8579048300882
 31
0.0
  0
LINE
  5
12F
330
1F
100
AcDbEntity
  8
0
  6
CONTINUOUS
 62
     7
100
AcDbLine
 10
693.0531993508844
 20
178.3581947878602
 30
0.0
 11
696.553199350875
 21
178.3581867273548
 31
0.0
  0
LINE
  5
130
330
1F
100
AcDbEntity
  8
0
  6
CONTINUOUS
 62
     7
100
AcDbLine
 10
683.0538238099103
 20
178.3583224806075
 30
0.0
 11
686.553823809901
 21
178.3583144201306
 31
0.0
  0
LINE
  5
131
330
1F
100
AcDbEntity
  8
0
  6
CONTINUOUS
 62
     7
100
AcDbLine
 10
673.0530156187881
 20
178.3584335380672
 30
0.0
 11
676.553015618779
 21
178.3584254776152
 31
0.0
  0
LINE
  5
132
330
1F
100
AcDbEntity
  8
0
  6
CONTINUOUS
 62
     7
100
AcDbLine
 10
663.053462773589
 20
178.3585190856176
 30
0.0
 11
666.5534627735798
 21
178.3585110251847
 31
0.0
  0
LINE
  5
133
330
1F
100
AcDbEntity
  8
0
  6
CONTINUOUS
 62
     7
100
AcDbLine
 10
653.0536125114139
 20
178.3585694574865
 30
0.0
 11
656.5536125114046
 21
178.3585613970649
 31
0.0
  0
LINE
  5
134
330
1F
100
AcDbEntity
  8
0
  6
CONTINUOUS
 62
     7
100
AcDbLine
 10
666.944311456239
 20
179.4378365667515
 30
0.0
 11
667.2027562624469
 21
180.8579015056638
 31
0.0
  0
LINE
  5
135
330
1F
100
AcDbEntity
  8
0
  6
CONTINUOUS
 62
     7
100
AcDbLine
 10
632.4140287927671
 20
246.6994496624787
 30
0.0
 11
631.9444898203216
 21
249.2766220134849
 31
0.0
  0
LINE
  5
136
330
1F
100
AcDbEntity
  8
0
  6
CONTINUOUS
 62
     7
100
AcDbLine
 10
782.2054712576626
 20
247.8429343775746
 30
0.0
 11
787.5536413139461
 21
247.8429343775746
 31
0.0
  0
LINE
  5
137
330
1F
100
AcDbEntity
  8
0
  6
CONTINUOUS
 62
     7
100
AcDbLine
 10
712.4142596662579
 20
246.6987601773478
 30
0.0
 11
711.9446781349627
 21
249.2761859060494
 31
0.0
  0
ARC
  5
138
330
1F
100
AcDbEntity
  8
0
  6
CONTINUOUS
 62
     7
100
AcDbCircle
 10
634.7605049520387
 20
179.5872642425359
 30
0.0
 40
2.103119073034167
100
AcDbArc
 50
184.0459259309575
 51
215.7490516250456
  0
LINE
  5
139
330
1F
100
AcDbEntity
  8
0
  6
CONTINUOUS
 62
     7
100
AcDbLine
 10
788.5536413139461
 20
181.7082076424392
 30
0.0
 11
788.5536413139461
 21
206.8578630770682
 31
0.0
  0
LINE
  5
13A
330
1F
100
AcDbEntity
  8
0
  6
CONTINUOUS
 62
     7
100
AcDbLine
 10
736.9433276737211
 20
179.432377525635
 30
0.0
 11
737.202788226164
 21
180.8578975339379
 31
0.0
  0
LINE
  5
13B
330
1F
100
AcDbEntity
  8
0
  6
CONTINUOUS
 62
     7
100
AcDbLine
 10
788.5536413139461
 20
206.8578630770682
 30
0.0
 11
787.5536413139461
 21
206.8578630770682
 31
0.0
  0
LINE
  5
13C
330
1F
100
AcDbEntity
  8
0
  6
CONTINUOUS
 62
     7
100
AcDbLine
 10
787.5536413139461
 20
247.0075185116972
 30
0.0
 11
788.5536413139461
 21
247.0075185116972
 31
0.0
  0
LINE
  5
13D
330
1F
100
AcDbEntity
  8
0
  6
CONTINUOUS
 62
     7
100
AcDbLine
 10
646.9444517820598
 20
179.4388165649495
 30
0.0
 11
647.2027243138455
 21
180.8579029395371
 31
0.0
  0
LINE
  5
13E
330
1F
100
AcDbEntity
  8
0
  6
CONTINUOUS
 62
     7
100
AcDbLine
 10
622.4138382563402
 20
246.700525994997
 30
0.0
 11
621.9445768329551
 21
249.2761404178621
 31
0.0
  0
LINE
  5
13F
330
1F
100
AcDbEntity
  8
0
  6
CONTINUOUS
 62
     7
100
AcDbLine
 10
662.4142669847427
 20
246.6982663026027
 30
0.0
 11
661.9434526051049
 21
249.2825505063398
 31
0.0
  0
LINE
  5
140
330
1F
100
AcDbEntity
  8
0
  6
CONTINUOUS
 62
     7
100
AcDbLine
 10
632.2054330437954
 20
247.8429343775746
 30
0.0
 11
637.6603602345195
 21
247.8429343775746
 31
0.0
  0
LINE
  5
141
330
1F
100
AcDbEntity
  8
0
  6
CONTINUOUS
 62
     7
100
AcDbLine
 10
776.9445692699672
 20
179.439541613235
 30
0.0
 11
777.2027200228872
 21
180.8579038572312
 31
0.0
  0
LINE
  5
142
330
1F
100
AcDbEntity
  8
0
  6
CONTINUOUS
 62
     7
100
AcDbLine
 10
766.9446730939321
 20
179.4400701225397
 30
0.0
 11
767.2027308981
 21
180.8579044194673
 31
0.0
  0
LINE
  5
143
330
1F
100
AcDbEntity
  8
0
  6
CONTINUOUS
 62
     7
100
AcDbLine
 10
746.9447070778459
 20
179.4400716288974
 30
0.0
 11
747.2019390853883
 21
180.8533550888533
 31
0.0
  0
LINE
  5
144
330
1F
100
AcDbEntity
  8
0
  6
CONTINUOUS
 62
     7
100
AcDbLine
 10
706.94447948824
 20
179.438430473023
 30
0.0
 11
707.202824354631
 21
180.8579013681594
 31
0.0
  0
LINE
  5
145
330
1F
100
AcDbEntity
  8
0
  6
CONTINUOUS
 62
     7
100
AcDbLine
 10
656.9442701316079
 20
179.4377238229671
 30
0.0
 11
657.2027379309484
 21
180.857901939098
 31
0.0
  0
LINE
  5
146
330
1F
100
AcDbEntity
  8
0
  6
CONTINUOUS
 62
     7
100
AcDbLine
 10
772.2054418793998
 20
247.8429343775746
 30
0.0
 11
777.6603299740716
 21
247.8429343775746
 31
0.0
  0
LINE
  5
147
330
1F
100
AcDbEntity
  8
0
  6
CONTINUOUS
 62
     7
100
AcDbLine
 10
682.4134421046426
 20
246.7029926293393
 30
0.0
 11
681.9444432213065
 21
249.2773438663999
 31
0.0
  0
LINE
  5
148
330
1F
100
AcDbEntity
  8
0
  6
CONTINUOUS
 62
     7
100
AcDbLine
 10
787.5536413139461
 20
206.8578630770682
 30
0.0
 11
787.5536413139461
 21
221.8578630770682
 31
0.0
  0
LINE
  5
149
330
1F
100
AcDbEntity
  8
0
  6
CONTINUOUS
 62
     7
100
AcDbLine
 10
787.5536413139461
 20
180.8578630770682
 30
0.0
 11
787.5536413139461
 21
181.7082076424392
 31
0.0
  0
LINE
  5
14A
330
1F
100
AcDbEntity
  8
0
  6
CONTINUOUS
 62
     7
100
AcDbLine
 10
786.9445502266112
 20
179.439439063891
 30
0.0
 11
787.202715900821
 21
180.8579035610734
 31
0.0
  0
LINE
  5
14B
330
1F
100
AcDbEntity
  8
0
  6
CONTINUOUS
 62
     7
100
AcDbLine
 10
722.4148594599142
 20
246.6954575224969
 30
0.0
 11
721.944829753935
 21
249.2752748988873
 31
0.0
  0
LINE
  5
14C
330
1F
100
AcDbEntity
  8
0
  6
CONTINUOUS
 62
     7
100
AcDbLine
 10
787.5536413139461
 20
221.8578630770682
 30
0.0
 11
788.5536413139461
 21
221.8578630770682
 31
0.0
  0
LINE
  5
14D
330
1F
100
AcDbEntity
  8
0
  6
CONTINUOUS
 62
     7
100
AcDbLine
 10
716.9448548926327
 20
179.4405452088011
 30
0.0
 11
717.2028219186952
 21
180.8579037093512
 31
0.0
  0
LINE
  5
14E
330
1F
100
AcDbEntity
  8
0
  6
CONTINUOUS
 62
     7
100
AcDbLine
 10
732.4141201540928
 20
246.6994326865412
 30
0.0
 11
731.9445726468042
 21
249.2765770352787
 31
0.0
  0
ARC
  5
14F
330
1F
100
AcDbEntity
  8
0
  6
CONTINUOUS
 62
     7
100
AcDbCircle
 10
640.3549402417145
 20
249.3122322659831
 30
0.0
 40
1.590109826726907
100
AcDbArc
 50
358.6896648730759
 51
41.08257897773274
  0
ARC
  5
150
330
1F
100
AcDbEntity
  8
0
  6
CONTINUOUS
 62
     7
100
AcDbCircle
 10
1167.480057562426
 20
234.6370877578406
 30
0.0
 40
547.8196589320679
100
AcDbArc
 50
181.5936394557526
 51
185.5125819055812
  0
ARC
  5
151
330
1F
100
AcDbEntity
  8
0
  6
CONTINUOUS
 62
     7
100
AcDbCircle
 10
649.3785467425085
 20
249.2681437968445
 30
0.0
 40
1.71506981553934
100
AcDbArc
 50
140.5828803274596
 51
179.5483829313308
  0
ARC
  5
152
330
1F
100
AcDbEntity
  8
0
  6
CONTINUOUS
 62
     7
100
AcDbCircle
 10
644.5123180979284
 20
179.4963009089103
 30
0.0
 40
1.850538804560447
100
AcDbArc
 50
181.7831473392148
 51
217.9376662704634
  0
ARC
  5
153
330
1F
100
AcDbEntity
  8
0
  6
CONTINUOUS
 62
     7
100
AcDbCircle
 10
1221.656972804501
 20
236.3422700596773
 30
0.0
 40
572.0489263893337
100
AcDbArc
 50
181.6269739072827
 51
185.4498902921153
  0
ARC
  5
154
330
1F
100
AcDbEntity
  8
0
  6
CONTINUOUS
 62
     7
100
AcDbCircle
 10
639.6301598098122
 20
249.1761767462729
 30
0.0
 40
1.969912123105007
100
AcDbArc
 50
143.1651916090338
 51
177.0293590073901
  0
ARC
  5
155
330
1F
100
AcDbEntity
  8
0
  6
CONTINUOUS
 62
     7
100
AcDbCircle
 10
645.2447545707623
 20
179.4440319802583
 30
0.0
 40
1.699791809368017
100
AcDbArc
 50
320.3137927969813
 51
359.8405268871598
  0
ARC
  5
156
330
1F
100
AcDbEntity
  8
0
  6
CONTINUOUS
 62
     7
100
AcDbCircle
 10
1280.247352702249
 20
236.2221162731761
 30
0.0
 40
570.6345085359354
100
AcDbArc
 50
181.6291466975001
 51
185.4511256961508
  0
ARC
  5
157
330
1F
100
AcDbEntity
  8
0
  6
CONTINUOUS
 62
     7
100
AcDbCircle
 10
1282.787985735001
 20
234.2976452706068
 30
0.0
 40
543.1167534987735
100
AcDbArc
 50
181.588643677046
 51
185.524487042175
  0
ARC
  5
158
330
1F
100
AcDbEntity
  8
0
  6
CONTINUOUS
 62
     7
100
AcDbCircle
 10
1337.6662417753
 20
235.3596040389124
 30
0.0
 40
558.0282729829015
100
AcDbArc
 50
181.6068545905124
 51
185.4858577660185
  0
ARC
  5
159
330
1F
100
AcDbEntity
  8
0
  6
CONTINUOUS
 62
     7
100
AcDbCircle
 10
342.2885026884609
 20
212.2144221518622
 30
0.0
 40
307.6512497556133
100
AcDbArc
 50
1.468837670676686
 51
6.504916332852987
  0
ARC
  5
15A
330
1F
100
AcDbEntity
  8
0
  6
CONTINUOUS
 62
     7
100
AcDbCircle
 10
366.2405058179435
 20
212.1021508759654
 30
0.0
 40
303.7155889711214
100
AcDbArc
 50
1.408407167667352
 51
6.646802013694253
  0
ARC
  5
15B
330
1F
100
AcDbEntity
  8
0
  6
CONTINUOUS
 62
     7
100
AcDbCircle
 10
1225.966002150223
 20
234.5352820917328
 30
0.0
 40
546.3029625711974
100
AcDbArc
 50
181.5895333647173
 51
185.517011765394
  0
ARC
  5
15C
330
1F
100
AcDbEntity
  8
0
  6
CONTINUOUS
 62
     7
100
AcDbCircle
 10
398.9474228193513
 20
213.3501398981473
 30
0.0
 40
290.9609281121346
100
AcDbArc
 50
1.398270567312822
 51
6.674370228982773
  0
ARC
  5
15D
330
1F
100
AcDbEntity
  8
0
  6
CONTINUOUS
 62
     7
100
AcDbCircle
 10
1278.192375099096
 20
236.7929011284548
 30
0.0
 40
578.5978407286084
100
AcDbArc
 50
181.6368796602322
 51
185.4326434696796
  0
ARC
  5
15E
330
1F
100
AcDbEntity
  8
0
  6
CONTINUOUS
 62
     7
100
AcDbCircle
 10
1276.94126985907
 20
237.3885723607376
 30
0.0
 40
587.3638449941301
100
AcDbArc
 50
181.6525252311501
 51
185.4097061624074
  0
ARC
  5
15F
330
1F
100
AcDbEntity
  8
0
  6
CONTINUOUS
 62
     7
100
AcDbCircle
 10
1279.690754821264
 20
235.4897311715767
 30
0.0
 40
560.0561445618318
100
AcDbArc
 50
181.612259713701
 51
185.47915438149
  0
ARC
  5
160
330
1F
100
AcDbEntity
  8
0
  6
CONTINUOUS
 62
     7
100
AcDbCircle
 10
1335.998916544189
 20
236.6294290235148
 30
0.0
 40
576.3985477926253
100
AcDbArc
 50
181.6369676371804
 51
185.4373770913191
  0
ARC
  5
161
330
1F
100
AcDbEntity
  8
0
  6
CONTINUOUS
 62
     7
100
AcDbCircle
 10
424.3843610512236
 20
211.2696807476877
 30
0.0
 40
315.5963033146134
100
AcDbArc
 50
1.447245404169546
 51
6.537398645966589
  0
ARC
  5
162
330
1F
100
AcDbEntity
  8
0
  6
CONTINUOUS
 62
     7
100
AcDbCircle
 10
1333.443492350045
 20
237.1758260058755
 30
0.0
 40
583.8609319459431
100
AcDbArc
 50
181.6435608583322
 51
185.4221077467764
  0
ARC
  5
163
330
1F
100
AcDbEntity
  8
0
  6
CONTINUOUS
 62
     7
100
AcDbCircle
 10
456.1100564728771
 20
211.7655074432011
 30
0.0
 40
313.8437666852337
100
AcDbArc
 50
1.484708306230674
 51
6.453497552531791
  0
ARC
  5
164
330
1F
100
AcDbEntity
  8
0
  6
CONTINUOUS
 62
     7
100
AcDbCircle
 10
1170.019101482673
 20
234.1180326627807
 30
0.0
 40
540.3433946303567
100
AcDbArc
 50
181.580352475436
 51
185.5337601682084
  0
ARC
  5
165
330
1F
100
AcDbEntity
  8
0
  6
CONTINUOUS
 62
     7
100
AcDbCircle
 10
456.5775396194741
 20
212.5033712406403
 30
0.0
 40
303.3547967668664
100
AcDbArc
 50
1.446987295915924
 51
6.546762500547346
  0
ARC
  5
166
330
1F
100
AcDbEntity
  8
0
  6
CONTINUOUS
 62
     7
100
AcDbCircle
 10
1335.444332382408
 20
235.8954338750657
 30
0.0
 40
565.8220876856291
100
AcDbArc
 50
181.6202103774148
 51
185.464494346327
  0
ARC
  5
167
330
1F
100
AcDbEntity
  8
0
  6
CONTINUOUS
 62
     7
100
AcDbCircle
 10
400.0210604148102
 20
212.0468748373798
 30
0.0
 40
309.9244776056275
100
AcDbArc
 50
1.470252529891629
 51
6.485630791592316
  0
ARC
  5
168
330
1F
100
AcDbEntity
  8
0
  6
CONTINUOUS
 62
     7
100
AcDbCircle
 10
775.2154374118603
 20
179.7514399389057
 30
0.0
 40
2.571916942883989
100
AcDbArc
 50
186.9774301419433
 51
212.7946196270774
  0
ARC
  5
169
330
1F
100
AcDbEntity
  8
0
  6
CONTINUOUS
 62
     7
100
AcDbCircle
 10
1220.393673710139
 20
236.9372339893621
 30
0.0
 40
580.8026763069269
100
AcDbArc
 50
181.6428909428809
 51
185.4264859015758
  0
ARC
  5
16A
330
1F
100
AcDbEntity
  8
0
  6
CONTINUOUS
 62
     7
100
AcDbCircle
 10
455.122472079807
 20
213.1122003044161
 30
0.0
 40
294.7911251387573
100
AcDbArc
 50
1.422389786427873
 51
6.628113701833716
  0
ARC
  5
16B
330
1F
100
AcDbEntity
  8
0
  6
CONTINUOUS
 62
     7
100
AcDbCircle
 10
-137.3271222615062
 20
186.9775601246099
 30
0.0
 40
757.8933208736048
100
AcDbArc
 50
2.451984283962829
 51
4.176417130397271
  0
ARC
  5
16C
330
1F
100
AcDbEntity
  8
0
  6
CONTINUOUS
 62
     7
100
AcDbCircle
 10
734.1948657111573
 20
179.3818247468556
 30
0.0
 40
1.533627710241928
100
AcDbArc
 50
177.8220815311297
 51
221.882360766923
  0
ARC
  5
16D
330
1F
100
AcDbEntity
  8
0
  6
CONTINUOUS
 62
     7
100
AcDbCircle
 10
1223.815790642982
 20
235.777029206882
 30
0.0
 40
564.1896042083672
100
AcDbArc
 50
181.6192961485967
 51
185.4682921522891
  0
ARC
  5
16E
330
1F
100
AcDbEntity
  8
0
  6
CONTINUOUS
 62
     7
100
AcDbCircle
 10
729.1885163156112
 20
249.3353190674991
 30
0.0
 40
1.527518707247607
100
AcDbArc
 50
137.9820878598047
 51
182.2720800858106
  0
ARC
  5
16F
330
1F
100
AcDbEntity
  8
0
  6
CONTINUOUS
 62
     7
100
AcDbCircle
 10
479.9622351236573
 20
212.3844213887091
 30
0.0
 40
299.9846707474257
100
AcDbArc
 50
1.399638189507332
 51
6.677892950747896
  0
ARC
  5
170
330
1F
100
AcDbEntity
  8
0
  6
CONTINUOUS
 62
     7
100
AcDbCircle
 10
635.4672614314445
 20
179.3624212260894
 30
0.0
 40
1.47919485155352
100
AcDbArc
 50
317.260293603101
 51
2.967356898353046
  0
ARC
  5
171
330
1F
100
AcDbEntity
  8
0
  6
CONTINUOUS
 62
     7
100
AcDbCircle
 10
366.9370117171742
 20
211.476878065627
 30
0.0
 40
313.0360600055417
100
AcDbArc
 50
1.446932263644978
 51
6.553656770409074
  0
ARC
  5
172
330
1F
100
AcDbEntity
  8
0
  6
CONTINUOUS
 62
     7
100
AcDbCircle
 10
1281.932234476024
 20
234.9558174419832
 30
0.0
 40
552.2819831069179
100
AcDbArc
 50
181.5988102045834
 51
185.5010675860656
  0
ARC
  5
173
330
1F
100
AcDbEntity
  8
0
  6
CONTINUOUS
 62
     7
100
AcDbCircle
 10
659.1588779554733
 20
249.3469143935599
 30
0.0
 40
1.497941310781712
100
AcDbArc
 50
137.5898906907244
 51
182.6960171220496
  0
ARC
  5
174
330
1F
100
AcDbEntity
  8
0
  6
CONTINUOUS
 62
     7
100
AcDbCircle
 10
367.1279533019228
 20
212.865702306698
 30
0.0
 40
292.8064680245371
100
AcDbArc
 50
1.363670673691925
 51
6.754995955106675
  0
ARC
  5
175
330
1F
100
AcDbEntity
  8
0
  6
CONTINUOUS
 62
     7
100
AcDbCircle
 10
422.6482433303613
 20
212.551700541884
 30
0.0
 40
297.2948118083893
100
AcDbArc
 50
1.383998439291245
 51
6.709820722179072
  0
ARC
  5
176
330
1F
100
AcDbEntity
  8
0
  6
CONTINUOUS
 62
     7
100
AcDbCircle
 10
423.4717405577823
 20
211.9321832551794
 30
0.0
 40
306.4881199330636
100
AcDbArc
 50
1.423619548835048
 51
6.614718651383856
  0
ARC
  5
177
330
1F
100
AcDbEntity
  8
0
  6
CONTINUOUS
 62
     7
100
AcDbCircle
 10
784.9300046659199
 20
179.6485229540129
 30
0.0
 40
2.277076632786446
100
AcDbArc
 50
185.2785783721181
 51
214.5081518928238
  0
ARC
  5
178
330
1F
100
AcDbEntity
  8
0
  6
CONTINUOUS
 62
     7
100
AcDbCircle
 10
780.075323437839
 20
249.0156011738078
 30
0.0
 40
2.426820862813943
100
AcDbArc
 50
146.437512288889
 51
173.8192214495
  0
ARC
  5
179
330
1F
100
AcDbEntity
  8
0
  6
CONTINUOUS
 62
     7
100
AcDbCircle
 10
744.1859843995371
 20
179.3788942706935
 30
0.0
 40
1.524628062726122
100
AcDbArc
 50
177.7415801418688
 51
222.0336378094415
  0
ARC
  5
17A
330
1F
100
AcDbEntity
  8
0
  6
CONTINUOUS
 62
     7
100
AcDbCircle
 10
739.1926842455804
 20
249.3346179822709
 30
0.0
 40
1.531414784018525
100
AcDbArc
 50
138.0812851413406
 51
182.1964525506253
  0
ARC
  5
17B
330
1F
100
AcDbEntity
  8
0
  6
CONTINUOUS
 62
     7
100
AcDbCircle
 10
654.2654603069745
 20
179.4079621782865
 30
0.0
 40
1.603059614781372
100
AcDbArc
 50
178.9016860626606
 51
220.8907402953091
  0
ARC
  5
17C
330
1F
100
AcDbEntity
  8
0
  6
CONTINUOUS
 62
     7
100
AcDbCircle
 10
342.5960737315654
 20
212.9032734829991
 30
0.0
 40
297.3253364423267
100
AcDbArc
 50
1.42276226143208
 51
6.610923525604239
  0
ARC
  5
17D
330
1F
100
AcDbEntity
  8
0
  6
CONTINUOUS
 62
     7
100
AcDbCircle
 10
310.2595615820077
 20
211.01576486304
 30
0.0
 40
319.7268502156066
100
AcDbArc
 50
1.46965829758406
 51
6.493089554624402
  0
ARC
  5
17E
330
1F
100
AcDbEntity
  8
0
  6
CONTINUOUS
 62
     7
100
AcDbCircle
 10
398.7377587580556
 20
212.6646811430035
 30
0.0
 40
301.1887964353632
100
AcDbArc
 50
1.446020576731588
 51
6.5657205046987
  0
ARC
  5
17F
330
1F
100
AcDbEntity
  8
0
  6
CONTINUOUS
 62
     7
100
AcDbCircle
 10
1223.419264581597
 20
235.0528763723944
 30
0.0
 40
553.771489100825
100
AcDbArc
 50
181.6024357873175
 51
185.4961735652614
  0
LINE
  5
180
330
1F
100
AcDbEntity
  8
0
  6
CONTINUOUS
 62
     7
100
AcDbLine
 10
626.9942797462664
 20
180.8578630770682
 30
0.0
 11
632.4043770229327
 21
180.8578630770682
 31
0.0
  0
LINE
  5
181
330
1F
100
AcDbEntity
  8
0
  6
CONTINUOUS
 62
     7
100
AcDbLine
 10
786.9942890566651
 20
180.8578630770682
 30
0.0
 11
787.5536413139461
 21
180.8578630770682
 31
0.0
  0
LINE
  5
182
330
1F
100
AcDbEntity
  8
0
  6
CONTINUOUS
 62
     7
100
AcDbLine
 10
767.61281835451
 20
247.8578630770682
 30
0.0
 11
762.2027385565586
 21
247.8578630770682
 31
0.0
  0
LINE
  5
183
330
1F
100
AcDbEntity
  8
0
  6
CONTINUOUS
 62
     7
100
AcDbLine
 10
845.7310874903667
 20
247.5578630770682
 30
0.0
 11
847.7310874903667
 21
247.5578630770682
 31
0.0
  0
CIRCLE
  5
184
330
1F
100
AcDbEntity
  8
0
  6
CONTINUOUS
 62
     7
100
AcDbCircle
 10
495.7689125096333
 20
214.3578630770682
 30
0.0
 40
28.0
  0
LINE
  5
185
330
1F
100
AcDbEntity
  8
0
  6
CONTINUOUS
 62
     7
100
AcDbLine
 10
736.9943373264267
 20
180.8578630770682
 30
0.0
 11
742.404299883573
 21
180.8578630770682
 31
0.0
  0
LINE
  5
186
330
1F
100
AcDbEntity
  8
0
  6
CONTINUOUS
 62
     7
100
AcDbLine
 10
776.9942900248969
 20
180.8578630770682
 30
0.0
 11
782.4043648245654
 21
180.8578630770682
 31
0.0
  0
ARC
  5
187
330
1F
100
AcDbEntity
  8
0
  6
CONTINUOUS
 62
     7
100
AcDbCircle
 10
495.7689125096333
 20
214.3578630770682
 30
0.0
 40
33.5
100
AcDbArc
 50
213.8655334241359
 51
56.1304042108431
  0
LINE
  5
188
330
1F
100
AcDbEntity
  8
0
  6
CONTINUOUS
 62
     7
100
AcDbLine
 10
707.6127746109083
 20
247.8578630770682
 30
0.0
 11
702.2028208827282
 21
247.8578630770682
 31
0.0
  0
LINE
  5
189
330
1F
100
AcDbEntity
  8
0
  6
CONTINUOUS
 62
     7
100
AcDbLine
 10
687.6128219287061
 20
247.8578630770682
 30
0.0
 11
682.2027876892464
 21
247.8578630770682
 31
0.0
  0
LINE
  5
18A
330
1F
100
AcDbEntity
  8
0
  6
CONTINUOUS
 62
     7
100
AcDbLine
 10
767.662824672502
 20
249.2781878327745
 30
0.0
 11
767.4043331755762
 21
247.8578247123138
 31
0.0
  0
LINE
  5
18B
330
1F
100
AcDbEntity
  8
0
  6
CONTINUOUS
 62
     7
100
AcDbLine
 10
717.6127892161537
 20
247.8578630770682
 30
0.0
 11
712.2028222755667
 21
247.8578630770682
 31
0.0
  0
LINE
  5
18C
330
1F
100
AcDbEntity
  8
0
  6
CONTINUOUS
 62
     7
100
AcDbLine
 10
777.6627063371346
 20
249.2774207001119
 30
0.0
 11
777.4016373852779
 21
247.8429133198645
 31
0.0
  0
CIRCLE
  5
18D
330
1F
100
AcDbEntity
  8
0
  6
CONTINUOUS
 62
     7
100
AcDbCircle
 10
495.7689125096333
 20
214.3578630770682
 30
0.0
 40
30.0
  0
ARC
  5
18E
330
1F
100
AcDbEntity
  8
0
  6
CONTINUOUS
 62
     7
100
AcDbCircle
 10
489.0116532173868
 20
219.9464630556776
 30
0.0
 40
33.77214288135651
100
AcDbArc
 50
41.15800233431553
 51
58.02584231601278
  0
LINE
  5
18F
330
1F
100
AcDbEntity
  8
0
  6
CONTINUOUS
 62
     7
100
AcDbLine
 10
854.2310874903668
 20
243.806001162859
 30
0.0
 11
854.2310874903668
 21
248.6551846161676
 31
0.0
  0
LINE
  5
190
330
1F
100
AcDbEntity
  8
0
  6
CONTINUOUS
 62
     7
100
AcDbLine
 10
726.9943634328746
 20
180.8578630770682
 30
0.0
 11
732.4042644842217
 21
180.8578630770682
 31
0.0
  0
LINE
  5
191
330
1F
100
AcDbEntity
  8
0
  6
CONTINUOUS
 62
     7
100
AcDbLine
 10
706.9943299328708
 20
180.8578630770682
 30
0.0
 11
712.4043394634664
 21
180.8578630770682
 31
0.0
  0
LINE
  5
192
330
1F
100
AcDbEntity
  8
0
  6
CONTINUOUS
 62
     7
100
AcDbLine
 10
666.9942797091112
 20
180.8578630770682
 30
0.0
 11
672.404406070395
 21
180.8578630770682
 31
0.0
  0
LINE
  5
193
330
1F
100
AcDbEntity
  8
0
  6
CONTINUOUS
 62
     7
100
AcDbLine
 10
746.9943368095712
 20
180.8578630770682
 30
0.0
 11
752.4043107981621
 21
180.8578630770682
 31
0.0
  0
CIRCLE
  5
194
330
1F
100
AcDbEntity
  8
0
  6
CONTINUOUS
 62
     7
100
AcDbCircle
 10
495.7689125096333
 20
214.3578630770682
 30
0.0
 40
30.40000000000001
  0
ARC
  5
195
330
1F
100
AcDbEntity
  8
0
  6
CONTINUOUS
 62
     7
100
AcDbCircle
 10
495.7676998286994
 20
214.3580300930867
 30
0.0
 40
35.9987495226528
100
AcDbArc
 50
107.9952653405967
 51
198.0019915884478
  0
LINE
  5
196
330
1F
100
AcDbEntity
  8
0
  6
CONTINUOUS
 62
     7
100
AcDbLine
 10
879.3807429249957
 20
221.8578630770682
 30
0.0
 11
876.1792255761561
 21
221.8578630770682
 31
0.0
  0
LINE
  5
197
330
1F
100
AcDbEntity
  8
0
  6
CONTINUOUS
 62
     7
100
AcDbLine
 10
766.9943122291377
 20
180.8578630770682
 30
0.0
 11
772.404343793512
 21
180.8578630770682
 31
0.0
  0
LINE
  5
198
330
1F
100
AcDbEntity
  8
0
  6
CONTINUOUS
 62
     7
100
AcDbLine
 10
756.9943386731584
 20
180.8578630770682
 30
0.0
 11
762.4043233111062
 21
180.8578630770682
 31
0.0
  0
LINE
  5
199
330
1F
100
AcDbEntity
  8
0
  6
CONTINUOUS
 62
     7
100
AcDbLine
 10
757.6128160337238
 20
247.8578630770682
 30
0.0
 11
752.2027572743256
 21
247.8578630770682
 31
0.0
  0
ARC
  5
19A
330
1F
100
AcDbEntity
  8
0
  6
CONTINUOUS
 62
     7
100
AcDbCircle
 10
490.2299363142572
 20
221.1570782429842
 30
0.0
 40
33.83577905943185
100
AcDbArc
 50
211.9836295806784
 51
228.8216039452338
  0
LINE
  5
19B
330
1F
100
AcDbEntity
  8
0
  6
CONTINUOUS
 62
     7
100
AcDbLine
 10
839.2310874903668
 20
184.9097249912775
 30
0.0
 11
839.2310874903668
 21
181.7082076424392
 31
0.0
  0
LINE
  5
19C
330
1F
100
AcDbEntity
  8
0
  6
CONTINUOUS
 62
     7
100
AcDbLine
 10
657.6128542851571
 20
247.8578630770682
 30
0.0
 11
652.2027302932725
 21
247.8578630770682
 31
0.0
  0
LINE
  5
19D
330
1F
100
AcDbEntity
  8
0
  6
CONTINUOUS
 62
     7
100
AcDbLine
 10
686.994318240664
 20
180.8578630770682
 30
0.0
 11
692.404380794273
 21
180.8578630770682
 31
0.0
  0
LINE
  5
19E
330
1F
100
AcDbEntity
  8
0
  6
CONTINUOUS
 62
     7
100
AcDbLine
 10
647.6128640015831
 20
247.8578630770682
 30
0.0
 11
642.2027558107814
 21
247.8578630770682
 31
0.0
  0
CIRCLE
  5
19F
330
1F
100
AcDbEntity
  8
0
  6
CONTINUOUS
 62
     7
100
AcDbCircle
 10
846.7310874903667
 20
214.3578630770682
 30
0.0
 40
29.60000000000002
  0
LINE
  5
1A0
330
1F
100
AcDbEntity
  8
0
  6
CONTINUOUS
 62
     7
100
AcDbLine
 10
636.9942775825315
 20
180.8578630770682
 30
0.0
 11
642.4043934884376
 21
180.8578630770682
 31
0.0
  0
LINE
  5
1A1
330
1F
100
AcDbEntity
  8
0
  6
CONTINUOUS
 62
     7
100
AcDbLine
 10
667.612836434537
 20
247.8578630770682
 30
0.0
 11
662.2027465270521
 21
247.8578630770682
 31
0.0
  0
LINE
  5
1A2
330
1F
100
AcDbEntity
  8
0
  6
CONTINUOUS
 62
     7
100
AcDbLine
 10
737.6127685495786
 20
247.8578630770682
 30
0.0
 11
732.2027995261675
 21
247.8578630770682
 31
0.0
  0
LINE
  5
1A3
330
1F
100
AcDbEntity
  8
0
  6
CONTINUOUS
 62
     7
100
AcDbLine
 10
817.282949404576
 20
206.8578630770682
 30
0.0
 11
814.0814320557377
 21
206.8578630770682
 31
0.0
  0
LINE
  5
1A4
330
1F
100
AcDbEntity
  8
0
  6
CONTINUOUS
 62
     7
100
AcDbLine
 10
879.3807429249957
 20
206.8578630770682
 30
0.0
 11
876.1792255761575
 21
206.8578630770682
 31
0.0
  0
LINE
  5
1A5
330
1F
100
AcDbEntity
  8
0
  6
CONTINUOUS
 62
     7
100
AcDbLine
 10
697.612794224239
 20
247.8578630770682
 30
0.0
 11
692.202807095214
 21
247.8578630770682
 31
0.0
  0
LINE
  5
1A6
330
1F
100
AcDbEntity
  8
0
  6
CONTINUOUS
 62
     7
100
AcDbLine
 10
854.2310874903668
 20
184.9097249912775
 30
0.0
 11
854.2310874903667
 21
181.7082076424392
 31
0.0
  0
CIRCLE
  5
1A7
330
1F
100
AcDbEntity
  8
0
  6
CONTINUOUS
 62
     7
100
AcDbCircle
 10
846.7310874903667
 20
214.3578630770682
 30
0.0
 40
25.49999999999999
  0
LINE
  5
1A8
330
1F
100
AcDbEntity
  8
0
  6
CONTINUOUS
 62
     7
100
AcDbLine
 10
618.5536413139462
 20
180.8578630770682
 30
0.0
 11
622.4043163825116
 21
180.8578630770682
 31
0.0
  0
LINE
  5
1A9
330
1F
100
AcDbEntity
  8
0
  6
CONTINUOUS
 62
     7
100
AcDbLine
 10
880.9695535124764
 20
203.2350463201272
 30
0.0
 11
881.0800292104855
 21
203.5812339357001
 31
0.0
  0
LINE
  5
1AA
330
1F
100
AcDbEntity
  8
0
  6
CONTINUOUS
 62
     7
100
AcDbLine
 10
506.3409447838372
 20
248.7700288023197
 30
0.0
 11
507.1834151915372
 21
248.5000089197666
 31
0.0
  0
LINE
  5
1AB
330
1F
100
AcDbEntity
  8
0
  6
CONTINUOUS
 62
     7
100
AcDbLine
 10
817.282949404576
 20
221.8578630770682
 30
0.0
 11
814.0814320557377
 21
221.8578630770682
 31
0.0
  0
LINE
  5
1AC
330
1F
100
AcDbEntity
  8
0
  6
CONTINUOUS
 62
     7
100
AcDbLine
 10
676.9942949412446
 20
180.8578630770682
 30
0.0
 11
682.40436630102
 21
180.8578630770682
 31
0.0
  0
LINE
  5
1AD
330
1F
100
AcDbEntity
  8
0
  6
CONTINUOUS
 62
     7
100
AcDbLine
 10
747.6627250881897
 20
249.2777718620589
 30
0.0
 11
747.4043022847504
 21
247.8578252030329
 31
0.0
  0
LINE
  5
1AE
330
1F
100
AcDbEntity
  8
0
  6
CONTINUOUS
 62
     7
100
AcDbLine
 10
646.9942792571611
 20
180.8578630770682
 30
0.0
 11
652.4044044927368
 21
180.8578630770682
 31
0.0
  0
LINE
  5
1AF
330
1F
100
AcDbEntity
  8
0
  6
CONTINUOUS
 62
     7
100
AcDbLine
 10
677.6128229299665
 20
247.8578630770682
 30
0.0
 11
672.2027665733835
 21
247.8578630770682
 31
0.0
  0
LINE
  5
1B0
330
1F
100
AcDbEntity
  8
0
  6
CONTINUOUS
 62
     7
100
AcDbLine
 10
727.6127853834006
 20
247.8578630770682
 30
0.0
 11
722.2028163643548
 21
247.8578630770682
 31
0.0
  0
LINE
  5
1B1
330
1F
100
AcDbEntity
  8
0
  6
CONTINUOUS
 62
     7
100
AcDbLine
 10
747.6127887577018
 20
247.8578630770682
 30
0.0
 11
742.2027785673364
 21
247.8578630770682
 31
0.0
  0
LINE
  5
1B2
330
1F
100
AcDbEntity
  8
0
  6
CONTINUOUS
 62
     7
100
AcDbLine
 10
847.7310874903667
 20
247.5578630770682
 30
0.0
 11
847.7310874903667
 21
247.8429343775746
 31
0.0
  0
LINE
  5
1B3
330
1F
100
AcDbEntity
  8
0
  6
CONTINUOUS
 62
     7
100
AcDbLine
 10
696.9943316534096
 20
180.8578630770682
 30
0.0
 11
702.4043610018646
 21
180.8578630770682
 31
0.0
  0
LINE
  5
1B4
330
1F
100
AcDbEntity
  8
0
  6
CONTINUOUS
 62
     7
100
AcDbLine
 10
787.5531493314551
 20
248.6748758970084
 30
0.0
 11
787.4016562731516
 21
247.8429075720404
 31
0.0
  0
LINE
  5
1B5
330
1F
100
AcDbEntity
  8
0
  6
CONTINUOUS
 62
     7
100
AcDbLine
 10
787.5536413139461
 20
247.0075185116972
 30
0.0
 11
787.5536413139461
 21
248.6551846161676
 31
0.0
  0
CIRCLE
  5
1B6
330
1F
100
AcDbEntity
  8
0
  6
CONTINUOUS
 62
     7
100
AcDbCircle
 10
495.7689125096333
 20
214.3578630770682
 30
0.0
 40
27.0
  0
LINE
  5
1B7
330
1F
100
AcDbEntity
  8
0
  6
CONTINUOUS
 62
     7
100
AcDbLine
 10
618.5536413139462
 20
180.8578630770682
 30
0.0
 11
618.5536413139462
 21
250.3573006071599
 31
0.0
  0
CIRCLE
  5
1B8
330
1F
100
AcDbEntity
  8
0
  6
CONTINUOUS
 62
     7
100
AcDbCircle
 10
495.7689125096333
 20
214.3578630770682
 30
0.0
 40
25.50000000000002
  0
LINE
  5
1B9
330
1F
100
AcDbEntity
  8
0
  6
CONTINUOUS
 62
     7
100
AcDbLine
 10
716.9943570466882
 20
180.8578630770682
 30
0.0
 11
722.4043193626972
 21
180.8578630770682
 31
0.0
  0
LINE
  5
1BA
330
1F
100
AcDbEntity
  8
0
  6
CONTINUOUS
 62
     7
100
AcDbLine
 10
839.2310874903668
 20
243.806001162859
 30
0.0
 11
839.2310874903668
 21
247.0075185116972
 31
0.0
  0
LINE
  5
1BB
330
1F
100
AcDbEntity
  8
0
  6
CONTINUOUS
 62
     7
100
AcDbLine
 10
757.6630528660024
 20
249.2795330120825
 30
0.0
 11
757.4043145469068
 21
247.8578260817841
 31
0.0
  0
LINE
  5
1BC
330
1F
100
AcDbEntity
  8
0
  6
CONTINUOUS
 62
     7
100
AcDbLine
 10
656.9942807906772
 20
180.8578630770682
 30
0.0
 11
662.404408857385
 21
180.8578630770682
 31
0.0
  0
LINE
  5
1BD
330
1F
100
AcDbEntity
  8
0
  6
CONTINUOUS
 62
     7
100
AcDbLine
 10
857.8536963368144
 20
248.595794542951
 30
0.0
 11
854.2310874903668
 21
248.6551846161676
 31
0.0
  0
LINE
  5
1BE
330
1F
100
AcDbEntity
  8
0
  6
CONTINUOUS
 62
     7
100
AcDbLine
 10
845.7310874903667
 20
247.5578630770682
 30
0.0
 11
845.7310874903667
 21
247.8429343775746
 31
0.0
  0
ARC
  5
1BF
330
1F
100
AcDbEntity
  8
0
  6
CONTINUOUS
 62
     7
100
AcDbCircle
 10
855.219558072337
 20
216.5562272721033
 30
0.0
 40
33.78834615268018
100
AcDbArc
 50
275.1675244564137
 51
292.0289857570715
  0
LINE
  5
1C0
330
1F
100
AcDbEntity
  8
0
  6
CONTINUOUS
 62
     7
100
AcDbLine
 10
637.6629255319385
 20
249.2784348994504
 30
0.0
 11
637.4016688443011
 21
247.8429148610672
 31
0.0
  0
LINE
  5
1C1
330
1F
100
AcDbEntity
  8
0
  6
CONTINUOUS
 62
     7
100
AcDbLine
 10
633.0536478930835
 20
178.3585458795029
 30
0.0
 11
636.5536478930742
 21
178.3585378190761
 31
0.0
  0
LINE
  5
1C2
330
1F
100
AcDbEntity
  8
0
  6
CONTINUOUS
 62
     7
100
AcDbLine
 10
741.5531686604522
 20
250.3577269527885
 30
0.0
 11
738.0531686604618
 21
250.3577188922411
 31
0.0
  0
LINE
  5
1C3
330
1F
100
AcDbEntity
  8
0
  6
CONTINUOUS
 62
     7
100
AcDbLine
 10
627.6626916209308
 20
249.2772634870903
 30
0.0
 11
627.4016492386642
 21
247.8429095123862
 31
0.0
  0
LINE
  5
1C4
330
1F
100
AcDbEntity
  8
0
  6
CONTINUOUS
 62
     7
100
AcDbLine
 10
677.6622838316923
 20
249.2747348883881
 30
0.0
 11
677.404403615313
 21
247.857831950591
 31
0.0
  0
LINE
  5
1C5
330
1F
100
AcDbEntity
  8
0
  6
CONTINUOUS
 62
     7
100
AcDbLine
 10
671.5537355160377
 20
250.3572532028339
 30
0.0
 11
668.053735516047
 21
250.3572451423925
 31
0.0
  0
LINE
  5
1C6
330
1F
100
AcDbEntity
  8
0
  6
CONTINUOUS
 62
     7
100
AcDbLine
 10
771.5535151663968
 20
250.3573758966216
 30
0.0
 11
768.0535151664061
 21
250.3573678361529
 31
0.0
  0
LINE
  5
1C7
330
1F
100
AcDbEntity
  8
0
  6
CONTINUOUS
 62
     7
100
AcDbLine
 10
731.5536682836754
 20
250.3577914796252
 30
0.0
 11
728.0536682836847
 21
250.3577834190633
 31
0.0
  0
LINE
  5
1C8
330
1F
100
AcDbEntity
  8
0
  6
CONTINUOUS
 62
     7
100
AcDbLine
 10
781.5530939730845
 20
250.3572676992105
 30
0.0
 11
778.0530939730934
 21
250.3572596387659
 31
0.0
  0
LINE
  5
1C9
330
1F
100
AcDbEntity
  8
0
  6
CONTINUOUS
 62
     7
100
AcDbLine
 10
701.5538245292124
 20
250.3575994880343
 30
0.0
 11
698.0538245292219
 21
250.3575914275153
 31
0.0
  0
LINE
  5
1CA
330
1F
100
AcDbEntity
  8
0
  6
CONTINUOUS
 62
     7
100
AcDbLine
 10
782.1927202014101
 20
182.0181777425515
 30
0.0
 11
782.6625944749105
 21
179.4389821921038
 31
0.0
  0
LINE
  5
1CB
330
1F
100
AcDbEntity
  8
0
  6
CONTINUOUS
 62
     7
100
AcDbLine
 10
647.6636095805699
 20
249.2820979616907
 30
0.0
 11
647.4043998989256
 21
247.8578267884094
 31
0.0
  0
LINE
  5
1CC
330
1F
100
AcDbEntity
  8
0
  6
CONTINUOUS
 62
     7
100
AcDbLine
 10
642.1929940211634
 20
182.0168139316117
 30
0.0
 11
642.6627734689962
 21
179.4381785645025
 31
0.0
  0
LINE
  5
1CD
330
1F
100
AcDbEntity
  8
0
  6
CONTINUOUS
 62
     7
100
AcDbLine
 10
687.6624731633815
 20
249.2758312181939
 30
0.0
 11
687.4043892400978
 21
247.8578220640015
 31
0.0
  0
LINE
  5
1CE
330
1F
100
AcDbEntity
  8
0
  6
CONTINUOUS
 62
     7
100
AcDbLine
 10
762.1933495009971
 20
182.0145104730982
 30
0.0
 11
762.6632941422566
 21
179.4349076027711
 31
0.0
  0
LINE
  5
1CF
330
1F
100
AcDbEntity
  8
0
  6
CONTINUOUS
 62
     7
100
AcDbLine
 10
697.6623965420334
 20
249.275498384616
 30
0.0
 11
697.4043712868598
 21
247.857821695816
 31
0.0
  0
LINE
  5
1D0
330
1F
100
AcDbEntity
  8
0
  6
CONTINUOUS
 62
     7
100
AcDbLine
 10
621.5536458041078
 20
250.357307522091
 30
0.0
 11
618.5536413045734
 21
250.3573006131204
 31
0.0
  0
LINE
  5
1D1
330
1F
100
AcDbEntity
  8
0
  6
CONTINUOUS
 62
     7
100
AcDbLine
 10
651.5535800581024
 20
250.357154943021
 30
0.0
 11
648.0535800581116
 21
250.3571468826016
 31
0.0
  0
LINE
  5
1D2
330
1F
100
AcDbEntity
  8
0
  6
CONTINUOUS
 62
     7
100
AcDbLine
 10
661.552893428469
 20
250.3571830127498
 30
0.0
 11
658.0528934284782
 21
250.3571749523241
 31
0.0
  0
LINE
  5
1D3
330
1F
100
AcDbEntity
  8
0
  6
CONTINUOUS
 62
     7
100
AcDbLine
 10
761.5534781049063
 20
250.3574987774566
 30
0.0
 11
758.0534781049156
 21
250.3574907169603
 31
0.0
  0
LINE
  5
1D4
330
1F
100
AcDbEntity
  8
0
  6
CONTINUOUS
 62
     7
100
AcDbLine
 10
662.1931085796474
 20
182.0162377252054
 30
0.0
 11
662.6626107786154
 21
179.4391995998121
 31
0.0
  0
LINE
  5
1D5
330
1F
100
AcDbEntity
  8
0
  6
CONTINUOUS
 62
     7
100
AcDbLine
 10
631.5528282923622
 20
250.3572138172842
 30
0.0
 11
628.0528282923714
 21
250.3572057568517
 31
0.0
  0
LINE
  5
1D6
330
1F
100
AcDbEntity
  8
0
  6
CONTINUOUS
 62
     7
100
AcDbLine
 10
721.5530733484115
 20
250.3577833763221
 30
0.0
 11
718.0530733484211
 21
250.357775315762
 31
0.0
  0
LINE
  5
1D7
330
1F
100
AcDbEntity
  8
0
  6
CONTINUOUS
 62
     7
100
AcDbLine
 10
712.1933406903712
 20
182.0145525299909
 30
0.0
 11
712.6622835901786
 21
179.4406746688105
 31
0.0
  0
LINE
  5
1D8
330
1F
100
AcDbEntity
  8
0
  6
CONTINUOUS
 62
     7
100
AcDbLine
 10
702.1928926701266
 20
182.0171190980119
 30
0.0
 11
702.6623529305883
 21
179.4404134328653
 31
0.0
  0
LINE
  5
1D9
330
1F
100
AcDbEntity
  8
0
  6
CONTINUOUS
 62
     7
100
AcDbLine
 10
691.5530852153571
 20
250.3574758759179
 30
0.0
 11
688.0530852153663
 21
250.3574678154267
 31
0.0
  0
LINE
  5
1DA
330
1F
100
AcDbEntity
  8
0
  6
CONTINUOUS
 62
     7
100
AcDbLine
 10
632.1926149501735
 20
182.0188137612939
 30
0.0
 11
632.6627238161875
 21
179.4383449390336
 31
0.0
  0
LINE
  5
1DB
330
1F
100
AcDbEntity
  8
0
  6
CONTINUOUS
 62
     7
100
AcDbLine
 10
622.1927479124166
 20
182.0179853944806
 30
0.0
 11
622.6626905684194
 21
179.4384074745288
 31
0.0
  0
LINE
  5
1DC
330
1F
100
AcDbEntity
  8
0
  6
CONTINUOUS
 62
     7
100
AcDbLine
 10
707.6623133892905
 20
249.2751539818493
 30
0.0
 11
707.4043502690192
 21
247.8578214673835
 31
0.0
  0
LINE
  5
1DD
330
1F
100
AcDbEntity
  8
0
  6
CONTINUOUS
 62
     7
100
AcDbLine
 10
717.662269159091
 20
249.2750340382484
 30
0.0
 11
717.4043290058348
 21
247.8578216618709
 31
0.0
  0
LINE
  5
1DE
330
1F
100
AcDbEntity
  8
0
  6
CONTINUOUS
 62
     7
100
AcDbLine
 10
643.0528349861509
 20
178.3585825986036
 30
0.0
 11
646.5528349861415
 21
178.358574538185
 31
0.0
  0
LINE
  5
1DF
330
1F
100
AcDbEntity
  8
0
  6
CONTINUOUS
 62
     7
100
AcDbLine
 10
751.5530659762761
 20
250.3576199479112
 30
0.0
 11
748.0530659762852
 21
250.3576118873877
 31
0.0
  0
LINE
  5
1E0
330
1F
100
AcDbEntity
  8
0
  6
CONTINUOUS
 62
     7
100
AcDbLine
 10
732.1925670535738
 20
182.0186323437692
 30
0.0
 11
732.6623732774153
 21
179.4399557840695
 31
0.0
  0
LINE
  5
1E1
330
1F
100
AcDbEntity
  8
0
  6
CONTINUOUS
 62
     7
100
AcDbLine
 10
641.5535065689821
 20
250.3571667233515
 30
0.0
 11
638.0535065689913
 21
250.3571586629295
 31
0.0
  0
LINE
  5
1E2
330
1F
100
AcDbEntity
  8
0
  6
CONTINUOUS
 62
     7
100
AcDbLine
 10
682.1923255188884
 20
182.0204288543368
 30
0.0
 11
682.6624721158482
 21
179.439932658362
 31
0.0
  0
LINE
  5
1E3
330
1F
100
AcDbEntity
  8
0
  6
CONTINUOUS
 62
     7
100
AcDbLine
 10
681.5533252627816
 20
250.3573550575186
 30
0.0
 11
678.053325262791
 21
250.3573469970544
 31
0.0
  0
LINE
  5
1E4
330
1F
100
AcDbEntity
  8
0
  6
CONTINUOUS
 62
     7
100
AcDbLine
 10
657.6626878898433
 20
249.2769686976752
 30
0.0
 11
657.404407592728
 21
247.8578223635883
 31
0.0
  0
LINE
  5
1E5
330
1F
100
AcDbEntity
  8
0
  6
CONTINUOUS
 62
     7
100
AcDbLine
 10
727.6623085693623
 20
249.2753663832152
 30
0.0
 11
727.4043110473756
 21
247.8578225492402
 31
0.0
  0
LINE
  5
1E6
330
1F
100
AcDbEntity
  8
0
  6
CONTINUOUS
 62
     7
100
AcDbLine
 10
711.5531129498914
 20
250.3577119671296
 30
0.0
 11
708.0531129499007
 21
250.3577039065856
 31
0.0
  0
LINE
  5
1E7
330
1F
100
AcDbEntity
  8
0
  6
CONTINUOUS
 62
     7
100
AcDbLine
 10
737.6624750552049
 20
249.2763676120645
 30
0.0
 11
737.4043032557529
 21
247.8578393501602
 31
0.0
  0
LINE
  5
1E8
330
1F
100
AcDbEntity
  8
0
  6
CONTINUOUS
 62
     7
100
AcDbLine
 10
772.1932049114167
 20
182.0154158441678
 30
0.0
 11
772.6626302057364
 21
179.4386646113327
 31
0.0
  0
LINE
  5
1E9
330
1F
100
AcDbEntity
  8
0
  6
CONTINUOUS
 62
     7
100
AcDbLine
 10
667.6624719109594
 20
249.275754668977
 30
0.0
 11
667.4044083868154
 21
247.857821894774
 31
0.0
  0
LINE
  5
1EA
330
1F
100
AcDbEntity
  8
0
  6
CONTINUOUS
 62
     7
100
AcDbLine
 10
623.0533878872039
 20
178.358475530482
 30
0.0
 11
626.5533878871947
 21
178.3584674700394
 31
0.0
  0
LINE
  5
1EB
330
1F
100
AcDbEntity
  8
0
  6
CONTINUOUS
 62
     7
100
AcDbLine
 10
692.1923474742213
 20
182.0202151671157
 30
0.0
 11
692.6624385232068
 21
179.4400449179905
 31
0.0
  0
LINE
  5
1EC
330
1F
100
AcDbEntity
  8
0
  6
CONTINUOUS
 62
     7
100
AcDbLine
 10
752.1939687448247
 20
182.0110263592184
 30
0.0
 11
752.6653228633579
 21
179.4237251714517
 31
0.0
  0
LINE
  5
1ED
330
1F
100
AcDbEntity
  8
0
  6
CONTINUOUS
 62
     7
100
AcDbLine
 10
722.1926046656287
 20
182.0184854155678
 30
0.0
 11
722.662275658247
 21
179.4405963150891
 31
0.0
  0
LINE
  5
1EE
330
1F
100
AcDbEntity
  8
0
  6
CONTINUOUS
 62
     7
100
AcDbLine
 10
652.1938101773918
 20
182.0123886538618
 30
0.0
 11
652.6627768576516
 21
179.4382405331876
 31
0.0
  0
LINE
  5
1EF
330
1F
100
AcDbEntity
  8
0
  6
CONTINUOUS
 62
     7
100
AcDbLine
 10
672.1925103225157
 20
182.0194827614718
 30
0.0
 11
672.6625036200194
 21
179.4397945856533
 31
0.0
  0
LINE
  5
1F0
330
1F
100
AcDbEntity
  8
0
  6
CONTINUOUS
 62
     7
100
AcDbLine
 10
742.1926278736971
 20
182.0183028883246
 30
0.0
 11
742.6626295602244
 21
179.4384854012606
 31
0.0
  0
ARC
  5
1F1
330
1F
100
AcDbEntity
  8
0
  6
CONTINUOUS
 62
     7
100
AcDbCircle
 10
846.7310874903667
 20
214.3578630770682
 30
0.0
 40
33.50000000000004
100
AcDbArc
 50
91.71057588031115
 51
347.0629380207294
  0
ARC
  5
1F2
330
1F
100
AcDbEntity
  8
0
  6
CONTINUOUS
 62
     7
100
AcDbCircle
 10
846.7310874903667
 20
214.3578630770682
 30
0.0
 40
33.49999999999999
100
AcDbArc
 50
12.93706197927052
 51
88.28942411968885
  0
ARC
  5
1F3
330
1F
100
AcDbEntity
  8
0
  6
CONTINUOUS
 62
     7
100
AcDbCircle
 10
495.7687605299091
 20
214.3578233823184
 30
0.0
 40
35.99969886041011
100
AcDbArc
 50
72.97497408602189
 51
198.0011569709835
  0
CIRCLE
  5
1F4
330
1F
100
AcDbEntity
  8
0
  6
CONTINUOUS
 62
     7
100
AcDbCircle
 10
846.7308067914252
 20
214.3575800886514
 30
0.0
 40
35.99963889898813
  0
CIRCLE
  5
1F5
330
1F
100
AcDbEntity
  8
0
  6
CONTINUOUS
 62
     7
100
AcDbCircle
 10
846.7310874903667
 20
214.3578630770682
 30
0.0
 40
30.38805970149251
  0
ENDSEC
  0
SECTION
  2
OBJECTS
  0
DICTIONARY
  5
C
330
0
100
AcDbDictionary
  3
ACAD_GROUP
350
D
  3
ACAD_LAYOUT
350
1A
  3
ACAD_MATERIAL
350
43
  3
ACAD_MLEADERSTYLE
350
6B
  3
ACAD_MLINESTYLE
350
17
  3
ACAD_PLOTSETTINGS
350
19
  3
ACAD_SCALELIST
350
47
  3
ACAD_VISUALSTYLE
350
2A
  3
ACDBHEADERROUNDTRIPXREC
350
1F6
  3
ACDBVARIABLEDICTIONARY
350
217
  0
DICTIONARY
  5
21E
330
8
100
AcDbDictionary
280
     1
  3
ACAD_XREC_ROUNDTRIP
360
21F
  0
DICTIONARY
  5
D
102
{ACAD_REACTORS
330
C
102
}
330
C
100
AcDbDictionary
  0
DICTIONARY
  5
1A
102
{ACAD_REACTORS
330
C
102
}
330
C
100
AcDbDictionary
  0
DICTIONARY
  5
43
102
{ACAD_REACTORS
330
C
102
}
330
C
100
AcDbDictionary
  3
BYBLOCK
350
45
  3
BYLAYER
350
44
  3
GLOBAL
350
46
  0
DICTIONARY
  5
6B
102
{ACAD_REACTORS
330
C
102
}
330
C
100
AcDbDictionary
  3
STANDARD
350
6C
  0
DICTIONARY
  5
17
102
{ACAD_REACTORS
330
C
102
}
330
C
100
AcDbDictionary
  3
STANDARD
350
18
  0
DICTIONARY
  5
19
102
{ACAD_REACTORS
330
C
102
}
330
C
100
AcDbDictionary
  0
DICTIONARY
  5
47
102
{ACAD_REACTORS
330
C
102
}
330
C
100
AcDbDictionary
  3
A0
350
48
  3
A1
350
49
  3
A2
350
4A
  3
A3
350
4B
  3
A4
350
4C
  3
A5
350
4D
  3
A6
350
4E
  3
A7
350
4F
  3
A8
350
50
  3
A9
350
51
  3
B0
350
52
  3
B1
350
53
  3
B2
350
54
  3
B3
350
55
  3
B4
350
56
  3
B5
350
57
  3
B6
350
58
  3
B7
350
59
  3
B8
350
5A
  3
B9
350
5B
  3
C0
350
5C
  3
C1
350
5D
  3
C2
350
5E
  3
C3
350
5F
  3
C4
350
60
  3
C5
350
61
  3
C6
350
62
  3
C7
350
63
  3
C8
350
64
  3
C9
350
65
  3
D0
350
66
  3
D1
350
67
  3
D2
350
68
  0
DICTIONARY
  5
2A
102
{ACAD_REACTORS
330
C
102
}
330
C
100
AcDbDictionary
  3
2DWIREFRAME
350
2F
  3
BASIC
350
32
  3
BRIGHTEN
350
36
  3
COLORCHANGE
350
3A
  3
CONCEPTUAL
350
34
  3
DIM
350
35
  3
EDGECOLOROFF
350
3D
  3
FACEPATTERN
350
39
  3
FLAT
350
2B
  3
FLATWITHEDGES
350
2C
  3
GOURAUD
350
2D
  3
GOURAUDWITHEDGES
350
2E
  3
HIDDEN
350
31
  3
JITTEROFF
350
3B
  3
LINEPATTERN
350
38
  3
OVERHANGOFF
350
3C
  3
REALISTIC
350
33
  3
SHADED
350
42
  3
SHADED_WITH_EDGES
350
41
  3
SHADES_OF_GRAY
350
3E
  3
SKETCHY
350
3F
  3
THICKEN
350
37
  3
WIREFRAME
350
30
  3
X-RAY
350
40
  0
DICTIONARY
  5
1F6
102
{ACAD_REACTORS
330
C
102
}
330
C
100
AcDbDictionary
  3
CEPSNID
350
200
  3
CEPSNTYPE
350
1FF
  3
DIMSTYLEDATA
350
216
  3
FINGERPRINTGUID
350
201
  3
HYPERLINKBASE
350
1F9
  3
INSUNITS
350
1FE
  3
LAYOUTDICT
350
1FB
  3
LWETCUNION
350
1FD
  3
PLOTSETDICT
350
1FC
  3
PSVPSCALE
350
203
  3
PUCSBASE
350
206
  3
PUCSORGBACK
350
20C
  3
PUCSORGBOTTOM
350
208
  3
PUCSORGFRONT
350
20B
  3
PUCSORGLEFT
350
209
  3
PUCSORGRIGHT
350
20A
  3
PUCSORGTOP
350
207
  3
PUCSORTHOREF
350
204
  3
PUCSORTHOVIEW
350
205
  3
STYLESHEET
350
1FA
  3
TSTACKALIGN
350
1F7
  3
TSTACKSIZE
350
1F8
  3
UCSBASE
350
20F
  3
UCSORGBACK
350
215
  3
UCSORGBOTTOM
350
211
  3
UCSORGFRONT
350
214
  3
UCSORGLEFT
350
212
  3
UCSORGRIGHT
350
213
  3
UCSORGTOP
350
210
  3
UCSORTHOREF
350
20D
  3
UCSORTHOVIEW
350
20E
  3
VERSIONGUID
350
202
  0
DICTIONARY
  5
217
102
{ACAD_REACTORS
330
C
102
}
330
C
100
AcDbDictionary
  3
CANNOSCALE
350
220
  3
CMLEADERSTYLE
350
219
  3
CTABLESTYLE
350
218
  3
DIMASSOC
350
21C
  3
HIDETEXT
350
21D
  3
MSLTSCALE
350
221
  0
XRECORD
  5
21F
102
{ACAD_REACTORS
330
21E
102
}
330
21E
100
AcDbXrecord
102
VTR_0.000_0.000_1.000_1.000_VISUALSTYLE
340
2F
102
VTR_0.000_0.000_1.000_1.000_GRIDDISPLAY
 70
     3
102
VTR_0.000_0.000_1.000_1.000_GRIDMAJOR
 70
     5
102
VTR_0.000_0.000_1.000_1.000_DEFAULTLIGHTING
280
     1
102
VTR_0.000_0.000_1.000_1.000_DEFAULTLIGHTINGTYPE
 70
     1
102
VTR_0.000_0.000_1.000_1.000_BRIGHTNESS
141
0.0
102
VTR_0.000_0.000_1.000_1.000_CONTRAST
142
0.0
  0
MATERIAL
  5
45
102
{ACAD_REACTORS
330
43
102
}
102
{ACAD_XDICTIONARY
360
224
102
}
330
43
100
AcDbMaterial
  1
BYBLOCK
  0
MATERIAL
  5
44
102
{ACAD_REACTORS
330
43
102
}
102
{ACAD_XDICTIONARY
360
222
102
}
330
43
100
AcDbMaterial
  1
BYLAYER
  0
MATERIAL
  5
46
102
{ACAD_REACTORS
330
43
102
}
102
{ACAD_XDICTIONARY
360
226
102
}
330
43
100
AcDbMaterial
  1
GLOBAL
  0
ACAD_PROXY_OBJECT
  5
6C
102
{ACAD_REACTORS
330
6B
102
}
330
6B
100
AcDbProxyObject
 90
      499
 91
      505
 93
      610
310
40901902A4063FBFFFFFE056BD1B81E855B9FC0AD7A3703D0AD73F4214DD185B99185C9900AD7A3703D0AC73F90141901A02B5E8DC0F42B1CFC02B5E8DC0F42B1CFE5764000000000000300FC0
340
14
340
0
340
11
340
0
 94
        0
1001
ACAD_MLEADERVER
1070
     2
  0
MLINESTYLE
  5
18
102
{ACAD_REACTORS
330
17
102
}
330
17
100
AcDbMlineStyle
  2
Standard
 70
     0
  3

 62
   256
 51
90.0
 52
90.0
 71
     2
 49
0.5
 62
   256
  6
BYLAYER
 49
-0.5
 62
   256
  6
BYLAYER
  0
ACAD_PROXY_OBJECT
  5
48
102
{ACAD_REACTORS
330
47
102
}
330
47
100
AcDbProxyObject
 90
      499
 91
      503
 93
       41
310
903313A31580
  0
ACAD_PROXY_OBJECT
  5
49
102
{ACAD_REACTORS
330
47
102
}
330
47
100
AcDbProxyObject
 90
      499
 91
      503
 93
      105
310
903313A324000000000000004000
  0
ACAD_PROXY_OBJECT
  5
4A
102
{ACAD_REACTORS
330
47
102
}
330
47
100
AcDbProxyObject
 90
      499
 91
      503
 93
      105
310
903313A344000000000000104000
  0
ACAD_PROXY_OBJECT
  5
4B
102
{ACAD_REACTORS
330
47
102
}
330
47
100
AcDbProxyObject
 90
      499
 91
      503
 93
      105
310
903313A354000000000000144000
  0
ACAD_PROXY_OBJECT
  5
4C
102
{ACAD_REACTORS
330
47
102
}
330
47
100
AcDbProxyObject
 90
      499
 91
      503
 93
      105
310
903313A384000000000000204000
  0
ACAD_PROXY_OBJECT
  5
4D
102
{ACAD_REACTORS
330
47
102
}
330
47
100
AcDbProxyObject
 90
      499
 91
      503
 93
      113
310
904313A31304000000000000244000
  0
ACAD_PROXY_OBJECT
  5
4E
102
{ACAD_REACTORS
330
47
102
}
330
47
100
AcDbProxyObject
 90
      499
 91
      503
 93
      113
310
904313A31364000000000000304000
  0
ACAD_PROXY_OBJECT
  5
4F
102
{ACAD_REACTORS
330
47
102
}
330
47
100
AcDbProxyObject
 90
      499
 91
      503
 93
      113
310
904313A32304000000000000344000
  0
ACAD_PROXY_OBJECT
  5
50
102
{ACAD_REACTORS
330
47
102
}
330
47
100
AcDbProxyObject
 90
      499
 91
      503
 93
      113
310
904313A333040000000000003E4000
  0
ACAD_PROXY_OBJECT
  5
51
102
{ACAD_REACTORS
330
47
102
}
330
47
100
AcDbProxyObject
 90
      499
 91
      503
 93
      113
310
904313A34304000000000000444000
  0
ACAD_PROXY_OBJECT
  5
52
102
{ACAD_REACTORS
330
47
102
}
330
47
100
AcDbProxyObject
 90
      499
 91
      503
 93
      113
310
904313A35304000000000000494000
  0
ACAD_PROXY_OBJECT
  5
53
102
{ACAD_REACTORS
330
47
102
}
330
47
100
AcDbProxyObject
 90
      499
 91
      503
 93
      121
310
905313A3130304000000000000594000
  0
ACAD_PROXY_OBJECT
  5
54
102
{ACAD_REACTORS
330
47
102
}
330
47
100
AcDbProxyObject
 90
      499
 91
      503
 93
      105
310
903323A310000000000000010100
  0
ACAD_PROXY_OBJECT
  5
55
102
{ACAD_REACTORS
330
47
102
}
330
47
100
AcDbProxyObject
 90
      499
 91
      503
 93
      105
310
903343A310000000000000410100
  0
ACAD_PROXY_OBJECT
  5
56
102
{ACAD_REACTORS
330
47
102
}
330
47
100
AcDbProxyObject
 90
      499
 91
      503
 93
      105
310
903383A310000000000000810100
  0
ACAD_PROXY_OBJECT
  5
57
102
{ACAD_REACTORS
330
47
102
}
330
47
100
AcDbProxyObject
 90
      499
 91
      503
 93
      113
310
90431303A310000000000000910100
  0
ACAD_PROXY_OBJECT
  5
58
102
{ACAD_REACTORS
330
47
102
}
330
47
100
AcDbProxyObject
 90
      499
 91
      503
 93
      121
310
9053130303A310000000000001650100
  0
ACAD_PROXY_OBJECT
  5
59
102
{ACAD_REACTORS
330
47
102
}
330
47
100
AcDbProxyObject
 90
      499
 91
      503
 93
      257
310
90E312F31323822203D2031272D3022000000000000200FC000000000000284000
  0
ACAD_PROXY_OBJECT
  5
5A
102
{ACAD_REACTORS
330
47
102
}
330
47
100
AcDbProxyObject
 90
      499
 91
      503
 93
      249
310
90D312F363422203D2031272D3022000000000000240FC000000000000284000
  0
ACAD_PROXY_OBJECT
  5
5B
102
{ACAD_REACTORS
330
47
102
}
330
47
100
AcDbProxyObject
 90
      499
 91
      503
 93
      249
310
90D312F333222203D2031272D3022000000000000280FC000000000000284000
  0
ACAD_PROXY_OBJECT
  5
5C
102
{ACAD_REACTORS
330
47
102
}
330
47
100
AcDbProxyObject
 90
      499
 91
      503
 93
      249
310
90D312F313622203D2031272D30220000000000002C0FC000000000000284000
  0
ACAD_PROXY_OBJECT
  5
5D
102
{ACAD_REACTORS
330
47
102
}
330
47
100
AcDbProxyObject
 90
      499
 91
      503
 93
      249
310
90D332F333222203D2031272D30220000000000002E0FC000000000000284000
  0
ACAD_PROXY_OBJECT
  5
5E
102
{ACAD_REACTORS
330
47
102
}
330
47
100
AcDbProxyObject
 90
      499
 91
      503
 93
      241
310
90C312F3822203D2031272D3022000000000000300FC000000000000284000
  0
ACAD_PROXY_OBJECT
  5
5F
102
{ACAD_REACTORS
330
47
102
}
330
47
100
AcDbProxyObject
 90
      499
 91
      503
 93
      249
310
90D332F313622203D2031272D3022000000000000320FC000000000000284000
  0
ACAD_PROXY_OBJECT
  5
60
102
{ACAD_REACTORS
330
47
102
}
330
47
100
AcDbProxyObject
 90
      499
 91
      503
 93
      241
310
90C312F3422203D2031272D3022000000000000340FC000000000000284000
  0
ACAD_PROXY_OBJECT
  5
61
102
{ACAD_REACTORS
330
47
102
}
330
47
100
AcDbProxyObject
 90
      499
 91
      503
 93
      241
310
90C332F3822203D2031272D3022000000000000360FC000000000000284000
  0
ACAD_PROXY_OBJECT
  5
62
102
{ACAD_REACTORS
330
47
102
}
330
47
100
AcDbProxyObject
 90
      499
 91
      503
 93
      241
310
90C312F3222203D2031272D3022000000000000380FC000000000000284000
  0
ACAD_PROXY_OBJECT
  5
63
102
{ACAD_REACTORS
330
47
102
}
330
47
100
AcDbProxyObject
 90
      499
 91
      503
 93
      241
310
90C332F3422203D2031272D30220000000000003A0FC000000000000284000
  0
ACAD_PROXY_OBJECT
  5
64
102
{ACAD_REACTORS
330
47
102
}
330
47
100
AcDbProxyObject
 90
      499
 91
      503
 93
      161
310
90A3122203D2031272D30224000000000000284000
  0
ACAD_PROXY_OBJECT
  5
65
102
{ACAD_REACTORS
330
47
102
}
330
47
100
AcDbProxyObject
 90
      499
 91
      503
 93
      257
310
90E312D312F3222203D2031272D30220000000000003E0FC000000000000284000
  0
ACAD_PROXY_OBJECT
  5
66
102
{ACAD_REACTORS
330
47
102
}
330
47
100
AcDbProxyObject
 90
      499
 91
      503
 93
      225
310
90A3322203D2031272D302200000000000002100000000000000284000
  0
ACAD_PROXY_OBJECT
  5
67
102
{ACAD_REACTORS
330
47
102
}
330
47
100
AcDbProxyObject
 90
      499
 91
      503
 93
      225
310
90A3622203D2031272D302200000000000006100000000000000284000
  0
ACAD_PROXY_OBJECT
  5
68
102
{ACAD_REACTORS
330
47
102
}
330
47
100
AcDbProxyObject
 90
      499
 91
      503
 93
      249
310
90D31272D3022203D2031272D30220000000000000A100000000000000284000
  0
ACAD_PROXY_OBJECT
  5
2F
102
{ACAD_REACTORS
330
2A
102
}
330
2A
100
AcDbProxyObject
 90
      499
 91
      501
 93
      436
310
42CC9915DA5C99599C985B595049028333333333333E33F0000000000000F90107901411070040501600405405064090741402480A0340
1001
ACAD
1000
AcDbSavedByObjectVersion
1070
     0
  0
ACAD_PROXY_OBJECT
  5
32
102
{ACAD_REACTORS
330
2A
102
}
330
2A
100
AcDbProxyObject
 90
      499
 91
      501
 93
      388
310
4150985CDA58D07406404333333333333E33F0000000000000F90107A41107004050150841D405064090741402480A0350
1001
ACAD
1000
AcDbSavedByObjectVersion
1070
     0
  0
ACAD_PROXY_OBJECT
  5
36
102
{ACAD_REACTORS
330
2A
102
}
330
2A
100
AcDbProxyObject
 90
      499
 91
      501
 93
      428
310
42109C9A59DA1D195B90C409028333333333333E33F0000000000000F9010790141107004050150841D405064090741402480A029950
1001
ACAD
1000
AcDbSavedByObjectVersion
1070
     0
  0
ACAD_PROXY_OBJECT
  5
3A
102
{ACAD_REACTORS
330
2A
102
}
330
2A
100
AcDbProxyObject
 90
      499
 91
      501
 93
      452
310
42D0DBDB1BDC90DA185B99D95104090240C333333333333E33F0000000000000F90108901411070040501508421405064090741402480A0350
1001
ACAD
1000
AcDbSavedByObjectVersion
1070
     0
  0
ACAD_PROXY_OBJECT
  5
34
102
{ACAD_REACTORS
330
2A
102
}
330
2A
100
AcDbProxyObject
 90
      499
 91
      501
 93
      500
310
4290DBDB98D95C1D1D585B10940D028333333333333E33F0000000000000F90107902409070040501000000000018199010841D405064090740C02480A0340
1001
ACAD
1000
AcDbSavedByObjectVersion
1070
     0
  0
ACAD_PROXY_OBJECT
  5
35
102
{ACAD_REACTORS
330
2A
102
}
330
2A
100
AcDbProxyObject
 90
      499
 91
      501
 93
      412
310
40D11A5B50B409028333333333333E33F0000000000000F9010790141107004050150841D405064090741402480A02677FFFFFD0
1001
ACAD
1000
AcDbSavedByObjectVersion
1070
     0
  0
ACAD_PROXY_OBJECT
  5
3D
102
{ACAD_REACTORS
330
2A
102
}
330
2A
100
AcDbProxyObject
 90
      499
 91
      501
 93
      452
310
43115919D950DBDB1BDC93D999916409028333333333333E33F0000000000000F9010790141107004050150841D405064090741402480A0350
1001
ACAD
1000
AcDbSavedByObjectVersion
1070
     0
  0
ACAD_PROXY_OBJECT
  5
39
102
{ACAD_REACTORS
330
2A
102
}
330
2A
100
AcDbProxyObject
 90
      499
 91
      501
 93
      444
310
42D19858D95C185D1D195C9B90F409028333333333333E33F0000000000000F9010790141107004050150841D405064090741402480A0350
1001
ACAD
1000
AcDbSavedByObjectVersion
1070
     0
  0
ACAD_PROXY_OBJECT
  5
2B
102
{ACAD_REACTORS
330
2A
102
}
330
2A
100
AcDbProxyObject
 90
      499
 91
      501
 93
      380
310
41119B185D240901404333333333333E33F0000000000000F9010740A907004050150841D405064090741402480A1B50
1001
ACAD
1000
AcDbSavedByObjectVersion
1070
     0
  0
ACAD_PROXY_OBJECT
  5
2C
102
{ACAD_REACTORS
330
2A
102
}
330
2A
100
AcDbProxyObject
 90
      499
 91
      501
 93
      468
310
43519B185D15DA5D1A115919D95CD0140901404333333333333E33F0000000000000F90107409019070040501600405405064090741402480A1B50
1001
ACAD
1000
AcDbSavedByObjectVersion
1070
     0
  0
ACAD_PROXY_OBJECT
  5
2D
102
{ACAD_REACTORS
330
2A
102
}
330
2A
100
AcDbProxyObject
 90
      499
 91
      501
 93
      404
310
41D1DBDD5C985D5910240902404333333333333E33F0000000000000F9010740A9070040501641D405064090741402480A1B50
1001
ACAD
1000
AcDbSavedByObjectVersion
1070
     0
  0
ACAD_PROXY_OBJECT
  5
2E
102
{ACAD_REACTORS
330
2A
102
}
330
2A
100
AcDbProxyObject
 90
      499
 91
      501
 93
      492
310
4411DBDD5C985D5915DA5D1A115919D95CD0340902404333333333333E33F0000000000000F90107409019070040501600405405064090741402480A1B50
1001
ACAD
1000
AcDbSavedByObjectVersion
1070
     0
  0
ACAD_PROXY_OBJECT
  5
31
102
{ACAD_REACTORS
330
2A
102
}
330
2A
100
AcDbProxyObject
 90
      499
 91
      501
 93
      476
310
41921A5919195B90640502408333333333333E33F0000000000000F901079024090700405020000000000001110200405405064090740C02480A0340
1001
ACAD
1000
AcDbSavedByObjectVersion
1070
     0
  0
ACAD_PROXY_OBJECT
  5
3B
102
{ACAD_REACTORS
330
2A
102
}
330
2A
100
AcDbProxyObject
 90
      499
 91
      501
 93
      428
310
42529A5D1D195C93D999914409028333333333333E33F0000000000000F9010790141107004050150A41D405064090741402480A0350
1001
ACAD
1000
AcDbSavedByObjectVersion
1070
     0
  0
ACAD_PROXY_OBJECT
  5
38
102
{ACAD_REACTORS
330
2A
102
}
330
2A
100
AcDbProxyObject
 90
      499
 91
      501
 93
      444
310
42D31A5B995C185D1D195C9B90E409028333333333333E33F0000000000000F9010790141107004050750841D405064090741402483A0350
1001
ACAD
1000
AcDbSavedByObjectVersion
1070
     0
  0
ACAD_PROXY_OBJECT
  5
3C
102
{ACAD_REACTORS
330
2A
102
}
330
2A
100
AcDbProxyObject
 90
      499
 91
      501
 93
      444
310
42D3DD995C9A185B99D3D999915409028333333333333E33F0000000000000F9010790141107004050150941D405064090741402480A0350
1001
ACAD
1000
AcDbSavedByObjectVersion
1070
     0
  0
ACAD_PROXY_OBJECT
  5
33
102
{ACAD_REACTORS
330
2A
102
}
330
2A
100
AcDbProxyObject
 90
      499
 91
      501
 93
      428
310
425499585B1A5CDD1A58D08409038333333333333E33F0000000000000F9010740A907004050150800405405064090740C02480A1B40
1001
ACAD
1000
AcDbSavedByObjectVersion
1070
     0
  0
ACAD_PROXY_OBJECT
  5
42
102
{ACAD_REACTORS
330
2A
102
}
330
2A
100
AcDbProxyObject
 90
      499
 91
      501
 93
      420
310
4194DA1859195911B40902404333333333333E33F0000000000000F9010740A41107004050150800405405064090840C02480A0B40
1001
ACAD
1000
AcDbSavedByObjectVersion
1070
     0
  0
ACAD_PROXY_OBJECT
  5
41
102
{ACAD_REACTORS
330
2A
102
}
330
2A
100
AcDbProxyObject
 90
      499
 91
      501
 93
      516
310
4454DA18591959081DDA5D1A08195919D95CD1A40902404333333333333E33F0000000000000F901074090142907004050250800405405064090740C02480A0B40
1001
ACAD
1000
AcDbSavedByObjectVersion
1070
     0
  0
ACAD_PROXY_OBJECT
  5
3E
102
{ACAD_REACTORS
330
2A
102
}
330
2A
100
AcDbProxyObject
 90
      499
 91
      501
 93
      532
310
4394DA1859195CC81BD98811DC985E5174090240C333333333333E33F0000000000000F901079024090741D01000000000000111010841D405064090740C02480A0340
1001
ACAD
1000
AcDbSavedByObjectVersion
1070
     0
  0
ACAD_PROXY_OBJECT
  5
3F
102
{ACAD_REACTORS
330
2A
102
}
330
2A
100
AcDbProxyObject
 90
      499
 91
      501
 93
      476
310
41D4DAD95D18DA1E51840502408333333333333E33F0000000000000F901079024090741D01000000000000111010B41D405064090741802480A0340
1001
ACAD
1000
AcDbSavedByObjectVersion
1070
     0
  0
ACAD_PROXY_OBJECT
  5
37
102
{ACAD_REACTORS
330
2A
102
}
330
2A
100
AcDbProxyObject
 90
      499
 91
      501
 93
      412
310
41D51A1A58DAD95B90D409028333333333333E33F0000000000000F9010790141107004050150C41D405064090741402480A0350
1001
ACAD
1000
AcDbSavedByObjectVersion
1070
     0
  0
ACAD_PROXY_OBJECT
  5
30
102
{ACAD_REACTORS
330
2A
102
}
330
2A
100
AcDbProxyObject
 90
      499
 91
      501
 93
      420
310
4255DA5C99599C985B595059028333333333333E33F0000000000000F90107901411070040501600405405064090740C02480A0340
1001
ACAD
1000
AcDbSavedByObjectVersion
1070
     0
  0
ACAD_PROXY_OBJECT
  5
40
102
{ACAD_REACTORS
330
2A
102
}
330
2A
100
AcDbProxyObject
 90
      499
 91
      501
 93
      404
310
41560B54985E51940902404000000000000E03F0000000000000F9010740501907004050150841D405064090740C02480A1B40
1001
ACAD
1000
AcDbSavedByObjectVersion
1070
     0
  0
XRECORD
  5
200
102
{ACAD_REACTORS
330
1F6
102
}
330
1F6
100
AcDbXrecord
340
0
  0
XRECORD
  5
1FF
102
{ACAD_REACTORS
330
1F6
102
}
330
1F6
100
AcDbXrecord
 90
        0
  0
XRECORD
  5
216
102
{ACAD_REACTORS
330
1F6
102
}
330
1F6
100
AcDbXrecord
1000
DSTYLE
1002
{
1070
   179
 70
     2
1070
   171
 70
     2
1070
   143
 40
25.4
1070
   274
 70
     2
1070
    41
 40
3.0
1070
   141
 40
0.09
1070
    43
 40
0.38
1070
   278
 70
    46
1070
    44
 40
1.5
1070
    42
 40
0.0625
1070
   147
 40
1.5
1070
   272
 70
     4
1070
    73
 70
     1
1070
   172
 70
     0
1070
    74
 70
     1
1070
   283
 70
     1
1070
   340
340
6E
1070
   140
 40
3.0
1070
   284
 70
     0
1070
    78
 70
     0
1002
}
  0
XRECORD
  5
201
102
{ACAD_REACTORS
330
1F6
102
}
330
1F6
100
AcDbXrecord
  1
{94CC3220-BC1E-49C3-96AC-682738BCBCF5}
  0
XRECORD
  5
1F9
102
{ACAD_REACTORS
330
1F6
102
}
330
1F6
100
AcDbXrecord
  1

  0
XRECORD
  5
1FE
102
{ACAD_REACTORS
330
1F6
102
}
330
1F6
100
AcDbXrecord
 90
        4
  0
XRECORD
  5
1FB
102
{ACAD_REACTORS
330
1F6
102
}
330
1F6
100
AcDbXrecord
340
1A
  0
XRECORD
  5
1FD
102
{ACAD_REACTORS
330
1F6
102
}
330
1F6
100
AcDbXrecord
 90
    10269
  0
XRECORD
  5
1FC
102
{ACAD_REACTORS
330
1F6
102
}
330
1F6
100
AcDbXrecord
340
19
  0
XRECORD
  5
203
102
{ACAD_REACTORS
330
1F6
102
}
330
1F6
100
AcDbXrecord
 40
0.0
  0
XRECORD
  5
206
102
{ACAD_REACTORS
330
1F6
102
}
330
1F6
100
AcDbXrecord
340
0
  0
XRECORD
  5
20C
102
{ACAD_REACTORS
330
1F6
102
}
330
1F6
100
AcDbXrecord
 10
0.0
 20
0.0
 30
0.0
  0
XRECORD
  5
208
102
{ACAD_REACTORS
330
1F6
102
}
330
1F6
100
AcDbXrecord
 10
0.0
 20
0.0
 30
0.0
  0
XRECORD
  5
20B
102
{ACAD_REACTORS
330
1F6
102
}
330
1F6
100
AcDbXrecord
 10
0.0
 20
0.0
 30
0.0
  0
XRECORD
  5
209
102
{ACAD_REACTORS
330
1F6
102
}
330
1F6
100
AcDbXrecord
 10
0.0
 20
0.0
 30
0.0
  0
XRECORD
  5
20A
102
{ACAD_REACTORS
330
1F6
102
}
330
1F6
100
AcDbXrecord
 10
0.0
 20
0.0
 30
0.0
  0
XRECORD
  5
207
102
{ACAD_REACTORS
330
1F6
102
}
330
1F6
100
AcDbXrecord
 10
0.0
 20
0.0
 30
0.0
  0
XRECORD
  5
204
102
{ACAD_REACTORS
330
1F6
102
}
330
1F6
100
AcDbXrecord
340
0
  0
XRECORD
  5
205
102
{ACAD_REACTORS
330
1F6
102
}
330
1F6
100
AcDbXrecord
 70
     0
  0
XRECORD
  5
1FA
102
{ACAD_REACTORS
330
1F6
102
}
330
1F6
100
AcDbXrecord
  1

  0
XRECORD
  5
1F7
102
{ACAD_REACTORS
330
1F6
102
}
330
1F6
100
AcDbXrecord
 90
        1
  0
XRECORD
  5
1F8
102
{ACAD_REACTORS
330
1F6
102
}
330
1F6
100
AcDbXrecord
 90
       70
  0
XRECORD
  5
20F
102
{ACAD_REACTORS
330
1F6
102
}
330
1F6
100
AcDbXrecord
340
0
  0
XRECORD
  5
215
102
{ACAD_REACTORS
330
1F6
102
}
330
1F6
100
AcDbXrecord
 10
0.0
 20
0.0
 30
0.0
  0
XRECORD
  5
211
102
{ACAD_REACTORS
330
1F6
102
}
330
1F6
100
AcDbXrecord
 10
0.0
 20
0.0
 30
0.0
  0
XRECORD
  5
214
102
{ACAD_REACTORS
330
1F6
102
}
330
1F6
100
AcDbXrecord
 10
0.0
 20
0.0
 30
0.0
  0
XRECORD
  5
212
102
{ACAD_REACTORS
330
1F6
102
}
330
1F6
100
AcDbXrecord
 10
0.0
 20
0.0
 30
0.0
  0
XRECORD
  5
213
102
{ACAD_REACTORS
330
1F6
102
}
330
1F6
100
AcDbXrecord
 10
0.0
 20
0.0
 30
0.0
  0
XRECORD
  5
210
102
{ACAD_REACTORS
330
1F6
102
}
330
1F6
100
AcDbXrecord
 10
0.0
 20
0.0
 30
0.0
  0
XRECORD
  5
20D
102
{ACAD_REACTORS
330
1F6
102
}
330
1F6
100
AcDbXrecord
340
0
  0
XRECORD
  5
20E
102
{ACAD_REACTORS
330
1F6
102
}
330
1F6
100
AcDbXrecord
 70
     0
  0
XRECORD
  5
202
102
{ACAD_REACTORS
330
1F6
102
}
330
1F6
100
AcDbXrecord
  1
{FAEB1C32-E019-11D5-929B-00C0DF256EC4}
  0
DICTIONARYVAR
  5
220
102
{ACAD_REACTORS
330
217
102
}
330
217
100
DictionaryVariables
280
     0
  1
1:1
  0
DICTIONARYVAR
  5
219
102
{ACAD_REACTORS
330
217
102
}
330
217
100
DictionaryVariables
280
     0
  1
Standard
  0
DICTIONARYVAR
  5
218
102
{ACAD_REACTORS
330
217
102
}
330
217
100
DictionaryVariables
280
     0
  1
Standard
  0
DICTIONARYVAR
  5
21C
102
{ACAD_REACTORS
330
217
102
}
330
217
100
DictionaryVariables
280
     0
  1
2
  0
DICTIONARYVAR
  5
21D
102
{ACAD_REACTORS
330
217
102
}
330
217
100
DictionaryVariables
280
     0
  1
1
  0
DICTIONARYVAR
  5
221
102
{ACAD_REACTORS
330
217
102
}
330
217
100
DictionaryVariables
280
     0
  1
1
  0
DICTIONARY
  5
224
330
45
100
AcDbDictionary
280
     1
  3
ACAD_XREC_ROUNDTRIP
360
225
  0
DICTIONARY
  5
222
330
44
100
AcDbDictionary
280
     1
  3
ACAD_XREC_ROUNDTRIP
360
223
  0
DICTIONARY
  5
226
330
46
100
AcDbDictionary
280
     1
  3
ACAD_XREC_ROUNDTRIP
360
227
  0
XRECORD
  5
225
102
{ACAD_REACTORS
330
224
102
}
330
224
100
AcDbXrecord
102
MATERIAL
148
0.0
149
0.0
149
0.0
 93
        0
 94
      127
282
     0
 72
     1
 77
     1
171
     1
175
     1
179
     1
273
     0
  0
XRECORD
  5
223
102
{ACAD_REACTORS
330
222
102
}
330
222
100
AcDbXrecord
102
MATERIAL
148
0.0
149
0.0
149
0.0
 93
        0
 94
      127
282
     0
 72
     1
 77
     1
171
     1
175
     1
179
     1
273
     0
  0
XRECORD
  5
227
102
{ACAD_REACTORS
330
226
102
}
330
226
100
AcDbXrecord
102
MATERIAL
148
0.0
149
0.0
149
0.0
 93
        0
 94
      127
282
     0
 72
     1
 77
     1
171
     1
175
     1
179
     1
273
     0
  0
ENDSEC
  0
EOF
