  0
SECTION
  2
HEADER
  9
$ACADVER
  1
AC1014
  9
$ACADMAINTVER
 70
     9
  9
$DWGCODEPAGE
  3
ANSI_932
  9
$INSBASE
 10
0.0
 20
0.0
 30
0.0
  9
$EXTMIN
 10
450.1278722852172
 20
139.7125109416031
 30
0.0
  9
$EXTMAX
 10
914.8714705926849
 20
257.6044426528237
 30
0.0
  9
$LIMMIN
 10
0.0
 20
0.0
  9
$LIMMAX
 10
12.0
 20
9.0
  9
$ORTHOMODE
 70
     0
  9
$REGENMODE
 70
     1
  9
$FILLMODE
 70
     1
  9
$QTEXTMODE
 70
     0
  9
$MIRRTEXT
 70
     1
  9
$DRAGMODE
 70
     2
  9
$LTSCALE
 40
1.0
  9
$OSMODE
 70
    37
  9
$ATTMODE
 70
     1
  9
$TEXTSIZE
 40
0.2
  9
$TRACEWID
 40
0.05
  9
$TEXTSTYLE
  7
STANDARD
  9
$CLAYER
  8
0
  9
$CELTYPE
  6
BYLAYER
  9
$CECOLOR
 62
   256
  9
$CELTSCALE
 40
1.0
  9
$DELOBJ
 70
     1
  9
$DISPSILH
 70
     0
  9
$DIMSCALE
 40
1.0
  9
$DIMASZ
 40
3.0
  9
$DIMEXO
 40
0.0625
  9
$DIMDLI
 40
0.38
  9
$DIMRND
 40
0.0
  9
$DIMDLE
 40
0.0
  9
$DIMEXE
 40
1.5
  9
$DIMTP
 40
0.0
  9
$DIMTM
 40
0.0
  9
$DIMTXT
 40
3.0
  9
$DIMCEN
 40
0.09
  9
$DIMTSZ
 40
0.0
  9
$DIMTOL
 70
     0
  9
$DIMLIM
 70
     0
  9
$DIMTIH
 70
     1
  9
$DIMTOH
 70
     1
  9
$DIMSE1
 70
     0
  9
$DIMSE2
 70
     0
  9
$DIMTAD
 70
     1
  9
$DIMZIN
 70
     0
  9
$DIMBLK
  1

  9
$DIMASO
 70
     1
  9
$DIMSHO
 70
     1
  9
$DIMPOST
  1

  9
$DIMAPOST
  1

  9
$DIMALT
 70
     0
  9
$DIMALTD
 70
     2
  9
$DIMALTF
 40
25.4
  9
$DIMLFAC
 40
1.0
  9
$DIMTOFL
 70
     0
  9
$DIMTVP
 40
0.0
  9
$DIMTIX
 70
     0
  9
$DIMSOXD
 70
     0
  9
$DIMSAH
 70
     0
  9
$DIMBLK1
  1

  9
$DIMBLK2
  1

  9
$DIMSTYLE
  2
STANDARD
  9
$DIMCLRD
 70
     0
  9
$DIMCLRE
 70
     0
  9
$DIMCLRT
 70
     0
  9
$DIMTFAC
 40
1.0
  9
$DIMGAP
 40
1.5
  9
$DIMJUST
 70
     0
  9
$DIMSD1
 70
     0
  9
$DIMSD2
 70
     0
  9
$DIMTOLJ
 70
     1
  9
$DIMTZIN
 70
     0
  9
$DIMALTZ
 70
     0
  9
$DIMALTTZ
 70
     0
  9
$DIMFIT
 70
     3
  9
$DIMUPT
 70
     0
  9
$DIMUNIT
 70
     2
  9
$DIMDEC
 70
     2
  9
$DIMTDEC
 70
     4
  9
$DIMALTU
 70
     2
  9
$DIMALTTD
 70
     2
  9
$DIMTXSTY
  7
ＭＳ_ゴシック
  9
$DIMAUNIT
 70
     0
  9
$LUNITS
 70
     2
  9
$LUPREC
 70
     4
  9
$SKETCHINC
 40
0.1
  9
$FILLETRAD
 40
0.5
  9
$AUNITS
 70
     0
  9
$AUPREC
 70
     0
  9
$MENU
  1
.
  9
$ELEVATION
 40
0.0
  9
$PELEVATION
 40
0.0
  9
$THICKNESS
 40
0.0
  9
$LIMCHECK
 70
     0
  9
$CHAMFERA
 40
0.0
  9
$CHAMFERB
 40
0.0
  9
$CHAMFERC
 40
0.0
  9
$CHAMFERD
 40
0.0
  9
$SKPOLY
 70
     0
  9
$TDCREATE
 40
2459548.623574514
  9
$TDUPDATE
 40
2459548.623574803
  9
$TDINDWG
 40
0.0000000116
  9
$TDUSRTIMER
 40
0.0000000116
  9
$USRTIMER
 70
     1
  9
$ANGBASE
 50
0.0
  9
$ANGDIR
 70
     0
  9
$PDMODE
 70
     0
  9
$PDSIZE
 40
0.0
  9
$PLINEWID
 40
0.0
  9
$COORDS
 70
     1
  9
$SPLFRAME
 70
     0
  9
$SPLINETYPE
 70
     6
  9
$SPLINESEGS
 70
     8
  9
$ATTDIA
 70
     0
  9
$ATTREQ
 70
     1
  9
$HANDLING
 70
     1
  9
$HANDSEED
  5
24C
  9
$SURFTAB1
 70
     6
  9
$SURFTAB2
 70
     6
  9
$SURFTYPE
 70
     6
  9
$SURFU
 70
     6
  9
$SURFV
 70
     6
  9
$UCSNAME
  2

  9
$UCSORG
 10
0.0
 20
0.0
 30
0.0
  9
$UCSXDIR
 10
1.0
 20
0.0
 30
0.0
  9
$UCSYDIR
 10
0.0
 20
1.0
 30
0.0
  9
$PUCSNAME
  2

  9
$PUCSORG
 10
0.0
 20
0.0
 30
0.0
  9
$PUCSXDIR
 10
1.0
 20
0.0
 30
0.0
  9
$PUCSYDIR
 10
0.0
 20
1.0
 30
0.0
  9
$USERI1
 70
     0
  9
$USERI2
 70
     0
  9
$USERI3
 70
     0
  9
$USERI4
 70
     0
  9
$USERI5
 70
     0
  9
$USERR1
 40
0.0
  9
$USERR2
 40
0.0
  9
$USERR3
 40
0.0
  9
$USERR4
 40
0.0
  9
$USERR5
 40
0.0
  9
$WORLDVIEW
 70
     1
  9
$SHADEDGE
 70
     3
  9
$SHADEDIF
 70
    70
  9
$TILEMODE
 70
     1
  9
$MAXACTVP
 70
    64
  9
$PINSBASE
 10
0.0
 20
0.0
 30
0.0
  9
$PLIMCHECK
 70
     0
  9
$PEXTMIN
 10
1.000000000000000E+20
 20
1.000000000000000E+20
 30
1.000000000000000E+20
  9
$PEXTMAX
 10
-1.000000000000000E+20
 20
-1.000000000000000E+20
 30
-1.000000000000000E+20
  9
$PLIMMIN
 10
0.0
 20
0.0
  9
$PLIMMAX
 10
12.0
 20
9.0
  9
$UNITMODE
 70
     0
  9
$VISRETAIN
 70
     1
  9
$PLINEGEN
 70
     0
  9
$PSLTSCALE
 70
     1
  9
$TREEDEPTH
 70
  3020
  9
$PICKSTYLE
 70
     1
  9
$CMLSTYLE
  2
STANDARD
  9
$CMLJUST
 70
     0
  9
$CMLSCALE
 40
1.0
  9
$PROXYGRAPHICS
 70
     1
  9
$MEASUREMENT
 70
     1
  0
ENDSEC
  0
SECTION
  2
CLASSES
  0
CLASS
  1
ACDBDICTIONARYWDFLT
  2
AcDbDictionaryWithDefault
  3
ObjectDBX Classes
 90
        0
280
     0
281
     0
  0
CLASS
  1
VISUALSTYLE
  2
AcDbVisualStyle
  3
ObjectDBX Classes
 90
     4095
280
     0
281
     0
  0
CLASS
  1
MATERIAL
  2
AcDbMaterial
  3
ObjectDBX Classes
 90
     1153
280
     0
281
     0
  0
CLASS
  1
SCALE
  2
AcDbScale
  3
ObjectDBX Classes
 90
     1153
280
     0
281
     0
  0
CLASS
  1
TABLESTYLE
  2
AcDbTableStyle
  3
ObjectDBX Classes
 90
     4095
280
     0
281
     0
  0
CLASS
  1
MLEADERSTYLE
  2
AcDbMLeaderStyle
  3
ACDB_MLEADERSTYLE_CLASS
 90
     4095
280
     0
281
     0
  0
CLASS
  1
SUN
  2
AcDbSun
  3
SCENEOE
 90
     1153
280
     0
281
     0
  0
CLASS
  1
DICTIONARYVAR
  2
AcDbDictionaryVar
  3
ObjectDBX Classes
 90
        0
280
     0
281
     0
  0
CLASS
  1
XRECORD
  2
AcDbXrecord
  3
ObjectDBX Classes
 90
        0
280
     0
281
     0
  0
CLASS
  1
LWPOLYLINE
  2
AcDbPolyline
  3
ObjectDBX Classes
 90
        0
280
     0
281
     1
  0
CLASS
  1
HATCH
  2
AcDbHatch
  3
ObjectDBX Classes
 90
        0
280
     0
281
     1
  0
CLASS
  1
ACDBPLACEHOLDER
  2
AcDbPlaceHolder
  3
ObjectDBX Classes
 90
        0
280
     0
281
     0
  0
CLASS
  1
LAYOUT
  2
AcDbLayout
  3
ObjectDBX Classes
 90
        0
280
     0
281
     0
  0
ENDSEC
  0
SECTION
  2
TABLES
  0
TABLE
  2
VPORT
  5
8
102
{ACAD_XDICTIONARY
360
241
102
}
330
0
100
AcDbSymbolTable
 70
     1
  0
VPORT
  5
29
330
8
100
AcDbSymbolTableRecord
100
AcDbViewportTableRecord
  2
*ACTIVE
 70
     0
 10
0.0
 20
0.0
 11
1.0
 21
1.0
 12
682.499671438951
 22
198.6584767972134
 13
0.0
 23
0.0
 14
0.5
 24
0.5
 15
0.5
 25
0.5
 16
0.0
 26
0.0
 36
1.0
 17
0.0
 27
0.0
 37
0.0
 40
117.8919317112206
 41
1.6
 42
50.0
 43
0.0
 44
0.0
 50
0.0
 51
0.0
 71
     0
 72
   100
 73
     1
 74
     3
 75
     0
 76
     0
 77
     0
 78
     0
  0
ENDTAB
  0
TABLE
  2
LTYPE
  5
5
330
0
100
AcDbSymbolTable
 70
     2
  0
LTYPE
  5
14
330
5
100
AcDbSymbolTableRecord
100
AcDbLinetypeTableRecord
  2
BYBLOCK
 70
     0
  3

 72
    65
 73
     0
 40
0.0
  0
LTYPE
  5
15
330
5
100
AcDbSymbolTableRecord
100
AcDbLinetypeTableRecord
  2
BYLAYER
 70
     0
  3

 72
    65
 73
     0
 40
0.0
  0
LTYPE
  5
16
330
5
100
AcDbSymbolTableRecord
100
AcDbLinetypeTableRecord
  2
CONTINUOUS
 70
     0
  3
Solid line
 72
    65
 73
     0
 40
0.0
  0
LTYPE
  5
FA
330
5
100
AcDbSymbolTableRecord
100
AcDbLinetypeTableRecord
  2
CENTER
 70
     0
  3

 72
    65
 73
     0
 40
0.0
  0
ENDTAB
  0
TABLE
  2
LAYER
  5
2
330
0
100
AcDbSymbolTable
 70
     1
  0
LAYER
  5
10
330
2
100
AcDbSymbolTableRecord
100
AcDbLayerTableRecord
  2
0
 70
     0
 62
     7
  6
CONTINUOUS
  0
ENDTAB
  0
TABLE
  2
STYLE
  5
3
330
0
100
AcDbSymbolTable
 70
     2
  0
STYLE
  5
11
330
3
100
AcDbSymbolTableRecord
100
AcDbTextStyleTableRecord
  2
STANDARD
 70
     0
 40
0.0
 41
1.0
 50
0.0
 71
     0
 42
0.2
  3
txt
  4

  0
STYLE
  5
6E
330
3
100
AcDbSymbolTableRecord
100
AcDbTextStyleTableRecord
  2
ＭＳ_ゴシック
 70
     0
 40
0.0
 41
1.0
 50
0.0
 71
     0
 42
0.2
  3
ＭＳ ゴシック.shx
  4

  0
ENDTAB
  0
TABLE
  2
VIEW
  5
6
330
0
100
AcDbSymbolTable
 70
     0
  0
ENDTAB
  0
TABLE
  2
UCS
  5
7
330
0
100
AcDbSymbolTable
 70
     0
  0
ENDTAB
  0
TABLE
  2
APPID
  5
9
330
0
100
AcDbSymbolTable
 70
     2
  0
APPID
  5
12
330
9
100
AcDbSymbolTableRecord
100
AcDbRegAppTableRecord
  2
ACAD
 70
     0
  0
APPID
  5
24B
330
9
100
AcDbSymbolTableRecord
100
AcDbRegAppTableRecord
  2
ACAD_MLEADERVER
 70
     0
  0
ENDTAB
  0
TABLE
  2
DIMSTYLE
  5
A
330
0
100
AcDbSymbolTable
 70
     1
  0
DIMSTYLE
105
27
330
A
100
AcDbSymbolTableRecord
100
AcDbDimStyleTableRecord
  2
STANDARD
 70
     0
  3

  4

  5

  6

  7

 40
1.0
 41
0.18
 42
0.0625
 43
0.38
 44
0.18
 45
0.0
 46
0.0
 47
0.0
 48
0.0
140
0.18
141
0.09
142
0.0
143
25.4
144
1.0
145
0.0
146
1.0
147
0.09
 71
     0
 72
     0
 73
     1
 74
     1
 75
     0
 76
     0
 77
     0
 78
     0
170
     0
171
     2
172
     0
173
     0
174
     0
175
     0
176
     0
177
     0
178
     0
270
     2
271
     4
272
     4
273
     2
274
     2
340
11
275
     0
280
     0
281
     0
282
     0
283
     1
284
     0
285
     0
286
     0
287
     3
288
     0
  0
ENDTAB
  0
TABLE
  2
BLOCK_RECORD
  5
1
330
0
100
AcDbSymbolTable
 70
     0
  0
BLOCK_RECORD
  5
1F
330
1
100
AcDbSymbolTableRecord
100
AcDbBlockTableRecord
  2
*MODEL_SPACE
  0
BLOCK_RECORD
  5
1B
330
1
100
AcDbSymbolTableRecord
100
AcDbBlockTableRecord
  2
*PAPER_SPACE
  0
ENDTAB
  0
ENDSEC
  0
SECTION
  2
BLOCKS
  0
BLOCK
  5
20
330
1F
100
AcDbEntity
  8
0
100
AcDbBlockBegin
  2
*MODEL_SPACE
 70
     0
 10
0.0
 20
0.0
 30
0.0
  3
*MODEL_SPACE
  1

  0
ENDBLK
  5
21
330
1F
100
AcDbEntity
  8
0
100
AcDbBlockEnd
  0
BLOCK
  5
1C
330
1B
100
AcDbEntity
 67
     1
  8
0
100
AcDbBlockBegin
  2
*PAPER_SPACE
 70
     0
 10
0.0
 20
0.0
 30
0.0
  3
*PAPER_SPACE
  1

  0
ENDBLK
  5
1D
330
1B
100
AcDbEntity
 67
     1
  8
0
100
AcDbBlockEnd
  0
ENDSEC
  0
SECTION
  2
ENTITIES
  0
LWPOLYLINE
  5
6F
330
1F
100
AcDbEntity
  8
0
  6
CONTINUOUS
 62
     7
100
AcDbPolyline
 90
        3
 70
     0
 43
0.0
 10
789.6057618640151
 20
170.323334000056
 10
789.6719163329477
 20
170.1823371269645
 10
789.7691799153873
 20
170.104759951751
  0
LWPOLYLINE
  5
70
330
1F
100
AcDbEntity
  8
0
  6
CONTINUOUS
 62
     7
100
AcDbPolyline
 90
        3
 70
     0
 43
0.0
 10
679.6034547794068
 20
170.3299835502757
 10
679.6715961133742
 20
170.1829646822148
 10
679.7691619601399
 20
170.1047599517545
  0
LWPOLYLINE
  5
71
330
1F
100
AcDbEntity
  8
0
  6
CONTINUOUS
 62
     7
100
AcDbPolyline
 90
      105
 70
     0
 43
0.0
 10
764.650630738612
 20
254.7055783251749
 10
764.6956080200557
 20
254.4385323550966
 10
764.7405853014993
 20
254.1373653122722
 10
764.785562582943
 20
253.8022627676356
 10
764.8305398643865
 20
253.433410292121
 10
764.8755171458303
 20
253.0309980034075
 10
764.920494427274
 20
252.5953391991994
 10
764.9654717087176
 20
252.1268816759326
 10
765.0104489901612
 20
251.6260800460151
 10
765.0554262716049
 20
251.0933889218548
 10
765.1004035530484
 20
250.5292629158596
 10
765.1453808344922
 20
249.9341566404375
 10
765.1903581159359
 20
249.3085247079964
 10
765.2353353973795
 20
248.6528217309443
 10
765.2803126788232
 20
247.967502321689
 10
765.3252899602668
 20
247.2530224912457
 10
765.3702672417104
 20
246.5099237708159
 10
765.4152445231541
 20
245.738881178363
 10
765.4602218045977
 20
244.9405813240263
 10
765.5051990860414
 20
244.1157108179452
 10
765.5501763674849
 20
243.2649562702591
 10
765.5951536489285
 20
242.3890042911076
 10
765.6401309303723
 20
241.4885414906299
 10
765.6851082118158
 20
240.5642544789654
 10
765.7300854932595
 20
239.6168298662536
 10
765.775062774703
 20
238.6469544805929
 10
765.8200400561466
 20
237.6553643642632
 10
765.8650173375902
 20
236.6429068775917
 10
765.9099946190338
 20
235.6104446805497
 10
765.9549719004774
 20
234.5588404331092
 10
765.9999491819211
 20
233.4889567952417
 10
766.0449264633645
 20
232.4016564269189
 10
766.0899037448081
 20
231.2978019881126
 10
766.1348810262518
 20
230.1782561387943
 10
766.1798583076956
 20
229.0438815389359
 10
766.224835589139
 20
227.8955408522255
 10
766.2698128705827
 20
226.7341176919665
 10
766.3147901520263
 20
225.5605658123847
 10
766.35976743347
 20
224.3758536300996
 10
766.4047447149136
 20
223.1809495617311
 10
766.4497219963572
 20
221.9768220238986
 10
766.4946992778008
 20
220.7644394332215
 10
766.5396765592444
 20
219.5447702063196
 10
766.5846538406884
 20
218.3187827598125
 10
766.629631122132
 20
217.0874455103196
 10
766.6746084035756
 20
215.8517268744606
 10
766.7195856850192
 20
214.6125987977153
 10
766.7645629664628
 20
213.3710509734055
 10
766.8095402479065
 20
212.1280786621448
 10
766.8545175293502
 20
210.8846771265172
 10
766.8994948107938
 20
209.6418416291068
 10
766.9444720922374
 20
208.4005674324974
 10
766.989449373681
 20
207.161849799273
 10
767.0344266551249
 20
205.9266839920176
 10
767.0794039365684
 20
204.6960652733151
 10
767.124381218012
 20
203.4709889057495
 10
767.1693584994557
 20
202.2524457221237
 10
767.2143357808993
 20
201.0413925606488
 10
767.2593130623428
 20
199.8387705174251
 10
767.3042903437864
 20
198.6455206027945
 10
767.34926762523
 20
197.4625838270993
 10
767.3942449066737
 20
196.2909012006813
 10
767.4392221881172
 20
195.1314137338827
 10
767.4841994695608
 20
193.9850624370455
 10
767.5291767510043
 20
192.8527883205119
 10
767.5741540324481
 20
191.7355323946239
 10
767.6191313138919
 20
190.6342296012079
 10
767.6641085953353
 20
189.5497406437975
 10
767.7090858767789
 20
188.4828765168892
 10
767.7540631582226
 20
187.4344473010791
 10
767.7990404396661
 20
186.4052630769633
 10
767.8440177211098
 20
185.3961339251378
 10
767.8889950025535
 20
184.407869926199
 10
767.9339722839973
 20
183.4412811607427
 10
767.9789495654408
 20
182.4971777093652
 10
768.0239268468845
 20
181.5763696526626
 10
768.068904128328
 20
180.6796625320452
 10
768.1138814097718
 20
179.807765429043
 10
768.1588586912154
 20
178.9612951811922
 10
768.2038359726591
 20
178.1408649305484
 10
768.2488132541027
 20
177.3470878191674
 10
768.2937905355462
 20
176.5805769891049
 10
768.3387678169898
 20
175.8419455824168
 10
768.3837450984337
 20
175.1318067411588
 10
768.4287223798772
 20
174.4507736073865
 10
768.4736996613208
 20
173.7994593231559
 10
768.5186769427645
 20
173.1784747451185
 10
768.5636542242081
 20
172.5883313658077
 10
768.6086315056518
 20
172.0294051620002
 10
768.6536087870954
 20
171.5020623758024
 10
768.698586068539
 20
171.0066692493207
 10
768.7435633499827
 20
170.5435920246619
 10
768.7885406314264
 20
170.1131969439323
 10
768.8335179128699
 20
169.7158502492384
 10
768.8784951943135
 20
169.3519181826868
 10
768.9234724757572
 20
169.0217669863839
 10
768.9684497572008
 20
168.7257622163424
 10
769.0134270386444
 20
168.4641829634997
 10
769.0584043200879
 20
168.2371385036953
 10
769.1033816015316
 20
168.0447183361304
 10
769.1483588829753
 20
167.8870119600057
 10
769.1933361644187
 20
167.764108874522
 10
769.2383134458628
 20
167.6760985788803
 10
769.2832907273063
 20
167.6230705722813
 10
769.3282680087509
 20
167.6051143539259
  0
LWPOLYLINE
  5
72
330
1F
100
AcDbEntity
  8
0
  6
CONTINUOUS
 62
     7
100
AcDbPolyline
 90
      113
 70
     0
 43
0.0
 10
734.6504330873997
 20
254.7069746731256
 10
734.6921971045011
 20
254.4603946536515
 10
734.7339611216025
 20
254.1842709827538
 10
734.775725138704
 20
253.8787092546713
 10
734.8174891558056
 20
253.5438782051925
 10
734.8592531729071
 20
253.180084126507
 10
734.9010171900082
 20
252.787651419076
 10
734.9427812071098
 20
252.3669044833607
 10
734.9845452242113
 20
251.9181677198223
 10
735.0263092413126
 20
251.4417655289218
 10
735.068073258414
 20
250.9380223111204
 10
735.1098372755152
 20
250.4072624668794
 10
735.1516012926168
 20
249.8498103966598
 10
735.1933653097183
 20
249.2659905009229
 10
735.2351293268197
 20
248.6561279889006
 10
735.276893343921
 20
248.0206142802748
 10
735.3186573610224
 20
247.3599551345644
 10
735.3604213781238
 20
246.6746676560915
 10
735.4021853952252
 20
245.9652689491785
 10
735.4439494123266
 20
245.2322761181477
 10
735.4857134294277
 20
244.4762062673213
 10
735.5274774465294
 20
243.6975765010218
 10
735.5692414636306
 20
242.8969039235714
 10
735.611005480732
 20
242.0747056392923
 10
735.6527694978333
 20
241.231498752507
 10
735.6945335149348
 20
240.3678017196007
 10
735.7362975320361
 20
239.4841932090431
 10
735.7780615491375
 20
238.5813348453845
 10
735.819825566239
 20
237.6598943009603
 10
735.8615895833404
 20
236.720539248106
 10
735.9033536004417
 20
235.7639373591568
 10
735.9451176175431
 20
234.7907563064484
 10
735.9868816346446
 20
233.8016637623161
 10
736.0286456517459
 20
232.7973273990953
 10
736.0704096688473
 20
231.7784148891214
 10
736.1121736859486
 20
230.74559390473
 10
736.1539377030501
 20
229.6995337015562
 10
736.1957017201515
 20
228.6409473145661
 10
736.2374657372529
 20
227.5705960874161
 10
736.2792297543543
 20
226.489243855688
 10
736.3209937714556
 20
225.3976544549635
 10
736.3627577885572
 20
224.2965917208244
 10
736.4045218056584
 20
223.1868194888523
 10
736.4462858227599
 20
222.0691015946291
 10
736.4880498398613
 20
220.9442018737364
 10
736.5298138569626
 20
219.812884161756
 10
736.5715778740641
 20
218.6759122942697
 10
736.6133418911655
 20
217.5340510314898
 10
736.655105908267
 20
216.3880823614012
 10
736.6968699253683
 20
215.238803516217
 10
736.7386339424698
 20
214.0870122542102
 10
736.7803979595711
 20
212.9335063336538
 10
736.8221619766726
 20
211.779083512821
 10
736.863925993774
 20
210.6245415499849
 10
736.9056900108756
 20
209.4706782034187
 10
736.947454027977
 20
208.3182912313952
 10
736.9892180450784
 20
207.1681783921878
 10
737.03098206218
 20
206.0211374440693
 10
737.0727460792814
 20
204.8779648410567
 10
737.1145100963826
 20
203.7394397597747
 10
737.1562741134841
 20
202.6063291358075
 10
737.1980381305855
 20
201.4793996454003
 10
737.2398021476869
 20
200.359417964798
 10
737.2815661647883
 20
199.2471507702457
 10
737.3233301818896
 20
198.1433647379885
 10
737.3650941989911
 20
197.0488265442714
 10
737.4068582160925
 20
195.9643028653394
 10
737.4486222331939
 20
194.8905603774376
 10
737.4903862502954
 20
193.8283657568111
 10
737.5321502673967
 20
192.7784799556812
 10
737.5739142844978
 20
191.7416080299361
 10
737.6156783015994
 20
190.7184234588258
 10
737.6574423187008
 20
189.7095993645431
 10
737.6992063358022
 20
188.7158088692807
 10
737.7409703529034
 20
187.7377250952313
 10
737.782734370005
 20
186.7760211645879
 10
737.8244983871061
 20
185.8313701995431
 10
737.8662624042076
 20
184.9044453222898
 10
737.908026421309
 20
183.9959196550206
 10
737.9497904384104
 20
183.1064663199284
 10
737.991554455512
 20
182.2367457464124
 10
738.0333184726132
 20
181.3873247402768
 10
738.0750824897146
 20
180.5587282168779
 10
738.1168465068162
 20
179.7514808955121
 10
738.1586105239176
 20
178.9661074954755
 10
738.200374541019
 20
178.2031327360644
 10
738.2421385581204
 20
177.4630813365752
 10
738.2839025752218
 20
176.746478016304
 10
738.3256665923232
 20
176.0538474945472
 10
738.3674306094246
 20
175.3857144906009
 10
738.4091946265261
 20
174.7426037237616
 10
738.4509586436276
 20
174.1250178148662
 10
738.4927226607291
 20
173.533334320114
 10
738.5344866778304
 20
172.9678868477642
 10
738.5762506949318
 20
172.4290089578683
 10
738.6180147120332
 20
171.9170342104778
 10
738.6597787291346
 20
171.432296165644
 10
738.701542746236
 20
170.9751283834185
 10
738.7433067633374
 20
170.5458644238525
 10
738.7850707804388
 20
170.1448378469977
 10
738.8268347975402
 20
169.7723822129053
 10
738.8685988146415
 20
169.4288310816268
 10
738.910362831743
 20
169.1144848238105
 10
738.9521268488444
 20
168.8294984470753
 10
738.9938908659457
 20
168.573987173348
 10
739.0356548830471
 20
168.3480662235508
 10
739.0774189001485
 20
168.1518508186061
 10
739.1191829172499
 20
167.9854561794361
 10
739.1609469343514
 20
167.8489975269632
 10
739.2027109514527
 20
167.7425900821098
 10
739.244474968554
 20
167.666349065798
 10
739.2862389856556
 20
167.6203896989502
 10
739.3280030027565
 20
167.6048271963909
  0
LWPOLYLINE
  5
73
330
1F
100
AcDbEntity
  8
0
  6
CONTINUOUS
 62
     7
100
AcDbPolyline
 90
      105
 70
     0
 43
0.0
 10
774.6505397127346
 20
254.7060732019409
 10
774.695515346553
 20
254.4390343019426
 10
774.7404909803714
 20
254.1378972206246
 10
774.7854666141897
 20
253.8028654213047
 10
774.8304422480081
 20
253.4341423673003
 10
774.8754178818264
 20
253.031931521929
 10
774.9203935156447
 20
252.5964605004629
 10
774.9653691494631
 20
252.1281268357774
 10
775.0103447832817
 20
251.6274009857326
 10
775.0553204170999
 20
251.0947536883144
 10
775.1002960509182
 20
250.5306556815084
 10
775.1452716847367
 20
249.9355777033006
 10
775.1902473185552
 20
249.3099904916767
 10
775.2352229523738
 20
248.6543647846227
 10
775.280198586192
 20
247.9691713201242
 10
775.3251742200105
 20
247.2548808361672
 10
775.3701498538288
 20
246.5119760382324
 10
775.4151254876472
 20
245.7410724915376
 10
775.4601011214655
 20
244.9428685943899
 10
775.5050767552838
 20
244.1180640017204
 10
775.5500523891022
 20
243.2673583684606
 10
775.5950280229205
 20
242.3914513495417
 10
775.6400036567388
 20
241.4910425998949
 10
775.6849792905572
 20
240.5668317744516
 10
775.7299549243754
 20
239.6195185281431
 10
775.7749305581938
 20
238.6498025159007
 10
775.819906192012
 20
237.6583879920261
 10
775.8648818258303
 20
236.6460661660601
 10
775.9098574596486
 20
235.6137058731327
 10
775.954833093467
 20
234.5621786742764
 10
775.9998087272851
 20
233.4923561305242
 10
776.0447843611034
 20
232.4051098029087
 10
776.0897599949217
 20
231.3013112524626
 10
776.1347356287401
 20
230.1818320402189
 10
776.1797112625584
 20
229.04754372721
 10
776.2246868963767
 20
227.8993178744689
 10
776.2696625301951
 20
226.738027180957
 10
776.3146381640134
 20
225.5645866801226
 10
776.3596137978318
 20
224.3799653234206
 10
776.4045894316503
 20
223.1851355595047
 10
776.4495650654686
 20
221.9810698370287
 10
776.4945406992872
 20
220.7687406046461
 10
776.5395163331054
 20
219.5491203110107
 10
776.5844919669239
 20
218.3231814047762
 10
776.6294676007421
 20
217.0918963345962
 10
776.6744432345606
 20
215.8562375491244
 10
776.719418868379
 20
214.6171775692584
 10
776.7643945021974
 20
213.3756960446314
 10
776.8093701360157
 20
212.1327856775835
 10
776.854345769834
 20
210.8894405651589
 10
776.8993214036525
 20
209.6466548044014
 10
776.9442970374707
 20
208.4054224923549
 10
776.9892726712891
 20
207.1667377260633
 10
777.0342483051073
 20
205.9315946025705
 10
777.0792239389257
 20
204.7009872189205
 10
777.124199572744
 20
203.4759096721572
 10
777.1691752065624
 20
202.2573560346721
 10
777.2141508403807
 20
201.0463059912812
 10
777.259126474199
 20
199.843700673948
 10
777.3041021080172
 20
198.6504748248732
 10
777.3490777418358
 20
197.4675631862582
 10
777.394053375654
 20
196.2959005003036
 10
777.4390290094726
 20
195.1364215092108
 10
777.4840046432907
 20
193.9900609551805
 10
777.5289802771092
 20
192.8577535804139
 10
777.5739559109275
 20
191.7404341271119
 10
777.6189315447457
 20
190.6390373374755
 10
777.6639071785642
 20
189.5544753933586
 10
777.7088828123825
 20
188.4875701289074
 10
777.7538584462006
 20
187.4391207647306
 10
777.7988340800192
 20
186.4099265214369
 10
777.8438097138376
 20
185.4007866196352
 10
777.8887853476559
 20
184.4125002799339
 10
777.9337609814743
 20
183.445866722942
 10
777.9787366152927
 20
182.5016851692679
 10
778.0237122491111
 20
181.5807548395204
 10
778.0686878829295
 20
180.6838749543082
 10
778.1136635167477
 20
179.8118231928249
 10
778.1586391505662
 20
178.9652469471322
 10
778.2036147843845
 20
178.1447448771613
 10
778.2485904182029
 20
177.3509155580519
 10
778.2935660520212
 20
176.5843575649437
 10
778.3385416858397
 20
175.8456694729765
 10
778.3835173196578
 20
175.1354498572898
 10
778.4284929534764
 20
174.4542972930236
 10
778.4734685872945
 20
173.8028103553172
 10
778.518444221113
 20
173.1815876193107
 10
778.5634198549313
 20
172.5912116430879
 10
778.6083954887495
 20
172.0321146839532
 10
778.6533711225678
 20
171.5046467367333
 10
778.6983467563861
 20
171.0091569566642
 10
778.7433223902044
 20
170.5459944989816
 10
778.7882980240228
 20
170.1155085189212
 10
778.833273657841
 20
169.7180481717188
 10
778.8782492916591
 20
169.3539626126101
 10
778.9232249254776
 20
169.023600996831
 10
778.9682005592961
 20
168.7273124796173
 10
779.0131761931142
 20
168.4654366222504
 10
779.0581518269327
 20
168.2381646054108
 10
779.1031274607511
 20
168.0455708660805
 10
779.1481030945694
 20
167.8877266889454
 10
779.193078728388
 20
167.7647033586915
 10
779.2380543622063
 20
167.6765721600048
 10
779.2830299960247
 20
167.6234043775711
 10
779.3280056298433
 20
167.6052712960765
  0
LWPOLYLINE
  5
74
330
1F
100
AcDbEntity
  8
0
  6
CONTINUOUS
 62
     7
100
AcDbPolyline
 90
      105
 70
     0
 43
0.0
 10
664.6488005799373
 20
254.7162050087297
 10
664.6937979007614
 20
254.450092381996
 10
664.7387952215854
 20
254.1497826529249
 10
664.7837925424095
 20
253.8155615610155
 10
664.8287898632337
 20
253.4477148457673
 10
664.8737871840578
 20
253.0465282466795
 10
664.9187845048821
 20
252.6122875032515
 10
664.963781825706
 20
252.1452783549825
 10
665.0087791465302
 20
251.6457865413718
 10
665.0537764673543
 20
251.1141182805709
 10
665.0987737881784
 20
250.5507410054505
 10
665.1437711090025
 20
249.9561984548758
 10
665.1887684298265
 20
249.3310348234539
 10
665.2337657506507
 20
248.6757943057927
 10
665.2787630714747
 20
247.9910210964995
 10
665.3237603922987
 20
247.2772593901821
 10
665.3687577131229
 20
246.5350533814477
 10
665.4137550339469
 20
245.764947264904
 10
665.4587523547709
 20
244.9674852351585
 10
665.503749675595
 20
244.1432212591294
 10
665.548746996419
 20
243.2928303383207
 10
665.5937443172432
 20
242.4170692410891
 10
665.6387416380672
 20
241.5166962738715
 10
665.6837389588912
 20
240.5924697431042
 10
665.7287362797153
 20
239.6451479552242
 10
665.7737336005395
 20
238.6754892166679
 10
665.8187309213635
 20
237.6842518338721
 10
665.8637282421877
 20
236.6721941132733
 10
665.9087255630116
 20
235.6400743613082
 10
665.9537228838359
 20
234.5886544191656
 10
665.9987202046599
 20
233.5187708446971
 10
666.043717525484
 20
232.431331428651
 10
666.0887148463081
 20
231.3272467992763
 10
666.1337121671322
 20
230.2074275848219
 10
666.1787094879564
 20
229.0727844135367
 10
666.2237068087805
 20
227.9242279136697
 10
666.2687041296045
 20
226.7626687134697
 10
666.3137014504285
 20
225.5890174411858
 10
666.3586987712528
 20
224.4041847250668
 10
666.4036960920769
 20
223.2090819492846
 10
666.4486934129008
 20
222.0046522315347
 10
666.493690733725
 20
220.7918813241259
 10
666.5386880545491
 20
219.5717579752767
 10
666.5836853753731
 20
218.3452709332056
 10
666.6286826961972
 20
217.1134089461315
 10
666.6736800170213
 20
215.8771607622729
 10
666.7186773378454
 20
214.6375151298484
 10
666.7636746586693
 20
213.3954607970768
 10
666.8086719794934
 20
212.1519865121766
 10
666.8536693003175
 20
210.9080810165123
 10
666.8986666211415
 20
209.6647322703928
 10
666.9436639419657
 20
208.4229267425146
 10
666.9886612627898
 20
207.1836507336778
 10
667.0336585836139
 20
205.9478905446823
 10
667.078655904438
 20
204.7166324763285
 10
667.1236532252622
 20
203.4908628294164
 10
667.1686505460862
 20
202.2715679047461
 10
667.2136478669104
 20
201.0597340031179
 10
667.2586451877344
 20
199.8563474253318
 10
667.3036425085584
 20
198.6623944451972
 10
667.3486398293825
 20
197.478841789363
 10
667.3936371502066
 20
196.3066021882875
 10
667.4386344710307
 20
195.14657912739
 10
667.4836317918547
 20
193.9996760920902
 10
667.5286291126788
 20
192.8667965678073
 10
667.5736264335029
 20
191.7488440399608
 10
667.6186237543269
 20
190.6467219939701
 10
667.663621075151
 20
189.5613339152546
 10
667.7086183959751
 20
188.4935832892337
 10
667.7536157167992
 20
187.4443736013269
 10
667.7986130376233
 20
186.4145827334887
 10
667.8436103584473
 20
185.4049842832208
 10
667.8886076792713
 20
184.416325300753
 10
667.9336050000956
 20
183.4493528363092
 10
667.9786023209195
 20
182.5048139401137
 10
668.0235996417437
 20
181.5834556623906
 10
668.0685969625677
 20
180.6860250533638
 10
668.1135942833918
 20
179.8132691632576
 10
668.1585916042159
 20
178.9659350422961
 10
668.2035889250401
 20
178.1447697407032
 10
668.2485862458641
 20
177.3504970395735
 10
668.2935835666882
 20
176.5836996535181
 10
668.3385808875123
 20
175.8449074181208
 10
668.3835782083364
 20
175.1346500755975
 10
668.4285755291605
 20
174.4534573681638
 10
668.4735728499847
 20
173.8018590380357
 10
668.5185701708087
 20
173.1803848274287
 10
668.5635674916329
 20
172.5895644785588
 10
668.608564812457
 20
172.0299277336416
 10
668.6535621332812
 20
171.5020043348931
 10
668.6985594541052
 20
171.0063070112393
 10
668.7435567749293
 20
170.5431910662701
 10
668.7885540957534
 20
170.1129266060713
 10
668.8335514165774
 20
169.7157828992133
 10
668.8785487374015
 20
169.3520292142664
 10
668.9235460582256
 20
169.0219348198011
 10
668.9685433790496
 20
168.7257689843877
 10
669.0135406998736
 20
168.4638009765966
 10
669.0585380206978
 20
168.2363000649981
 10
669.1035353415218
 20
168.0435355181626
 10
669.1485326623459
 20
167.885766401317
 10
669.1935299831699
 20
167.7630995391695
 10
669.2385273039941
 20
167.6755247817925
 10
669.2835246248181
 20
167.6230289829685
 10
669.3285219456423
 20
167.6055989964802
  0
LWPOLYLINE
  5
75
330
1F
100
AcDbEntity
  8
0
  6
CONTINUOUS
 62
     7
100
AcDbPolyline
 90
      105
 70
     0
 43
0.0
 10
654.6502367419023
 20
254.7080926860185
 10
654.6952127787345
 20
254.4410443864646
 10
654.7401888155666
 20
254.1398730977254
 10
654.7851648523988
 20
253.8048466070732
 10
654.8301408892311
 20
253.4362327017804
 10
654.8751169260631
 20
253.0342991691191
 10
654.9200929628956
 20
252.5993137963619
 10
654.9650689997277
 20
252.1315443707807
 10
655.0100450365601
 20
251.6312628249476
 10
655.0550210733923
 20
251.098858718754
 10
655.0999971102244
 20
250.5348531391962
 10
655.1449731470565
 20
249.9397741094033
 10
655.1899491838889
 20
249.3141496525048
 10
655.2349252207209
 20
248.6585077916296
 10
655.2799012575531
 20
247.9733765499069
 10
655.3248772943854
 20
247.2592839504659
 10
655.3698533312177
 20
246.5167580164359
 10
655.4148293680496
 20
245.746326770946
 10
655.459805404882
 20
244.9485194382293
 10
655.504781441714
 20
244.1239439527141
 10
655.5497574785462
 20
243.2733342314809
 10
655.5947335153785
 20
242.3974355079573
 10
655.6397095522107
 20
241.4969930155705
 10
655.6846855890429
 20
240.5727519877481
 10
655.729661625875
 20
239.6254576579176
 10
655.7746376627072
 20
238.6558552595063
 10
655.8196136995394
 20
237.6646900259418
 10
655.8645897363715
 20
236.6527071906515
 10
655.9095657732037
 20
235.620652153409
 10
655.9545418100361
 20
234.5693130970331
 10
655.9995178468681
 20
233.4995776451851
 10
656.0444938837005
 20
232.412347516818
 10
656.0894699205327
 20
231.3085244308847
 10
656.134445957365
 20
230.1890101063383
 10
656.1794219941972
 20
229.0547062621318
 10
656.2243980310294
 20
227.9065146172182
 10
656.2693740678616
 20
226.7453368905504
 10
656.3143501046939
 20
225.5720748010815
 10
656.3593261415261
 20
224.3876300694499
 10
656.4043021783583
 20
223.1929204057052
 10
656.4492782151905
 20
221.9889186607236
 10
656.4942542520226
 20
220.7766095631084
 10
656.5392302888547
 20
219.5569778414626
 10
656.584206325687
 20
218.3310082243892
 10
656.6291823625193
 20
217.0996854404914
 10
656.6741583993513
 20
215.8639942183722
 10
656.7191344361836
 20
214.6249192866348
 10
656.7641104730158
 20
213.3834453738822
 10
656.8090865098479
 20
212.1405572087176
 10
656.8540625466801
 20
210.8972398718721
 10
656.8990385835124
 20
209.6544802708677
 10
656.9440146203445
 20
208.4132659038078
 10
656.9889906571768
 20
207.1745842690927
 10
657.033966694009
 20
205.9394228651227
 10
657.0789427308413
 20
204.708769190298
 10
657.1239187676734
 20
203.4836107430188
 10
657.1688948045058
 20
202.2649350216855
 10
657.2138708413379
 20
201.0537295246982
 10
657.2588468781701
 20
199.8509817504572
 10
657.3038229150022
 20
198.6576731037011
 10
657.3487989518346
 20
197.4747366013849
 10
657.3937749886667
 20
196.3030821881876
 10
657.4387510254988
 20
195.1436196667592
 10
657.4837270623311
 20
193.997258839749
 10
657.5287030991632
 20
192.8649095098069
 10
657.5736791359956
 20
191.7474814795827
 10
657.6186551728275
 20
190.6458845517257
 10
657.6636312096598
 20
189.5610285288859
 10
657.7086072464922
 20
188.4938232137129
 10
657.7535832833242
 20
187.4451717148148
 10
657.7985593201564
 20
186.4158919014313
 10
657.8435353569886
 20
185.4067429075509
 10
657.8885113938207
 20
184.4184827055036
 10
657.933487430653
 20
183.4518692676191
 10
657.9784634674853
 20
182.5076605662273
 10
658.0234395043173
 20
181.5866145736581
 10
658.0684155411495
 20
180.6894892622412
 10
658.1133915779819
 20
179.8170426043067
 10
658.158367614814
 20
178.9700325721842
 10
658.2033436516463
 20
178.1492125245588
 10
658.2483196884783
 20
177.3552326663057
 10
658.2932957253106
 20
176.5886416666339
 10
658.3382717621429
 20
175.8499839047608
 10
658.3832477989749
 20
175.1398037599041
 10
658.4282238358071
 20
174.4586456112815
 10
658.4731998726395
 20
173.8070538381105
 10
658.5181759094716
 20
173.1855728196087
 10
658.5631519463038
 20
172.5947469349939
 10
658.608127983136
 20
172.0351205634836
 10
658.6531040199683
 20
171.5072359033982
 10
658.6980800568004
 20
171.0115332850393
 10
658.7430560936326
 20
170.5483098768356
 10
658.788032130465
 20
170.1178521065708
 10
658.833008167297
 20
169.7204464020281
 10
658.8779842041291
 20
169.3563791909911
 10
658.9229602409614
 20
169.0259369012433
 10
658.9679362777936
 20
168.7294059605683
 10
659.0129123146257
 20
168.4670727967494
 10
659.0578883514579
 20
168.2392238375703
 10
659.1028643882901
 20
168.0461449077731
 10
659.1478404251224
 20
167.8880360843146
 10
659.1928164619547
 20
167.7649235503286
 10
659.2377924987868
 20
167.6768124428167
 10
659.2827685356191
 20
167.6237078987807
 10
659.327744572451
 20
167.6056150552221
  0
LWPOLYLINE
  5
76
330
1F
100
AcDbEntity
  8
0
  6
CONTINUOUS
 62
     7
100
AcDbPolyline
 90
      105
 70
     0
 43
0.0
 10
-790.8280036202723
 20
255.6040386679173
 10
-790.8729871642211
 20
255.5870341248086
 10
-790.9179707081698
 20
255.5349234141333
 10
-790.9629542521186
 20
255.4476625780488
 10
-791.0079377960674
 20
255.3252129847716
 10
-791.0529213400163
 20
255.1676687011067
 10
-791.0979048839649
 20
254.9752624188789
 10
-791.1428884279139
 20
254.7482333419689
 10
-791.1878719718627
 20
254.486820674257
 10
-791.2328555158114
 20
254.1912636196234
 10
-791.2778390597603
 20
253.861801381949
 10
-791.3228226037091
 20
253.4986731651138
 10
-791.3678061476578
 20
253.1021181729984
 10
-791.4127896916068
 20
252.6723756094833
 10
-791.4577732355556
 20
252.2096865475509
 10
-791.5027567795044
 20
251.7143924808736
 10
-791.547740323453
 20
251.1869841632038
 10
-791.5927238674019
 20
250.6279644688009
 10
-791.6377074113506
 20
250.0378362719243
 10
-791.6826909552993
 20
249.4171024468338
 10
-791.727674499248
 20
248.7662658677887
 10
-791.7726580431967
 20
248.0858294090485
 10
-791.8176415871454
 20
247.3762959448728
 10
-791.8626251310943
 20
246.638168349521
 10
-791.907608675043
 20
245.8719498655024
 10
-791.9525922189918
 20
245.0782088136993
 10
-791.9975757629403
 20
244.2576527999482
 10
-792.0425593068892
 20
243.4110073925656
 10
-792.087542850838
 20
242.5389981598675
 10
-792.1325263947866
 20
241.6423506701705
 10
-792.1775099387354
 20
240.7217904917905
 10
-792.2224934826842
 20
239.778043193044
 10
-792.2674770266328
 20
238.8118343422472
 10
-792.3124605705816
 20
237.8238895077164
 10
-792.3574441145304
 20
236.8149342720918
 10
-792.4024276584792
 20
235.7857285690669
 10
-792.4474112024279
 20
234.7371403580208
 10
-792.4923947463768
 20
233.6700587789503
 10
-792.5373782903257
 20
232.5853729718522
 10
-792.5823618342745
 20
231.4839720767232
 10
-792.6273453782234
 20
230.3667452335601
 10
-792.6723289221721
 20
229.2345815823597
 10
-792.717312466121
 20
228.0883702631187
 10
-792.76229601007
 20
226.9290004158339
 10
-792.8072795540187
 20
225.757361180502
 10
-792.8522630979676
 20
224.5743545747782
 10
-792.8972466419162
 20
223.3809431097384
 10
-792.9422301858649
 20
222.178107043846
 10
-792.9872137298138
 20
220.9668266378895
 10
-793.0321972737626
 20
219.7480821526574
 10
-793.0771808177116
 20
218.522853848938
 10
-793.12216436166
 20
217.2921219875196
 10
-793.1671479056089
 20
216.0568668291909
 10
-793.2121314495577
 20
214.8180686347399
 10
-793.2571149935063
 20
213.5767076649553
 10
-793.302098537455
 20
212.3337651852162
 10
-793.3470820814039
 20
211.0902295986426
 10
-793.3920656253524
 20
209.8470923986283
 10
-793.4370491693012
 20
208.6053450909568
 10
-793.4820327132497
 20
207.3659791814117
 10
-793.5270162571984
 20
206.1299861757763
 10
-793.5719998011471
 20
204.8983575798344
 10
-793.6169833450958
 20
203.6720848993695
 10
-793.6619668890446
 20
202.4521596401649
 10
-793.7069504329934
 20
201.2395733080043
 10
-793.751933976942
 20
200.0353137939659
 10
-793.7969175208909
 20
198.8403286698358
 10
-793.8419010648397
 20
197.6555402808121
 10
-793.8868846087885
 20
196.4818705855871
 10
-793.9318681527374
 20
195.3202415428532
 10
-793.9768516966863
 20
194.1715751113029
 10
-794.021835240635
 20
193.0367932496285
 10
-794.0668187845838
 20
191.9168179165223
 10
-794.1118023285327
 20
190.8125710706769
 10
-794.1567858724815
 20
189.7249746707844
 10
-794.2017694164302
 20
188.6549467949017
 10
-794.2467529603792
 20
187.6033323013201
 10
-794.2917365043279
 20
186.5709107636214
 10
-794.3367200482769
 20
185.558459468312
 10
-794.3817035922256
 20
184.5667557018979
 10
-794.4266871361743
 20
183.5965767508854
 10
-794.4716706801232
 20
182.6486999017806
 10
-794.5166542240719
 20
181.7239024410898
 10
-794.5616377680207
 20
180.8229616553192
 10
-794.6066213119695
 20
179.9466548309749
 10
-794.6516048559182
 20
179.0957568693918
 10
-794.696588399867
 20
178.2709550797444
 10
-794.7415719438156
 20
177.4728258685523
 10
-794.7865554877644
 20
176.7019385135422
 10
-794.8315390317131
 20
175.9588622924408
 10
-794.8765225756619
 20
175.2441664829751
 10
-794.9215061196106
 20
174.5584203628718
 10
-794.9664896635593
 20
173.9021932098577
 10
-795.011473207508
 20
173.2760543016596
 10
-795.0564567514566
 20
172.6805729160043
 10
-795.1014402954056
 20
172.1163174433161
 10
-795.1464238393542
 20
171.5837718246858
 10
-795.1914073833029
 20
171.083267061038
 10
-795.2363909272518
 20
170.6151180341624
 10
-795.2813744712006
 20
170.1796396258485
 10
-795.3263580151494
 20
169.7771467178861
 10
-795.371341559098
 20
169.4079541920647
 10
-795.4163251030468
 20
169.072376930174
 10
-795.4613086469955
 20
168.7707298140036
 10
-795.5062921909434
 20
168.5033277253484
210
0.0
220
0.0
230
-1.0
  0
LWPOLYLINE
  5
77
330
1F
100
AcDbEntity
  8
0
  6
CONTINUOUS
 62
     7
100
AcDbPolyline
 90
      105
 70
     0
 43
0.0
 10
-780.8284244931945
 20
255.6041709058184
 10
-780.8734050566562
 20
255.5868658628113
 10
-780.9183856201182
 20
255.53440604234
 10
-780.96336618358
 20
255.4467293834967
 10
-781.0083467470416
 20
255.3238435023171
 10
-781.0533273105034
 20
255.1659398232925
 10
-781.0983078739653
 20
254.9732397268828
 10
-781.143288437427
 20
254.7459645935481
 10
-781.1882690008888
 20
254.4843358037486
 10
-781.2332495643506
 20
254.1885747379444
 10
-781.2782301278123
 20
253.8589027765955
 10
-781.323210691274
 20
253.4955413001621
 10
-781.3681912547358
 20
253.0987116891042
 10
-781.4131718181976
 20
252.6686353238922
 10
-781.4581523816595
 20
252.2055786622147
 10
-781.5031329451214
 20
251.7099851749895
 10
-781.548113508583
 20
251.1823417775354
 10
-781.593094072045
 20
250.6231353851711
 10
-781.6380746355068
 20
250.0328529132154
 10
-781.6830551989686
 20
249.4119812769872
 10
-781.7280357624307
 20
248.7610073918052
 10
-781.7730163258924
 20
248.0804181729882
 10
-781.8179968893544
 20
247.370700535855
 10
-781.862977452816
 20
246.6323413957243
 10
-781.9079580162779
 20
245.8658525665749
 10
-781.9529385797397
 20
245.071892934227
 10
-781.9979191432017
 20
244.2511751926755
 10
-782.0428997066634
 20
243.4044121161775
 10
-782.0878802701251
 20
242.5323164789903
 10
-782.132860833587
 20
241.635601055371
 10
-782.1778413970487
 20
240.7149786195769
 10
-782.2228219605105
 20
239.7711619458651
 10
-782.2678025239723
 20
238.8048638084929
 10
-782.312783087434
 20
237.8167969817173
 10
-782.3577636508959
 20
236.8076854080796
 10
-782.4027442143578
 20
235.7783547636059
 10
-782.4477247778195
 20
234.7296850896423
 10
-782.4927053412813
 20
233.6625569395221
 10
-782.5376859047434
 20
232.5778508665787
 10
-782.5826664682052
 20
231.4764474241454
 10
-782.627647031667
 20
230.3592271655557
 10
-782.6726275951288
 20
229.2270706441428
 10
-782.7176081585908
 20
228.0808584132402
 10
-782.7625887220524
 20
226.9214710261812
 10
-782.8075692855144
 20
225.7497925205984
 10
-782.8525498489761
 20
224.566758745737
 10
-782.897530412438
 20
223.3733452705505
 10
-782.9425109758997
 20
222.1705286762372
 10
-782.9874915393615
 20
220.9592855439953
 10
-783.0324721028235
 20
219.7405924550234
 10
-783.0774526662852
 20
218.5154259905197
 10
-783.122433229747
 20
217.2847627316825
 10
-783.1674137932089
 20
216.0495792597103
 10
-783.2123943566704
 20
214.8108521558013
 10
-783.2573749201323
 20
213.5695582799109
 10
-783.3023554835942
 20
212.3266820287111
 10
-783.3473360470558
 20
211.0832160194462
 10
-783.3923166105177
 20
209.8401532852116
 10
-783.4372971739793
 20
208.5984868591025
 10
-783.4822777374413
 20
207.3592097742145
 10
-783.527258300903
 20
206.123315063643
 10
-783.5722388643647
 20
204.8917957604832
 10
-783.6172194278265
 20
203.6656448978308
 10
-783.6621999912884
 20
202.445855508781
 10
-783.7071805547502
 20
201.2334202337565
 10
-783.752161118212
 20
200.0293079007531
 10
-783.7971416816739
 20
198.8344502828328
 10
-783.8421222451358
 20
197.6497759484501
 10
-783.8871028085975
 20
196.4762134660593
 10
-783.9320833720594
 20
195.3146914041147
 10
-783.9770639355214
 20
194.1661383310706
 10
-784.0220444989833
 20
193.0314828153815
 10
-784.067025062445
 20
191.9116534255016
 10
-784.1120056259069
 20
190.8075787298853
 10
-784.1569861893688
 20
189.7201871184291
 10
-784.2019667528307
 20
188.6503676401406
 10
-784.2469473162924
 20
187.5989208277548
 10
-784.2919278797544
 20
186.5666351213987
 10
-784.3369084432163
 20
185.5542989611992
 10
-784.3818890066782
 20
184.5627007872831
 10
-784.4268695701402
 20
183.5926290397773
 10
-784.4718501336017
 20
182.6448721588085
 10
-784.5168306970637
 20
181.7202185845037
 10
-784.5618112605252
 20
180.8194567569898
 10
-784.6067918239871
 20
179.9433751082194
 10
-784.6517723874489
 20
179.0927212875817
 10
-784.6967529509106
 20
178.2681074600012
 10
-784.7417335143725
 20
177.47011769184
 10
-784.7867140778341
 20
176.6993360494599
 10
-784.8316946412958
 20
175.9563465992231
 10
-784.8766752047575
 20
175.2417334074914
 10
-784.9216557682191
 20
174.5560805406269
 10
-784.966636331681
 20
173.8999720649916
 10
-785.0116168951427
 20
173.2739920469474
 10
-785.0565974586048
 20
172.6787245528563
 10
-785.1015780220662
 20
172.1147201656538
 10
-785.1465585855282
 20
171.5823627748025
 10
-785.19153914899
 20
171.0819844968474
 10
-785.2365197124519
 20
170.6139174321871
 10
-785.2815002759138
 20
170.1784936812204
 10
-785.3264808393758
 20
169.7760453443462
 10
-785.3714614028377
 20
169.4069045219631
 10
-785.4164419662995
 20
169.0714033144699
 10
-785.4614225297613
 20
168.7698738222654
 10
-785.5064030932219
 20
168.5026481457557
210
0.0
220
0.0
230
-1.0
  0
LWPOLYLINE
  5
78
330
1F
100
AcDbEntity
  8
0
  6
CONTINUOUS
 62
     7
100
AcDbPolyline
 90
        3
 70
     0
 43
0.0
 10
779.600774640976
 20
170.3369951723368
 10
779.6688511466748
 20
170.1871395806147
 10
779.7692038716284
 20
170.1047599517499
  0
LWPOLYLINE
  5
79
330
1F
100
AcDbEntity
  8
0
  6
CONTINUOUS
 62
     7
100
AcDbPolyline
 90
        3
 70
     0
 43
0.0
 10
659.6615001082217
 20
170.1999086359679
 10
659.7296262735521
 20
170.11784773592
 10
659.7691501575603
 20
170.1047599517634
  0
LWPOLYLINE
  5
7A
330
1F
100
AcDbEntity
  8
0
  6
CONTINUOUS
 62
     7
100
AcDbPolyline
 90
      105
 70
     0
 43
0.0
 10
784.6505905131864
 20
254.7058300262374
 10
784.6955689563318
 20
254.4386585539339
 10
784.7405473994774
 20
254.1373939419348
 10
784.785525842623
 20
253.8022575394356
 10
784.8305042857685
 20
253.4334706956317
 10
784.8754827289139
 20
253.0312547597187
 10
784.9204611720595
 20
252.5958312915055
 10
784.9654396152051
 20
252.127491554745
 10
785.0104180583504
 20
251.6266969308762
 10
785.0553965014961
 20
251.0939342664529
 10
785.1003749446418
 20
250.5296904080289
 10
785.1453533877874
 20
249.9344522021581
 10
785.190331830933
 20
249.3087064953943
 10
785.2353102740785
 20
248.6529401342914
 10
785.2802887172242
 20
247.9676399654031
 10
785.3252671603698
 20
247.2532928352835
 10
785.3702456035153
 20
246.5103855918238
 10
785.415224046661
 20
245.7394465510456
 10
785.4602024898065
 20
244.9411543402485
 10
785.505180932952
 20
244.1162216330277
 10
785.5501593760976
 20
243.2653611029784
 10
785.5951378192432
 20
242.3892854236956
 10
785.6401162623888
 20
241.4887072687747
 10
785.6850947055342
 20
240.5643393118106
 10
785.7300731486798
 20
239.6168942263987
 10
785.7750515918253
 20
238.647084686134
 10
785.820030034971
 20
237.6556233646118
 10
785.8650084781166
 20
236.6432431511048
 10
785.9099869212619
 20
235.6107871009596
 10
785.9549653644076
 20
234.5591356130803
 10
785.9999438075531
 20
233.4891691164433
 10
786.0449222506986
 20
232.4017680400254
 10
786.0899006938444
 20
231.2978128128031
 10
786.1348791369898
 20
230.178183863753
 10
786.1798575801354
 20
229.043761621852
 10
786.2248360232809
 20
227.8954265160765
 10
786.2698144664265
 20
226.7340589754033
 10
786.314792909572
 20
225.5605465147997
 10
786.3597713527178
 20
224.3758358750379
 10
786.4047497958632
 20
223.1809032842231
 10
786.4497282390088
 20
221.9767251856355
 10
786.4947066821544
 20
220.764278022555
 10
786.5396851252998
 20
219.5445382382615
 10
786.5846635684454
 20
218.3184822760353
 10
786.6296420115909
 20
217.0870865791562
 10
786.6746204547364
 20
215.8513275909044
 10
786.7195988978821
 20
214.6121817545598
 10
786.7645773410275
 20
213.3706261887616
 10
786.8095557841731
 20
212.127647115591
 10
786.8545342273186
 20
210.8842372854769
 10
786.8995126704641
 20
209.6413895912729
 10
786.9444911136095
 20
208.4000969258327
 10
786.9894695567551
 20
207.1613521820099
 10
787.0344479999007
 20
205.9261482526582
 10
787.0794264430461
 20
204.6954780306311
 10
787.1244048861915
 20
203.4703344087823
 10
787.1693833293373
 20
202.2517102799656
 10
787.2143617724829
 20
201.0405972612753
 10
787.2593402156284
 20
199.8379564270613
 10
787.3043186587739
 20
198.6447176268385
 10
787.3492971019194
 20
197.4618092979236
 10
787.394275545065
 20
196.2901598776333
 10
787.4392539882108
 20
195.1306978032841
 10
787.4842324313562
 20
193.9843515121926
 10
787.5292108745019
 20
192.8520494416757
 10
787.5741893176476
 20
191.7347200290499
 10
787.6191677607931
 20
190.6332917116318
 10
787.6641462039388
 20
189.5486918714109
 10
787.7091246470845
 20
188.4817938634916
 10
787.7541030902299
 20
187.4333922478384
 10
787.7990815333756
 20
186.4042753532302
 10
787.8440599765211
 20
185.395231508446
 10
787.8890384196668
 20
184.4070490422647
 10
787.9340168628122
 20
183.4405162834651
 10
787.9789953059578
 20
182.4964215608261
 10
788.0239737491033
 20
181.5755532031266
 10
788.0689521922488
 20
180.6786995391455
 10
788.1139306353942
 20
179.8066485307383
 10
788.1589090785399
 20
178.9601276330646
 10
788.2038875216855
 20
178.1397369385259
 10
788.2488659648309
 20
177.3460604309988
 10
788.2938444079763
 20
176.5796820943602
 10
788.3388228511217
 20
175.841185912487
 10
788.3838012942672
 20
175.131155869256
 10
788.4287797374127
 20
174.4501759485439
 10
788.4737581805582
 20
173.7988301342277
 10
788.5187366237037
 20
173.1777024101841
 10
788.5637150668492
 20
172.587376734022
 10
788.6086935099946
 20
172.0283834590412
 10
788.6536719531404
 20
171.5010867489517
 10
788.6986503962861
 20
171.0058186572513
 10
788.7436288394317
 20
170.5429112374376
 10
788.7886072825773
 20
170.1126965430081
 10
788.833585725723
 20
169.7155066274607
 10
788.8785641688685
 20
169.351673544293
 10
788.9235426120142
 20
169.0215293470026
 10
788.9685210551597
 20
168.7254060890872
 10
789.0134994983055
 20
168.4636358240446
 10
789.0584779414509
 20
168.2365107152575
 10
789.1034563845965
 20
168.0441376093715
 10
789.1484348277421
 20
167.8865695781276
 10
789.1934132708875
 20
167.76385968752
 10
789.2383917140332
 20
167.6760610035435
 10
789.2833701571786
 20
167.6232265921925
 10
789.3283486003232
 20
167.6054095194619
  0
LWPOLYLINE
  5
7B
330
1F
100
AcDbEntity
  8
0
  6
CONTINUOUS
 62
     7
100
AcDbPolyline
 90
      113
 70
     0
 43
0.0
 10
724.6508144501754
 20
254.7050083901649
 10
724.6925810487896
 20
254.4581253763616
 10
724.7343476474033
 20
254.1816380732313
 10
724.7761142460175
 20
253.8756654980859
 10
724.8178808446316
 20
253.5404720435399
 10
724.8596474432455
 20
253.1763687316286
 10
724.9014140418595
 20
252.7836666058593
 10
724.9431806404735
 20
252.3626767097394
 10
724.9849472390875
 20
251.9137100867763
 10
725.0267138377017
 20
251.4370777804775
 10
725.0684804363157
 20
250.9330908343503
 10
725.1102470349297
 20
250.4020602919022
 10
725.1520136335437
 20
249.8442971966406
 10
725.1937802321577
 20
249.2601125920729
 10
725.2355468307718
 20
248.6498501695245
 10
725.2773134293859
 20
248.0139835744793
 10
725.3190800279998
 20
247.353018782459
 10
725.360846626614
 20
246.6674617689855
 10
725.402613225228
 20
245.9578185095804
 10
725.4443798238418
 20
245.2245949797656
 10
725.4861464224562
 20
244.468297155063
 10
725.52791302107
 20
243.6894310109942
 10
725.5696796196843
 20
242.8885025230811
 10
725.6114462182982
 20
242.0660176668454
 10
725.6532128169123
 20
241.2224824346132
 10
725.6949794155263
 20
240.3584356431927
 10
725.7367460141404
 20
239.4745174680598
 10
725.7785126127546
 20
238.5713875877245
 10
725.8202792113685
 20
237.6497056806965
 10
725.8620458099826
 20
236.7101314254859
 10
725.9038124085969
 20
235.7533245006024
 10
725.9455790072107
 20
234.7799445845558
 10
725.9873456058249
 20
233.7906513558562
 10
726.0291122044389
 20
232.7861044930134
 10
726.0708788030529
 20
231.7669636745371
 10
726.1126454016669
 20
230.73388866392
 10
726.1544120002811
 20
229.6875657119821
 10
726.196178598895
 20
228.6287449955789
 10
726.237945197509
 20
227.5581861428125
 10
726.2797117961231
 20
226.4766487817848
 10
726.3214783947371
 20
225.3848925405975
 10
726.3632449933511
 20
224.2836770473527
 10
726.4050115919651
 20
223.1737619301523
 10
726.446778190579
 20
222.055906817098
 10
726.4885447891932
 20
220.9308713362919
 10
726.5303113878073
 20
219.7994151158359
 10
726.5720779864213
 20
218.6622978919949
 10
726.6138445850353
 20
217.5202915765267
 10
726.6556111836494
 20
216.3741912523676
 10
726.6973777822632
 20
215.2247945994997
 10
726.7391443808773
 20
214.0728992979054
 10
726.7809109794914
 20
212.9193030275668
 10
726.8226775781053
 20
211.7648034684661
 10
726.8644441767194
 20
210.6101983005857
 10
726.9062107753334
 20
209.4562852039075
 10
726.9479773739474
 20
208.303861858414
 10
726.9897439725615
 20
207.1537259440873
 10
727.0315105711755
 20
206.00667496021
 10
727.0732771697895
 20
204.8634962582819
 10
727.1150437684037
 20
203.7249618474186
 10
727.1568103670177
 20
202.5918424611427
 10
727.1985769656317
 20
201.4649088329769
 10
727.2403435642457
 20
200.3449316964438
 10
727.2821101628597
 20
199.2326817850659
 10
727.3238767614738
 20
198.1289298323659
 10
727.3656433600879
 20
197.0344465718663
 10
727.4074099587019
 20
195.9500027370898
 10
727.449176557316
 20
194.8763690615592
 10
727.49094315593
 20
193.8143151066687
 10
727.5327097545439
 20
192.764571571843
 10
727.5744763531579
 20
191.7278222420628
 10
727.616242951772
 20
190.7047481017628
 10
727.6580095503859
 20
189.6960301353776
 10
727.6997761490001
 20
188.7023493273418
 10
727.7415427476142
 20
187.7243866620901
 10
727.7833093462282
 20
186.7628231240571
 10
727.8250759448423
 20
185.8183396976774
 10
727.8668425434563
 20
184.8916173673856
 10
727.9086091420703
 20
183.9833371176163
 10
727.9503757406844
 20
183.0941766613322
 10
727.9921423392985
 20
182.2247429279627
 10
728.0339089379124
 20
181.3755744561143
 10
728.0756755365267
 20
180.5472069916408
 10
728.1174421351405
 20
179.7401762803957
 10
728.1592087337546
 20
178.9550180682326
 10
728.2009753323686
 20
178.1922681010056
 10
728.2427419309826
 20
177.452462124568
 10
728.2845085295968
 20
176.7361358847737
 10
728.3262751282108
 20
176.0438251274762
 10
728.3680417268248
 20
175.3760655985293
 10
728.4098083254388
 20
174.7333862965331
 10
728.4515749240529
 20
174.1162146347189
 10
728.493341522667
 20
173.5248995040523
 10
728.535108121281
 20
172.9597877569673
 10
728.576874719895
 20
172.4212262458975
 10
728.6186413185092
 20
171.9095618232771
 10
728.6604079171232
 20
171.4251413415396
 10
728.7021745157372
 20
170.9683116531191
 10
728.7439411143513
 20
170.5394196104495
 10
728.7857077129653
 20
170.1388120659644
 10
728.8274743115795
 20
169.7668358720979
 10
728.8692409101935
 20
169.4238263144365
 10
728.9110075088074
 20
169.1099921974584
 10
728.9527741074215
 20
168.8254643624913
 10
728.9945407060355
 20
168.5703725055454
 10
729.0363073046498
 20
168.3448463226308
 10
729.0780739032638
 20
168.1490155097578
 10
729.1198405018779
 20
167.9830097629365
 10
729.1616071004919
 20
167.8469587781771
 10
729.2033736991059
 20
167.7409922514897
 10
729.2451402977199
 20
167.6652398788847
 10
729.286906896334
 20
167.6198313563723
 10
729.3286734949482
 20
167.6048791229896
  0
LWPOLYLINE
  5
7C
330
1F
100
AcDbEntity
  8
0
  6
CONTINUOUS
 62
     7
100
AcDbPolyline
 90
        3
 70
     0
 43
0.0
 10
689.6104454685692
 20
170.3113645037274
 10
689.676609685046
 20
170.1750549215456
 10
689.7691787899272
 20
170.1047599517843
  0
LWPOLYLINE
  5
7D
330
1F
100
AcDbEntity
  8
0
  6
CONTINUOUS
 62
     7
100
AcDbPolyline
 90
        3
 70
     0
 43
0.0
 10
769.6581091151426
 20
170.2058836060777
 10
769.724314573584
 20
170.1212559272992
 10
769.7692316454485
 20
170.1047599517894
  0
LWPOLYLINE
  5
7E
330
1F
100
AcDbEntity
  8
0
  6
CONTINUOUS
 62
     7
100
AcDbPolyline
 90
      113
 70
     0
 43
0.0
 10
704.6505359022585
 20
254.7068144576452
 10
704.6922999462979
 20
254.4599885571272
 10
704.7340639903371
 20
254.1834951105847
 10
704.7758280343762
 20
253.8776056268441
 10
704.8175920784153
 20
253.542603954071
 10
704.8593561224548
 20
253.1787739404312
 10
704.9011201664939
 20
252.7863994340902
 10
704.9428842105332
 20
252.3657642832136
 10
704.9846482545724
 20
251.917152335967
 10
705.0264122986116
 20
251.440847440516
 10
705.0681763426509
 20
250.9371334450263
 10
705.10994038669
 20
250.4062941976634
 10
705.1517044307293
 20
249.8486155351544
 10
705.1934684747686
 20
249.2644647077661
 10
705.2352325188078
 20
248.6543171648496
 10
705.276996562847
 20
248.0186558376542
 10
705.3187606068861
 20
247.3579636574291
 10
705.3605246509253
 20
246.6727235554236
 10
705.4022886949646
 20
245.9634184628869
 10
705.4440527390038
 20
245.2305313110683
 10
705.485816783043
 20
244.474545031217
 10
705.5275808270823
 20
243.6959425545824
 10
705.5693448711215
 20
242.8952068124136
 10
705.6111089151607
 20
242.0728236058561
 10
705.6528729591997
 20
241.2293528491055
 10
705.6946370032391
 20
240.3654333733419
 10
705.7364010472783
 20
239.4817078416164
 10
705.7781650913174
 20
238.5788189169808
 10
705.8199291353566
 20
237.6574092624863
 10
705.8616931793961
 20
236.7181215411844
 10
705.9034572234351
 20
235.7615984161266
 10
705.9452212674744
 20
234.7884825503643
 10
705.9869853115134
 20
233.7994166069487
 10
706.0287493555527
 20
232.7950432489316
 10
706.070513399592
 20
231.776008290621
 10
706.112277443631
 20
230.7430129428554
 10
706.1540414876703
 20
229.6968057146841
 10
706.1958055317094
 20
228.638136634056
 10
706.2375695757487
 20
227.5677557289203
 10
706.2793336197878
 20
226.486413027226
 10
706.321097663827
 20
225.3948585569221
 10
706.3628617078663
 20
224.293842345958
 10
706.4046257519055
 20
223.1841144222825
 10
706.4463897959448
 20
222.0664248138448
 10
706.488153839984
 20
220.941523548594
 10
706.529917884023
 20
219.8101627239432
 10
706.5716819280624
 20
218.6731204789231
 10
706.6134459721017
 20
217.531192746394
 10
706.6552100161408
 20
216.385175803752
 10
706.6969740601802
 20
215.2358659283934
 10
706.7387381042195
 20
214.084059397714
 10
706.7805021482586
 20
212.9305524891101
 10
706.8222661922978
 20
211.7761414799778
 10
706.8640302363372
 20
210.6216226477131
 10
706.9057942803762
 20
209.4677922697121
 10
706.9475583244155
 20
208.3154466233711
 10
706.9893223684546
 20
207.165380779371
 10
707.0310864124939
 20
206.0183785627902
 10
707.0728504565332
 20
204.8752176777541
 10
707.1146145005724
 20
203.7366757670547
 10
707.1563785446117
 20
202.6035304734838
 10
707.1981425886509
 20
201.4765594398332
 10
707.2399066326901
 20
200.3565403088949
 10
707.281670676729
 20
199.2442507234605
 10
707.3234347207682
 20
198.1404683263222
 10
707.3651987648075
 20
197.0459707602716
 10
707.4069628088466
 20
195.9615356681005
 10
707.4487268528859
 20
194.887933313474
 10
707.490490896925
 20
193.8258818586165
 10
707.5322549409643
 20
192.77607703362
 10
707.5740189850036
 20
191.7392144810474
 10
707.6157830290429
 20
190.7159898434612
 10
707.657547073082
 20
189.7070987634243
 10
707.6993111171212
 20
188.7132368834993
 10
707.7410751611603
 20
187.7350998462491
 10
707.7828392051996
 20
186.7733832942363
 10
707.8246032492389
 20
185.8287828700237
 10
707.8663672932781
 20
184.901994216174
 10
707.9081313373173
 20
183.9936961877715
 10
707.9498953813567
 20
183.1044765301112
 10
707.9916594253957
 20
182.2348922255244
 10
708.033423469435
 20
181.3855002324456
 10
708.0751875134742
 20
180.5568575093092
 10
708.1169515575133
 20
179.7495210145493
 10
708.1587156015524
 20
178.9640477066006
 10
708.2004796455919
 20
178.2009945438972
 10
708.2422436896311
 20
177.4609184848736
 10
708.2840077336703
 20
176.744376487964
 10
708.3257717777095
 20
176.051925511603
 10
708.3675358217488
 20
175.3840933322489
 10
708.409299865788
 20
174.7412850645755
 10
708.4510639098272
 20
174.1238735996973
 10
708.4928279538665
 20
173.5322318285908
 10
708.5345919979055
 20
172.9667326422321
 10
708.5763560419448
 20
172.4277489315975
 10
708.618120085984
 20
171.9156535876633
 10
708.6598841300233
 20
171.4308195014059
 10
708.7016481740625
 20
170.9736195638013
 10
708.7434122181016
 20
170.5444266658261
 10
708.785176262141
 20
170.1436136871855
 10
708.8269403061801
 20
169.7715100042463
 10
708.8687043502191
 20
169.4283029849613
 10
708.9104683942585
 20
169.1141510681142
 10
708.9522324382979
 20
168.8292126924889
 10
708.9939964823369
 20
168.5736462968688
 10
709.0357605263761
 20
168.347610320038
 10
709.0775245704153
 20
168.1512632007801
 10
709.1192886144546
 20
167.9847633778789
 10
709.1610526584939
 20
167.848269290118
 10
709.202816702533
 20
167.7419393762813
 10
709.2445807465722
 20
167.6659319403465
 10
709.2863447906117
 20
167.6203477936343
 10
709.3281088346514
 20
167.6051410664992
  0
LWPOLYLINE
  5
7F
330
1F
100
AcDbEntity
  8
0
  6
CONTINUOUS
 62
     7
100
AcDbPolyline
 90
        3
 70
     0
 43
0.0
 10
669.6627111551238
 20
170.1979131429306
 10
669.7288917584492
 20
170.1181909459903
 10
669.7691532148519
 20
170.1047599517686
  0
LWPOLYLINE
  5
80
330
1F
100
AcDbEntity
  8
0
  6
CONTINUOUS
 62
     7
100
AcDbPolyline
 90
      113
 70
     0
 43
0.0
 10
714.6508354242588
 20
254.7050373743576
 10
714.692595856068
 20
254.4581221561132
 10
714.7343562878772
 20
254.1815517149309
 10
714.7761167196862
 20
253.8755318402025
 10
714.8178771514952
 20
253.540357821623
 10
714.8596375833043
 20
253.1763270492963
 10
714.9013980151134
 20
252.7837369133264
 10
714.9431584469224
 20
252.3628848038171
 10
714.9849188787316
 20
251.9140681108724
 10
715.0266793105407
 20
251.4375842245962
 10
715.0684397423497
 20
250.9337305350924
 10
715.1102001741588
 20
250.4028044324649
 10
715.1519606059679
 20
249.8451033068177
 10
715.193721037777
 20
249.2609357535228
 10
715.235481469586
 20
248.6507265094624
 10
715.2772419013951
 20
248.0149690398731
 10
715.3190023332041
 20
247.3541577065111
 10
715.3607627650132
 20
246.6687868711324
 10
715.4025231968225
 20
245.9593508954931
 10
715.4442836286315
 20
245.2263441413492
 10
715.4860440604405
 20
244.4702609704567
 10
715.5278044922495
 20
243.6915957445717
 10
715.5695649240586
 20
242.8908428254503
 10
715.6113253558676
 20
242.0684965748485
 10
715.6530857876769
 20
241.2250638672129
 10
715.694846219486
 20
240.3611494303874
 10
715.736606651295
 20
239.4774040464179
 10
715.7783670831041
 20
238.5744787660248
 10
715.820127514913
 20
237.6530246399289
 10
715.861887946722
 20
236.7136927188508
 10
715.9036483785313
 20
235.7571340535112
 10
715.9454088103403
 20
234.7839996946308
 10
715.9871692421494
 20
233.7949406929302
 10
716.0289296739584
 20
232.7906080991301
 10
716.0706901057675
 20
231.7716529639512
 10
716.1124505375766
 20
230.7387375622823
 10
716.1542109693856
 20
229.6925915289801
 10
716.1959714011948
 20
228.633969511944
 10
716.2377318330039
 20
227.5636262004918
 10
716.2794922648129
 20
226.4823162839417
 10
716.321252696622
 20
225.3907944516114
 10
716.363013128431
 20
224.2898153928191
 10
716.4047735602402
 20
223.1801337968826
 10
716.4465339920491
 20
222.06250435312
 10
716.4882944238583
 20
220.9376817508492
 10
716.5300548556673
 20
219.8064206793882
 10
716.5718152874765
 20
218.6694818463525
 10
716.6135757192856
 20
217.5276539513649
 10
716.6553361510945
 20
216.3817338261736
 10
716.6970965829036
 20
215.2325183034151
 10
716.7388570147126
 20
214.0808042157259
 10
716.7806174465218
 20
212.9273883957428
 10
716.8223778783308
 20
211.7730676761023
 10
716.8641383101399
 20
210.6186388894408
 10
716.9058987419488
 20
209.4648988683951
 10
716.947659173758
 20
208.3126444456017
 10
716.9894196055669
 20
207.162672453555
 10
717.031180037376
 20
206.015775533713
 10
717.0729404691851
 20
204.8727311619463
 10
717.1147009009942
 20
203.7343133849155
 10
717.1564613328032
 20
202.6012962492811
 10
717.1982217646124
 20
201.4744538017037
 10
717.2399821964215
 20
200.354560088844
 10
717.2817426282304
 20
199.2423891573625
 10
717.3235030600396
 20
198.1387150539198
 10
717.3652634918486
 20
197.0443118251765
 10
717.4070239236578
 20
195.9599535177932
 10
717.448784355467
 20
194.886414155457
 10
717.4905447872759
 20
193.8244479056897
 10
717.5323052190848
 20
192.7747528052354
 10
717.5740656508939
 20
191.7380170421818
 10
717.615826082703
 20
190.7149288046167
 10
717.657586514512
 20
189.7061762806278
 10
717.6993469463213
 20
188.7124476583028
 10
717.7411073781303
 20
187.7344311257294
 10
717.7828678099393
 20
186.7728148709952
 10
717.8246282417484
 20
185.8282870821881
 10
717.8663886735575
 20
184.9015359473957
 10
717.9081491053666
 20
183.9932494633508
 10
717.9499095371757
 20
183.1040754392487
 10
717.9916699689846
 20
182.2345722063419
 10
718.0334304007938
 20
181.3852860176682
 10
718.0751908326029
 20
180.5567631262653
 10
718.1169512644119
 20
179.7495497851709
 10
718.158711696221
 20
178.9641922474228
 10
718.2004721280301
 20
178.2012367660587
 10
718.2422325598392
 20
177.4612295941164
 10
718.2839929916482
 20
176.7447169846337
 10
718.3257534234574
 20
176.0522451906482
 10
718.3675138552663
 20
175.3843597504881
 10
718.4092742870754
 20
174.741543221397
 10
718.4510347188844
 20
174.1241667980859
 10
718.4927951506935
 20
173.5325902875341
 10
718.5345555825027
 20
172.9671734967206
 10
718.5763160143117
 20
172.4282762326243
 10
718.6180764461208
 20
171.9162583022245
 10
718.6598368779299
 20
171.4314795125002
 10
718.7015973097389
 20
170.9742996704304
 10
718.7433577415482
 20
170.5450785829944
 10
718.7851181733572
 20
170.144176057171
 10
718.8268786051663
 20
169.7719501073093
 10
718.8686390369753
 20
169.4286738480681
 10
718.9103994687844
 20
169.1145003981276
 10
718.9521599005934
 20
168.8295737998132
 10
718.9939203324026
 20
168.5740380954503
 10
719.0356807642116
 20
168.3480373273644
 10
719.0774411960207
 20
168.1517155378808
 10
719.1192016278296
 20
167.9852167693249
 10
719.1609620596389
 20
167.8486850640223
 10
719.2027224914478
 20
167.7422644642982
 10
719.2444829232569
 20
167.6660990124782
 10
719.286243355066
 20
167.6203292568583
 10
719.3280037868752
 20
167.6049937249404
  0
LWPOLYLINE
  5
81
330
1F
100
AcDbEntity
  8
0
  6
CONTINUOUS
 62
     7
100
AcDbPolyline
 90
      105
 70
     0
 43
0.0
 10
684.6505015752101
 20
254.7070158070839
 10
684.6954768020832
 20
254.4397925778027
 10
684.7404520289564
 20
254.138317558032
 10
684.7854272558293
 20
253.8029108650809
 10
684.8304024827023
 20
253.4338926162581
 10
684.8753777095754
 20
253.0315829288728
 10
684.9203529364486
 20
252.5963019202338
 10
684.9653281633218
 20
252.1283697076502
 10
685.0103033901948
 20
251.6281064084308
 10
685.0552786170679
 20
251.0958321398847
 10
685.100253843941
 20
250.5318728527194
 10
685.1452290708139
 20
249.9366786255033
 10
685.190204297687
 20
249.3108183303903
 10
685.2351795245601
 20
248.654865605432
 10
685.2801547514332
 20
247.96939408868
 10
685.3251299783063
 20
247.2549774181861
 10
685.3701052051795
 20
246.5121892320019
 10
685.4150804320525
 20
245.7416031681791
 10
685.4600556589255
 20
244.9437928647693
 10
685.5050308857986
 20
244.1193319598244
 10
685.5500061126717
 20
243.2687959940583
 10
685.5949813395447
 20
242.3928436217461
 10
685.6399565664178
 20
241.4922470765117
 10
685.684931793291
 20
240.5677867746943
 10
685.729907020164
 20
239.6202431326325
 10
685.774882247037
 20
238.6503965666654
 10
685.8198574739101
 20
237.6590274931318
 10
685.8648327007833
 20
236.6469163283707
 10
685.9098079276563
 20
235.6148434887208
 10
685.9547831545294
 20
234.5635893905212
 10
685.9997583814024
 20
233.4939347998416
 10
686.0447336082755
 20
232.4067051053818
 10
686.0897088351487
 20
231.302813628001
 10
686.1346840620216
 20
230.1831839707002
 10
686.1796592888948
 20
229.0487397364803
 10
686.2246345157678
 20
227.9004045283422
 10
686.2696097426407
 20
226.7391019492867
 10
686.3145849695139
 20
225.5657556023149
 10
686.3595601963871
 20
224.3812890904276
 10
686.4045354232602
 20
223.1866260166256
 10
686.4495106501332
 20
221.9826899984324
 10
686.4944858770064
 20
220.7704200223581
 10
686.5394611038794
 20
219.5507996015943
 10
686.5844363307525
 20
218.3248202667241
 10
686.6294115576255
 20
217.0934735483297
 10
686.6743867844987
 20
215.857750976994
 10
686.7193620113719
 20
214.6186440832996
 10
686.7643372382449
 20
213.3771443978291
 10
686.8093124651181
 20
212.1342434511651
 10
686.8542876919911
 20
210.8909327738904
 10
686.8992629188641
 20
209.6482038965875
 10
686.9442381457374
 20
208.407046376941
 10
686.9892133726104
 20
207.1684412044833
 10
687.0341885994834
 20
205.9333670433159
 10
687.0791638263565
 20
204.7028025574962
 10
687.1241390532297
 20
203.4777264110816
 10
687.1691142801027
 20
202.2591172681294
 10
687.2140895069757
 20
201.0479537926971
 10
687.2590647338488
 20
199.845214648842
 10
687.3040399607219
 20
198.6518785006215
 10
687.349015187595
 20
197.468924012093
 10
687.393990414468
 20
196.2973208115122
 10
687.438965641341
 20
195.1379790581165
 10
687.4839408682141
 20
193.9917848711724
 10
687.5289160950873
 20
192.859624302524
 10
687.5738913219602
 20
191.7423834040153
 10
687.6188665488334
 20
190.6409482274903
 10
687.6638417757065
 20
189.556204824793
 10
687.7088170025795
 20
188.4890392477674
 10
687.7537922294525
 20
187.4403375482575
 10
687.7987674563257
 20
186.4109857781074
 10
687.8437426831987
 20
185.4018605483407
 10
687.8887179100718
 20
184.4137411675452
 10
687.9336931369448
 20
183.4473496142498
 10
687.9786683638179
 20
182.5034071288321
 10
688.0236435906911
 20
181.5826349516697
 10
688.0686188175641
 20
180.6857543231401
 10
688.1135940444373
 20
179.8134864836208
 10
688.1585692713104
 20
178.9665526734894
 10
688.2035444981834
 20
178.1456741331233
 10
688.2485197250564
 20
177.3515721029001
 10
688.2934949519296
 20
176.5849611232288
 10
688.3384701788026
 20
175.8464398628247
 10
688.3834454056758
 20
175.1365090606045
 10
688.428420632549
 20
174.4556663757617
 10
688.473395859422
 20
173.8044094674897
 10
688.5183710862952
 20
173.1832359949822
 10
688.5633463131683
 20
172.5926436174326
 10
688.6083215400413
 20
172.0331299940345
 10
688.6532967669142
 20
171.5051927839815
 10
688.6982719937874
 20
171.009329646467
 10
688.7432472206606
 20
170.5460347807235
 10
688.7882224475337
 20
170.1156879408292
 10
688.8331976744067
 20
169.7185308769446
 10
688.8781729012799
 20
169.3547971157026
 10
688.9231481281529
 20
169.024720183736
 10
688.968123355026
 20
168.7285336076778
 10
689.0130985818989
 20
168.4664709141607
 10
689.058073808772
 20
168.2387656298177
 10
689.103049035645
 20
168.0456512812816
 10
689.1480242625182
 20
167.8873613951852
 10
689.1929994893914
 20
167.7641283196661
 10
689.2379747162644
 20
167.6760872662983
 10
689.2829499431375
 20
167.6232053285404
 10
689.3279251700102
 20
167.6054328717264
  0
LWPOLYLINE
  5
82
330
1F
100
AcDbEntity
  8
0
  6
CONTINUOUS
 62
     7
100
AcDbPolyline
 90
      105
 70
     0
 43
0.0
 10
644.6505480724537
 20
254.7062237866196
 10
644.6955289301724
 20
254.4389574590581
 10
644.7405097878911
 20
254.1375840269873
 10
644.7854906456099
 20
253.8023537211902
 10
644.8304715033287
 20
253.4335167724499
 10
644.8754523610476
 20
253.0313234115497
 10
644.9204332187663
 20
252.5960238692724
 10
644.965414076485
 20
252.1278684404486
 10
645.0103949342038
 20
251.6271675481746
 10
645.0553757919226
 20
251.0944033438893
 10
645.1003566496413
 20
250.5300884384643
 10
645.1453375073602
 20
249.9347354427708
 10
645.190318365079
 20
249.3088569676801
 10
645.2352992227978
 20
248.6529656240636
 10
645.2802800805166
 20
247.9675740227925
 10
645.3252609382354
 20
247.2531947747381
 10
645.3702417959541
 20
246.5103404907718
 10
645.4152226536729
 20
245.7395237817648
 10
645.4602035113917
 20
244.9412917348052
 10
645.5051843691103
 20
244.1163384122154
 10
645.5501652268293
 20
243.2653970349005
 10
645.5951460845481
 20
242.3892008241174
 10
645.640126942267
 20
241.4884830011229
 10
645.6851077999858
 20
240.563976787174
 10
645.7300886577045
 20
239.6164154035276
 10
645.7750695154232
 20
238.6465320714404
 10
645.820050373142
 20
237.6550600121696
 10
645.8650312308608
 20
236.6427324469718
 10
645.9100120885795
 20
235.6102987149089
 10
645.9549929462983
 20
234.5586117876771
 10
645.999973804017
 20
233.4885656491257
 10
646.0449546617358
 20
232.4010543849269
 10
646.0899355194546
 20
231.2969720807529
 10
646.1349163771732
 20
230.1772128222759
 10
646.179897234892
 20
229.0426706951682
 10
646.2248780926109
 20
227.8942397851019
 10
646.2698589503298
 20
226.7328141777494
 10
646.3148398080483
 20
225.5592879587826
 10
646.3598206657673
 20
224.3745604458866
 10
646.4048015234858
 20
223.1795832695528
 10
646.4497823812048
 20
221.9753381652264
 10
646.4947632389236
 20
220.7628072291114
 10
646.5397440966425
 20
219.5429725574118
 10
646.5847249543613
 20
218.316816246332
 10
646.62970581208
 20
217.0853203920758
 10
646.6746866697989
 20
215.8494670908476
 10
646.7196675275177
 20
214.6102384388512
 10
646.7646483852363
 20
213.368616532291
 10
646.8096292429551
 20
212.1255837195852
 10
646.854610100674
 20
210.8821265339854
 10
646.8995909583928
 20
209.6392349542734
 10
646.9445718161114
 20
208.3978990618314
 10
646.9895526738302
 20
207.1591089380416
 10
647.0345335315488
 20
205.9238546642858
 10
647.0795143892677
 20
204.6931263219464
 10
647.1244952469866
 20
203.4679139924052
 10
647.1694761047053
 20
202.2492077570444
 10
647.2144569624242
 20
201.037997697246
 10
647.2594378201429
 20
199.8352728651519
 10
647.3044186778617
 20
198.6419902840003
 10
647.3493995355805
 20
197.4590694764472
 10
647.3943803932991
 20
196.2874278330329
 10
647.439361251018
 20
195.1279827442972
 10
647.4843421087367
 20
193.9816516007802
 10
647.5293229664555
 20
192.8493517930219
 10
647.5743038241744
 20
191.7320007115623
 10
647.6192846818932
 20
190.6305157469415
 10
647.6642655396121
 20
189.5458142896993
 10
647.7092463973308
 20
188.4788130344275
 10
647.7542272550496
 20
187.4303768686204
 10
647.7992081127683
 20
186.4012839952942
 10
647.8441889704873
 20
185.3923043612843
 10
647.8891698282059
 20
184.404207913426
 10
647.9341506859247
 20
183.4377645985547
 10
647.9791315436435
 20
182.4937443635054
 10
648.0241124013622
 20
181.5729171551137
 10
648.069093259081
 20
180.6760529202147
 10
648.1140741167999
 20
179.8039216056439
 10
648.1590549745187
 20
178.9572929860666
 10
648.2040358322374
 20
178.1368814166206
 10
648.2490166899562
 20
177.343266690258
 10
648.293997547675
 20
176.5770085715834
 10
648.3389784053938
 20
175.8386668252018
 10
648.3839592631125
 20
175.1288012157178
 10
648.4289401208313
 20
174.4479715077364
 10
648.47392097855
 20
173.7967374658623
 10
648.5189018362687
 20
173.1756588547003
 10
648.5638826939876
 20
172.5852954388554
 10
648.6088635517063
 20
172.026206981068
 10
648.6538444094251
 20
171.498905952769
 10
648.6988252671439
 20
171.0037346077939
 10
648.7438061248628
 20
170.5409969165288
 10
648.7887869825814
 20
170.1109968493597
 10
648.8337678403003
 20
169.7140383766725
 10
648.8787486980191
 20
169.3504254688533
 10
648.923729555738
 20
169.020462096288
 10
648.9687104134567
 20
168.7244522293626
 10
649.0136912711755
 20
168.4626998384631
 10
649.0586721288943
 20
168.2355088939754
 10
649.103652986613
 20
168.0431492280785
 10
649.1486338443319
 20
167.8857062736003
 10
649.1936147020506
 20
167.7632034840634
 10
649.2385955597695
 20
167.6756642668418
 10
649.2835764174881
 20
167.6231120293096
 10
649.3285572752069
 20
167.6055701788407
  0
LWPOLYLINE
  5
83
330
1F
100
AcDbEntity
  8
0
  6
CONTINUOUS
 62
     7
100
AcDbPolyline
 90
      105
 70
     0
 43
0.0
 10
634.6504590934951
 20
254.706608868067
 10
634.6954383073647
 20
254.4394864200453
 10
634.7404175212341
 20
254.1382687286449
 10
634.7853967351037
 20
253.8031882724619
 10
634.8303759489734
 20
253.4344775300923
 10
634.8753551628427
 20
253.0323689801323
 10
634.9203343767123
 20
252.597095101178
 10
634.9653135905819
 20
252.1289077092498
 10
635.0102928044513
 20
251.6282214363736
 10
635.0552720183209
 20
251.0955324755022
 10
635.1002512321903
 20
250.5313376287073
 10
635.1452304460598
 20
249.9361336980612
 10
635.1902096599295
 20
249.3104174856361
 10
635.2351888737988
 20
248.654685793504
 10
635.2801680876682
 20
247.9694354237369
 10
635.3251473015379
 20
247.255163178407
 10
635.3701265154074
 20
246.5123658595864
 10
635.4151057292769
 20
245.7415493697322
 10
635.4600849431464
 20
244.9433432421267
 10
635.5050641570159
 20
244.118466150624
 10
635.5500433708855
 20
243.2676387392376
 10
635.595022584755
 20
242.3915816519805
 10
635.6400017986246
 20
241.4910155328662
 10
635.6849810124941
 20
240.566661025908
 10
635.7299602263636
 20
239.619238775119
 10
635.7749394402331
 20
238.6494694245127
 10
635.8199186541025
 20
237.6580736181022
 10
635.8648978679721
 20
236.645775230885
 10
635.9098770818416
 20
235.6133761868491
 10
635.9548562957111
 20
234.5617585929488
 10
635.9998355095807
 20
233.4918082140154
 10
636.0448147234503
 20
232.4044108148803
 10
636.0897939373198
 20
231.3004521603746
 10
636.1347731511893
 20
230.1808180153295
 10
636.1797523650588
 20
229.0463941445765
 10
636.2247315789283
 20
227.8980663129466
 10
636.2697107927978
 20
226.736720285271
 10
636.3146900066673
 20
225.5632425164873
 10
636.359669220537
 20
224.378555196579
 10
636.4046484344063
 20
223.1836328688676
 10
636.449627648276
 20
221.9794542431363
 10
636.4946068621454
 20
220.7669980291681
 10
636.539586076015
 20
219.5472429367462
 10
636.5845652898845
 20
218.3211676756537
 10
636.6295445037539
 20
217.0897509556736
 10
636.6745237176234
 20
215.8539714865891
 10
636.7195029314929
 20
214.6148079781833
 10
636.7644821453624
 20
213.3732391634455
 10
636.8094613592318
 20
212.1302476695365
 10
636.8544405731014
 20
210.8868243554473
 10
636.899419786971
 20
209.6439611264989
 10
636.9443990008405
 20
208.4026498880121
 10
636.98937821471
 20
207.163882545308
 10
637.0343574285797
 20
205.9286510037075
 10
637.0793366424492
 20
204.6979471685316
 10
637.1243158563187
 20
203.4727629451011
 10
637.1692950701882
 20
202.2540902387371
 10
637.2142742840575
 20
201.0429209480382
 10
637.2592534979273
 20
199.8402326343755
 10
637.3042327117968
 20
198.6469582320493
 10
637.3492119256663
 20
197.4640220172763
 10
637.3941911395358
 20
196.2923482662729
 10
637.4391703534053
 20
195.1328612552557
 10
637.4841495672748
 20
193.9864852604411
 10
637.5291287811444
 20
192.8541445580457
 10
637.5741079950138
 20
191.7367634242858
 10
637.6190872088832
 20
190.6352661353782
 10
637.6640664227529
 20
189.5505769675392
 10
637.7090456366222
 20
188.4835998347165
 10
637.7540248504919
 20
187.4351437176502
 10
637.7990040643614
 20
186.4059899526737
 10
637.8439832782308
 20
185.3969198729623
 10
637.8889624921004
 20
184.4087148116914
 10
637.9339417059699
 20
183.4421561020363
 10
637.9789209198394
 20
182.4980250771725
 10
638.0239001337089
 20
181.5771030702752
 10
638.0688793475783
 20
180.6801714145197
 10
638.113858561448
 20
179.8080114430816
 10
638.1588377753176
 20
178.961385926879
 10
638.203816989187
 20
178.1409263903236
 10
638.2487962030566
 20
177.3472077793394
 10
638.293775416926
 20
176.5808048177274
 10
638.3387546307955
 20
175.842292229289
 10
638.3837338446652
 20
175.1322447378255
 10
638.4287130585345
 20
174.4512370671381
 10
638.473692272404
 20
173.7998439410282
 10
638.5186714862737
 20
173.1786400832969
 10
638.5636507001433
 20
172.5882002177456
 10
638.6086299140127
 20
172.0290858633303
 10
638.6536091278822
 20
171.5017115407931
 10
638.6985883417517
 20
171.0063999348619
 10
638.7435675556212
 20
170.5434723290368
 10
638.7885467694908
 20
170.1132500068181
 10
638.8335259833602
 20
169.716054251706
 10
638.8785051972299
 20
169.3522063472008
 10
638.9234844110993
 20
169.0220275768025
 10
638.9684636249686
 20
168.7258392240115
 10
639.0134428388383
 20
168.463962572328
 10
639.0584220527078
 20
168.23671142226
 10
639.1034012665773
 20
168.044258127235
 10
639.1483804804469
 20
167.886648783607
 10
639.1933596943163
 20
167.7639250550363
 10
639.2383389081858
 20
167.6761286051831
 10
639.2833181220553
 20
167.6233010977077
 10
639.3282973359248
 20
167.6054841962703
  0
LWPOLYLINE
  5
84
330
1F
100
AcDbEntity
  8
0
  6
CONTINUOUS
 62
     7
100
AcDbPolyline
 90
      113
 70
     0
 43
0.0
 10
-770.8283876476765
 20
255.6043210948976
 10
-770.8701641164595
 20
255.5894330914781
 10
-770.9119405852425
 20
255.5441694748393
 10
-770.9537170540251
 20
255.4684748205399
 10
-770.995493522808
 20
255.3624186594616
 10
-771.0372699915908
 20
255.2261619591986
 10
-771.0790464603739
 20
255.0598677804684
 10
-771.1208229291567
 20
254.8636991839882
 10
-771.1625993979396
 20
254.6378192304754
 10
-771.2043758667224
 20
254.3823909806473
 10
-771.2461523355055
 20
254.0975774952212
 10
-771.2879288042883
 20
253.7835418349144
 10
-771.3297052730713
 20
253.4404470604444
 10
-771.3714817418543
 20
253.0684562325283
 10
-771.4132582106372
 20
252.667745031668
 10
-771.4550346794202
 20
252.2386162505191
 10
-771.496811148203
 20
251.7814462531938
 10
-771.5385876169862
 20
251.2966123011788
 10
-771.580364085769
 20
250.7844916559603
 10
-771.6221405545522
 20
250.245461579025
 10
-771.6639170233351
 20
249.6798993318592
 10
-771.7056934921181
 20
249.0881821759496
 10
-771.7474699609011
 20
248.4706873727825
 10
-771.789246429684
 20
247.8277921838445
 10
-771.8310228984669
 20
247.159873870622
 10
-771.87279936725
 20
246.4673250526058
 10
-771.914575836033
 20
245.7506537301732
 10
-771.9563523048159
 20
245.0104203609278
 10
-771.9981287735988
 20
244.2471856662632
 10
-772.0399052423818
 20
243.461510367573
 10
-772.0816817111646
 20
242.6539551862506
 10
-772.1234581799474
 20
241.8250808436896
 10
-772.1652346487305
 20
240.9754480612837
 10
-772.2070111175133
 20
240.1056175604263
 10
-772.2487875862962
 20
239.2161500625109
 10
-772.2905640550791
 20
238.3076062889312
 10
-772.3323405238618
 20
237.3805627555217
 10
-772.3741169926448
 20
236.4356860415458
 10
-772.4158934614277
 20
235.4736746013326
 10
-772.4576699302104
 20
234.4952269262312
 10
-772.4994463989934
 20
233.5010415075909
 10
-772.5412228677761
 20
232.4918168367604
 10
-772.582999336559
 20
231.4682514050891
 10
-772.624775805342
 20
230.4310437039258
 10
-772.6665522741248
 20
229.3808922246197
 10
-772.7083287429077
 20
228.3184954585198
 10
-772.7501052116907
 20
227.2445518969753
 10
-772.7918816804735
 20
226.1597723522376
 10
-772.8336581492565
 20
225.0649214702178
 10
-772.8754346180393
 20
223.9607785958468
 10
-772.9172110868225
 20
222.8481230743988
 10
-772.9589875556053
 20
221.727734251148
 10
-773.0007640243883
 20
220.6003914713685
 10
-773.0425404931713
 20
219.4668740803344
 10
-773.0843169619543
 20
218.3279614233201
 10
-773.1260934307371
 20
217.1844328455995
 10
-773.1678698995202
 20
216.0370676924469
 10
-773.2096463683031
 20
214.8866453097128
 10
-773.2514228370862
 20
213.7339484694652
 10
-773.293199305869
 20
212.5797714526797
 10
-773.3349757746519
 20
211.4249109542053
 10
-773.376752243435
 20
210.2701636688909
 10
-773.4185287122177
 20
209.1163262915854
 10
-773.4603051810006
 20
207.9641955171378
 10
-773.5020816497835
 20
206.8145680403969
 10
-773.5438581185664
 20
205.6682405562117
 10
-773.5856345873492
 20
204.5260097594311
 10
-773.6274110561322
 20
203.3886723449042
 10
-773.6691875249153
 20
202.2570249826776
 10
-773.710963993698
 20
201.1318525018463
 10
-773.7527404624809
 20
200.013908962265
 10
-773.7945169312637
 20
198.9039434902902
 10
-773.8362934000468
 20
197.8027052122786
 10
-773.8780698688296
 20
196.7109432545868
 10
-773.9198463376125
 20
195.6294067435713
 10
-773.9616228063956
 20
194.5588448055887
 10
-774.0033992751785
 20
193.5000065669957
 10
-774.0451757439613
 20
192.4536411541488
 10
-774.0869522127442
 20
191.4204976934047
 10
-774.1287286815272
 20
190.4013250789142
 10
-774.1705051503102
 20
189.3968391115015
 10
-774.2122816190931
 20
188.4076884400772
 10
-774.254058087876
 20
187.4345135805203
 10
-774.295834556659
 20
186.4779550487101
 10
-774.3376110254419
 20
185.5386533605258
 10
-774.3793874942249
 20
184.6172490318466
 10
-774.4211639630078
 20
183.7143825785517
 10
-774.4629404317907
 20
182.8306945165204
 10
-774.5047169005736
 20
181.9668253616318
 10
-774.5464933693567
 20
181.1234156297651
 10
-774.5882698381395
 20
180.3011049426349
 10
-774.6300463069226
 20
179.5004745880554
 10
-774.6718227757054
 20
178.7220126349145
 10
-774.7135992444884
 20
177.9661987966701
 10
-774.7553757132713
 20
177.2335127867802
 10
-774.7971521820541
 20
176.5244343187027
 10
-774.8389286508373
 20
175.8394431058956
 10
-774.88070511962
 20
175.1790188618169
 10
-774.9224815884029
 20
174.5436412999246
 10
-774.9642580571859
 20
173.9337901336766
 10
-775.006034525969
 20
173.3499450765308
 10
-775.0478109947518
 20
172.7925835497669
 10
-775.0895874635346
 20
172.2620988000084
 10
-775.1313639323173
 20
171.7587774996337
 10
-775.1731404011002
 20
171.2828994705973
 10
-775.2149168698832
 20
170.8347445348538
 10
-775.2566933386662
 20
170.4145925143575
 10
-775.2984698074489
 20
170.0227232310631
 10
-775.3402462762318
 20
169.6594165069251
 10
-775.3820227450148
 20
169.3249521638979
 10
-775.4237992137977
 20
169.0196100239361
 10
-775.4655756825805
 20
168.7436699089943
 10
-775.5073521513625
 20
168.4974070680223
210
0.0
220
0.0
230
-1.0
  0
LWPOLYLINE
  5
85
330
1F
100
AcDbEntity
  8
0
  6
CONTINUOUS
 62
     7
100
AcDbPolyline
 90
        3
 70
     0
 43
0.0
 10
759.6550141208147
 20
170.2117299673416
 10
759.7212898174674
 20
170.1237178856114
 10
759.7692565254005
 20
170.1047599518048
  0
LWPOLYLINE
  5
86
330
1F
100
AcDbEntity
  8
0
  6
CONTINUOUS
 62
     7
100
AcDbPolyline
 90
        3
 70
     0
 43
0.0
 10
749.6519032020191
 20
170.2175187637286
 10
749.718187818359
 20
170.1263499471556
 10
749.7692753368183
 20
170.1047599518143
  0
LWPOLYLINE
  5
87
330
1F
100
AcDbEntity
  8
0
  6
CONTINUOUS
 62
     7
100
AcDbPolyline
 90
        3
 70
     0
 43
0.0
 10
719.6311810931929
 20
170.2610568943299
 10
719.6993786100192
 20
170.1449228502927
 10
719.7692528603623
 20
170.1047599517538
  0
LWPOLYLINE
  5
88
330
1F
100
AcDbEntity
  8
0
  6
CONTINUOUS
 62
     7
100
AcDbPolyline
 90
        3
 70
     0
 43
0.0
 10
709.6261459068537
 20
170.2725272555014
 10
709.694311249748
 20
170.1510212322989
 10
709.7692271256625
 20
170.1047599517943
  0
LWPOLYLINE
  5
89
330
1F
100
AcDbEntity
  8
0
  6
CONTINUOUS
 62
     7
100
AcDbPolyline
 90
        3
 70
     0
 43
0.0
 10
739.6411621793858
 20
170.2389685780712
 10
739.7092990492465
 20
170.1343382317492
 10
739.76928234993
 20
170.1047599518053
  0
LWPOLYLINE
  5
8A
330
1F
100
AcDbEntity
  8
0
  6
CONTINUOUS
 62
     7
100
AcDbPolyline
 90
        3
 70
     0
 43
0.0
 10
649.6564946818222
 20
170.2087317740217
 10
649.7226510367078
 20
170.1226162169089
 10
649.7691570716942
 20
170.1047599518008
  0
LWPOLYLINE
  5
8B
330
1F
100
AcDbEntity
  8
0
  6
CONTINUOUS
 62
     7
100
AcDbPolyline
 90
        3
 70
     0
 43
0.0
 10
799.6382525406053
 20
170.2450998474016
 10
799.7063318508272
 20
170.1372470777551
 10
799.7691643807494
 20
170.1047599517859
  0
LWPOLYLINE
  5
8C
330
1F
100
AcDbEntity
  8
0
  6
CONTINUOUS
 62
     7
100
AcDbPolyline
 90
        3
 70
     0
 43
0.0
 10
729.6381375361442
 20
170.2455865612252
 10
729.7043573887685
 20
170.1392714723102
 10
729.7692733921224
 20
170.1047599517647
  0
LWPOLYLINE
  5
8D
330
1F
100
AcDbEntity
  8
0
  6
CONTINUOUS
 62
     7
100
AcDbPolyline
 90
      105
 70
     0
 43
0.0
 10
794.6503183926608
 20
254.7074276775953
 10
794.6953008991293
 20
254.4403653695936
 10
794.740283405598
 20
254.1391997455268
 10
794.7852659120664
 20
253.8041699927686
 10
794.830248418535
 20
253.4355152986931
 10
794.8752309250034
 20
253.0334748506741
 10
794.9202134314719
 20
252.5982878360858
 10
794.9651959379404
 20
252.1301994125251
 10
795.0101784444088
 20
251.6295833788082
 10
795.0551609508772
 20
251.096937533048
 10
795.1001434573456
 20
250.5327647148027
 10
795.145125963814
 20
249.9375677636306
 10
795.1901084702824
 20
249.3118495190897
 10
795.2350909767508
 20
248.6561128207384
 10
795.2800734832193
 20
247.9708605081349
 10
795.3250559896877
 20
247.2565954208374
 10
795.3700384961561
 20
246.5138203984041
 10
795.4150210026244
 20
245.7430403115138
 10
795.4600035090929
 20
244.9448493716956
 10
795.5049860155613
 20
244.1199642378402
 10
795.5499685220296
 20
243.2691104281951
 10
795.5949510284983
 20
242.3930134610085
 10
795.6399335349665
 20
241.4923988545279
 10
795.684916041435
 20
240.5679921270011
 10
795.7298985479035
 20
239.620518796676
 10
795.7748810543719
 20
238.6507043818004
 10
795.8198635608404
 20
237.659274400622
 10
795.8648460673089
 20
236.6469547734904
 10
795.9098285737776
 20
235.6145224495776
 10
795.9548110802458
 20
234.5628547871339
 10
795.9997935867145
 20
233.4928408648007
 10
796.0447760931829
 20
232.4053697612183
 10
796.0897585996514
 20
231.301330555028
 10
796.1347411061199
 20
230.1816123248704
 10
796.1797236125885
 20
229.0471041493866
 10
796.2247061190569
 20
227.8986951072173
 10
796.2696886255255
 20
226.7372742770035
 10
796.314671131994
 20
225.5637307580571
 10
796.3596536384625
 20
224.3789743819267
 10
796.4046361449309
 20
223.1839746660646
 10
796.4496186513994
 20
221.9797118036157
 10
796.4946011578677
 20
220.7671659877245
 10
796.5395836643364
 20
219.5473174115356
 10
796.5845661708048
 20
218.3211462681938
 10
796.6295486772732
 20
217.0896327508435
 10
796.6745311837416
 20
215.8537570526296
 10
796.71951369021
 20
214.6144993666966
 10
796.7644961966785
 20
213.3728398861892
 10
796.8094787031469
 20
212.1297605487457
 10
796.8544612096151
 20
210.8862507819652
 10
796.8994437160835
 20
209.6433020231869
 10
796.9444262225519
 20
208.4019057097744
 10
796.9894087290203
 20
207.1630532790918
 10
797.0343912354887
 20
205.9277361685026
 10
797.079373741957
 20
204.6969458153708
 10
797.1243562484256
 20
203.4716736570601
 10
797.1693387548939
 20
202.2529111309344
 10
797.2143212613624
 20
201.0416496743574
 10
797.2593037678307
 20
199.8388738061927
 10
797.3042862742992
 20
198.6455232829574
 10
797.3492687807678
 20
197.4625200454521
 10
797.3942512872364
 20
196.2907859887483
 10
797.4392337937048
 20
195.1312430079179
 10
797.4842163001736
 20
193.9848129980329
 10
797.5291988066418
 20
192.8524178541648
 10
797.5741813131104
 20
191.7349794713856
 10
797.619163819579
 20
190.6334197447671
 10
797.6641463260476
 20
189.5486605693811
 10
797.7091288325162
 20
188.4816152993987
 10
797.7541113389844
 20
187.4331114098544
 10
797.7990938454531
 20
186.4039267365791
 10
797.8440763519216
 20
185.3948385124413
 10
797.8890588583901
 20
184.4066239703102
 10
797.9340413648586
 20
183.4400603430546
 10
797.9790238713267
 20
182.4959248635432
 10
798.0240063777953
 20
181.5749947646449
 10
798.0689888842638
 20
180.6780472792287
 10
798.1139713907322
 20
179.8058596401633
 10
798.1589538972007
 20
178.9592025536078
 10
798.2039364036691
 20
178.1387378720131
 10
798.2489189101376
 20
177.3450375299541
 10
798.2939014166059
 20
176.5786707658743
 10
798.3388839230745
 20
175.8402068182169
 10
798.3838664295428
 20
175.1302149254252
 10
798.4288489360114
 20
174.4492643259425
 10
798.4738314424794
 20
173.797924258212
 10
798.5188139489479
 20
173.1767639606772
 10
798.5637964554165
 20
172.5863526717812
 10
798.6087789618848
 20
172.0272560497808
 10
798.6537614683533
 20
171.4999278147248
 10
798.6987439748217
 20
171.0046903231369
 10
798.7437264812902
 20
170.5418584350781
 10
798.7887089877586
 20
170.1117470106093
 10
798.833691494227
 20
169.7146709097915
 10
798.8786740006956
 20
169.3509449926856
 10
798.923656507164
 20
169.0208841193524
 10
798.9686390136324
 20
168.724803149853
 10
799.0136215201009
 20
168.4630169442483
 10
799.0586040265692
 20
168.2358390474178
 10
799.103586533038
 20
168.043484703703
 10
799.1485690395064
 20
167.8860044537755
 10
799.1935515459746
 20
167.7634331231839
 10
799.2385340524431
 20
167.6758055374771
 10
799.2835165589119
 20
167.6231565222037
 10
799.3284990653792
 20
167.6055209029121
  0
LWPOLYLINE
  5
8E
330
1F
100
AcDbEntity
  8
0
  6
CONTINUOUS
 62
     7
100
AcDbPolyline
 90
      105
 70
     0
 43
0.0
 10
754.6507112261614
 20
254.70519135599
 10
754.6956897109666
 20
254.4381377142726
 10
754.7406681957721
 20
254.1369288481016
 10
754.7856466805771
 20
253.8017323647587
 10
754.8306251653825
 20
253.432715943574
 10
754.8756036501876
 20
253.0301098362664
 10
754.920582134993
 20
252.594321285732
 10
754.9655606197982
 20
252.1257886094751
 10
755.0105391046035
 20
251.6249501250005
 10
755.0555175894087
 20
251.0922441498123
 10
755.1004960742141
 20
250.5281090014152
 10
755.1454745590192
 20
249.9329829973136
 10
755.1904530438245
 20
249.3073044550118
 10
755.2354315286298
 20
248.6515116920144
 10
755.280410013435
 20
247.9660430258259
 10
755.3253884982403
 20
247.2513738125207
 10
755.3703669830455
 20
246.5081359918279
 10
755.4153454678508
 20
245.7370028752646
 10
755.4603239526559
 20
244.9386477745934
 10
755.5053024374611
 20
244.1137440015768
 10
755.5502809222663
 20
243.2629648679777
 10
755.5952594070716
 20
242.3869836855586
 10
755.6402378918767
 20
241.4864737660823
 10
755.685216376682
 20
240.5621084213112
 10
755.7301948614872
 20
239.6145609630083
 10
755.7751733462923
 20
238.6445228958691
 10
755.8201518310975
 20
237.6528018795799
 10
755.8651303159027
 20
236.6402512467177
 10
755.910108800708
 20
235.6077244390124
 10
755.9550872855132
 20
234.5560748981932
 10
756.0000657703185
 20
233.4861560659901
 10
756.0450442551238
 20
232.3988213841327
 10
756.0900227399289
 20
231.2949242943506
 10
756.1350012247343
 20
230.1753182383735
 10
756.1799797095396
 20
229.0408566579311
 10
756.2249581943448
 20
227.8923996167928
 10
756.2699366791502
 20
226.7308729975191
 10
756.3149151639554
 20
225.5572403844388
 10
756.3598936487608
 20
224.3724658072058
 10
756.4048721335661
 20
223.1775132954737
 10
756.4498506183711
 20
221.9733468788961
 10
756.4948291031765
 20
220.7609305871266
 10
756.5398075879817
 20
219.541228449819
 10
756.584786072787
 20
218.3152044966269
 10
756.6297645575922
 20
217.083822757204
 10
756.6747430423976
 20
215.848048279289
 10
756.7197215272029
 20
214.6088629211412
 10
756.764700012008
 20
213.3672623389349
 10
756.8096784968133
 20
212.1242425970329
 10
756.8546569816184
 20
210.8807997597978
 10
756.8996354664235
 20
209.6379298915924
 10
756.944613951229
 20
208.3966290567792
 10
756.9895924360341
 20
207.157893319721
 10
757.0345709208393
 20
205.9227187447805
 10
757.0795494056446
 20
204.6921013963203
 10
757.1245278904497
 20
203.4670366400034
 10
757.1695063752549
 20
202.2484981737805
 10
757.21448486006
 20
201.0374343692087
 10
757.2594633448651
 20
199.8347921618213
 10
757.3044418296704
 20
198.6415184871513
 10
757.3494203144755
 20
197.4585602807319
 10
757.3943987992808
 20
196.2868644780962
 10
757.439377284086
 20
195.1273780147771
 10
757.4843557688911
 20
193.9810478263079
 10
757.5293342536966
 20
192.8488208482217
 10
757.5743127385016
 20
191.7316434192936
 10
757.619291223307
 20
190.6304174947863
 10
757.6642697081121
 20
189.5459707892742
 10
757.7092481929175
 20
188.4791239491472
 10
757.7542266777226
 20
187.4306976207951
 10
757.799205162528
 20
186.4015124506078
 10
757.8441836473332
 20
185.392389084975
 10
757.8891621321386
 20
184.4041481702866
 10
757.9341406169438
 20
183.4376103529325
 10
757.979119101749
 20
182.4935962793025
 10
758.0240975865544
 20
181.5729264387365
 10
758.0690760713595
 20
180.6763704407343
 10
758.1140545561648
 20
179.8045742070813
 10
758.15903304097
 20
178.9581652252841
 10
758.2040115257753
 20
178.1377709828492
 10
758.2489900105805
 20
177.3440189672833
 10
758.2939684953858
 20
176.577536666093
 10
758.3389469801912
 20
175.8389515667847
 10
758.3839254649965
 20
175.1288911568651
 10
758.4289039498016
 20
174.4479829238407
 10
758.4738824346069
 20
173.7968543535791
 10
758.5188609194118
 20
173.1760878922424
 10
758.5638394042174
 20
172.586103408549
 10
758.6088178890225
 20
172.027284100785
 10
758.6537963738278
 20
171.5000131672371
 10
758.6987748586329
 20
171.0046738061916
 10
758.7437533434381
 20
170.5416492159348
 10
758.7887318282433
 20
170.1113225947533
 10
758.8337103130488
 20
169.7140771409335
 10
758.8786887978538
 20
169.3502960527616
 10
758.9236672826589
 20
169.0203625285242
 10
758.9686457674643
 20
168.7246264089732
 10
759.0136242522698
 20
168.4632565302983
 10
759.0586027370747
 20
168.2363606243334
 10
759.1035812218801
 20
168.0440463755271
 10
759.1485597066853
 20
167.8864214683279
 10
759.1935381914906
 20
167.7635935871844
 10
759.2385166762957
 20
167.6756704165451
 10
759.2834951611009
 20
167.6227596408586
 10
759.3284736459052
 20
167.6049689445736
  0
LWPOLYLINE
  5
8F
330
1F
100
AcDbEntity
  8
0
  6
CONTINUOUS
 62
     7
100
AcDbPolyline
 90
      105
 70
     0
 43
0.0
 10
694.6504291780356
 20
254.7074566601416
 10
694.695412871615
 20
254.4403229359592
 10
694.7403965651945
 20
254.1388580936867
 10
694.785380258774
 20
253.803399682002
 10
694.8303639523537
 20
253.4342852495826
 10
694.8753476459332
 20
253.0318523451061
 10
694.9203313395127
 20
252.5964385172502
 10
694.9653150330923
 20
252.1283813146927
 10
695.0102987266717
 20
251.628018286111
 10
695.0552824202513
 20
251.0956869801829
 10
695.1002661138307
 20
250.531724945586
 10
695.1452498074104
 20
249.9364971572487
 10
695.19023350099
 20
249.3105320315547
 10
695.2352171945696
 20
248.6544182792848
 10
695.2802008881489
 20
247.968744706604
 10
695.3251845817285
 20
247.2541001196773
 10
695.3701682753081
 20
246.5110733246696
 10
695.4151519688876
 20
245.7402531277459
 10
695.4601356624671
 20
244.9422283350712
 10
695.5051193560466
 20
244.1175877528105
 10
695.5501030496262
 20
243.2669201871286
 10
695.5950867432058
 20
242.3908278568417
 10
695.6400704367853
 20
241.4900360535493
 10
695.685054130365
 20
240.5653362267938
 10
695.7300378239446
 20
239.61752046181
 10
695.7750215175241
 20
238.6473808438327
 10
695.8200052111036
 20
237.6557094580966
 10
695.8649889046832
 20
236.6432983898364
 10
695.9099725982629
 20
235.6109397242869
 10
695.9549562918423
 20
234.5594255466827
 10
695.9999399854217
 20
233.4895479422588
 10
696.0449236790015
 20
232.4021039937763
 10
696.089907372581
 20
231.2979655261431
 10
696.1348910661605
 20
230.1780618826866
 10
696.1798747597401
 20
229.0433238852551
 10
696.2248584533197
 20
227.894682355697
 10
696.2698421468991
 20
226.7330681158604
 10
696.3148258404786
 20
225.5594119875938
 10
696.3598095340583
 20
224.3746447927454
 10
696.4047932276377
 20
223.1796973531635
 10
696.4497769212172
 20
221.9755004906964
 10
696.4947606147967
 20
220.7629860876487
 10
696.5397443083763
 20
219.5431148061447
 10
696.5847280019559
 20
218.3168787609927
 10
696.6297116955354
 20
217.085271663352
 10
696.6746953891148
 20
215.849287224382
 10
696.7196790826945
 20
214.6099191552422
 10
696.7646627762739
 20
213.3681611670918
 10
696.8096464698538
 20
212.1250069710902
 10
696.8546301634331
 20
210.8814502783968
 10
696.8996138570127
 20
209.638484800171
 10
696.9445975505921
 20
208.3971041374704
 10
696.9895812441717
 20
207.1582952124452
 10
697.0345649377514
 20
205.9230345528541
 10
697.0795486313308
 20
204.6922977873778
 10
697.1245323249105
 20
203.4670605446974
 10
697.1695160184901
 20
202.2482984534934
 10
697.2144997120697
 20
201.0369871424467
 10
697.2594834056492
 20
199.8341022402382
 10
697.3044670992288
 20
198.6406193755486
 10
697.3494507928083
 20
197.4575141770588
 10
697.3944344863879
 20
196.2857621478518
 10
697.4394181799673
 20
195.1263113540734
 10
697.4844018735467
 20
193.980048243694
 10
697.5293855671264
 20
192.8478508645629
 10
697.574369260706
 20
191.7305972645295
 10
697.6193529542854
 20
190.6291654914434
 10
697.6643366478648
 20
189.544433593154
 10
697.7093203414444
 20
188.4772796175107
 10
697.754304035024
 20
187.4285816123632
 10
697.7992877286034
 20
186.3992176255608
 10
697.844271422183
 20
185.3900656977323
 10
697.8892551157626
 20
184.4019699915325
 10
697.9342388093421
 20
183.4356625781909
 10
697.9792225029217
 20
182.4918523776718
 10
698.0242061965013
 20
181.5712483099398
 10
698.0691898900808
 20
180.674559294959
 10
698.1141735836604
 20
179.8024942526939
 10
698.15915727724
 20
178.9557621031088
 10
698.2041409708197
 20
178.1350717661681
 10
698.2491246643992
 20
177.3411321618361
 10
698.2941083579788
 20
176.5746522100772
 10
698.3390920515583
 20
175.8363104767289
 10
698.3840757451379
 20
175.126635357501
 10
698.4290594387174
 20
174.4461088920066
 10
698.4740431322969
 20
173.7952131065268
 10
698.5190268258765
 20
173.1744300273427
 10
698.564010519456
 20
172.5842416807355
 10
698.6089942130353
 20
172.0251300929864
 10
698.6539779066151
 20
171.4975772903763
 10
698.6989616001945
 20
171.0020652991865
 10
698.7439452937741
 20
170.539076145698
 10
698.7889289873536
 20
170.109069549024
 10
698.8339126809332
 20
169.7123378013201
 10
698.8788963745127
 20
169.3490971386903
 10
698.923880068092
 20
169.0195634161916
 10
698.9688637616716
 20
168.7239524888811
 10
699.0138474552512
 20
168.462480211816
 10
699.0588311488307
 20
168.2353624400531
 10
699.1038148424103
 20
168.0428150286498
 10
699.1487985359897
 20
167.8850538326629
 10
699.1937822295695
 20
167.7622947071496
 10
699.2387659231491
 20
167.6747398454956
 10
699.2837496167286
 20
167.6224293430966
 10
699.3287333103084
 20
167.6052971366431
  0
LWPOLYLINE
  5
90
330
1F
100
AcDbEntity
  8
0
  6
CONTINUOUS
 62
     7
100
AcDbPolyline
 90
      105
 70
     0
 43
0.0
 10
674.647671610446
 20
254.7225776750221
 10
674.692678347225
 20
254.4572758235544
 10
674.7376850840037
 20
254.1577103801275
 10
674.7826918207827
 20
253.8241847504816
 10
674.8276985575615
 20
253.4570023403568
 10
674.8727052943403
 20
253.0564665554934
 10
674.9177120311193
 20
252.6228808016314
 10
674.9627187678981
 20
252.1565484845111
 10
675.007725504677
 20
251.6577730098726
 10
675.0527322414559
 20
251.1268578385655
 10
675.0977389782347
 20
250.5641644682679
 10
675.1427457150136
 20
249.970222443457
 10
675.1877524517924
 20
249.345591548631
 10
675.2327591885713
 20
248.6908315682882
 10
675.2777659253502
 20
248.0065022869269
 10
675.3227726621291
 20
247.2931634890454
 10
675.3677793989079
 20
246.551374959142
 10
675.4127861356869
 20
245.7816964817149
 10
675.4577928724656
 20
244.9846878412624
 10
675.5027996092446
 20
244.1609088222829
 10
675.5478063460233
 20
243.3109522595394
 10
675.5928130828022
 20
242.4355514134861
 10
675.6378198195812
 20
241.5354768334845
 10
675.6828265563599
 20
240.6114990691813
 10
675.7278332931388
 20
239.664388670224
 10
675.7728400299178
 20
238.6949161862593
 10
675.8178467666967
 20
237.7038521669344
 10
675.8628535034754
 20
236.6919671618963
 10
675.9078602402544
 20
235.6600317207921
 10
675.9528669770332
 20
234.6088163932687
 10
675.997873713812
 20
233.5391069244459
 10
676.042880450591
 20
232.4517846675716
 10
676.0878871873698
 20
231.3477680680847
 10
676.1328939241487
 20
230.2279756531358
 10
676.1779006609277
 20
229.0933259498751
 10
676.2229073977066
 20
227.9447374854533
 10
676.2679141344854
 20
226.7831287870205
 10
676.3129208712644
 20
225.6094183817272
 10
676.3579276080433
 20
224.4245247967239
 10
676.4029343448221
 20
223.2293665591608
 10
676.447941081601
 20
222.0248667828041
 10
676.4929478183799
 20
220.8119924684383
 10
676.5379545551588
 20
219.5917350132473
 10
676.5829612919375
 20
218.3650860764063
 10
676.6279680287164
 20
217.1330373170907
 10
676.6729747654954
 20
215.8965803944757
 10
676.7179815022743
 20
214.6567069677365
 10
676.7629882390531
 20
213.4144086960484
 10
676.807994975832
 20
212.1706772385867
 10
676.8530017126109
 20
210.9265042545266
 10
676.8980084493897
 20
209.6828811363945
 10
676.9430151861685
 20
208.4407951740163
 10
676.9880219229473
 20
207.2012304402237
 10
677.0330286597261
 20
205.9651709216315
 10
677.0780353965051
 20
204.7336006048544
 10
677.1230421332839
 20
203.5075034765075
 10
677.1680488700628
 20
202.2878635232054
 10
677.2130556068417
 20
201.0756647315631
 10
677.2580623436205
 20
199.8718910881953
 10
677.3030690803995
 20
198.677526579717
 10
677.3480758171783
 20
197.4935537297661
 10
677.3930825539571
 20
196.3209149676663
 10
677.438089290736
 20
195.1605086824348
 10
677.4830960275149
 20
194.0132310087335
 10
677.5281027642937
 20
192.8799780812242
 10
677.5731095010726
 20
191.7616460345687
 10
677.6181162378515
 20
190.6591310034289
 10
677.6631229746306
 20
189.5733291224664
 10
677.7081297114094
 20
188.5051365263433
 10
677.7531364481882
 20
187.4554493497212
 10
677.7981431849671
 20
186.425162718659
 10
677.8431499217461
 20
185.4151119909318
 10
677.8881566585248
 20
184.4260403109789
 10
677.9331633953038
 20
183.4586829406654
 10
677.9781701320826
 20
182.5137751418562
 10
678.0231768688615
 20
181.5920521764164
 10
678.0681836056403
 20
180.694249306211
 10
678.1131903424192
 20
179.8211017931051
 10
678.1581970791981
 20
178.9733448989636
 10
678.203203815977
 20
178.1517138856516
 10
678.2482105527557
 20
177.3569436928826
 10
678.2932172895347
 20
176.589705988061
 10
678.3382240263135
 20
175.8505336605516
 10
678.3832307630925
 20
175.1399411871748
 10
678.4282374998712
 20
174.4584430447512
 10
678.4732442366501
 20
173.8065537101016
 10
678.5182509734291
 20
173.1847876600463
 10
678.563257710208
 20
172.5936593714059
 10
678.6082644469866
 20
172.0336833210012
 10
678.6532711837656
 20
171.5053739856527
 10
678.6982779205446
 20
171.0092458220851
 10
678.7432846573233
 20
170.5457586490699
 10
678.7882913941022
 20
170.1151986503654
 10
678.8332981308811
 20
169.7178175959997
 10
678.8783048676602
 20
169.3538672560009
 10
678.9233116044392
 20
169.0235994003971
 10
678.9683183412179
 20
168.7272657992163
 10
679.0133250779968
 20
168.4651182224866
 10
679.0583318147758
 20
168.2374084402362
 10
679.1033385515547
 20
168.044388222493
 10
679.1483452883334
 20
167.8863093392852
 10
679.1933520251124
 20
167.7633833224625
 10
679.2383587618913
 20
167.675633630193
 10
679.28336549867
 20
167.6230288169962
 10
679.3283722354491
 20
167.6055374308207
  0
LWPOLYLINE
  5
91
330
1F
100
AcDbEntity
  8
0
  6
CONTINUOUS
 62
     7
100
AcDbPolyline
 90
        3
 70
     0
 43
0.0
 10
639.613916721008
 20
170.3022504925349
 10
639.6819804920906
 20
170.1669920483411
 10
639.7691659639429
 20
170.1047599517937
  0
LWPOLYLINE
  5
92
330
1F
100
AcDbEntity
  8
0
  6
CONTINUOUS
 62
     7
100
AcDbPolyline
 90
      105
 70
     0
 43
0.0
 10
744.6506867532138
 20
254.7054308220735
 10
744.6956605655344
 20
254.4384673302393
 10
744.7406343778549
 20
254.1373110763401
 10
744.7856081901755
 20
253.8021115861774
 10
744.830582002496
 20
253.4330386680645
 10
744.8755558148165
 20
253.030430284351
 10
744.9205296271372
 20
252.5947075511617
 10
744.9655034394576
 20
252.1262921758631
 10
745.0104772517782
 20
251.6256058658214
 10
745.0554510640985
 20
251.0930703284031
 10
745.100424876419
 20
250.5291072709744
 10
745.1453986887398
 20
249.9341384009018
 10
745.1903725010602
 20
249.3085854255515
 10
745.2353463133807
 20
248.6528700522899
 10
745.2803201257013
 20
247.9674238187984
 10
745.3252939380219
 20
247.2528100562415
 10
745.3702677503425
 20
246.5096862553094
 10
745.4152415626631
 20
245.7387119424329
 10
745.4602153749837
 20
244.9405466440423
 10
745.5051891873044
 20
244.1158498865684
 10
745.5501629996248
 20
243.2652811964415
 10
745.5951368119454
 20
242.3895001000924
 10
745.6401106242661
 20
241.4891661239515
 10
745.6850844365867
 20
240.5649387944496
 10
745.7300582489074
 20
239.6174812897453
 10
745.775032061228
 20
238.647544057954
 10
745.8200058735486
 20
237.6559666793467
 10
745.8649796858691
 20
236.6435927584142
 10
745.9099534981898
 20
235.6112658996472
 10
745.9549273105102
 20
234.5598297075364
 10
745.9999011228308
 20
233.4901277865727
 10
746.0448749351514
 20
232.4030037412469
 10
746.0898487474719
 20
231.2993011760497
 10
746.1348225597925
 20
230.179863695472
 10
746.1797963721132
 20
229.0455357678531
 10
746.2247701844337
 20
227.8972062850439
 10
746.2697439967541
 20
226.7358290435596
 10
746.3147178090746
 20
225.5623629854879
 10
746.3596916213953
 20
224.3777670529168
 10
746.4046654337155
 20
223.1830001879339
 10
746.4496392460363
 20
221.9790213326272
 10
746.4946130583569
 20
220.7667894290844
 10
746.5395868706775
 20
219.5472634193933
 10
746.5845606829981
 20
218.3214022456419
 10
746.6295344953185
 20
217.090164915169
 10
746.6745083076391
 20
215.8545214086646
 10
746.7194821199598
 20
214.6154649153602
 10
746.7644559322804
 20
213.3739915762822
 10
746.8094297446011
 20
212.1310975324567
 10
746.8544035569215
 20
210.8877789249101
 10
746.8993773692423
 20
209.6450318946687
 10
746.9443511815629
 20
208.4038525827587
 10
746.9893249938835
 20
207.1652371302063
 10
747.0342988062041
 20
205.9301816780379
 10
747.0792726185247
 20
204.6996823631245
 10
747.1242464308452
 20
203.4747260360223
 10
747.1692202431657
 20
202.2562705221492
 10
747.2141940554864
 20
201.0452679916845
 10
747.2591678678068
 20
199.8426706148073
 10
747.3041416801274
 20
198.649430561697
 10
747.3491154924478
 20
197.4665000025328
 10
747.3940893047684
 20
196.294831107494
 10
747.439063117089
 20
195.1353760467598
 10
747.4840369294094
 20
193.9890869905095
 10
747.52901074173
 20
192.8569161089225
 10
747.5739845540506
 20
191.7397983994251
 10
747.6189583663711
 20
190.6385881609883
 10
747.6639321786919
 20
189.554116009211
 10
747.7089059910122
 20
188.487212556571
 10
747.753879803333
 20
187.4387084155454
 10
747.7988536156536
 20
186.4094341986118
 10
747.8438274279741
 20
185.4002205182475
 10
747.8888012402947
 20
184.4118979869301
 10
747.9337750526154
 20
183.4452972171369
 10
747.978748864936
 20
182.5012488213454
 10
748.0237226772567
 20
181.5805666498495
 10
748.0686964895773
 20
180.6839445752389
 10
748.113670301898
 20
179.8120241867711
 10
748.1586441142185
 20
178.9654468574027
 10
748.2036179265391
 20
178.1448539600903
 10
748.2485917388598
 20
177.3508868677905
 10
748.2935655511803
 20
176.5841869534601
 10
748.3385393635008
 20
175.8453955900555
 10
748.3835131758215
 20
175.1351541505335
 10
748.428486988142
 20
174.4541040078507
 10
748.4734608004625
 20
173.8028742313637
 10
748.518434612783
 20
173.1819544158786
 10
748.5634084251035
 20
172.5917458323123
 10
748.6083822374239
 20
172.0326483523189
 10
748.6533560497443
 20
171.5050618475519
 10
748.6983298620648
 20
171.009386189665
 10
748.7433036743855
 20
170.5460212503119
 10
748.788277486706
 20
170.1153669011464
 10
748.8332512990264
 20
169.7178230138221
 10
748.8782251113469
 20
169.3537894599928
 10
748.9231989236674
 20
169.0236590275567
 10
748.9681727359881
 20
168.7276868932997
 10
749.0131465483087
 20
168.4660033709309
 10
749.0581203606291
 20
168.238734247567
 10
749.1030941729499
 20
168.0460053103244
 10
749.1480679852705
 20
167.8879423463198
 10
749.193041797591
 20
167.7646711426698
 10
749.2380156099117
 20
167.676317486491
 10
749.2829894222325
 20
167.6230071648999
 10
749.3279632345528
 20
167.6048659650131
  0
LWPOLYLINE
  5
93
330
1F
100
AcDbEntity
  8
0
  6
CONTINUOUS
 62
     7
100
AcDbPolyline
 90
        3
 70
     0
 43
0.0
 10
699.621202634731
 20
170.284229913671
 10
699.687377910152
 20
170.1598245428542
 10
699.7692012312966
 20
170.1047599518134
  0
LINE
  5
94
330
1F
100
AcDbEntity
  8
0
  6
CONTINUOUS
 62
     7
100
AcDbLine
 10
735.8280030027818
 20
167.6048352569537
 30
0.0
 11
739.3280030027726
 21
167.6048271963907
 31
0.0
  0
LWPOLYLINE
  5
95
330
1F
100
AcDbEntity
  8
0
  6
CONTINUOUS
 62
     7
100
AcDbPolyline
 90
      105
 70
     0
 43
0.0
 10
-700.8279947791596
 20
255.6042931036271
 10
-700.8729788133838
 20
255.5868716743377
 10
-700.9179628476079
 20
255.5343915191883
 10
-700.9629468818321
 20
255.4469296578145
 10
-701.0079309160562
 20
255.3245631098518
 10
-701.0529149502806
 20
255.1673688949357
 10
-701.0978989845049
 20
254.9754240327016
 10
-701.1428830187291
 20
254.7488055427849
 10
-701.1878670529533
 20
254.4875907438041
 10
-701.2328510871774
 20
254.1919330102564
 10
-701.2778351214017
 20
253.8621620978289
 10
-701.3228191556259
 20
253.4986327003073
 10
-701.3678031898502
 20
253.1016995114779
 10
-701.4127872240745
 20
252.6717172251265
 10
-701.4577712582987
 20
252.2090405350391
 10
-701.502755292523
 20
251.7140241350017
 10
-701.5477393267472
 20
251.1870227188003
 10
-701.5927233609715
 20
250.6283909802209
 10
-701.6377073951959
 20
250.0384836189368
 10
-701.6826914294201
 20
249.4177036067659
 10
-701.7276754636442
 20
248.7666191042344
 10
-701.7726594978684
 20
248.0858335773286
 10
-701.8176435320927
 20
247.3759504920345
 10
-701.862627566317
 20
246.6375733143383
 10
-701.9076116005411
 20
245.8713055102259
 10
-701.9525956347655
 20
245.0777505456838
 10
-701.9975796689896
 20
244.2575118866978
 10
-702.042563703214
 20
243.4111929992541
 10
-702.0875477374382
 20
242.5393973493388
 10
-702.1325317716625
 20
241.6427541465214
 10
-702.1775158058866
 20
240.7220243823362
 10
-702.2224998401108
 20
239.7780111037282
 10
-702.2674838743351
 20
238.8115173759221
 10
-702.3124679085593
 20
237.8233462641422
 10
-702.3574519427834
 20
236.8143008336129
 10
-702.4024359770077
 20
235.7851841495589
 10
-702.4474200112319
 20
234.7367992772043
 10
-702.492404045456
 20
233.6699492817737
 10
-702.5373880796803
 20
232.5854372284917
 10
-702.5823721139045
 20
231.4840769585527
 10
-702.6273561481288
 20
230.3667661719644
 10
-702.6723401823529
 20
229.2344418707523
 10
-702.7173242165771
 20
228.0880412822271
 10
-702.7623082508013
 20
226.9285016336992
 10
-702.8072922850255
 20
225.7567601524792
 10
-702.8522763192498
 20
224.5737540658777
 10
-702.8972603534739
 20
223.3804206012051
 10
-702.9422443876982
 20
222.1776969857719
 10
-702.9872284219224
 20
220.9665204468888
 10
-703.0322124561467
 20
219.7478308563814
 10
-703.077196490371
 20
218.5226007722072
 10
-703.1221805245951
 20
217.2918248013319
 10
-703.1671645588194
 20
216.0564979639054
 10
-703.2121485930437
 20
214.8176152800779
 10
-703.257132627268
 20
213.5761717699991
 10
-703.3021166614919
 20
212.3331624538193
 10
-703.3471006957163
 20
211.0895823516883
 10
-703.3920847299406
 20
209.846426483756
 10
-703.437068764165
 20
208.6046898701725
 10
-703.4820527983891
 20
207.3653669983099
 10
-703.5270368326135
 20
206.1294409684626
 10
-703.5720208668375
 20
204.897883955555
 10
-703.6170049010618
 20
203.6716676941248
 10
-703.6619889352861
 20
202.4517639187097
 10
-703.7069729695103
 20
201.2391443638473
 10
-703.7519570037346
 20
200.0347807640754
 10
-703.7969410379587
 20
198.8396448539317
 10
-703.8419250721829
 20
197.6547083679539
 10
-703.8869091064071
 20
196.4809430406796
 10
-703.9318931406312
 20
195.3193196562536
 10
-703.9768771748554
 20
194.1707677439422
 10
-704.0218612090798
 20
193.0361606066006
 10
-704.066845243304
 20
191.9163675121124
 10
-704.1118292775282
 20
190.8122577283617
 10
-704.1568133117523
 20
189.7247005232323
 10
-704.2017973459767
 20
188.6545651646082
 10
-704.2467813802009
 20
187.6027209203732
 10
-704.2917654144251
 20
186.5700370584112
 10
-704.3367494486492
 20
185.5573828466061
 10
-704.3817334828736
 20
184.5656271138146
 10
-704.4267175170978
 20
183.5955843418177
 10
-704.4717015513219
 20
182.6479627970452
 10
-704.5166855855463
 20
181.7234584491023
 10
-704.5616696197706
 20
180.8227672675939
 10
-704.6066536539947
 20
179.946585222125
 10
-704.6516376882191
 20
179.095608282301
 10
-704.6966217224433
 20
178.2705324177266
 10
-704.7416057566676
 20
177.472053598007
 10
-704.7865897908918
 20
176.7008677927473
 10
-704.8315738251159
 20
175.9576709152983
 10
-704.8765578593401
 20
175.2431061590776
 10
-704.9215418935645
 20
174.557666179726
 10
-704.9665259277887
 20
173.9018169380217
 10
-705.0115099620128
 20
173.2760243947427
 10
-705.0564939962372
 20
172.6807545106673
 10
-705.1014780304614
 20
172.1164732465736
 10
-705.1464620646858
 20
171.58364656324
 10
-705.1914460989099
 20
171.0827404214444
 10
-705.236430133134
 20
170.614220781965
 10
-705.2814141673582
 20
170.1785536055802
 10
-705.3263982015825
 20
169.7761628731658
 10
-705.3713822358069
 20
169.4072940248785
 10
-705.416366270031
 20
169.0721450445951
 10
-705.4613503042551
 20
168.7709139158112
 10
-705.5063343384795
 20
168.5037986220223
210
0.0
220
0.0
230
-1.0
  0
LWPOLYLINE
  5
96
330
1F
100
AcDbEntity
  8
0
  6
CONTINUOUS
 62
     7
100
AcDbPolyline
 90
      113
 70
     0
 43
0.0
 10
-760.8279755752282
 20
255.6044691939358
 10
-760.8697641686678
 20
255.5898310035378
 10
-760.9115527621076
 20
255.5447365542441
 10
-760.9533413555473
 20
255.4691884834816
 10
-760.995129948987
 20
255.3633230514249
 10
-761.0369185424267
 20
255.2272890925451
 10
-761.0787071358665
 20
255.0612354413135
 10
-761.1204957293063
 20
254.8653109322015
 10
-761.1622843227459
 20
254.63966439968
 10
-761.2040729161854
 20
254.3844446782204
 10
-761.2458615096253
 20
254.0998006022941
 10
-761.287650103065
 20
253.7858810063721
 10
-761.3294386965047
 20
253.4428347249258
 10
-761.3712272899444
 20
253.0708128809765
 10
-761.413015883384
 20
252.6700559662624
 10
-761.4548044768239
 20
252.2409207983553
 10
-761.4965930702635
 20
251.7837719925314
 10
-761.5383816637033
 20
251.298974164067
 10
-761.580170257143
 20
250.7868919282382
 10
-761.6219588505828
 20
250.2478899003212
 10
-761.6637474440224
 20
249.6823326955922
 10
-761.7055360374621
 20
249.0905849293272
 10
-761.7473246309019
 20
248.4730112168026
 10
-761.7891132243416
 20
247.8299761732945
 10
-761.8309018177812
 20
247.1618480679944
 10
-761.8726904112209
 20
246.4690831897312
 10
-761.9144790046606
 20
245.7522281163143
 10
-761.9562675981003
 20
245.0118335334293
 10
-761.9980561915401
 20
244.248450126762
 10
-762.0398447849799
 20
243.4626285819981
 10
-762.0816333784194
 20
242.6549195848233
 10
-762.1234219718591
 20
241.8258738209234
 10
-762.1652105652987
 20
240.9760419759841
 10
-762.2069991587384
 20
240.1059747356911
 10
-762.2487877521783
 20
239.2162227857302
 10
-762.2905763456178
 20
238.3073414330121
 10
-762.3323649390575
 20
237.3799605408934
 10
-762.3741535324971
 20
236.4347702652215
 10
-762.4159421259367
 20
235.4724624898919
 10
-762.4577307193765
 20
234.4937290988005
 10
-762.4995193128162
 20
233.4992619758427
 10
-762.5413079062558
 20
232.4897530049144
 10
-762.5830964996954
 20
231.4658940699111
 10
-762.6248850931353
 20
230.4283770547286
 10
-762.6666736865749
 20
229.3778938432624
 10
-762.7084622800146
 20
228.3151363194084
 10
-762.7502508734542
 20
227.2408006618378
 10
-762.7920394668939
 20
226.155631977939
 10
-762.8338280603338
 20
225.0604064744739
 10
-762.8756166537734
 20
223.955900855921
 10
-762.9174052472132
 20
222.8428918267587
 10
-762.9591938406528
 20
221.7221560914653
 10
-763.0009824340926
 20
220.5944703545196
 10
-763.0427710275322
 20
219.4606113203996
 10
-763.0845596209722
 20
218.3213556935841
 10
-763.1263482144119
 20
217.1774801785513
 10
-763.1681368078517
 20
216.0297614797798
 10
-763.2099254012912
 20
214.8789778973542
 10
-763.2517139947311
 20
213.7259210216688
 10
-763.2935025881708
 20
212.5713890409988
 10
-763.3352911816104
 20
211.4161801912384
 10
-763.3770797750503
 20
210.2610927082817
 10
-763.4188683684899
 20
209.1069248280225
 10
-763.4606569619294
 20
207.9544747863552
 10
-763.5024455553694
 20
206.8045408191739
 10
-763.5442341488091
 20
205.6579211623726
 10
-763.5860227422487
 20
204.5154140518453
 10
-763.6278113356884
 20
203.3778177234863
 10
-763.6695999291281
 20
202.2459258923029
 10
-763.7113885225677
 20
201.1205041220625
 10
-763.7531771160074
 20
200.0023071588879
 10
-763.7949657094471
 20
198.8920897264508
 10
-763.8367543028866
 20
197.7906065484231
 10
-763.8785428963263
 20
196.6986123484764
 10
-763.9203314897662
 20
195.6168618502828
 10
-763.9621200832055
 20
194.5461097775137
 10
-764.0039086766454
 20
193.4871108538412
 10
-764.0456972700852
 20
192.4406198029369
 10
-764.0874858635249
 20
191.4073913484726
 10
-764.1292744569644
 20
190.3881654321231
 10
-764.171063050404
 20
189.383612294755
 10
-764.2128516438439
 20
188.3943816526107
 10
-764.2546402372835
 20
187.4211232190617
 10
-764.2964288307234
 20
186.4644867074794
 10
-764.3382174241628
 20
185.5251218312354
 10
-764.3800060176027
 20
184.6036783037011
 10
-764.4217946110424
 20
183.700805838248
 10
-764.4635832044821
 20
182.8171541482475
 10
-764.5053717979217
 20
181.9533729470712
 10
-764.5471603913614
 20
181.1101119468352
 10
-764.5889489848013
 20
180.2879915704409
 10
-764.6307375782409
 20
179.4875271435938
 10
-764.6725261716806
 20
178.7092104279705
 10
-764.7143147651203
 20
177.9535331852478
 10
-764.75610335856
 20
177.2209871771026
 10
-764.7978919519999
 20
176.5120641652113
 10
-764.8396805454395
 20
175.827255911251
 10
-764.8814691388792
 20
175.1670541768982
 10
-764.9232577323189
 20
174.5319507238297
 10
-764.9650463257585
 20
173.9224373137222
 10
-765.0068349191984
 20
173.3390056402231
 10
-765.048623512638
 20
172.7821003929408
 10
-765.0904121060778
 20
172.2520372496659
 10
-765.1322006995174
 20
171.7491099495583
 10
-765.1739892929572
 20
171.2736122317778
 10
-765.215777886397
 20
170.8258378354845
 10
-765.2575664798366
 20
170.4060804998383
 10
-765.2993550732763
 20
170.0146339639991
 10
-765.341143666716
 20
169.651791967127
 10
-765.3829322601556
 20
169.3178482483818
 10
-765.4247208535953
 20
169.0130965469236
 10
-765.466509447035
 20
168.7378302172363
 10
-765.5082980404751
 20
168.4922772644762
210
0.0
220
0.0
230
-1.0
  0
LWPOLYLINE
  5
97
330
1F
100
AcDbEntity
  8
0
  6
CONTINUOUS
 62
     7
100
AcDbPolyline
 90
      105
 70
     0
 43
0.0
 10
-710.8287340755379
 20
255.6044441831089
 10
-710.8737106464336
 20
255.5864345549596
 10
-710.9186872173293
 20
255.5333413086588
 10
-710.9636637882248
 20
255.4452596225861
 10
-711.0086403591205
 20
255.3222846751209
 10
-711.0536169300161
 20
255.1645116446427
 10
-711.0985935009118
 20
254.9720357095312
 10
-711.1435700718074
 20
254.7449520481656
 10
-711.188546642703
 20
254.4833558389255
 10
-711.2335232135986
 20
254.1873500364534
 10
-711.2784997844942
 20
253.8571789023741
 10
-711.32347635539
 20
253.4932098418063
 10
-711.3684529262856
 20
253.0958143818638
 10
-711.4134294971811
 20
252.6653640496601
 10
-711.4584060680768
 20
252.2022303723089
 10
-711.5033826389725
 20
251.7067848769241
 10
-711.5483592098681
 20
251.1793990906193
 10
-711.5933357807637
 20
250.6204445405082
 10
-711.6383123516594
 20
250.0302927537045
 10
-711.6832889225551
 20
249.4093182299416
 10
-711.7282654934507
 20
248.7580002517793
 10
-711.7732420643463
 20
248.0769482921361
 10
-711.8182186352419
 20
247.3667799532588
 10
-711.8631952061374
 20
246.628112837394
 10
-711.9081717770331
 20
245.8615645467888
 10
-711.9531483479287
 20
245.0677526836897
 10
-711.9981249188243
 20
244.2472948503436
 10
-712.04310148972
 20
243.4008086489973
 10
-712.0880780606157
 20
242.5289116818975
 10
-712.1330546315112
 20
241.6322222765918
 10
-712.1780312024069
 20
240.7114244689825
 10
-712.2230077733026
 20
239.7673194942941
 10
-712.2679843441982
 20
238.8007207050625
 10
-712.3129609150939
 20
237.8124414538233
 10
-712.3579374859894
 20
236.8032950931123
 10
-712.402914056885
 20
235.7740949754651
 10
-712.4478906277808
 20
234.7256544534176
 10
-712.4928671986764
 20
233.6587868795055
 10
-712.5378437695721
 20
232.5743056062644
 10
-712.5828203404678
 20
231.4730240525973
 10
-712.6277969113634
 20
230.3557878010087
 10
-712.6727734822591
 20
229.2235262114944
 10
-712.7177500531546
 20
228.0771821114733
 10
-712.7627266240502
 20
226.9176983283642
 10
-712.8077031949457
 20
225.7460176895859
 10
-712.8526797658415
 20
224.563083022557
 10
-712.8976563367371
 20
223.3698371546966
 10
-712.9426329076327
 20
222.1672229134232
 10
-712.9876094785284
 20
220.9561831261557
 10
-713.0325860494239
 20
219.7376606203208
 10
-713.0775626203196
 20
218.5126072551608
 10
-713.1225391912151
 20
217.2820099845651
 10
-713.1675157621108
 20
216.0468642852683
 10
-713.2124923330064
 20
214.8081656340052
 10
-713.257468903902
 20
213.5669095075104
 10
-713.3024454747975
 20
212.3240913825187
 10
-713.3474220456933
 20
211.0807067357645
 10
-713.3923986165889
 20
209.8377510439828
 10
-713.4373751874845
 20
208.5962197839081
 10
-713.4823517583801
 20
207.3571084322751
 10
-713.5273283292757
 20
206.121409299314
 10
-713.5723049001714
 20
204.8900961417409
 10
-713.6172814710669
 20
203.6641359794613
 10
-713.6622580419628
 20
202.4444958228697
 10
-713.7072346128582
 20
201.2321426823602
 10
-713.7522111837538
 20
200.0280435683275
 10
-713.7971877546497
 20
198.8331654911659
 10
-713.8421643255452
 20
197.6484754612697
 10
-713.887140896441
 20
196.4749404890334
 10
-713.9321174673365
 20
195.3135275848514
 10
-713.9770940382322
 20
194.1651965690364
 10
-714.0220706091277
 20
193.030842145126
 10
-714.0670471800235
 20
191.9113243820308
 10
-714.112023750919
 20
190.8075030277068
 10
-714.1570003218146
 20
189.7202378301096
 10
-714.2019768927103
 20
188.650388537195
 10
-714.2469534636058
 20
187.5988148969189
 10
-714.2919300345014
 20
186.566376657237
 10
-714.3369066053971
 20
185.5539335661051
 10
-714.3818831762927
 20
184.562345371479
 10
-714.4268597471882
 20
183.5924653611305
 10
-714.471836318084
 20
182.6450510700145
 10
-714.5168128889795
 20
181.720786785382
 10
-714.5617894598753
 20
180.8203549368491
 10
-714.6067660307709
 20
179.9444379540321
 10
-714.6517426016665
 20
179.0937182665469
 10
-714.696719172562
 20
178.2688783040099
 10
-714.7416957434577
 20
177.4706004960372
 10
-714.7866723143534
 20
176.6995672722448
 10
-714.831648885249
 20
175.9564610622491
 10
-714.8766254561446
 20
175.2419603510736
 10
-714.9216020270403
 20
174.5566369310613
 10
-714.966578597936
 20
173.9009461965141
 10
-715.0115551688315
 20
173.2753376514559
 10
-715.0565317397272
 20
172.680260799911
 10
-715.1015083106228
 20
172.1161651459034
 10
-715.1464848815184
 20
171.583500193457
 10
-715.1914614524142
 20
171.082715446596
 10
-715.2364380233098
 20
170.6142604093444
 10
-715.2814145942053
 20
170.1785845857264
 10
-715.3263911651011
 20
169.7761358523453
 10
-715.3713677359967
 20
169.4072626924159
 10
-715.4163443068924
 20
169.0721585157153
 10
-715.4613208777879
 20
168.7710032731855
 10
-715.5062974486835
 20
168.5039769157689
210
0.0
220
0.0
230
-1.0
  0
LWPOLYLINE
  5
98
330
1F
100
AcDbEntity
  8
0
  6
CONTINUOUS
 62
     7
100
AcDbPolyline
 90
      113
 70
     0
 43
0.0
 10
-750.8280779982881
 20
255.6045999743304
 10
-750.8698730412752
 20
255.5897977508953
 10
-750.9116680842625
 20
255.5444926896562
 10
-750.9534631272496
 20
255.4687822615886
 10
-750.9952581702368
 20
255.3628009451344
 10
-751.0370532132239
 20
255.2266832187348
 10
-751.0788482562109
 20
255.0605635608316
 10
-751.1206432991983
 20
254.8645764498662
 10
-751.1624383421854
 20
254.6388563642804
 10
-751.2042333851725
 20
254.3835377825156
 10
-751.2460284281597
 20
254.0987551830135
 10
-751.2878234711469
 20
253.7846430442156
 10
-751.3296185141342
 20
253.441335882644
 10
-751.3714135571214
 20
253.069016469229
 10
-751.4132086001086
 20
252.66801024409
 10
-751.4550036430957
 20
252.2386688879796
 10
-751.4967986860828
 20
251.7813440816507
 10
-751.5385937290702
 20
251.2963875058559
 10
-751.5803887720574
 20
250.7841508413481
 10
-751.6221838150444
 20
250.2449857688799
 10
-751.6639788580318
 20
249.6792439692041
 10
-751.7057739010189
 20
249.0872771230732
 10
-751.747568944006
 20
248.4694369112404
 10
-751.7893639869932
 20
247.8260752452815
 10
-751.8311590299805
 20
247.1575966565185
 10
-751.8729540729674
 20
246.4645249414052
 10
-751.9147491159547
 20
245.7474003265698
 10
-751.9565441589419
 20
245.0067630386406
 10
-751.998339201929
 20
244.2431533042458
 10
-752.040134244916
 20
243.4571113500134
 10
-752.0819292879031
 20
242.649177402572
 10
-752.1237243308902
 20
241.8198916885495
 10
-752.1655193738775
 20
240.9697944345743
 10
-752.2073144168645
 20
240.0994258672744
 10
-752.2491094598516
 20
239.2093267831581
 10
-752.2909045028389
 20
238.3000870570454
 10
-752.332699545826
 20
237.3723827132836
 10
-752.3744945888131
 20
236.4268985044252
 10
-752.4162896318004
 20
235.4643191830224
 10
-752.4580846747875
 20
234.4853295016275
 10
-752.4998797177748
 20
233.490614212793
 10
-752.541674760762
 20
232.480858069071
 10
-752.583469803749
 20
231.456745823014
 10
-752.6252648467363
 20
230.4189622271743
 10
-752.6670598897235
 20
229.3681920341042
 10
-752.7088549327109
 20
228.3051208062944
 10
-752.7506499756979
 20
227.2304697109436
 10
-752.792445018685
 20
226.1450087014892
 10
-752.8342400616724
 20
225.0495112598723
 10
-752.8760351046596
 20
223.9447508680344
 10
-752.9178301476468
 20
222.8315010079168
 10
-752.9596251906341
 20
221.7105351614607
 10
-753.0014202336212
 20
220.5826268106075
 10
-753.0432152766084
 20
219.4485494372984
 10
-753.0850103195955
 20
218.3090765234749
 10
-753.1268053625829
 20
217.1649815510783
 10
-753.16860040557
 20
216.0170384537958
 10
-753.2103954485573
 20
214.86603303405
 10
-753.2521904915444
 20
213.7127638476308
 10
-753.2939855345317
 20
212.5580300792875
 10
-753.3357805775187
 20
211.4026309137689
 10
-753.3775756205058
 20
210.2473655358245
 10
-753.419370663493
 20
209.0930331302033
 10
-753.4611657064802
 20
207.9404328816544
 10
-753.5029607494674
 20
206.790363974927
 10
-753.5447557924545
 20
205.6436255947702
 10
-753.5865508354417
 20
204.5010169259331
 10
-753.6283458784287
 20
203.3633359673868
 10
-753.6701409214159
 20
202.2313602727878
 10
-753.7119359644031
 20
201.1058501490022
 10
-753.7537310073901
 20
199.9875653626321
 10
-753.7955260503772
 20
198.8772656802801
 10
-753.8373210933645
 20
197.7757108685482
 10
-753.8791161363513
 20
196.6836606940388
 10
-753.9209111793389
 20
195.6018749233542
 10
-753.9627062223257
 20
194.5311133230966
 10
-754.0045012653131
 20
193.4721356598683
 10
-754.0462963083
 20
192.4257017002715
 10
-754.0880913512874
 20
191.3925664036128
 10
-754.1298863942745
 20
190.3734270119135
 10
-754.1716814372617
 20
189.3689426412264
 10
-754.2134764802489
 20
188.3797717310097
 10
-754.2552715232362
 20
187.4065727207215
 10
-754.2970665662232
 20
186.45000404982
 10
-754.3388616092105
 20
185.5107241577631
 10
-754.3806566521978
 20
184.589391484009
 10
-754.4224516951849
 20
183.6866644680158
 10
-754.4642467381722
 20
182.8032015492416
 10
-754.5060417811594
 20
181.9396611671445
 10
-754.5478368241465
 20
181.0966908419663
 10
-754.5896318671339
 20
180.2748432176355
 10
-754.6314269101209
 20
179.4746221551643
 10
-754.6732219531082
 20
178.6965311144335
 10
-754.7150169960954
 20
177.9410735553244
 10
-754.7568120390824
 20
177.2087529377178
 10
-754.7986070820696
 20
176.5000727214949
 10
-754.8404021250567
 20
175.8155363665367
 10
-754.8821971680441
 20
175.1556473327242
 10
-754.9239922110312
 20
174.5209090799383
 10
-754.9657872540183
 20
173.9118250680604
 10
-755.0075822970053
 20
173.3288791731009
 10
-755.0493773399926
 20
172.7724290433894
 10
-755.0911723829797
 20
172.2427822611344
 10
-755.132967425967
 20
171.7402462825987
 10
-755.1747624689541
 20
171.265128564045
 10
-755.2165575119413
 20
170.817736561736
 10
-755.2583525549286
 20
170.3983777319345
 10
-755.3001475979156
 20
170.0073595309032
 10
-755.3419426409029
 20
169.6449894149049
 10
-755.38373768389
 20
169.3115748402023
 10
-755.4255327268772
 20
169.0074232630581
 10
-755.4673277698643
 20
168.7328119390822
 10
-755.5091228128516
 20
168.4878716325468
210
0.0
220
0.0
230
-1.0
  0
LWPOLYLINE
  5
99
330
1F
100
AcDbEntity
  8
0
  6
CONTINUOUS
 62
     7
100
AcDbPolyline
 90
      105
 70
     0
 43
0.0
 10
-690.8282347326218
 20
255.6041454361095
 10
-690.873217344148
 20
255.5865816129322
 10
-690.9181999556741
 20
255.5339878254664
 10
-690.9631825672004
 20
255.4464228557552
 10
-691.0081651787266
 20
255.3239454858416
 10
-691.053147790253
 20
255.1666144977688
 10
-691.0981304017789
 20
254.9744886735795
 10
-691.1431130133052
 20
254.7476267953172
 10
-691.1880956248314
 20
254.4861151738822
 10
-691.2330782363575
 20
254.1902193782611
 10
-691.2780608478837
 20
253.8602767421912
 10
-691.3230434594099
 20
253.4966247899304
 10
-691.3680260709363
 20
253.0996010457364
 10
-691.4130086824624
 20
252.669543033867
 10
-691.4579912939887
 20
252.2067882785803
 10
-691.502973905515
 20
251.711674304134
 10
-691.5479565170411
 20
251.184538634786
 10
-691.5929391285673
 20
250.6257187947941
 10
-691.6379217400935
 20
250.0355670145276
 10
-691.6829043516198
 20
249.4145844401639
 10
-691.7278869631459
 20
248.7633587661585
 10
-691.7728695746721
 20
248.0824787560795
 10
-691.8178521861984
 20
247.372533173495
 10
-691.8628347977244
 20
246.634110781973
 10
-691.9078174092508
 20
245.8678003450817
 10
-691.952800020777
 20
245.0741906263893
 10
-691.9977826323031
 20
244.2538703894636
 10
-692.0427652438293
 20
243.4074283978729
 10
-692.0877478553556
 20
242.5354597268104
 10
-692.1327304668816
 20
241.6386655930329
 10
-692.1777130784079
 20
240.7178353523765
 10
-692.2226956899342
 20
239.773761032773
 10
-692.2676783014604
 20
238.8072346621542
 10
-692.3126609129866
 20
237.8190482684518
 10
-692.3576435245128
 20
236.8099938795974
 10
-692.4026261360389
 20
235.7808635235229
 10
-692.4476087475654
 20
234.7324492281601
 10
-692.4925913590914
 20
233.6655430214406
 10
-692.5375739706178
 20
232.5809388574544
 10
-692.5825565821438
 20
231.4794915577522
 10
-692.6275391936701
 20
230.3621277451896
 10
-692.6725218051964
 20
229.2297781742751
 10
-692.7175044167224
 20
228.0833735995172
 10
-692.7624870282485
 20
226.9238447754242
 10
-692.8074696397748
 20
225.7521224565048
 10
-692.852452251301
 20
224.5691373972675
 10
-692.8974348628271
 20
223.3758203522205
 10
-692.9424174743534
 20
222.1731020758725
 10
-692.9874000858795
 20
220.9619136124106
 10
-693.0323826974058
 20
219.7432079986176
 10
-693.0773653089319
 20
218.5179753149089
 10
-693.1223479204583
 20
217.2872092005546
 10
-693.1673305319845
 20
216.0519032948244
 10
-693.2123131435105
 20
214.8130512369881
 10
-693.2572957550369
 20
213.5716466663157
 10
-693.302278366563
 20
212.3286832220769
 10
-693.3472609780891
 20
211.0851545435416
 10
-693.3922435896155
 20
209.8420542699798
 10
-693.4372262011417
 20
208.6003760263844
 10
-693.4822088126679
 20
207.3611086936547
 10
-693.5271914241943
 20
206.1252295657753
 10
-693.5721740357203
 20
204.8937142008456
 10
-693.6171566472465
 20
203.6675381569651
 10
-693.6621392587726
 20
202.4476769922334
 10
-693.7071218702991
 20
201.2351062647497
 10
-693.7521044818253
 20
200.0308015326136
 10
-693.7970870933515
 20
198.8357383539245
 10
-693.8420697048776
 20
197.6508922867819
 10
-693.8870523164039
 20
196.4772388886708
 10
-693.93203492793
 20
195.3157357646486
 10
-693.9770175394564
 20
194.1672755786102
 10
-694.0220001509824
 20
193.032736314883
 10
-694.0669827625087
 20
191.9129959577948
 10
-694.1119653740348
 20
190.8089324916729
 10
-694.156947985561
 20
189.7214239008451
 10
-694.2019305970873
 20
188.6513481696387
 10
-694.2469132086134
 20
187.5995832823814
 10
-694.2918958201395
 20
186.5670072234007
 10
-694.3368784316658
 20
185.5544979770243
 10
-694.381861043192
 20
184.5629130376179
 10
-694.4268436547183
 20
183.5929987888128
 10
-694.4718262662445
 20
182.6454641281903
 10
-694.5168088777706
 20
181.7210179244285
 10
-694.5617914892971
 20
180.8203690462053
 10
-694.6067741008231
 20
179.9442263621984
 10
-694.6517567123495
 20
179.093298741086
 10
-694.6967393238756
 20
178.2682950515457
 10
-694.741721935402
 20
177.4699241622558
 10
-694.7867045469281
 20
176.6988949418939
 10
-694.8316871584543
 20
175.9558993462324
 10
-694.8766697699806
 20
175.2414891575713
 10
-694.9216523815068
 20
174.5561468595444
 10
-694.9666349930328
 20
173.900354443561
 10
-695.0116176045591
 20
173.2745939010302
 10
-695.0566002160854
 20
172.6793472233612
 10
-695.1015828276114
 20
172.1150964019633
 10
-695.1465654391376
 20
171.5823234282456
 10
-695.1915480506638
 20
171.0815102936172
 10
-695.2365306621899
 20
170.6131389894874
 10
-695.281513273716
 20
170.1776803962185
 10
-695.3264958852423
 20
169.7754576030928
 10
-695.3714784967685
 20
169.4066886898052
 10
-695.4164611082946
 20
169.0715894957967
 10
-695.4614437198209
 20
168.7703758605087
 10
-695.5064263313465
 20
168.5032636233855
210
0.0
220
0.0
230
-1.0
  0
LWPOLYLINE
  5
9A
330
1F
100
AcDbEntity
  8
0
  6
CONTINUOUS
 62
     7
100
AcDbPolyline
 90
      105
 70
     0
 43
0.0
 10
-680.8286449627956
 20
255.6040209467143
 10
-680.8736252295394
 20
255.5862023561926
 10
-680.918605496283
 20
255.5333720652371
 10
-680.9635857630268
 20
255.4455705995147
 10
-681.0085660297706
 20
255.3228384846921
 10
-681.0535462965142
 20
255.1652162464362
 10
-681.098526563258
 20
254.9727444104138
 10
-681.1435068300018
 20
254.7454692360551
 10
-681.1884870967453
 20
254.4835705357995
 10
-681.2334673634892
 20
254.1873626131482
 10
-681.2784476302329
 20
253.8571656929795
 10
-681.3234278969766
 20
253.4933000001716
 10
-681.3684081637203
 20
253.0960857596027
 10
-681.4133884304641
 20
252.6658431961513
 10
-681.4583686972077
 20
252.2028925346953
 10
-681.5033489639516
 20
251.7075540001133
 10
-681.5483292306952
 20
251.1801478172833
 10
-681.593309497439
 20
250.6209962226949
 10
-681.6382897641828
 20
250.030520290821
 10
-681.6832700309263
 20
249.4092828960356
 10
-681.7282502976699
 20
248.7578578691503
 10
-681.7732305644138
 20
248.0768190409769
 10
-681.8182108311576
 20
247.3667402423274
 10
-681.8631910979012
 20
246.6281953040132
 10
-681.9081713646449
 20
245.8617580568463
 10
-681.9531516313887
 20
245.0680023316385
 10
-681.9981318981323
 20
244.2475019592014
 10
-682.043112164876
 20
243.4008311760939
 10
-682.0880924316199
 20
242.5286263530782
 10
-682.1330726983635
 20
241.6316522741024
 10
-682.1780529651072
 20
240.7106896177495
 10
-682.223033231851
 20
239.7665190626025
 10
-682.2680134985948
 20
238.7999212872441
 10
-682.3129937653383
 20
237.8116769702573
 10
-682.3579740320821
 20
236.8025667902248
 10
-682.4029542988259
 20
235.7733714257297
 10
-682.4479345655695
 20
234.7248715553547
 10
-682.4929148323133
 20
233.6578478766025
 10
-682.5378950990571
 20
232.5731121436436
 10
-682.5828753658008
 20
231.4715704305884
 10
-682.6278556325444
 20
230.3541466507972
 10
-682.6728358992883
 20
229.22176471763
 10
-682.717816166032
 20
228.0753485444466
 10
-682.7627964327755
 20
226.9158220446072
 10
-682.8077766995193
 20
225.7441091314717
 10
-682.8527569662632
 20
224.5611337184003
 10
-682.8977372330069
 20
223.3678197187528
 10
-682.9427174997506
 20
222.1650910458893
 10
-682.9876977664942
 20
220.9538815584427
 10
-683.032678033238
 20
219.7351702958446
 10
-683.0776582999817
 20
218.5099491210007
 10
-683.1226385667254
 20
217.2792098976782
 10
-683.1676188334692
 20
216.0439444896448
 10
-683.2125991002129
 20
214.8051447606681
 10
-683.2575793669567
 20
213.5638025745154
 10
-683.3025596337002
 20
212.3209097949543
 10
-683.3475399004441
 20
211.0774582857525
 10
-683.3925201671877
 20
209.8344399106772
 10
-683.4375004339314
 20
208.5928453390455
 10
-683.4824807006753
 20
207.3536570283694
 10
-683.527460967419
 20
206.1178539835253
 10
-683.5724412341626
 20
204.8864151974317
 10
-683.6174215009063
 20
203.6603196630074
 10
-683.6624017676501
 20
202.4405463731711
 10
-683.7073820343937
 20
201.2280743208416
 10
-683.7523623011375
 20
200.0238824989374
 10
-683.7973425678812
 20
198.8289499003774
 10
-683.842322834625
 20
197.6442555180803
 10
-683.8873031013687
 20
196.4707733216812
 10
-683.9322833681124
 20
195.3094231403174
 10
-683.9772636348561
 20
194.1610917935737
 10
-684.0222439015998
 20
193.0266656310347
 10
-684.0672241683435
 20
191.9070310022853
 10
-684.112204435087
 20
190.8030742569102
 10
-684.1571847018308
 20
189.7156817444942
 10
-684.2021649685746
 20
188.6457398146221
 10
-684.2471452353183
 20
187.5941348168786
 10
-684.2921255020622
 20
186.5617531008485
 10
-684.3371057688058
 20
185.549476373249
 10
-684.3820860355495
 20
184.5581020243702
 10
-684.4270663022933
 20
183.5883539937143
 10
-684.4720465690369
 20
182.6409537640179
 10
-684.5170268357806
 20
181.7166228180174
 10
-684.5620071025243
 20
180.8160826384494
 10
-684.6069873692682
 20
179.9400547080505
 10
-684.6519676360118
 20
179.0892605095572
 10
-684.6969479027556
 20
178.2644215257061
 10
-684.7419281694993
 20
177.4662592392337
 10
-684.786908436243
 20
176.6954924120445
 10
-684.8318887029867
 20
175.9527444261816
 10
-684.8768689697305
 20
175.2385204596937
 10
-684.9218492364744
 20
174.5533183390032
 10
-684.9668295032179
 20
173.8976358905324
 10
-685.0118097699618
 20
173.2719709407038
 10
-685.0567900367055
 20
172.6768213159397
 10
-685.1017703034493
 20
172.1126848426626
 10
-685.1467505701928
 20
171.5800593472947
 10
-685.1917308369366
 20
171.0794426562585
 10
-685.2367111036802
 20
170.6113315979501
 10
-685.2816913704241
 20
170.1761339915567
 10
-685.3266716371678
 20
169.7740996747601
 10
-685.3716519039115
 20
169.4054622526654
 10
-685.4166321706552
 20
169.0704553303775
 10
-685.461612437399
 20
168.7693125130016
 10
-685.506592704142
 20
168.5022674056458
210
0.0
220
0.0
230
-1.0
  0
LWPOLYLINE
  5
9B
330
1F
100
AcDbEntity
  8
0
  6
CONTINUOUS
 62
     7
100
AcDbPolyline
 90
      105
 70
     0
 43
0.0
 10
-670.8278029900902
 20
255.6039351607954
 10
-670.8727932565339
 20
255.5868388572253
 10
-670.9177835229775
 20
255.5347170373655
 10
-670.9627737894212
 20
255.4475919809328
 10
-671.0077640558649
 20
255.3254859676438
 10
-671.0527543223086
 20
255.1684212772152
 10
-671.0977445887523
 20
254.9764202887524
 10
-671.1427348551961
 20
254.749572248075
 10
-671.1877251216399
 20
254.4881492551777
 10
-671.2327153880835
 20
254.1924543827707
 10
-671.2777056545274
 20
253.8627907035642
 10
-671.322695920971
 20
253.4994612902681
 10
-671.3676861874147
 20
253.1027692155927
 10
-671.4126764538585
 20
252.673017552248
 10
-671.4576667203022
 20
252.2105093729442
 10
-671.5026569867458
 20
251.7155477503914
 10
-671.5476472531896
 20
251.1884357572996
 10
-671.5926375196333
 20
250.6295186221576
 10
-671.637627786077
 20
250.0393123006519
 10
-671.6826180525208
 20
249.4183759628362
 10
-671.7276083189643
 20
248.7672687787674
 10
-671.7725985854081
 20
248.0865499185024
 10
-671.8175888518517
 20
247.376778552098
 10
-671.8625791182955
 20
246.638513849611
 10
-671.9075693847392
 20
245.8723149810983
 10
-671.9525596511828
 20
245.0787411166166
 10
-671.9975499176265
 20
244.258351426223
 10
-672.0425401840703
 20
243.411727648128
 10
-672.0875304505139
 20
242.5395882056233
 10
-672.1325207169577
 20
241.6427027127275
 10
-672.1775109834015
 20
240.7218408733019
 10
-672.222501249845
 20
239.777772391208
 10
-672.2674915162888
 20
238.8112669703075
 10
-672.3124817827324
 20
237.8230943144617
 10
-672.3574720491762
 20
236.8140241275323
 10
-672.4024623156199
 20
235.7848261133806
 10
-672.4474525820635
 20
234.7362699758683
 10
-672.4924428485074
 20
233.6691350231871
 10
-672.5374331149509
 20
232.5842898191111
 10
-672.5824233813947
 20
231.4826514004783
 10
-672.6274136478382
 20
230.3651372862274
 10
-672.6724039142821
 20
229.2326649952975
 10
-672.7173941807257
 20
228.0861520466273
 10
-672.7623844471694
 20
226.9265159591559
 10
-672.8073747136132
 20
225.7546742518222
 10
-672.852364980057
 20
224.571544443565
 10
-672.8973552465006
 20
223.3780440533234
 10
-672.9423455129444
 20
222.1750932017235
 10
-672.987335779388
 20
220.9636512718272
 10
-673.0323260458318
 20
219.7447080424717
 10
-673.0773163122755
 20
218.5192540843483
 10
-673.1223065787193
 20
217.2882799681483
 10
-673.167296845163
 20
216.0527762645627
 10
-673.2122871116067
 20
214.8137335442828
 10
-673.2572773780503
 20
213.5721423779998
 10
-673.302267644494
 20
212.3289933364049
 10
-673.3472579109377
 20
211.0852769901894
 10
-673.3922481773814
 20
209.8419837814661
 10
-673.4372384438252
 20
208.600100648914
 10
-673.4822287102689
 20
207.3606106944933
 10
-673.5272189767126
 20
206.1244968247564
 10
-673.5722092431562
 20
204.8927419462559
 10
-673.6171995095999
 20
203.6663289655442
 10
-673.6621897760436
 20
202.4462407891739
 10
-673.7071800424874
 20
201.2334603236974
 10
-673.7521703089309
 20
200.0289704756672
 10
-673.7971605753747
 20
198.8337541516358
 10
-673.8421508418185
 20
197.6487937204837
 10
-673.8871411082622
 20
196.4750390975096
 10
-673.9321313747057
 20
195.3133897835238
 10
-673.9771216411496
 20
194.1647409295555
 10
-674.0221119075933
 20
193.0299876866339
 10
-674.0671021740369
 20
191.9100252057882
 10
-674.1120924404805
 20
190.8057486380476
 10
-674.1570827069244
 20
189.7180531344414
 10
-674.2020729733681
 20
188.6478338459988
 10
-674.2470632398118
 20
187.595985923749
 10
-674.2920535062556
 20
186.5634043049969
 10
-674.3370437726991
 20
185.5509385207955
 10
-674.3820340391429
 20
184.5593367473093
 10
-674.4270243055867
 20
183.589333439351
 10
-674.4720145720304
 20
182.6416630517333
 10
-674.517004838474
 20
181.717060039269
 10
-674.561995104918
 20
180.8162588567707
 10
-674.6069853713614
 20
179.9399939590513
 10
-674.6519756378053
 20
179.0889998009233
 10
-674.6969659042488
 20
178.2640108371997
 10
-674.7419561706924
 20
177.4657615115583
 10
-674.7869464371362
 20
176.694941640723
 10
-674.83193670358
 20
175.9520949743057
 10
-674.8769269700236
 20
175.2377354244169
 10
-674.9219172364674
 20
174.5523769031674
 10
-674.966907502911
 20
173.8965333226677
 10
-675.0118977693548
 20
173.2707185950286
 10
-675.0568880357985
 20
172.6754466323604
 10
-675.1018783022422
 20
172.1112313467741
 10
-675.1468685686858
 20
171.5785866503801
 10
-675.1918588351296
 20
171.0780264552892
 10
-675.2368491015733
 20
170.6100289821504
 10
-675.2818393680171
 20
170.17489859535
 10
-675.3268296344608
 20
169.7728868008607
 10
-675.3718199009046
 20
169.4042450923576
 10
-675.4168101673483
 20
169.0692249635164
 10
-675.4618004337922
 20
168.7680779080124
 10
-675.5067907002359
 20
168.5010554195204
210
0.0
220
0.0
230
-1.0
  0
LWPOLYLINE
  5
9C
330
1F
100
AcDbEntity
  8
0
  6
CONTINUOUS
 62
     7
100
AcDbPolyline
 90
      105
 70
     0
 43
0.0
 10
-730.8279829305235
 20
255.6046689382605
 10
-730.8729651979276
 20
255.58732017901
 10
-730.9179474653315
 20
255.5347658196553
 10
-730.9629297327356
 20
255.447137380626
 10
-731.0079120001395
 20
255.324566382352
 10
-731.0528942675436
 20
255.167184345263
 10
-731.0978765349477
 20
254.9751227897886
 10
-731.1428588023518
 20
254.7485132363586
 10
-731.1878410697558
 20
254.4874872054028
 10
-731.2328233371599
 20
254.1921762173509
 10
-731.2778056045637
 20
253.8627124223396
 10
-731.322787871968
 20
253.4993124271851
 10
-731.3677701393719
 20
253.1023615091605
 10
-731.412752406776
 20
252.6722649888107
 10
-731.45773467418
 20
252.2094281866802
 10
-731.5027169415838
 20
251.7142564233133
 10
-731.5476992089881
 20
251.187155019255
 10
-731.592681476392
 20
250.6285292950496
 10
-731.637663743796
 20
250.0387845712418
 10
-731.6826460112001
 20
249.4183261683761
 10
-731.727628278604
 20
248.7675594539609
 10
-731.7726105460081
 20
248.0869438070214
 10
-731.817592813412
 20
247.3770965888247
 10
-731.862575080816
 20
246.6386638927974
 10
-731.9075573482199
 20
245.8722918123659
 10
-731.9525396156239
 20
245.078626440957
 10
-731.9975218830278
 20
244.258313871997
 10
-732.0425041504318
 20
243.4120001989127
 10
-732.0874864178359
 20
242.5403315151304
 10
-732.1324686852399
 20
241.6439539140769
 10
-732.1774509526439
 20
240.7235134891784
 10
-732.222433220048
 20
239.7796850306655
 10
-732.2674154874519
 20
238.813268589507
 10
-732.312397754856
 20
237.8250983848137
 10
-732.3573800222599
 20
236.8160086364679
 10
-732.4023622896639
 20
235.7868335643523
 10
-732.4473445570679
 20
234.7384073883493
 10
-732.4923268244719
 20
233.6715643283414
 10
-732.537309091876
 20
232.5871386042112
 10
-732.5822913592799
 20
231.4859644358412
 10
-732.627273626684
 20
230.3688760431138
 10
-732.6722558940878
 20
229.2367193643727
 10
-732.7172381614919
 20
228.0904174868322
 10
-732.7622204288958
 20
226.9309246934355
 10
-732.8072026963
 20
225.7591953547553
 10
-732.852184963704
 20
224.5761838413648
 10
-732.8971672311078
 20
223.3828445238366
 10
-732.9421494985119
 20
222.1801317727437
 10
-732.9871317659159
 20
220.9689999586591
 10
-733.0321140333199
 20
219.7504034521556
 10
-733.0770963007238
 20
218.525296623806
 10
-733.1220785681279
 20
217.2946362875782
 10
-733.167060835532
 20
216.0594043099242
 10
-733.212043102936
 20
214.8205972589393
 10
-733.25702537034
 20
213.5792118897342
 10
-733.302007637744
 20
212.3362449574203
 10
-733.3469899051481
 20
211.0926932171085
 10
-733.3919721725522
 20
209.8495534239099
 10
-733.4369544399564
 20
208.6078223329356
 10
-733.4819367073602
 20
207.3684966992966
 10
-733.5269189747643
 20
206.132573278104
 10
-733.5719012421683
 20
204.9010476415888
 10
-733.6168835095724
 20
203.6748951655687
 10
-733.6618657769764
 20
202.4550742935609
 10
-733.7068480443803
 20
201.2425429453911
 10
-733.7518303117844
 20
200.0382590408848
 10
-733.7968125791884
 20
198.8431804998676
 10
-733.8417948465925
 20
197.658265242165
 10
-733.8867771139963
 20
196.4844711876025
 10
-733.9317593814004
 20
195.3227562560057
 10
-733.9767416488042
 20
194.1740783672002
 10
-734.0217239162083
 20
193.0393938592977
 10
-734.0667061836122
 20
191.919608067803
 10
-734.1116884510162
 20
190.8155655728939
 10
-734.1566707184201
 20
189.7281074037499
 10
-734.2016529858242
 20
188.6580745895509
 10
-734.2466352532282
 20
187.6063081594764
 10
-734.2916175206323
 20
186.5736491427063
 10
-734.3365997880361
 20
185.5609385684203
 10
-734.3815820554402
 20
184.569017465798
 10
-734.4265643228441
 20
183.5987268640191
 10
-734.4715465902481
 20
182.6509069700097
 10
-734.5165288576522
 20
181.726333613481
 10
-734.5615111250562
 20
180.8256730688348
 10
-734.6064933924602
 20
179.9495809439887
 10
-734.6514756598642
 20
179.098712846861
 10
-734.6964579272683
 20
178.2737243853693
 10
-734.7414401946724
 20
177.4752711674318
 10
-734.7864224620764
 20
176.7040088009662
 10
-734.8314047294805
 20
175.9605928938907
 10
-734.8763869968844
 20
175.245679054123
 10
-734.9213692642883
 20
174.5599227137898
 10
-734.9663515316925
 20
173.9039172180674
 10
-735.0113337990964
 20
173.2781025850126
 10
-735.0563160665005
 20
172.6828955795744
 10
-735.1012983339044
 20
172.1187129667019
 10
-735.1462806013086
 20
171.5859715113443
 10
-735.1912628687123
 20
171.0850879784506
 10
-735.2362451361165
 20
170.6164791329702
 10
-735.2812274035203
 20
170.180561739852
 10
-735.3262096709244
 20
169.7777525640453
 10
-735.3711919383284
 20
169.4084683693213
 10
-735.4161742057323
 20
169.073076300404
 10
-735.4611564731364
 20
168.771761868838
 10
-735.5061387405411
 20
168.5046690368285
210
0.0
220
0.0
230
-1.0
  0
LWPOLYLINE
  5
9D
330
1F
100
AcDbEntity
  8
0
  6
CONTINUOUS
 62
     7
100
AcDbPolyline
 90
      105
 70
     0
 43
0.0
 10
-720.828022386284
 20
255.604581659252
 10
-720.8730049441037
 20
255.587141383466
 10
-720.9179875019237
 20
255.5345567813965
 10
-720.9629700597434
 20
255.4469412417801
 10
-721.0079526175631
 20
255.3244081533533
 10
-721.0529351753829
 20
255.1670709048527
 10
-721.0979177332025
 20
254.975042885015
 10
-721.1429002910222
 20
254.7484374825767
 10
-721.187882848842
 20
254.4873680862743
 10
-721.232865406662
 20
254.1919480848445
 10
-721.2778479644816
 20
253.8623231336326
 10
-721.3228305223015
 20
253.4988191603283
 10
-721.3678130801211
 20
253.1018246701157
 10
-721.4127956379408
 20
252.6717282302285
 10
-721.4577781957605
 20
252.2089184079005
 10
-721.5027607535803
 20
251.7137837703653
 10
-721.5477433114002
 20
251.1867128848568
 10
-721.5927258692197
 20
250.6280943186086
 10
-721.6377084270397
 20
250.0383166388546
 10
-721.6826909848593
 20
249.4177684128283
 10
-721.7276735426791
 20
248.7668556740761
 10
-721.7726561004989
 20
248.086133972991
 10
-721.8176386583186
 20
247.3762347962677
 10
-721.8626212161383
 20
246.6377902275347
 10
-721.9076037739582
 20
245.8714323504209
 10
-721.952586331778
 20
245.0777932485549
 10
-721.9975688895976
 20
244.2575050055653
 10
-722.0425514474175
 20
243.4111997050809
 10
-722.0875340052372
 20
242.5395094307303
 10
-722.132516563057
 20
241.6430662661421
 10
-722.1774991208767
 20
240.7225099433859
 10
-722.2224816786966
 20
239.7785858044523
 10
-722.2674642365162
 20
238.8121161965585
 10
-722.312446794336
 20
237.8239252148795
 10
-722.3574293521558
 20
236.8148369545906
 10
-722.4024119099757
 20
235.7856755108671
 10
-722.4473944677957
 20
234.7372649788841
 10
-722.4923770256152
 20
233.6704294538168
 10
-722.537359583435
 20
232.5859930308405
 10
-722.5823421412548
 20
231.4847798051304
 10
-722.6273246990745
 20
230.3676162632337
 10
-722.6723072568942
 20
229.2353876359845
 10
-722.717289814714
 20
228.0890400562462
 10
-722.7622723725337
 20
226.9295224799791
 10
-722.8072549303535
 20
225.7577838631432
 10
-722.8522374881732
 20
224.5747731616989
 10
-722.8972200459928
 20
223.381439331606
 10
-722.9422026038127
 20
222.1787313288251
 10
-722.9871851616324
 20
220.967598109316
 10
-723.0321677194522
 20
219.748988629039
 10
-723.0771502772718
 20
218.5238521887999
 10
-723.1221328350917
 20
217.2931562792066
 10
-723.1671153929113
 20
216.0578952339706
 10
-723.212097950731
 20
214.8190655448903
 10
-723.257080508551
 20
213.5776637037644
 10
-723.3020630663706
 20
212.334686202391
 10
-723.3470456241905
 20
211.0911295325688
 10
-723.3920281820101
 20
209.8479901860961
 10
-723.4370107398298
 20
208.6062646547715
 10
-723.4819932976495
 20
207.3669494303934
 10
-723.5269758554693
 20
206.1310409471489
 10
-723.5719584132892
 20
204.8995257481037
 10
-723.6169409711089
 20
203.6733693521354
 10
-723.6619235289287
 20
202.453534588513
 10
-723.7069060867485
 20
201.2409842865054
 10
-723.7518886445682
 20
200.0366812753815
 10
-723.7968712023877
 20
198.84158838441
 10
-723.8418537602075
 20
197.6566684428599
 10
-723.8868363180272
 20
196.4828842800002
 10
-723.9318188758472
 20
195.3211987250996
 10
-723.9768014336669
 20
194.172574596763
 10
-724.0217839914867
 20
193.0379510236613
 10
-724.0667665493063
 20
191.918193128575
 10
-724.1117491071261
 20
190.8141516228408
 10
-724.1567316649458
 20
189.7266772177955
 10
-724.2017142227656
 20
188.6566206247759
 10
-724.2466967805854
 20
187.6048325551187
 10
-724.2916793384052
 20
186.5721637201607
 10
-724.3366618962249
 20
185.5594648312387
 10
-724.3816444540447
 20
184.5675865996895
 10
-724.4266270118644
 20
183.5973797368497
 10
-724.4716095696841
 20
182.6496691469079
 10
-724.5165921275039
 20
181.7251592438685
 10
-724.5615746853235
 20
180.8245193056981
 10
-724.6065572431435
 20
179.9484186062426
 10
-724.651539800963
 20
179.0975264193474
 10
-724.6965223587829
 20
178.2725120188582
 10
-724.7415049166027
 20
177.4740446786205
 10
-724.7864874744224
 20
176.70279367248
 10
-724.8314700322422
 20
175.9594282742823
 10
-724.8764525900621
 20
175.2446177578729
 10
-724.9214351478818
 20
174.5590101748798
 10
-724.9664177057015
 20
173.9031036564847
 10
-725.0114002635212
 20
173.277331756325
 10
-725.0563828213411
 20
172.6821277754908
 10
-725.1013653791609
 20
172.1179250150716
 10
-725.1463479369806
 20
171.5851567761574
 10
-725.1913304948005
 20
171.084256359838
 10
-725.2363130526202
 20
170.615657067203
 10
-725.2812956104401
 20
170.1797921993425
 10
-725.3262781682597
 20
169.7770950573461
 10
-725.3712607260794
 20
169.4079847433055
 10
-725.4162432838991
 20
169.0727228773036
 10
-725.4612258417189
 20
168.7714729659031
 10
-725.5062083995392
 20
168.5043970302295
210
0.0
220
0.0
230
-1.0
  0
LWPOLYLINE
  5
9E
330
1F
100
AcDbEntity
  8
0
  6
CONTINUOUS
 62
     7
100
AcDbPolyline
 90
      113
 70
     0
 43
0.0
 10
-740.8285778674505
 20
255.6046788409176
 10
-740.8703419561043
 20
255.5894120058218
 10
-740.9121060447579
 20
255.5437269634459
 10
-740.9538701334117
 20
255.4677426120401
 10
-740.9956342220653
 20
255.3615786934581
 10
-741.0373983107189
 20
255.2253549495538
 10
-741.0791623993726
 20
255.0591911221809
 10
-741.1209264880264
 20
254.8632069531932
 10
-741.1626905766801
 20
254.6375221844444
 10
-741.2044546653339
 20
254.3822565577883
 10
-741.2462187539874
 20
254.0975298150786
 10
-741.2879828426411
 20
253.7834616981692
 10
-741.329746931295
 20
253.4401907894826
 10
-741.3715110199483
 20
253.0679933882246
 10
-741.4132751086019
 20
252.6672069262524
 10
-741.4550391972556
 20
252.2381691113143
 10
-741.4968032859093
 20
251.7812176511586
 10
-741.538567374563
 20
251.2966902535334
 10
-741.5803314632166
 20
250.784924626187
 10
-741.6220955518702
 20
250.2462584768678
 10
-741.6638596405237
 20
249.6810295133238
 10
-741.7056237291773
 20
249.0895754433033
 10
-741.747387817831
 20
248.4722339745547
 10
-741.7891519064846
 20
247.829365043999
 10
-741.8309159951382
 20
247.1614533002937
 10
-741.8726800837919
 20
246.4690268546792
 10
-741.9144441724457
 20
245.752613862942
 10
-741.9562082610993
 20
245.0127424808688
 10
-741.9979723497529
 20
244.2499408642459
 10
-742.0397364384067
 20
243.4647371688601
 10
-742.0815005270604
 20
242.6576595504978
 10
-742.1232646157141
 20
241.8292361649456
 10
-742.1650287043677
 20
240.9799951679902
 10
-742.2067927930216
 20
240.1104647154179
 10
-742.2485568816752
 20
239.2211955699064
 10
-742.2903209703288
 20
238.3128366597644
 10
-742.3320850589826
 20
237.3860635519455
 10
-742.3738491476362
 20
236.4415518139066
 10
-742.4156132362899
 20
235.4799770131045
 10
-742.4573773249435
 20
234.5020147169958
 10
-742.4991414135973
 20
233.5083404930375
 10
-742.5409055022509
 20
232.4996299086862
 10
-742.5826695909045
 20
231.4765585313987
 10
-742.6244336795581
 20
230.4398019286317
 10
-742.6661977682118
 20
229.3900356707299
 10
-742.7079618568654
 20
228.3279535083393
 10
-742.749725945519
 20
227.2543104738074
 10
-742.7914900341727
 20
226.1698744981665
 10
-742.8332541228264
 20
225.0754135124488
 10
-742.8750182114799
 20
223.9716954476866
 10
-742.9167823001334
 20
222.8594882349124
 10
-742.9585463887871
 20
221.7395598051583
 10
-743.0003104774407
 20
220.6126780894566
 10
-743.0420745660945
 20
219.4796110188395
 10
-743.083838654748
 20
218.3411265243395
 10
-743.1256027434016
 20
217.1979925511591
 10
-743.1673668320554
 20
216.0509843793438
 10
-743.209130920709
 20
214.9008965916013
 10
-743.2508950093627
 20
213.7485269082698
 10
-743.2926590980164
 20
212.5946730496874
 10
-743.3344231866702
 20
211.4401327361923
 10
-743.3761872753239
 20
210.2857036881228
 10
-743.4179513639775
 20
209.132183625817
 10
-743.4597154526314
 20
207.9803702696132
 10
-743.5014795412849
 20
206.8310613398496
 10
-743.5432436299385
 20
205.6850545568644
 10
-743.5850077185922
 20
204.5431475728461
 10
-743.6267718072457
 20
203.406127485946
 10
-743.6685358958996
 20
202.2747595206671
 10
-743.7102999845531
 20
201.1498061850253
 10
-743.7520640732067
 20
200.0320299870365
 10
-743.7938281618603
 20
198.9221934347163
 10
-743.8355922505141
 20
197.8210590360808
 10
-743.8773563391676
 20
196.7293892991457
 10
-743.9191204278211
 20
195.6479467319269
 10
-743.960884516475
 20
194.5774938424401
 10
-744.0026486051285
 20
193.5187931387012
 10
-744.0444126937821
 20
192.4726066404508
 10
-744.0861767824356
 20
191.439661759207
 10
-744.1279408710894
 20
190.4206289636863
 10
-744.1697049597432
 20
189.4161734172029
 10
-744.2114690483968
 20
188.4269602830709
 10
-744.2532331370503
 20
187.4536547246044
 10
-744.2949972257042
 20
186.4969219051178
 10
-744.3367613143579
 20
185.5574269879251
 10
-744.3785254030115
 20
184.6358351363405
 10
-744.4202894916651
 20
183.7328115136781
 10
-744.4620535803189
 20
182.8490212832522
 10
-744.5038176689726
 20
181.9851280439959
 10
-744.5455817576263
 20
181.1417329889732
 10
-744.5873458462802
 20
180.3193553114624
 10
-744.6291099349338
 20
179.5185086297546
 10
-744.6708740235873
 20
178.7397065621412
 10
-744.7126381122409
 20
177.9834627269137
 10
-744.7544022008948
 20
177.2502907423634
 10
-744.7961662895483
 20
176.5407042267817
 10
-744.837930378202
 20
175.85521679846
 10
-744.8796944668557
 20
175.1943420756896
 10
-744.9214585555093
 20
174.5585936767621
 10
-744.9632226441628
 20
173.9484816495228
 10
-745.0049867328166
 20
173.3644257768601
 10
-745.0467508214701
 20
172.8067508056931
 10
-745.0885149101236
 20
172.2757769574988
 10
-745.1302789987773
 20
171.7718244537544
 10
-745.1720430874309
 20
171.2952135159368
 10
-745.2138071760844
 20
170.8462643655233
 10
-745.2555712647379
 20
170.4252972239909
 10
-745.2973353533915
 20
170.0326323128168
 10
-745.3390994420452
 20
169.668589853478
 10
-745.3808635306989
 20
169.3334900674516
 10
-745.4226276193526
 20
169.02764658315
 10
-745.464391708006
 20
168.7512592198988
 10
-745.5061557966604
 20
168.5044317233884
210
0.0
220
0.0
230
-1.0
  0
MTEXT
  5
9F
330
1F
100
AcDbEntity
  8
0
 62
     4
100
AcDbMText
 10
650.1498917539247
 20
142.371601850694
 30
0.0
 40
3.0
 41
0.0
 71
     1
 72
     1
  1
{\fＭＳ ゴシック;BML-65}
  0
LINE
  5
A0
330
1F
100
AcDbEntity
  8
0
  6
CONTINUOUS
 62
     7
100
AcDbLine
 10
800.3285691293632
 20
204.1047599517496
 30
0.0
 11
800.3285691293632
 21
219.1047599517496
 31
0.0
  0
LINE
  5
A1
330
1F
100
AcDbEntity
  8
0
  6
CONTINUOUS
 62
     7
100
AcDbLine
 10
784.9411942789948
 20
253.0927100095676
 30
0.0
 11
790.426099113862
 21
253.0927100095676
 31
0.0
  0
LINE
  5
A2
330
1F
100
AcDbEntity
  8
0
  6
CONTINUOUS
 62
     7
100
AcDbLine
 10
739.6487482170055
 20
168.4932892289791
 30
0.0
 11
739.9390669342167
 21
170.1048708733285
 31
0.0
  0
LINE
  5
A3
330
1F
100
AcDbEntity
  8
0
  6
CONTINUOUS
 62
     7
100
AcDbLine
 10
679.6505085101606
 20
168.5025887450831
 30
0.0
 11
679.939128461664
 21
170.1048671457064
 31
0.0
  0
LINE
  5
A4
330
1F
100
AcDbEntity
  8
0
  6
CONTINUOUS
 62
     7
100
AcDbLine
 10
649.6502923520959
 20
168.5018080718293
 30
0.0
 11
649.9390544239542
 21
170.1048677831958
 31
0.0
  0
LINE
  5
A5
330
1F
100
AcDbEntity
  8
0
  6
CONTINUOUS
 62
     7
100
AcDbLine
 10
635.1100815286942
 20
252.1562616165978
 30
0.0
 11
634.6503734366855
 21
254.7070848918198
 31
0.0
  0
LINE
  5
A6
330
1F
100
AcDbEntity
  8
0
  6
CONTINUOUS
 62
     7
100
AcDbLine
 10
769.6505033519769
 20
168.5032455901679
 30
0.0
 11
769.9390189628969
 21
170.1048670711218
 31
0.0
  0
LINE
  5
A7
330
1F
100
AcDbEntity
  8
0
  6
CONTINUOUS
 62
     7
100
AcDbLine
 10
659.6500301925075
 20
168.5002050730637
 30
0.0
 11
659.9390791299919
 21
170.1048684023346
 31
0.0
  0
LINE
  5
A8
330
1F
100
AcDbEntity
  8
0
  6
CONTINUOUS
 62
     7
100
AcDbLine
 10
801.3285691293632
 20
219.1047599517496
 30
0.0
 11
801.3285691293632
 21
252.4214232156667
 31
0.0
  0
LINE
  5
A9
330
1F
100
AcDbEntity
  8
0
  6
CONTINUOUS
 62
     7
100
AcDbLine
 10
689.6503959080065
 20
168.5018873277895
 30
0.0
 11
689.9391458847795
 21
170.1048671879302
 31
0.0
  0
LINE
  5
AA
330
1F
100
AcDbEntity
  8
0
  6
CONTINUOUS
 62
     7
100
AcDbLine
 10
634.9412009154793
 20
253.0927100095676
 30
0.0
 11
640.4261140611751
 21
253.0927100095676
 31
0.0
  0
LINE
  5
AB
330
1F
100
AcDbEntity
  8
0
  6
CONTINUOUS
 62
     7
100
AcDbLine
 10
799.6501661684616
 20
168.5011892713372
 30
0.0
 11
799.9390415896411
 21
170.104868051759
 31
0.0
  0
ARC
  5
AC
330
1F
100
AcDbEntity
  8
0
  6
CONTINUOUS
 62
     7
100
AcDbCircle
 10
1296.052217789095
 20
217.2935194050799
 30
0.0
 40
513.0933836934865
100
AcDbArc
 50
181.133630504808
 51
185.1704574168192
  0
ARC
  5
AD
330
1F
100
AcDbEntity
  8
0
  6
CONTINUOUS
 62
     7
100
AcDbCircle
 10
776.0781599064516
 20
251.3273840897649
 30
0.0
 40
4.731260215193228
100
AcDbArc
 50
6.24571758227126
 51
20.40296271473376
  0
LINE
  5
AE
330
1F
100
AcDbEntity
  8
0
  6
CONTINUOUS
 62
     7
100
AcDbLine
 10
709.6506570602913
 20
168.5034291118616
 30
0.0
 11
709.939339462129
 21
170.1059667085194
 31
0.0
  0
ARC
  5
AF
330
1F
100
AcDbEntity
  8
0
  6
CONTINUOUS
 62
     7
100
AcDbCircle
 10
-5.073842776562976
 20
189.3866009963259
 30
0.0
 40
788.3330864128774
100
AcDbArc
 50
1.2905893876295
 51
4.544007011807753
  0
LINE
  5
B0
330
1F
100
AcDbEntity
  8
0
  6
CONTINUOUS
 62
     7
100
AcDbLine
 10
729.6500787695348
 20
168.5005051745665
 30
0.0
 11
729.9390952045095
 21
170.1048674196696
 31
0.0
  0
LINE
  5
B1
330
1F
100
AcDbEntity
  8
0
  6
CONTINUOUS
 62
     7
100
AcDbLine
 10
639.6504035259343
 20
168.502551808757
 30
0.0
 11
639.9392971932668
 21
170.1063227508122
 31
0.0
  0
LINE
  5
B2
330
1F
100
AcDbEntity
  8
0
  6
CONTINUOUS
 62
     7
100
AcDbLine
 10
665.1098120485337
 20
252.1580811623593
 30
0.0
 11
664.6487614012001
 21
254.7164217269044
 31
0.0
  0
LINE
  5
B3
330
1F
100
AcDbEntity
  8
0
  6
CONTINUOUS
 62
     7
100
AcDbLine
 10
675.1082886935104
 20
252.1666366480439
 30
0.0
 11
674.6517854963912
 21
254.6997220752674
 31
0.0
  0
LINE
  5
B4
330
1F
100
AcDbEntity
  8
0
  6
CONTINUOUS
 62
     7
100
AcDbLine
 10
705.1113500826779
 20
252.1499120004401
 30
0.0
 11
704.6504444795884
 21
254.7073220927881
 31
0.0
  0
LINE
  5
B5
330
1F
100
AcDbEntity
  8
0
  6
CONTINUOUS
 62
     7
100
AcDbLine
 10
715.1120062228536
 20
252.1462044732833
 30
0.0
 11
714.6507500033889
 21
254.705511986096
 31
0.0
  0
LINE
  5
B6
330
1F
100
AcDbEntity
  8
0
  6
CONTINUOUS
 62
     7
100
AcDbLine
 10
725.1121893642484
 20
252.1450688923471
 30
0.0
 11
724.6507780884004
 21
254.7052104009213
 31
0.0
  0
LINE
  5
B7
330
1F
100
AcDbEntity
  8
0
  6
CONTINUOUS
 62
     7
100
AcDbLine
 10
745.1118578412952
 20
252.1466253656915
 30
0.0
 11
744.6506365473617
 21
254.7057096804983
 31
0.0
  0
LINE
  5
B8
330
1F
100
AcDbEntity
  8
0
  6
CONTINUOUS
 62
     7
100
AcDbLine
 10
755.1116442327382
 20
252.1476907384423
 30
0.0
 11
754.6506385041023
 21
254.7055953867383
 31
0.0
  0
LINE
  5
B9
330
1F
100
AcDbEntity
  8
0
  6
CONTINUOUS
 62
     7
100
AcDbLine
 10
779.6504634439531
 20
168.5030093800461
 30
0.0
 11
779.9390009637209
 21
170.104771802737
 31
0.0
  0
LINE
  5
BA
330
1F
100
AcDbEntity
  8
0
  6
CONTINUOUS
 62
     7
100
AcDbLine
 10
765.1114063778282
 20
252.1489250449275
 30
0.0
 11
764.6505525775673
 21
254.7060125879262
 31
0.0
  0
LINE
  5
BB
330
1F
100
AcDbEntity
  8
0
  6
CONTINUOUS
 62
     7
100
AcDbLine
 10
794.9412062311346
 20
253.0927100095676
 30
0.0
 11
800.3285691293632
 21
253.0927100095676
 31
0.0
  0
LINE
  5
BC
330
1F
100
AcDbEntity
  8
0
  6
CONTINUOUS
 62
     7
100
AcDbLine
 10
735.1118380840483
 20
252.1468740362266
 30
0.0
 11
734.6504082447748
 21
254.7071125342241
 31
0.0
  0
LINE
  5
BD
330
1F
100
AcDbEntity
  8
0
  6
CONTINUOUS
 62
     7
100
AcDbLine
 10
775.1111451739743
 20
252.1503322041287
 30
0.0
 11
774.6504644546088
 21
254.7064913505923
 31
0.0
  0
LINE
  5
BE
330
1F
100
AcDbEntity
  8
0
  6
CONTINUOUS
 62
     7
100
AcDbLine
 10
801.3285691293632
 20
170.7880966878325
 30
0.0
 11
801.3285691293632
 21
204.1047599517496
 31
0.0
  0
LINE
  5
BF
330
1F
100
AcDbEntity
  8
0
  6
CONTINUOUS
 62
     7
100
AcDbLine
 10
695.110820056455
 20
252.1528421979488
 30
0.0
 11
694.6503488670738
 21
254.707902680919
 31
0.0
  0
ARC
  5
C0
330
1F
100
AcDbEntity
  8
0
  6
CONTINUOUS
 62
     7
100
AcDbCircle
 10
1288.163005925119
 20
217.4347548637081
 30
0.0
 40
515.2080622619928
100
AcDbArc
 50
181.1358726874813
 51
185.1652682758966
  0
LINE
  5
C1
330
1F
100
AcDbEntity
  8
0
  6
CONTINUOUS
 62
     7
100
AcDbLine
 10
699.6503549759836
 20
168.5016658788878
 30
0.0
 11
699.9391511865002
 21
170.1048670411517
 31
0.0
  0
ARC
  5
C2
330
1F
100
AcDbEntity
  8
0
  6
CONTINUOUS
 62
     7
100
AcDbCircle
 10
1187.068710618441
 20
220.1862223507136
 30
0.0
 40
554.2041108635161
100
AcDbArc
 50
181.1000758176864
 51
185.0863239555903
  0
LINE
  5
C3
330
1F
100
AcDbEntity
  8
0
  6
CONTINUOUS
 62
     7
100
AcDbLine
 10
789.6503836567723
 20
168.5025028483244
 30
0.0
 11
789.9390257748547
 21
170.1048674954492
 31
0.0
  0
LINE
  5
C4
330
1F
100
AcDbEntity
  8
0
  6
CONTINUOUS
 62
     7
100
AcDbLine
 10
669.6503644170699
 20
168.5019137468439
 30
0.0
 11
669.939104861415
 21
170.1048676754525
 31
0.0
  0
LINE
  5
C5
330
1F
100
AcDbEntity
  8
0
  6
CONTINUOUS
 62
     7
100
AcDbLine
 10
785.1103190234492
 20
252.154917060888
 30
0.0
 11
784.6505310931825
 21
254.7061603331713
 31
0.0
  0
LINE
  5
C6
330
1F
100
AcDbEntity
  8
0
  6
CONTINUOUS
 62
     7
100
AcDbLine
 10
644.9412171363504
 20
253.0927100095676
 30
0.0
 11
650.4261343560896
 21
253.0927100095676
 31
0.0
  0
LINE
  5
C7
330
1F
100
AcDbEntity
  8
0
  6
CONTINUOUS
 62
     7
100
AcDbLine
 10
749.6506537652981
 20
168.5039624019897
 30
0.0
 11
749.9390457288368
 21
170.1048666112281
 31
0.0
  0
LINE
  5
C8
330
1F
100
AcDbEntity
  8
0
  6
CONTINUOUS
 62
     7
100
AcDbLine
 10
795.1116737370055
 20
252.1474630878636
 30
0.0
 11
794.6503050932841
 21
254.7075015698302
 31
0.0
  0
ARC
  5
C9
330
1F
100
AcDbEntity
  8
0
  6
CONTINUOUS
 62
     7
100
AcDbCircle
 10
633.803696597465
 20
250.82062005409
 30
0.0
 40
7.056896855286222
100
AcDbArc
 50
6.395500064586001
 51
16.96299601511265
  0
LINE
  5
CA
330
1F
100
AcDbEntity
  8
0
  6
CONTINUOUS
 62
     7
100
AcDbLine
 10
800.3285691293632
 20
252.4214232156667
 30
0.0
 11
801.3285691293632
 21
252.4214232156667
 31
0.0
  0
LINE
  5
CB
330
1F
100
AcDbEntity
  8
0
  6
CONTINUOUS
 62
     7
100
AcDbLine
 10
795.8284990766896
 20
167.6055289633185
 30
0.0
 11
799.32849907668
 21
167.6055209028826
 31
0.0
  0
LINE
  5
CC
330
1F
100
AcDbEntity
  8
0
  6
CONTINUOUS
 62
     7
100
AcDbLine
 10
785.8283486116345
 20
167.6054175798452
 30
0.0
 11
789.3283486116256
 21
167.6054095193889
 31
0.0
  0
LINE
  5
CD
330
1F
100
AcDbEntity
  8
0
  6
CONTINUOUS
 62
     7
100
AcDbLine
 10
775.8280056411554
 20
167.6052793564093
 30
0.0
 11
779.3280056411459
 21
167.6052712959277
 31
0.0
  0
LINE
  5
CE
330
1F
100
AcDbEntity
  8
0
  6
CONTINUOUS
 62
     7
100
AcDbLine
 10
765.8282680200637
 20
167.6051224143381
 30
0.0
 11
769.3282680200541
 21
167.6051143538278
 31
0.0
  0
LINE
  5
CF
330
1F
100
AcDbEntity
  8
0
  6
CONTINUOUS
 62
     7
100
AcDbLine
 10
755.8284736459144
 20
167.6049770051106
 30
0.0
 11
759.3284736459052
 21
167.6049689445736
 31
0.0
  0
LINE
  5
D0
330
1F
100
AcDbEntity
  8
0
  6
CONTINUOUS
 62
     7
100
AcDbLine
 10
645.111679479694
 20
252.1474854982466
 30
0.0
 11
644.6504568729849
 21
254.7067308576243
 31
0.0
  0
LINE
  5
D1
330
1F
100
AcDbEntity
  8
0
  6
CONTINUOUS
 62
     7
100
AcDbLine
 10
655.1110712594663
 20
252.1509709803057
 30
0.0
 11
654.6501663386798
 21
254.708483820909
 31
0.0
  0
LINE
  5
D2
330
1F
100
AcDbEntity
  8
0
  6
CONTINUOUS
 62
     7
100
AcDbLine
 10
759.6506012281403
 20
168.5037534256422
 30
0.0
 11
759.9390284672282
 21
170.1048667637263
 31
0.0
  0
LINE
  5
D3
330
1F
100
AcDbEntity
  8
0
  6
CONTINUOUS
 62
     7
100
AcDbLine
 10
745.8279632239901
 20
167.60487402569
 30
0.0
 11
749.3279632239808
 21
167.6048659651341
 31
0.0
  0
LINE
  5
D4
330
1F
100
AcDbEntity
  8
0
  6
CONTINUOUS
 62
     7
100
AcDbLine
 10
800.219478193622
 20
253.0927098959512
 30
0.0
 11
800.3285691293632
 21
253.6981916162514
 31
0.0
  0
LINE
  5
D5
330
1F
100
AcDbEntity
  8
0
  6
CONTINUOUS
 62
     7
100
AcDbLine
 10
801.3285691293632
 20
204.1047599517496
 30
0.0
 11
800.3285691293632
 21
204.1047599517496
 31
0.0
  0
LINE
  5
D6
330
1F
100
AcDbEntity
  8
0
  6
CONTINUOUS
 62
     7
100
AcDbLine
 10
800.3285691293632
 20
170.7880966878325
 30
0.0
 11
801.3285691293632
 21
170.7880966878325
 31
0.0
  0
LINE
  5
D7
330
1F
100
AcDbEntity
  8
0
  6
CONTINUOUS
 62
     7
100
AcDbLine
 10
719.6508453081453
 20
168.5046079291148
 30
0.0
 11
719.939120272596
 21
170.1048659498202
 31
0.0
  0
LINE
  5
D8
330
1F
100
AcDbEntity
  8
0
  6
CONTINUOUS
 62
     7
100
AcDbLine
 10
685.1104703509367
 20
252.1547000102094
 30
0.0
 11
684.6504618165721
 21
254.7072367882778
 31
0.0
  0
ARC
  5
D9
330
1F
100
AcDbEntity
  8
0
  6
CONTINUOUS
 62
     7
100
AcDbCircle
 10
-107.8362473886116
 20
185.2419835207351
 30
0.0
 40
881.1666002589714
100
AcDbArc
 50
1.429318953215909
 51
4.308170792939386
  0
LINE
  5
DA
330
1F
100
AcDbEntity
  8
0
  6
CONTINUOUS
 62
     7
100
AcDbLine
 10
800.3285691293632
 20
170.1047599517496
 30
0.0
 11
800.3285691293632
 21
170.7880966878325
 31
0.0
  0
LINE
  5
DB
330
1F
100
AcDbEntity
  8
0
  6
CONTINUOUS
 62
     7
100
AcDbLine
 10
800.3285691293632
 20
219.1047599517496
 30
0.0
 11
801.3285691293632
 21
219.1047599517496
 31
0.0
  0
ARC
  5
DC
330
1F
100
AcDbEntity
  8
0
  6
CONTINUOUS
 62
     7
100
AcDbCircle
 10
763.9811711834943
 20
250.7688534860783
 30
0.0
 40
6.89175549418576
100
AcDbArc
 50
5.555466510929552
 51
18.8402989911995
  0
ARC
  5
DD
330
1F
100
AcDbEntity
  8
0
  6
CONTINUOUS
 62
     7
100
AcDbCircle
 10
-118.0169059623778
 20
191.7367798904235
 30
0.0
 40
761.1917050409116
100
AcDbArc
 50
1.342102979266132
 51
4.511137008517286
  0
ARC
  5
DE
330
1F
100
AcDbEntity
  8
0
  6
CONTINUOUS
 62
     7
100
AcDbCircle
 10
1197.702672180038
 20
220.2262427100275
 30
0.0
 40
554.8391222852886
100
AcDbArc
 50
181.1009665906626
 51
185.0846139805738
  0
ARC
  5
DF
330
1F
100
AcDbEntity
  8
0
  6
CONTINUOUS
 62
     7
100
AcDbCircle
 10
-897.9509261440844
 20
159.1617611938416
 30
0.0
 40
1531.746556114786
100
AcDbArc
 50
1.884995797038246
 51
3.25231357165264
  0
ARC
  5
E0
330
1F
100
AcDbEntity
  8
0
  6
CONTINUOUS
 62
     7
100
AcDbCircle
 10
222.2501985337646
 20
206.4484066222946
 30
0.0
 40
504.9332085497645
100
AcDbArc
 50
1.126904178691404
 51
5.193435116720935
  0
ARC
  5
E1
330
1F
100
AcDbEntity
  8
0
  6
CONTINUOUS
 62
     7
100
AcDbCircle
 10
1530.151587781393
 20
234.63233232869
 30
0.0
 40
803.2732619927272
100
AcDbArc
 50
181.3020915964227
 51
184.5152808539432
  0
ARC
  5
E2
330
1F
100
AcDbEntity
  8
0
  6
CONTINUOUS
 62
     7
100
AcDbCircle
 10
1634.2037999872
 20
238.2713641367199
 30
0.0
 40
887.3838685949236
100
AcDbArc
 50
181.4337648016897
 51
184.2961252707611
  0
ARC
  5
E3
330
1F
100
AcDbEntity
  8
0
  6
CONTINUOUS
 62
     7
100
AcDbCircle
 10
734.3861962075831
 20
171.9533187154291
 30
0.0
 40
5.045830977938902
100
AcDbArc
 50
186.3565597117685
 51
199.7821137480466
  0
ARC
  5
E4
330
1F
100
AcDbEntity
  8
0
  6
CONTINUOUS
 62
     7
100
AcDbCircle
 10
724.8720718940493
 20
172.0688102798004
 30
0.0
 40
5.543907348538656
100
AcDbArc
 50
186.3803464171757
 51
199.0309764149947
  0
ARC
  5
E5
330
1F
100
AcDbEntity
  8
0
  6
CONTINUOUS
 62
     7
100
AcDbCircle
 10
646.0287109441948
 20
172.3272062130029
 30
0.0
 40
6.726814297695983
100
AcDbArc
 50
186.3628043538054
 51
197.5193242921061
  0
ARC
  5
E6
330
1F
100
AcDbEntity
  8
0
  6
CONTINUOUS
 62
     7
100
AcDbCircle
 10
786.9506207411242
 20
172.5203575677954
 30
0.0
 40
7.667288245903116
100
AcDbArc
 50
186.3407275176774
 51
196.5447011344249
  0
ARC
  5
E7
330
1F
100
AcDbEntity
  8
0
  6
CONTINUOUS
 62
     7
100
AcDbCircle
 10
686.6814958817065
 20
172.4635463296419
 30
0.0
 40
7.39261496219974
100
AcDbArc
 50
186.3834551229545
 51
196.7745965597351
  0
ARC
  5
E8
330
1F
100
AcDbEntity
  8
0
  6
CONTINUOUS
 62
     7
100
AcDbCircle
 10
140.499318262616
 20
205.0306757955971
 30
0.0
 40
526.7226190451858
100
AcDbArc
 50
1.148750418816235
 51
5.133795989851365
  0
ARC
  5
E9
330
1F
100
AcDbEntity
  8
0
  6
CONTINUOUS
 62
     7
100
AcDbCircle
 10
234.2045919978761
 20
205.9191970956655
 30
0.0
 40
512.993559646137
100
AcDbArc
 50
1.133568987245553
 51
5.17110921912115
  0
ARC
  5
EA
330
1F
100
AcDbEntity
  8
0
  6
CONTINUOUS
 62
     7
100
AcDbCircle
 10
675.4825957031794
 20
172.2902319208033
 30
0.0
 40
6.184565790816313
100
AcDbArc
 50
185.4331015236912
 51
199.7741239527064
  0
ARC
  5
EB
330
1F
100
AcDbEntity
  8
0
  6
CONTINUOUS
 62
     7
100
AcDbCircle
 10
243.4447864727625
 20
205.2327289748695
 30
0.0
 40
523.7715017096718
100
AcDbArc
 50
1.146729934827192
 51
5.139792273124442
  0
ARC
  5
EC
330
1F
100
AcDbEntity
  8
0
  6
CONTINUOUS
 62
     7
100
AcDbCircle
 10
1515.509835876246
 20
236.872038875826
 30
0.0
 40
858.6592897725451
100
AcDbArc
 50
181.4115802848004
 51
184.3539230424924
  0
ARC
  5
ED
330
1F
100
AcDbEntity
  8
0
  6
CONTINUOUS
 62
     7
100
AcDbCircle
 10
665.4969073452867
 20
172.2881188401886
 30
0.0
 40
6.197789886677406
100
AcDbArc
 50
185.5839547178822
 51
199.6898336578201
  0
ARC
  5
EE
330
1F
100
AcDbEntity
  8
0
  6
CONTINUOUS
 62
     7
100
AcDbCircle
 10
1520.905378665156
 20
236.1350247567829
 30
0.0
 40
844.0382584231637
100
AcDbArc
 50
181.4001481435002
 51
184.3822718597121
  0
ARC
  5
EF
330
1F
100
AcDbEntity
  8
0
  6
CONTINUOUS
 62
     7
100
AcDbCircle
 10
130.5979355899242
 20
205.6888035226278
 30
0.0
 40
516.6062398440476
100
AcDbArc
 50
1.138147812776765
 51
5.160565608841353
  0
ARC
  5
F0
330
1F
100
AcDbEntity
  8
0
  6
CONTINUOUS
 62
     7
100
AcDbCircle
 10
1534.415850942061
 20
235.3155040891986
 30
0.0
 40
817.5514750606989
100
AcDbArc
 50
181.318200927849
 51
184.4802060696897
  0
ARC
  5
F1
330
1F
100
AcDbEntity
  8
0
  6
CONTINUOUS
 62
     7
100
AcDbCircle
 10
1525.255140303693
 20
237.8310018460653
 30
0.0
 40
878.4254443764283
100
AcDbArc
 50
181.4273338753757
 51
184.3134119776366
  0
ARC
  5
F2
330
1F
100
AcDbEntity
  8
0
  6
CONTINUOUS
 62
     7
100
AcDbCircle
 10
1637.05206051397
 20
238.9184382781189
 30
0.0
 40
900.2467672184086
100
AcDbArc
 50
181.4429831192741
 51
184.2735621774029
  0
ARC
  5
F3
330
1F
100
AcDbEntity
  8
0
  6
CONTINUOUS
 62
     7
100
AcDbCircle
 10
1443.231086516352
 20
230.7170716117165
 30
0.0
 40
746.2321713492713
100
AcDbArc
 50
181.3275998689765
 51
184.5479802084396
  0
ARC
  5
F4
330
1F
100
AcDbEntity
  8
0
  6
CONTINUOUS
 62
     7
100
AcDbCircle
 10
1633.393174760635
 20
237.2203273971118
 30
0.0
 40
866.5486810099728
100
AcDbArc
 50
181.4220742220071
 51
184.3347502238947
  0
ARC
  5
F5
330
1F
100
AcDbEntity
  8
0
  6
CONTINUOUS
 62
     7
100
AcDbCircle
 10
775.7006510056291
 20
172.3347788206308
 30
0.0
 40
6.406598733558418
100
AcDbArc
 50
185.4748294342286
 51
199.4082693618808
  0
ARC
  5
F6
330
1F
100
AcDbEntity
  8
0
  6
CONTINUOUS
 62
     7
100
AcDbCircle
 10
1522.223755034693
 20
236.6483366241211
 30
0.0
 40
855.366926310524
100
AcDbArc
 50
181.4106789741892
 51
184.3543688881589
  0
ARC
  5
F7
330
1F
100
AcDbEntity
  8
0
  6
CONTINUOUS
 62
     7
100
AcDbCircle
 10
1629.700827936433
 20
236.5699727354356
 30
0.0
 40
852.8432954851759
100
AcDbArc
 50
181.4070051909935
 51
184.3640929010545
  0
ARC
  5
F8
330
1F
100
AcDbEntity
  8
0
  6
CONTINUOUS
 62
     7
100
AcDbCircle
 10
132.8646542983485
 20
205.2017242066425
 30
0.0
 40
524.3519672339494
100
AcDbArc
 50
1.149365139065196
 51
5.137666336553592
  0
LINE
  5
F9
330
1F
100
AcDbEntity
  8
0
  6
CENTER
 62
     1
100
AcDbLine
 10
450.1278722852172
 20
211.6049444156876
 30
0.0
 11
542.1268687594894
 21
211.6049444156876
 31
0.0
  0
LINE
  5
FB
330
1F
100
AcDbEntity
  8
0
  6
CENTER
 62
     1
100
AcDbLine
 10
868.8719099604122
 20
165.6048674696292
 30
0.0
 11
868.8719099604122
 21
257.6039887341746
 31
0.0
  0
ARC
  5
FC
330
1F
100
AcDbEntity
  8
0
  6
CONTINUOUS
 62
     7
100
AcDbCircle
 10
765.9806480326943
 20
172.3984226744866
 30
0.0
 40
6.692926817364891
100
AcDbArc
 50
185.4739776999266
 51
199.0696290209986
  0
ARC
  5
FD
330
1F
100
AcDbEntity
  8
0
  6
CONTINUOUS
 62
     7
100
AcDbCircle
 10
1636.137677249025
 20
237.8891945950136
 30
0.0
 40
879.3096127920254
100
AcDbArc
 50
181.427186459223
 51
184.3130505581982
  0
ARC
  5
FE
330
1F
100
AcDbEntity
  8
0
  6
CONTINUOUS
 62
     7
100
AcDbCircle
 10
228.6345588681982
 20
206.2119660288163
 30
0.0
 40
508.5552641285017
100
AcDbArc
 50
1.130804513439102
 51
5.183252465665136
  0
ARC
  5
FF
330
1F
100
AcDbEntity
  8
0
  6
CONTINUOUS
 62
     7
100
AcDbCircle
 10
135.6872538807052
 20
202.5594265417159
 30
0.0
 40
561.617145914948
100
AcDbArc
 50
1.108840809827029
 51
5.066496915758875
  0
ARC
  5
100
330
1F
100
AcDbEntity
  8
0
  6
CONTINUOUS
 62
     7
100
AcDbCircle
 10
715.1123632346969
 20
172.1214824006608
 30
0.0
 40
5.789405470092732
100
AcDbArc
 50
186.4292044547354
 51
198.6247534143847
  0
ARC
  5
101
330
1F
100
AcDbEntity
  8
0
  6
CONTINUOUS
 62
     7
100
AcDbCircle
 10
129.6705238987831
 20
202.8103138791826
 30
0.0
 40
557.6273242303643
100
AcDbArc
 50
1.104320215472285
 51
5.076910289228408
  0
LINE
  5
102
330
1F
100
AcDbEntity
  8
0
  6
CENTER
 62
     1
100
AcDbLine
 10
496.1273705223533
 20
165.6054461785514
 30
0.0
 11
496.1273705223533
 21
257.6044426528237
 31
0.0
  0
ARC
  5
103
330
1F
100
AcDbEntity
  8
0
  6
CONTINUOUS
 62
     7
100
AcDbCircle
 10
251.0016348080211
 20
205.0753362386763
 30
0.0
 40
526.2188732535071
100
AcDbArc
 50
1.149171909854033
 51
5.133094191588611
  0
ARC
  5
104
330
1F
100
AcDbEntity
  8
0
  6
CONTINUOUS
 62
     7
100
AcDbCircle
 10
80.03711044905803
 20
202.8289385667676
 30
0.0
 40
557.2603773688684
100
AcDbArc
 50
1.10393683020169
 51
5.078389310490593
  0
ARC
  5
105
330
1F
100
AcDbEntity
  8
0
  6
CONTINUOUS
 62
     7
100
AcDbCircle
 10
238.0819707167553
 20
205.5609693948283
 30
0.0
 40
519.123610696791
100
AcDbArc
 50
1.150982219941454
 51
5.149522478025575
  0
ARC
  5
106
330
1F
100
AcDbEntity
  8
0
  6
CONTINUOUS
 62
     7
100
AcDbCircle
 10
136.8045733184292
 20
202.0037105818665
 30
0.0
 40
570.5142571402744
100
AcDbArc
 50
1.119222145695744
 51
5.043294440110913
  0
ARC
  5
107
330
1F
100
AcDbEntity
  8
0
  6
CONTINUOUS
 62
     7
100
AcDbCircle
 10
1433.941581358675
 20
229.7366532761191
 30
0.0
 40
726.9209127174172
100
AcDbArc
 50
181.3076684032318
 51
184.597245595367
  0
ARC
  5
108
330
1F
100
AcDbEntity
  8
0
  6
CONTINUOUS
 62
     7
100
AcDbCircle
 10
1442.178478866935
 20
231.1699489827223
 30
0.0
 40
755.1896122064535
100
AcDbArc
 50
181.3363768329382
 51
184.5257836617045
  0
LINE
  5
109
330
1F
100
AcDbEntity
  8
0
  6
CENTER
 62
     1
100
AcDbLine
 10
822.8723493281394
 20
211.6044281019019
 30
0.0
 11
914.8714705926849
 21
211.6044281019019
 31
0.0
  0
ARC
  5
10A
330
1F
100
AcDbEntity
  8
0
  6
CONTINUOUS
 62
     7
100
AcDbCircle
 10
1392.362516856309
 20
231.178102439758
 30
0.0
 40
755.373828064381
100
AcDbArc
 50
181.3360758281611
 51
184.5251420806686
  0
ARC
  5
10B
330
1F
100
AcDbEntity
  8
0
  6
CONTINUOUS
 62
     7
100
AcDbCircle
 10
756.2789048981286
 20
172.4645195179302
 30
0.0
 40
6.997582716168546
100
AcDbArc
 50
185.4797428740496
 51
198.7301265077825
  0
ARC
  5
10C
330
1F
100
AcDbEntity
  8
0
  6
CONTINUOUS
 62
     7
100
AcDbCircle
 10
746.8306054950216
 20
172.5717931378052
 30
0.0
 40
7.55844994792171
100
AcDbArc
 50
185.6068530990123
 51
197.9771666957357
  0
ARC
  5
10D
330
1F
100
AcDbEntity
  8
0
  6
CONTINUOUS
 62
     7
100
AcDbCircle
 10
705.5802919145252
 20
172.2323786210665
 30
0.0
 40
6.269452004017866
100
AcDbArc
 50
186.2907288058167
 51
198.1036319069945
  0
ARC
  5
10E
330
1F
100
AcDbEntity
  8
0
  6
CONTINUOUS
 62
     7
100
AcDbCircle
 10
696.0777800049246
 20
172.3342655799393
 30
0.0
 40
6.776322363146303
100
AcDbArc
 50
186.3936217133377
 51
197.3690277928291
  0
ARC
  5
10F
330
1F
100
AcDbEntity
  8
0
  6
CONTINUOUS
 62
     7
100
AcDbCircle
 10
148.7837836525867
 20
204.907010989016
 30
0.0
 40
528.4417502785377
100
AcDbArc
 50
1.149820565979041
 51
5.131245413295062
  0
ARC
  5
110
330
1F
100
AcDbEntity
  8
0
  6
CONTINUOUS
 62
     7
100
AcDbCircle
 10
216.2018768629202
 20
206.7008828632167
 30
0.0
 40
500.9748601564622
100
AcDbArc
 50
1.121674809155593
 51
5.205681133550285
  0
ARC
  5
111
330
1F
100
AcDbEntity
  8
0
  6
CONTINUOUS
 62
     7
100
AcDbCircle
 10
672.4995158686928
 20
254.4416873979213
 30
0.0
 40
2.166442346012738
100
AcDbArc
 50
7.449661741720663
 51
32.44442594257668
  0
ARC
  5
112
330
1F
100
AcDbEntity
  8
0
  6
CONTINUOUS
 62
     7
100
AcDbCircle
 10
667.6128946563664
 20
168.7276539260632
 30
0.0
 40
2.049971770710341
100
AcDbArc
 50
326.8145026284141
 51
353.6920596743694
  0
ARC
  5
113
330
1F
100
AcDbEntity
  8
0
  6
CONTINUOUS
 62
     7
100
AcDbCircle
 10
672.0183184561337
 20
254.6738204735862
 30
0.0
 40
1.510774770192716
100
AcDbArc
 50
142.0005359760764
 51
178.4014831902398
  0
LINE
  5
114
330
1F
100
AcDbEntity
  8
0
  6
CONTINUOUS
 62
     7
100
AcDbLine
 10
719.3280037868752
 20
167.6049937249404
 30
0.0
 11
719.4134873687254
 21
167.6681825452768
 31
0.0
  0
ARC
  5
115
330
1F
100
AcDbEntity
  8
0
  6
CONTINUOUS
 62
     7
100
AcDbCircle
 10
633.4984508959367
 20
254.7998872825018
 30
0.0
 40
1.155778417276169
100
AcDbArc
 50
355.3708441879439
 51
44.09220854919869
  0
ARC
  5
116
330
1F
100
AcDbEntity
  8
0
  6
CONTINUOUS
 62
     7
100
AcDbCircle
 10
783.1089660445248
 20
250.553710978697
 30
0.0
 40
7.787275465292354
100
AcDbArc
 50
5.192044516759464
 51
18.26152897560495
  0
ARC
  5
117
330
1F
100
AcDbEntity
  8
0
  6
CONTINUOUS
 62
     7
100
AcDbCircle
 10
793.4211048297598
 20
254.7717945651243
 30
0.0
 40
1.230897672201034
100
AcDbArc
 50
357.0024853025615
 51
42.54229889689049
  0
ARC
  5
118
330
1F
100
AcDbEntity
  8
0
  6
CONTINUOUS
 62
     7
100
AcDbCircle
 10
776.7710902241474
 20
168.4479374193286
 30
0.0
 40
1.264705959007109
100
AcDbArc
 50
177.7582731018309
 51
221.781192532109
  0
ARC
  5
119
330
1F
100
AcDbEntity
  8
0
  6
CONTINUOUS
 62
     7
100
AcDbCircle
 10
682.1527246707432
 20
254.3170395692709
 30
0.0
 40
2.528036971752451
100
AcDbArc
 50
8.873909990084767
 51
30.60299963217016
  0
ARC
  5
11A
330
1F
100
AcDbEntity
  8
0
  6
CONTINUOUS
 62
     7
100
AcDbCircle
 10
234.3062450793899
 20
203.1327157788719
 30
0.0
 40
552.981180323599
100
AcDbArc
 50
1.108179457213851
 51
5.086113180919426
  0
ARC
  5
11B
330
1F
100
AcDbEntity
  8
0
  6
CONTINUOUS
 62
     7
100
AcDbCircle
 10
781.7716888527201
 20
254.7595136362631
 30
0.0
 40
1.266172798224582
100
AcDbArc
 50
138.1567671001415
 51
182.3402642390358
  0
LINE
  5
11C
330
1F
100
AcDbEntity
  8
0
  6
CONTINUOUS
 62
     7
100
AcDbLine
 10
760.5063277778096
 20
254.7062681088055
 30
0.0
 11
760.7431899787057
 21
255.5409084706052
 31
0.0
  0
ARC
  5
11D
330
1F
100
AcDbEntity
  8
0
  6
CONTINUOUS
 62
     7
100
AcDbCircle
 10
681.7779768940084
 20
254.7578776911401
 30
0.0
 40
1.271687667854754
100
AcDbArc
 50
138.2892568803489
 51
182.1343159338403
  0
ARC
  5
11E
330
1F
100
AcDbEntity
  8
0
  6
CONTINUOUS
 62
     7
100
AcDbCircle
 10
703.38880160622
 20
254.7600702837055
 30
0.0
 40
1.262857718355237
100
AcDbArc
 50
357.5830696087834
 51
41.95203967794731
  0
ARC
  5
11F
330
1F
100
AcDbEntity
  8
0
  6
CONTINUOUS
 62
     7
100
AcDbCircle
 10
647.7082274688153
 20
168.7868767347789
 30
0.0
 40
2.220050929536484
100
AcDbArc
 50
187.3655957966619
 51
212.1477398808146
  0
ARC
  5
120
330
1F
100
AcDbEntity
  8
0
  6
CONTINUOUS
 62
     7
100
AcDbCircle
 10
793.0701309932895
 20
254.2940829706544
 30
0.0
 40
2.596751641113276
100
AcDbArc
 50
149.7045292771142
 51
170.8634827623227
  0
LINE
  5
121
330
1F
100
AcDbEntity
  8
0
  6
CONTINUOUS
 62
     7
100
AcDbLine
 10
790.5040438893736
 20
252.9938918820258
 30
0.0
 11
790.426099113862
 21
253.0927100095676
 31
0.0
  0
ARC
  5
122
330
1F
100
AcDbEntity
  8
0
  6
CONTINUOUS
 62
     7
100
AcDbCircle
 10
657.4274324531432
 20
168.6846470993047
 30
0.0
 40
1.929583893290239
100
AcDbArc
 50
185.4118142341246
 51
214.0005144780735
  0
ARC
  5
123
330
1F
100
AcDbEntity
  8
0
  6
CONTINUOUS
 62
     7
100
AcDbCircle
 10
1181.641212453847
 20
218.2915927211495
 30
0.0
 40
528.7088822895143
100
AcDbArc
 50
181.151849223487
 51
185.1260711190935
  0
ARC
  5
124
330
1F
100
AcDbEntity
  8
0
  6
CONTINUOUS
 62
     7
100
AcDbCircle
 10
-184.7283856445729
 20
187.2911824298927
 30
0.0
 40
838.0152130681258
100
AcDbArc
 50
1.393000698608575
 51
4.403210023246707
  0
ARC
  5
125
330
1F
100
AcDbEntity
  8
0
  6
CONTINUOUS
 62
     7
100
AcDbCircle
 10
751.7841368668401
 20
254.7550340249724
 30
0.0
 40
1.278988218259035
100
AcDbArc
 50
138.3753052006474
 51
182.2416810814939
  0
ARC
  5
126
330
1F
100
AcDbEntity
  8
0
  6
CONTINUOUS
 62
     7
100
AcDbCircle
 10
642.8721123263199
 20
254.3656943548229
 30
0.0
 40
2.390146512545203
100
AcDbArc
 50
148.7966927626976
 51
171.7764197688995
  0
ARC
  5
127
330
1F
100
AcDbEntity
  8
0
  6
CONTINUOUS
 62
     7
100
AcDbCircle
 10
807.0600689106416
 20
172.6193397934564
 30
0.0
 40
7.792327864764238
100
AcDbArc
 50
185.6296273782897
 51
197.7394803345165
  0
ARC
  5
128
330
1F
100
AcDbEntity
  8
0
  6
CONTINUOUS
 62
     7
100
AcDbCircle
 10
686.6753565976493
 20
168.4150550441079
 30
0.0
 40
1.172013240015342
100
AcDbArc
 50
175.732536905694
 51
223.6926149823369
  0
ARC
  5
129
330
1F
100
AcDbEntity
  8
0
  6
CONTINUOUS
 62
     7
100
AcDbCircle
 10
662.2631170714992
 20
254.5854829617576
 30
0.0
 40
1.759355369845386
100
AcDbArc
 50
144.6297012208083
 51
175.59100250099
  0
ARC
  5
12A
330
1F
100
AcDbEntity
  8
0
  6
CONTINUOUS
 62
     7
100
AcDbCircle
 10
797.9033529731468
 20
168.856880806984
 30
0.0
 40
2.422994051810816
100
AcDbArc
 50
188.3903139197136
 51
211.0943295027728
  0
ARC
  5
12B
330
1F
100
AcDbEntity
  8
0
  6
CONTINUOUS
 62
     7
100
AcDbCircle
 10
788.5270558144233
 20
168.3995535828266
 30
0.0
 40
1.12815553985819
100
AcDbArc
 50
315.2567252281358
 51
5.258409964421787
  0
ARC
  5
12C
330
1F
100
AcDbEntity
  8
0
  6
CONTINUOUS
 62
     7
100
AcDbCircle
 10
771.7714726251247
 20
254.7602573483921
 30
0.0
 40
1.265643268402667
100
AcDbArc
 50
138.1713664182773
 51
182.3067631656306
  0
ARC
  5
12D
330
1F
100
AcDbEntity
  8
0
  6
CONTINUOUS
 62
     7
100
AcDbCircle
 10
667.1479449378006
 20
168.5855499483753
 30
0.0
 40
1.643522154670759
100
AcDbArc
 50
182.9010400156084
 51
216.6014807860922
  0
ARC
  5
12E
330
1F
100
AcDbEntity
  8
0
  6
CONTINUOUS
 62
     7
100
AcDbCircle
 10
788.2296207832565
 20
168.9734211191283
 30
0.0
 40
2.763610280009577
100
AcDbArc
 50
189.8080002990684
 51
209.670142857844
  0
ARC
  5
12F
330
1F
100
AcDbEntity
  8
0
  6
CONTINUOUS
 62
     7
100
AcDbCircle
 10
746.7855126334601
 20
168.454767878931
 30
0.0
 40
1.280320433841558
100
AcDbArc
 50
177.7769293604129
 51
221.5913565364856
  0
ARC
  5
130
330
1F
100
AcDbEntity
  8
0
  6
CONTINUOUS
 62
     7
100
AcDbCircle
 10
638.0226806687963
 20
168.8990723356266
 30
0.0
 40
2.547286327076342
100
AcDbArc
 50
188.9753693774792
 51
210.5191772611315
  0
ARC
  5
131
330
1F
100
AcDbEntity
  8
0
  6
CONTINUOUS
 62
     7
100
AcDbCircle
 10
656.0183686090028
 20
172.4092640220774
 30
0.0
 40
6.731699788320397
100
AcDbArc
 50
185.511310764354
 51
199.0801816354708
  0
ARC
  5
132
330
1F
100
AcDbEntity
  8
0
  6
CONTINUOUS
 62
     7
100
AcDbCircle
 10
290.7928514495822
 20
206.3498565489882
 30
0.0
 40
506.3932354861013
100
AcDbArc
 50
1.128510084316645
 51
5.189840711339342
  0
ARC
  5
133
330
1F
100
AcDbEntity
  8
0
  6
CONTINUOUS
 62
     7
100
AcDbCircle
 10
798.3024766450665
 20
168.4797132967329
 30
0.0
 40
1.347937071379286
100
AcDbArc
 50
319.5683138464187
 51
0.9294761256173273
  0
LINE
  5
134
330
1F
100
AcDbEntity
  8
0
  6
CONTINUOUS
 62
     7
100
AcDbLine
 10
719.4134873687254
 20
167.6681825452768
 30
0.0
 11
719.6509055181674
 21
168.5049425242651
 31
0.0
  0
ARC
  5
135
330
1F
100
AcDbEntity
  8
0
  6
CONTINUOUS
 62
     7
100
AcDbCircle
 10
733.3871234618065
 20
254.7599626138803
 30
0.0
 40
1.26442039369118
100
AcDbArc
 50
357.598208067876
 51
41.91785759105198
  0
ARC
  5
136
330
1F
100
AcDbEntity
  8
0
  6
CONTINUOUS
 62
     7
100
AcDbCircle
 10
698.3818630285498
 20
168.4509342702717
 30
0.0
 40
1.269513880290109
100
AcDbArc
 50
318.2323867852199
 51
2.291847491329633
  0
ARC
  5
137
330
1F
100
AcDbEntity
  8
0
  6
CONTINUOUS
 62
     7
100
AcDbCircle
 10
662.7681663645566
 20
254.5392549426337
 30
0.0
 40
1.888940543784259
100
AcDbArc
 50
5.375171293127892
 51
34.30685793244766
  0
ARC
  5
138
330
1F
100
AcDbEntity
  8
0
  6
CONTINUOUS
 62
     7
100
AcDbCircle
 10
657.9030291919186
 20
168.6243176840751
 30
0.0
 40
1.751447675940541
100
AcDbArc
 50
324.434403559934
 51
355.9495679652583
  0
ARC
  5
139
330
1F
100
AcDbEntity
  8
0
  6
CONTINUOUS
 62
     7
100
AcDbCircle
 10
728.3807110751371
 20
168.4506943826196
 30
0.0
 40
1.27044724518467
100
AcDbArc
 50
318.2592039209044
 51
2.268077643192327
  0
ARC
  5
13A
330
1F
100
AcDbEntity
  8
0
  6
CONTINUOUS
 62
     7
100
AcDbCircle
 10
1560.840832336532
 20
232.1102884133634
 30
0.0
 40
773.8728326320103
100
AcDbArc
 50
181.3537442592853
 51
184.4807732920534
  0
ARC
  5
13B
330
1F
100
AcDbEntity
  8
0
  6
CONTINUOUS
 62
     7
100
AcDbCircle
 10
687.0006289363789
 20
168.9488400424953
 30
0.0
 40
2.687201255125405
100
AcDbArc
 50
330.0047628331958
 51
350.4324608477086
  0
ARC
  5
13C
330
1F
100
AcDbEntity
  8
0
  6
CONTINUOUS
 62
     7
100
AcDbCircle
 10
648.1507881623794
 20
168.5342577183308
 30
0.0
 40
1.499866870470428
100
AcDbArc
 50
321.7437230025358
 51
358.7631110368372
  0
ARC
  5
13D
330
1F
100
AcDbEntity
  8
0
  6
CONTINUOUS
 62
     7
100
AcDbCircle
 10
643.2783755162493
 20
254.7197417469516
 30
0.0
 40
1.372239140693701
100
AcDbArc
 50
359.4355687874105
 51
40.11896940964596
  0
ARC
  5
13E
330
1F
100
AcDbEntity
  8
0
  6
CONTINUOUS
 62
     7
100
AcDbCircle
 10
766.7611768385152
 20
168.4428736400683
 30
0.0
 40
1.253852463682526
100
AcDbArc
 50
177.7418777914347
 51
221.9238085270373
  0
LINE
  5
13F
330
1F
100
AcDbEntity
  8
0
  6
CONTINUOUS
 62
     7
100
AcDbLine
 10
779.3280056298433
 20
167.6052712960765
 30
0.0
 11
779.4084014659102
 21
167.6603681783578
 31
0.0
  0
ARC
  5
140
330
1F
100
AcDbEntity
  8
0
  6
CONTINUOUS
 62
     7
100
AcDbCircle
 10
723.383511586795
 20
254.757972290306
 30
0.0
 40
1.268409130466401
100
AcDbArc
 50
357.606852229362
 51
41.87163540985733
  0
ARC
  5
141
330
1F
100
AcDbEntity
  8
0
  6
CONTINUOUS
 62
     7
100
AcDbCircle
 10
677.3134929795883
 20
168.8355079160494
 30
0.0
 40
2.360628265998817
100
AcDbArc
 50
328.5982818512418
 51
351.9050069011686
  0
ARC
  5
142
330
1F
100
AcDbEntity
  8
0
  6
CONTINUOUS
 62
     7
100
AcDbCircle
 10
638.3898200193731
 20
168.4488763169533
 30
0.0
 40
1.261764614701309
100
AcDbArc
 50
318.0545549278964
 51
2.446045746694438
  0
ARC
  5
143
330
1F
100
AcDbEntity
  8
0
  6
CONTINUOUS
 62
     7
100
AcDbCircle
 10
796.638337338962
 20
172.4580642755041
 30
0.0
 40
7.349434751036165
100
AcDbArc
 50
186.2981369631592
 51
196.8856071959202
  0
LINE
  5
144
330
1F
100
AcDbEntity
  8
0
  6
CONTINUOUS
 62
     7
100
AcDbLine
 10
760.7431899787057
 20
255.5409084706052
 30
0.0
 11
760.8279755752282
 21
255.6044691939358
 31
0.0
  0
ARC
  5
145
330
1F
100
AcDbEntity
  8
0
  6
CONTINUOUS
 62
     7
100
AcDbCircle
 10
708.3852654689489
 20
168.4507842675079
 30
0.0
 40
1.266517285970287
100
AcDbArc
 50
318.1108345145578
 51
2.388627786860468
  0
ARC
  5
146
330
1F
100
AcDbEntity
  8
0
  6
CONTINUOUS
 62
     7
100
AcDbCircle
 10
756.7526183340046
 20
168.4384516826221
 30
0.0
 40
1.244477176398991
100
AcDbArc
 50
177.7241050603017
 51
222.04691012205
  0
ARC
  5
147
330
1F
100
AcDbEntity
  8
0
  6
CONTINUOUS
 62
     7
100
AcDbCircle
 10
1320.861125751636
 20
218.2306021012044
 30
0.0
 40
527.9266105349935
100
AcDbArc
 50
181.1534234987298
 51
185.1269146140017
  0
ARC
  5
148
330
1F
100
AcDbEntity
  8
0
  6
CONTINUOUS
 62
     7
100
AcDbCircle
 10
676.8989218060539
 20
168.4954801743987
 30
0.0
 40
1.392142269721066
100
AcDbArc
 50
179.7705415056677
 51
219.736330691416
  0
ARC
  5
149
330
1F
100
AcDbEntity
  8
0
  6
CONTINUOUS
 62
     7
100
AcDbCircle
 10
652.5616899506784
 20
254.4755652629082
 30
0.0
 40
2.068190585478127
100
AcDbArc
 50
146.9361363157035
 51
173.5637426584071
  0
ARC
  5
14A
330
1F
100
AcDbEntity
  8
0
  6
CONTINUOUS
 62
     7
100
AcDbCircle
 10
738.400996296062
 20
168.441770469342
 30
0.0
 40
1.248925728934583
100
AcDbArc
 50
317.9228592714464
 51
2.386998694234251
  0
ARC
  5
14B
330
1F
100
AcDbEntity
  8
0
  6
CONTINUOUS
 62
     7
100
AcDbCircle
 10
653.0262430374946
 20
254.6304057890109
 30
0.0
 40
1.625850794483295
100
AcDbArc
 50
2.738767201379233
 51
36.7821570966613
  0
ARC
  5
14C
330
1F
100
AcDbEntity
  8
0
  6
CONTINUOUS
 62
     7
100
AcDbCircle
 10
741.778154662635
 20
254.7566476386018
 30
0.0
 40
1.273127256033026
100
AcDbArc
 50
138.2331615668894
 51
182.3408519009978
  0
ARC
  5
14D
330
1F
100
AcDbEntity
  8
0
  6
CONTINUOUS
 62
     7
100
AcDbCircle
 10
-92.03157181309729
 20
185.3440797171654
 30
0.0
 40
885.3529254494873
100
AcDbArc
 50
1.440681418293079
 51
4.26960894556318
  0
ARC
  5
14E
330
1F
100
AcDbEntity
  8
0
  6
CONTINUOUS
 62
     7
100
AcDbCircle
 10
1703.667461607166
 20
239.2413663773146
 30
0.0
 40
906.8692330171455
100
AcDbArc
 50
181.4481157093864
 51
184.2613863710021
  0
LINE
  5
14F
330
1F
100
AcDbEntity
  8
0
  6
CONTINUOUS
 62
     7
100
AcDbLine
 10
779.4084014659103
 20
167.6603681783578
 30
0.0
 11
779.6505319974552
 21
168.5033903295686
 31
0.0
  0
ARC
  5
150
330
1F
100
AcDbEntity
  8
0
  6
CONTINUOUS
 62
     7
100
AcDbCircle
 10
713.3752539318239
 20
254.755605444093
 30
0.0
 40
1.276583437742994
100
AcDbArc
 50
357.7298035269835
 51
41.67744660918993
  0
ARC
  5
151
330
1F
100
AcDbEntity
  8
0
  6
CONTINUOUS
 62
     7
100
AcDbCircle
 10
-101.5168199381867
 20
186.5257266980358
 30
0.0
 40
854.8191473614299
100
AcDbArc
 50
1.408185168660035
 51
4.361658864610916
  0
ARC
  5
152
330
1F
100
AcDbEntity
  8
0
  6
CONTINUOUS
 62
     7
100
AcDbCircle
 10
-111.3977879151153
 20
185.5596199178825
 30
0.0
 40
874.7211029245659
100
AcDbArc
 50
1.424329986175512
 51
4.3206095848754
  0
ARC
  5
153
330
1F
100
AcDbEntity
  8
0
  6
CONTINUOUS
 62
     7
100
AcDbCircle
 10
754.2697135943675
 20
250.8285049503301
 30
0.0
 40
6.597909776318302
100
AcDbArc
 50
5.482200455945239
 51
19.2504346070952
  0
ARC
  5
154
330
1F
100
AcDbEntity
  8
0
  6
CONTINUOUS
 62
     7
100
AcDbCircle
 10
-191.8942255164802
 20
186.5085316053217
 30
0.0
 40
855.1968495111896
100
AcDbArc
 50
1.408803576880324
 51
4.360908218705162
  0
ARC
  5
155
330
1F
100
AcDbEntity
  8
0
  6
CONTINUOUS
 62
     7
100
AcDbCircle
 10
653.0073697714244
 20
250.6540371483911
 30
0.0
 40
7.868995122764984
100
AcDbArc
 50
6.43984222926017
 51
16.2553854664633
  0
LINE
  5
156
330
1F
100
AcDbEntity
  8
0
  6
CONTINUOUS
 62
     7
100
AcDbLine
 10
650.5041671419602
 20
252.9936200029292
 30
0.0
 11
650.4261343560896
 21
253.0927100095676
 31
0.0
  0
ARC
  5
157
330
1F
100
AcDbEntity
  8
0
  6
CONTINUOUS
 62
     7
100
AcDbCircle
 10
-208.3224617904725
 20
184.7119791657232
 30
0.0
 40
891.6647764224638
100
AcDbArc
 50
1.437012060938572
 51
4.289704061324877
  0
ARC
  5
158
330
1F
100
AcDbEntity
  8
0
  6
CONTINUOUS
 62
     7
100
AcDbCircle
 10
695.4018446609945
 20
251.1659370439818
 30
0.0
 40
5.424742995457686
100
AcDbArc
 50
6.286676544876673
 51
19.24484953601102
  0
ARC
  5
159
330
1F
100
AcDbEntity
  8
0
  6
CONTINUOUS
 62
     7
100
AcDbCircle
 10
-115.2572373047732
 20
187.8298222491818
 30
0.0
 40
818.5515431876644
100
AcDbArc
 50
1.31855143483278
 51
4.479450878037293
  0
ARC
  5
15A
330
1F
100
AcDbEntity
  8
0
  6
CONTINUOUS
 62
     7
100
AcDbCircle
 10
743.0212356103335
 20
250.6578093355873
 30
0.0
 40
7.854699556650759
100
AcDbArc
 50
6.421292891634438
 51
16.25604340126236
  0
ARC
  5
15B
330
1F
100
AcDbEntity
  8
0
  6
CONTINUOUS
 62
     7
100
AcDbCircle
 10
1279.975697291493
 20
217.563598855248
 30
0.0
 40
517.0244867925021
100
AcDbArc
 50
181.137215669052
 51
185.1620219652866
  0
ARC
  5
15C
330
1F
100
AcDbEntity
  8
0
  6
CONTINUOUS
 62
     7
100
AcDbCircle
 10
714.3985640706859
 20
250.9412027571589
 30
0.0
 40
6.450651159390175
100
AcDbArc
 50
6.34800566767051
 51
17.83605371334567
  0
ARC
  5
15D
330
1F
100
AcDbEntity
  8
0
  6
CONTINUOUS
 62
     7
100
AcDbCircle
 10
664.2532556100653
 20
250.8249758274387
 30
0.0
 40
6.614675079390087
100
AcDbArc
 50
5.502259257957745
 51
19.23296182407638
  0
ARC
  5
15E
330
1F
100
AcDbEntity
  8
0
  6
CONTINUOUS
 62
     7
100
AcDbCircle
 10
1200.162061745388
 20
216.9191477856689
 30
0.0
 40
507.1933306312953
100
AcDbArc
 50
181.1269213404728
 51
185.1883378929509
  0
ARC
  5
15F
330
1F
100
AcDbEntity
  8
0
  6
CONTINUOUS
 62
     7
100
AcDbCircle
 10
1287.745248551042
 20
220.2257628081782
 30
0.0
 40
554.8816471566536
100
AcDbArc
 50
181.100971236152
 51
185.0839460794251
  0
ARC
  5
160
330
1F
100
AcDbEntity
  8
0
  6
CONTINUOUS
 62
     7
100
AcDbCircle
 10
1188.603719470621
 20
218.0919254683781
 30
0.0
 40
525.6656346376989
100
AcDbArc
 50
181.1508320571008
 51
185.1340296898358
  0
ARC
  5
161
330
1F
100
AcDbEntity
  8
0
  6
CONTINUOUS
 62
     7
100
AcDbCircle
 10
-27.85932923850598
 20
191.7434402927128
 30
0.0
 40
761.0340443244248
100
AcDbArc
 50
1.341778431015236
 51
4.511544091133787
  0
ARC
  5
162
330
1F
100
AcDbEntity
  8
0
  6
CONTINUOUS
 62
     7
100
AcDbCircle
 10
-201.5718799517554
 20
185.5521801420505
 30
0.0
 40
874.8952981383977
100
AcDbArc
 50
1.42461975923128
 51
4.320261114669757
  0
ARC
  5
163
330
1F
100
AcDbEntity
  8
0
  6
CONTINUOUS
 62
     7
100
AcDbCircle
 10
645.4536097388199
 20
251.1315780490496
 30
0.0
 40
5.382873797556713
100
AcDbArc
 50
5.309723438807521
 51
20.23794624439542
  0
ARC
  5
164
330
1F
100
AcDbEntity
  8
0
  6
CONTINUOUS
 62
     7
100
AcDbCircle
 10
723.9500521196351
 20
250.8462239951877
 30
0.0
 40
6.908546921606528
100
AcDbArc
 50
6.316818708505017
 51
17.24440027448056
  0
ARC
  5
165
330
1F
100
AcDbEntity
  8
0
  6
CONTINUOUS
 62
     7
100
AcDbCircle
 10
1272.60008183022
 20
218.3420396827181
 30
0.0
 40
529.6686086167136
100
AcDbArc
 50
181.1553608036511
 51
185.1220280490322
  0
ARC
  5
166
330
1F
100
AcDbEntity
  8
0
  6
CONTINUOUS
 62
     7
100
AcDbCircle
 10
-101.3540222294114
 20
187.0293218259238
 30
0.0
 40
844.6452221582373
100
AcDbArc
 50
1.399744260213021
 51
4.382418941511606
  0
ARC
  5
167
330
1F
100
AcDbEntity
  8
0
  6
CONTINUOUS
 62
     7
100
AcDbCircle
 10
1283.328494512605
 20
220.5778799038661
 30
0.0
 40
560.4741045592934
100
AcDbArc
 50
181.1074440074467
 51
185.0692479730463
  0
ARC
  5
168
330
1F
100
AcDbEntity
  8
0
  6
CONTINUOUS
 62
     7
100
AcDbCircle
 10
1194.846836090092
 20
217.2121643432082
 30
0.0
 40
511.8853746890006
100
AcDbArc
 50
181.1349469174988
 51
185.1736549460875
  0
ARC
  5
169
330
1F
100
AcDbEntity
  8
0
  6
CONTINUOUS
 62
     7
100
AcDbCircle
 10
1201.964474256416
 20
216.3922746339912
 30
0.0
 40
498.9817231833816
100
AcDbArc
 50
181.1169471763947
 51
185.2132216553564
  0
ARC
  5
16A
330
1F
100
AcDbEntity
  8
0
  6
CONTINUOUS
 62
     7
100
AcDbCircle
 10
673.7277464896948
 20
250.7182831453564
 30
0.0
 40
7.150003063561566
100
AcDbArc
 50
5.536291220720099
 51
18.46857281523322
  0
ARC
  5
16B
330
1F
100
AcDbEntity
  8
0
  6
CONTINUOUS
 62
     7
100
AcDbCircle
 10
1190.736763134529
 20
217.5991313168828
 30
0.0
 40
517.7861428493836
100
AcDbArc
 50
181.1393298717976
 51
185.1576448788821
  0
ARC
  5
16C
330
1F
100
AcDbEntity
  8
0
  6
CONTINUOUS
 62
     7
100
AcDbCircle
 10
685.7931668812242
 20
251.2598229339037
 30
0.0
 40
5.022995305643428
100
AcDbArc
 50
6.37753478742662
 51
19.89195378233591
  0
ARC
  5
16D
330
1F
100
AcDbEntity
  8
0
  6
CONTINUOUS
 62
     7
100
AcDbCircle
 10
1282.192464890324
 20
221.1339915464689
 30
0.0
 40
569.3525373908512
100
AcDbArc
 50
181.1179437524294
 51
185.0462126969866
  0
ARC
  5
16E
330
1F
100
AcDbEntity
  8
0
  6
CONTINUOUS
 62
     7
100
AcDbCircle
 10
-15.82554404044656
 20
193.3690556361408
 30
0.0
 40
728.9641699702444
100
AcDbArc
 50
1.309300270794985
 51
4.591794698687474
  0
ARC
  5
16F
330
1F
100
AcDbEntity
  8
0
  6
CONTINUOUS
 62
     7
100
AcDbCircle
 10
-25.10003723627119
 20
192.3888159543549
 30
0.0
 40
748.260446551868
100
AcDbArc
 50
1.32914756592609
 51
4.542843525705402
  0
ARC
  5
170
330
1F
100
AcDbEntity
  8
0
  6
CONTINUOUS
 62
     7
100
AcDbCircle
 10
704.8874153879258
 20
251.0557136066716
 30
0.0
 40
5.949501181679887
100
AcDbArc
 50
6.479866217356353
 51
18.35552399803336
  0
ARC
  5
171
330
1F
100
AcDbEntity
  8
0
  6
CONTINUOUS
 62
     7
100
AcDbCircle
 10
733.6437754818857
 20
250.7798229280694
 30
0.0
 40
7.221390806156999
100
AcDbArc
 50
6.292087665242992
 51
16.9582297376217
  0
ARC
  5
172
330
1F
100
AcDbEntity
  8
0
  6
CONTINUOUS
 62
     7
100
AcDbCircle
 10
1277.16357106134
 20
218.027087740278
 30
0.0
 40
524.2244576610044
100
AcDbArc
 50
181.1470520547643
 51
185.1423552499916
  0
ARC
  5
173
330
1F
100
AcDbEntity
  8
0
  6
CONTINUOUS
 62
     7
100
AcDbCircle
 10
-106.1086233462576
 20
188.8021776265707
 30
0.0
 40
799.3813457832612
100
AcDbArc
 50
1.300434194439037
 51
4.521343482038198
  0
LINE
  5
174
330
1F
100
AcDbEntity
  8
0
  6
CONTINUOUS
 62
     7
100
AcDbLine
 10
764.3279755752189
 20
255.6044772544593
 30
0.0
 11
760.8279755752285
 21
255.6044691939358
 31
0.0
  0
LINE
  5
175
330
1F
100
AcDbEntity
  8
0
  6
CONTINUOUS
 62
     7
100
AcDbLine
 10
795.0459081421363
 20
171.0580169192392
 30
0.0
 11
795.506317729905
 21
168.5031856967581
 31
0.0
  0
LINE
  5
176
330
1F
100
AcDbEntity
  8
0
  6
CONTINUOUS
 62
     7
100
AcDbLine
 10
775.045619138531
 20
171.0594889855917
 30
0.0
 11
775.5074367847351
 21
168.4969384427139
 31
0.0
  0
LINE
  5
177
330
1F
100
AcDbEntity
  8
0
  6
CONTINUOUS
 62
     7
100
AcDbLine
 10
755.0482231155289
 20
171.0452648395906
 30
0.0
 11
755.5092051695286
 21
168.4874183280801
 31
0.0
  0
LINE
  5
178
330
1F
100
AcDbEntity
  8
0
  6
CONTINUOUS
 62
     7
100
AcDbLine
 10
745.0459608528848
 20
171.0578905021257
 30
0.0
 11
745.5061688696984
 21
168.5043590995852
 31
0.0
  0
LINE
  5
179
330
1F
100
AcDbEntity
  8
0
  6
CONTINUOUS
 62
     7
100
AcDbLine
 10
774.3283876476672
 20
255.6043291553939
 30
0.0
 11
770.8283876476767
 21
255.6043210948975
 31
0.0
  0
LINE
  5
17A
330
1F
100
AcDbEntity
  8
0
  6
CONTINUOUS
 62
     7
100
AcDbLine
 10
725.0461999411745
 20
171.0568343523472
 30
0.0
 11
725.5062787600333
 21
168.5040061307943
 31
0.0
  0
LINE
  5
17B
330
1F
100
AcDbEntity
  8
0
  6
CONTINUOUS
 62
     7
100
AcDbLine
 10
744.32857786533
 20
255.6046869014808
 30
0.0
 11
740.8285778653394
 21
255.604678840919
 31
0.0
  0
LINE
  5
17C
330
1F
100
AcDbEntity
  8
0
  6
CONTINUOUS
 62
     7
100
AcDbLine
 10
665.8285219456506
 20
167.6056070569018
 30
0.0
 11
669.3285219456412
 21
167.6055989964802
 31
0.0
  0
LINE
  5
17D
330
1F
100
AcDbEntity
  8
0
  6
CONTINUOUS
 62
     7
100
AcDbLine
 10
644.3277379069596
 20
255.6039808731011
 30
0.0
 11
640.8277379069689
 21
255.6039728126685
 31
0.0
  0
LINE
  5
17E
330
1F
100
AcDbEntity
  8
0
  6
CONTINUOUS
 62
     7
100
AcDbLine
 10
684.328644951484
 20
255.6040290072309
 30
0.0
 11
680.8286449514933
 21
255.6040209467895
 31
0.0
  0
LINE
  5
17F
330
1F
100
AcDbEntity
  8
0
  6
CONTINUOUS
 62
     7
100
AcDbLine
 10
714.3287340755286
 20
255.6044522436278
 30
0.0
 11
710.8287340755379
 21
255.6044441831089
 31
0.0
  0
LINE
  5
180
330
1F
100
AcDbEntity
  8
0
  6
CONTINUOUS
 62
     7
100
AcDbLine
 10
754.3280779982787
 20
255.6046080348779
 30
0.0
 11
750.8280779982881
 21
255.6045999743304
 31
0.0
  0
LINE
  5
181
330
1F
100
AcDbEntity
  8
0
  6
CONTINUOUS
 62
     7
100
AcDbLine
 10
675.0455821709501
 20
171.0602943424156
 30
0.0
 11
675.5068292021438
 21
168.5008415921401
 31
0.0
  0
LINE
  5
182
330
1F
100
AcDbEntity
  8
0
  6
CONTINUOUS
 62
     7
100
AcDbLine
 10
650.5065502527954
 20
254.7074907529059
 30
0.0
 11
650.2156647190777
 21
253.0925955953099
 31
0.0
  0
LINE
  5
183
330
1F
100
AcDbEntity
  8
0
  6
CONTINUOUS
 62
     7
100
AcDbLine
 10
735.046418147521
 20
171.0554986686136
 30
0.0
 11
735.5061902661856
 21
168.5043827684974
 31
0.0
  0
LINE
  5
184
330
1F
100
AcDbEntity
  8
0
  6
CONTINUOUS
 62
     7
100
AcDbLine
 10
685.0452795290369
 20
171.0620538882551
 30
0.0
 11
685.506633026041
 21
168.5020433837782
 31
0.0
  0
LINE
  5
185
330
1F
100
AcDbEntity
  8
0
  6
CONTINUOUS
 62
     7
100
AcDbLine
 10
660.5090174319145
 20
254.7210062255956
 30
0.0
 11
660.2178668908003
 21
253.104646560815
 31
0.0
  0
LINE
  5
186
330
1F
100
AcDbEntity
  8
0
  6
CONTINUOUS
 62
     7
100
AcDbLine
 10
665.0460253494684
 20
171.0577222229822
 30
0.0
 11
665.5066113602385
 21
168.5019120607574
 31
0.0
  0
LINE
  5
187
330
1F
100
AcDbEntity
  8
0
  6
CONTINUOUS
 62
     7
100
AcDbLine
 10
680.5072552895995
 20
254.7109822827056
 30
0.0
 11
680.2179082437318
 21
253.1046510082435
 31
0.0
  0
LINE
  5
188
330
1F
100
AcDbEntity
  8
0
  6
CONTINUOUS
 62
     7
100
AcDbLine
 10
730.5062296085601
 20
254.7052938398922
 30
0.0
 11
730.2178921254084
 21
253.1046534573685
 31
0.0
  0
LINE
  5
189
330
1F
100
AcDbEntity
  8
0
  6
CONTINUOUS
 62
     7
100
AcDbLine
 10
670.5081929544843
 20
254.7163039200651
 30
0.0
 11
670.2178887673683
 21
253.1046486097034
 31
0.0
  0
LINE
  5
18A
330
1F
100
AcDbEntity
  8
0
  6
CONTINUOUS
 62
     7
100
AcDbLine
 10
700.5063460108677
 20
254.705791748112
 30
0.0
 11
700.2179272444255
 21
253.1046529366215
 31
0.0
  0
LINE
  5
18B
330
1F
100
AcDbEntity
  8
0
  6
CONTINUOUS
 62
     7
100
AcDbLine
 10
740.5061677515821
 20
254.705080885288
 30
0.0
 11
740.2178677786848
 21
253.1046536355477
 31
0.0
  0
LINE
  5
18C
330
1F
100
AcDbEntity
  8
0
  6
CONTINUOUS
 62
     7
100
AcDbLine
 10
725.8286734836552
 20
167.6048871834679
 30
0.0
 11
729.328673483646
 21
167.6048791229145
 31
0.0
  0
LINE
  5
18D
330
1F
100
AcDbEntity
  8
0
  6
CONTINUOUS
 62
     7
100
AcDbLine
 10
715.0455610266082
 20
171.0604705356448
 30
0.0
 11
715.5063774964242
 21
168.5035322033185
 31
0.0
  0
LINE
  5
18E
330
1F
100
AcDbEntity
  8
0
  6
CONTINUOUS
 62
     7
100
AcDbLine
 10
710.5063889058968
 20
254.7060315332011
 30
0.0
 11
710.2179384496825
 21
253.1047365497037
 31
0.0
  0
LINE
  5
18F
330
1F
100
AcDbEntity
  8
0
  6
CONTINUOUS
 62
     7
100
AcDbLine
 10
685.8279251587171
 20
167.6054409322373
 30
0.0
 11
689.3279251587079
 21
167.6054328717853
 31
0.0
  0
LINE
  5
190
330
1F
100
AcDbEntity
  8
0
  6
CONTINUOUS
 62
     7
100
AcDbLine
 10
674.3278029900807
 20
255.603943221221
 30
0.0
 11
670.82780299009
 21
255.6039351607954
 31
0.0
  0
LINE
  5
191
330
1F
100
AcDbEntity
  8
0
  6
CONTINUOUS
 62
     7
100
AcDbLine
 10
720.5063305127946
 20
254.7057583340726
 30
0.0
 11
720.2179113517082
 21
253.1046531493253
 31
0.0
  0
LINE
  5
192
330
1F
100
AcDbEntity
  8
0
  6
CONTINUOUS
 62
     7
100
AcDbLine
 10
634.3285551521699
 20
255.6040953976309
 30
0.0
 11
631.3285691199104
 21
255.6040884887028
 31
0.0
  0
LINE
  5
193
330
1F
100
AcDbEntity
  8
0
  6
CONTINUOUS
 62
     7
100
AcDbLine
 10
765.0466781036062
 20
171.0536869735602
 30
0.0
 11
765.5083887607349
 21
168.4917765795715
 31
0.0
  0
LINE
  5
194
330
1F
100
AcDbEntity
  8
0
  6
CONTINUOUS
 62
     7
100
AcDbLine
 10
664.3284894938957
 20
255.6039089121245
 30
0.0
 11
660.8284894939051
 21
255.6039008517051
 31
0.0
  0
LINE
  5
195
330
1F
100
AcDbEntity
  8
0
  6
CONTINUOUS
 62
     7
100
AcDbLine
 10
715.8280037868847
 20
167.6050017854729
 30
0.0
 11
719.3280037868753
 21
167.6049937249404
 31
0.0
  0
LINE
  5
196
330
1F
100
AcDbEntity
  8
0
  6
CONTINUOUS
 62
     7
100
AcDbLine
 10
694.3282347326125
 20
255.6041534965736
 30
0.0
 11
690.8282347326218
 21
255.6041454361094
 31
0.0
  0
LINE
  5
197
330
1F
100
AcDbEntity
  8
0
  6
CONTINUOUS
 62
     7
100
AcDbLine
 10
704.3279947791502
 20
255.6043011641184
 30
0.0
 11
700.8279947791594
 21
255.6042931036272
 31
0.0
  0
LINE
  5
198
330
1F
100
AcDbEntity
  8
0
  6
CONTINUOUS
 62
     7
100
AcDbLine
 10
734.3279829418177
 20
255.6046769988954
 30
0.0
 11
730.8279829418271
 21
255.6046689383353
 31
0.0
  0
LINE
  5
199
330
1F
100
AcDbEntity
  8
0
  6
CONTINUOUS
 62
     7
100
AcDbLine
 10
695.0452135217093
 20
171.0624589481963
 30
0.0
 11
695.5064862043511
 21
168.5029309112544
 31
0.0
  0
LINE
  5
19A
330
1F
100
AcDbEntity
  8
0
  6
CONTINUOUS
 62
     7
100
AcDbLine
 10
640.5066015273727
 20
254.7078993314166
 30
0.0
 11
640.2156409769874
 21
253.0925956197009
 31
0.0
  0
LINE
  5
19B
330
1F
100
AcDbEntity
  8
0
  6
CONTINUOUS
 62
     7
100
AcDbLine
 10
690.5065130839862
 20
254.7067685917518
 30
0.0
 11
690.217922089354
 21
253.1046525376923
 31
0.0
  0
LINE
  5
19C
330
1F
100
AcDbEntity
  8
0
  6
CONTINUOUS
 62
     7
100
AcDbLine
 10
760.5063784966369
 20
254.7065497190823
 30
0.0
 11
760.2178166148748
 21
253.1046531294465
 31
0.0
  0
LINE
  5
19D
330
1F
100
AcDbEntity
  8
0
  6
CONTINUOUS
 62
     7
100
AcDbLine
 10
655.0460907543496
 20
171.057223179267
 30
0.0
 11
655.5065396238319
 21
168.5021606279684
 31
0.0
  0
LINE
  5
19E
330
1F
100
AcDbEntity
  8
0
  6
CONTINUOUS
 62
     7
100
AcDbLine
 10
675.8283722354593
 20
167.6055454912535
 30
0.0
 11
679.3283722354499
 21
167.6055374308207
 31
0.0
  0
LINE
  5
19F
330
1F
100
AcDbEntity
  8
0
  6
CONTINUOUS
 62
     7
100
AcDbLine
 10
770.5068783153185
 20
254.7094449936931
 30
0.0
 11
770.21779863743
 21
253.1046521623103
 31
0.0
  0
LINE
  5
1A0
330
1F
100
AcDbEntity
  8
0
  6
CONTINUOUS
 62
     7
100
AcDbLine
 10
780.5066103087465
 20
254.7080228721267
 30
0.0
 11
780.2177933259859
 21
253.104652804829
 31
0.0
  0
LINE
  5
1A1
330
1F
100
AcDbEntity
  8
0
  6
CONTINUOUS
 62
     7
100
AcDbLine
 10
784.3284244931851
 20
255.6041789662872
 30
0.0
 11
780.8284244931945
 21
255.6041709058184
 31
0.0
  0
LINE
  5
1A2
330
1F
100
AcDbEntity
  8
0
  6
CONTINUOUS
 62
     7
100
AcDbLine
 10
785.0450315683878
 20
171.0627779890349
 30
0.0
 11
785.5064627339779
 21
168.5023167444638
 31
0.0
  0
LINE
  5
1A3
330
1F
100
AcDbEntity
  8
0
  6
CONTINUOUS
 62
     7
100
AcDbLine
 10
645.0468152886835
 20
171.0530678480342
 30
0.0
 11
645.5065741763727
 21
168.5018296973181
 31
0.0
  0
LINE
  5
1A4
330
1F
100
AcDbEntity
  8
0
  6
CONTINUOUS
 62
     7
100
AcDbLine
 10
635.0466137687299
 20
171.0540633890766
 30
0.0
 11
635.5066225781521
 21
168.5014595403122
 31
0.0
  0
LINE
  5
1A5
330
1F
100
AcDbEntity
  8
0
  6
CONTINUOUS
 62
     7
100
AcDbLine
 10
750.5062001893034
 20
254.705410955415
 30
0.0
 11
750.217841285393
 21
253.1046535475625
 31
0.0
  0
LINE
  5
1A6
330
1F
100
AcDbEntity
  8
0
  6
CONTINUOUS
 62
     7
100
AcDbLine
 10
705.0453402267917
 20
171.0617485599099
 30
0.0
 11
705.5064020171656
 21
168.5034225476757
 31
0.0
  0
LINE
  5
1A7
330
1F
100
AcDbEntity
  8
0
  6
CONTINUOUS
 62
     7
100
AcDbLine
 10
794.3280036315654
 20
255.6040467284961
 30
0.0
 11
790.8280036315748
 21
255.6040386680515
 31
0.0
  0
LINE
  5
1A8
330
1F
100
AcDbEntity
  8
0
  6
CONTINUOUS
 62
     7
100
AcDbLine
 10
790.506411131822
 20
254.7068939716455
 30
0.0
 11
790.2156297479496
 21
253.0925962097506
 31
0.0
  0
LINE
  5
1A9
330
1F
100
AcDbEntity
  8
0
  6
CONTINUOUS
 62
     7
100
AcDbLine
 10
635.8282973472355
 20
167.6054922566381
 30
0.0
 11
639.3282973472262
 21
167.6054841961955
 31
0.0
  0
LINE
  5
1AA
330
1F
100
AcDbEntity
  8
0
  6
CONTINUOUS
 62
     7
100
AcDbLine
 10
799.7691814364522
 20
170.1047599517496
 30
0.0
 11
800.3285691293631
 21
170.1047599517496
 31
0.0
  0
LINE
  5
1AB
330
1F
100
AcDbEntity
  8
0
  6
CONTINUOUS
 62
     7
100
AcDbLine
 10
789.7691956741081
 20
170.1047599517496
 30
0.0
 11
795.2178123544268
 21
170.1047599517496
 31
0.0
  0
LINE
  5
1AC
330
1F
100
AcDbEntity
  8
0
  6
CONTINUOUS
 62
     7
100
AcDbLine
 10
639.7691806677979
 20
170.1047599517496
 30
0.0
 11
645.2178257101793
 21
170.1047599517496
 31
0.0
  0
LINE
  5
1AD
330
1F
100
AcDbEntity
  8
0
  6
CONTINUOUS
 62
     7
100
AcDbLine
 10
779.7692060119386
 20
170.1047599517496
 30
0.0
 11
785.2177967100517
 21
170.1047599517496
 31
0.0
  0
LINE
  5
1AE
330
1F
100
AcDbEntity
  8
0
  6
CONTINUOUS
 62
     7
100
AcDbLine
 10
695.8287333103177
 20
167.60530519712
 30
0.0
 11
699.3287333103083
 21
167.6052971366431
 31
0.0
  0
LINE
  5
1AF
330
1F
100
AcDbEntity
  8
0
  6
CONTINUOUS
 62
     7
100
AcDbLine
 10
655.8277445837615
 20
167.6056231154936
 30
0.0
 11
659.3277445837522
 21
167.605615055075
 31
0.0
  0
LINE
  5
1B0
330
1F
100
AcDbEntity
  8
0
  6
CONTINUOUS
 62
     7
100
AcDbLine
 10
705.8281088120535
 20
167.6051491270268
 30
0.0
 11
709.3281088120442
 21
167.6051410665214
 31
0.0
  0
LINE
  5
1B1
330
1F
100
AcDbEntity
  8
0
  6
CONTINUOUS
 62
     7
100
AcDbLine
 10
645.8285572865171
 20
167.6055782392602
 30
0.0
 11
649.3285572865078
 21
167.6055701788334
 31
0.0
  0
LINE
  5
1B2
330
1F
100
AcDbEntity
  8
0
  6
CONTINUOUS
 62
     7
100
AcDbLine
 10
654.3284160065648
 20
255.6039233104493
 30
0.0
 11
650.828416006574
 21
255.6039152500273
 31
0.0
  0
LINE
  5
1B3
330
1F
100
AcDbEntity
  8
0
  6
CONTINUOUS
 62
     7
100
AcDbLine
 10
724.3280223862747
 20
255.6045897197962
 30
0.0
 11
720.828022386284
 21
255.604581659252
 31
0.0
  0
LINE
  5
1B4
330
1F
100
AcDbEntity
  8
0
  6
CONTINUOUS
 62
     7
100
AcDbLine
 10
720.3877161469227
 20
253.1047599517496
 30
0.0
 11
714.9391316366944
 21
253.1047599517496
 31
0.0
  0
LINE
  5
1B5
330
1F
100
AcDbEntity
  8
0
  6
CONTINUOUS
 62
     7
100
AcDbLine
 10
770.3877212478228
 20
253.1047599517496
 30
0.0
 11
764.9390226716595
 21
253.1047599517496
 31
0.0
  0
LINE
  5
1B6
330
1F
100
AcDbEntity
  8
0
  6
CONTINUOUS
 62
     7
100
AcDbLine
 10
572.3285691293632
 20
173.6047599517496
 30
0.0
 11
631.3285691293632
 21
173.6047599517496
 31
0.0
  0
LINE
  5
1B7
330
1F
100
AcDbEntity
  8
0
  6
CONTINUOUS
 62
     7
100
AcDbLine
 10
861.3722123329599
 20
173.9553549553284
 30
0.0
 11
861.3722123329599
 21
170.7880966878325
 31
0.0
  0
LINE
  5
1B8
330
1F
100
AcDbEntity
  8
0
  6
CONTINUOUS
 62
     7
100
AcDbLine
 10
831.2228073365386
 20
204.1047599517496
 30
0.0
 11
828.0555490690427
 21
204.1047599517496
 31
0.0
  0
LINE
  5
1B9
330
1F
100
AcDbEntity
  8
0
  6
CONTINUOUS
 62
     7
100
AcDbLine
 10
861.3722123329599
 20
249.2541649481697
 30
0.0
 11
861.3722123329599
 21
252.4214232156667
 31
0.0
  0
ARC
  5
1BA
330
1F
100
AcDbEntity
  8
0
  6
CONTINUOUS
 62
     7
100
AcDbCircle
 10
496.1277876670401
 20
211.6047599517496
 30
0.0
 40
41.49999999999998
100
AcDbArc
 50
213.8646831287297
 51
56.13027331125159
  0
CIRCLE
  5
1BB
330
1F
100
AcDbEntity
  8
0
  6
CONTINUOUS
 62
     7
100
AcDbCircle
 10
868.8722123329599
 20
211.6047599517496
 30
0.0
 40
33.5
  0
LINE
  5
1BC
330
1F
100
AcDbEntity
  8
0
  6
CONTINUOUS
 62
     7
100
AcDbLine
 10
660.3877815406593
 20
253.1047599517496
 30
0.0
 11
654.9390663139644
 21
253.1047599517496
 31
0.0
  0
ARC
  5
1BD
330
1F
100
AcDbEntity
  8
0
  6
CONTINUOUS
 62
     7
100
AcDbCircle
 10
868.8722123329599
 20
211.6047599517496
 30
0.0
 40
41.49999999999997
100
AcDbArc
 50
10.41186901647008
 51
88.61924516564451
  0
LINE
  5
1BE
330
1F
100
AcDbEntity
  8
0
  6
CONTINUOUS
 62
     7
100
AcDbLine
 10
730.3876840202585
 20
253.1047599517496
 30
0.0
 11
724.9391079135049
 21
253.1047599517496
 31
0.0
  0
LINE
  5
1BF
330
1F
100
AcDbEntity
  8
0
  6
CONTINUOUS
 62
     7
100
AcDbLine
 10
769.7692174219682
 20
170.1047599517496
 30
0.0
 11
775.2177939794049
 21
170.1047599517496
 31
0.0
  0
LINE
  5
1C0
330
1F
100
AcDbEntity
  8
0
  6
CONTINUOUS
 62
     7
100
AcDbLine
 10
780.3877533450997
 20
253.1047599517496
 30
0.0
 11
774.939017416662
 21
253.1047599517496
 31
0.0
  0
ARC
  5
1C1
330
1F
100
AcDbEntity
  8
0
  6
CONTINUOUS
 62
     7
100
AcDbCircle
 10
877.3568501720653
 20
214.1637063027374
 30
0.0
 40
41.92579434002512
100
AcDbArc
 50
277.9539078224081
 51
294.4905150068452
  0
LINE
  5
1C2
330
1F
100
AcDbEntity
  8
0
  6
CONTINUOUS
 62
     7
100
AcDbLine
 10
869.8722123329599
 20
252.8047599517496
 30
0.0
 11
869.8722123329599
 21
253.0927100095676
 31
0.0
  0
LINE
  5
1C3
330
1F
100
AcDbEntity
  8
0
  6
CONTINUOUS
 62
     7
100
AcDbLine
 10
631.3285691293632
 20
170.1047599517496
 30
0.0
 11
631.3285691293632
 21
255.6040884826716
 31
0.0
  0
LINE
  5
1C4
330
1F
100
AcDbEntity
  8
0
  6
CONTINUOUS
 62
     7
100
AcDbLine
 10
867.8722123329599
 20
252.8047599517496
 30
0.0
 11
867.8722123329599
 21
253.0927100095676
 31
0.0
  0
CIRCLE
  5
1C5
330
1F
100
AcDbEntity
  8
0
  6
CONTINUOUS
 62
     7
100
AcDbCircle
 10
868.8722123329599
 20
211.6047599517496
 30
0.0
 40
38.3890410958904
  0
LINE
  5
1C6
330
1F
100
AcDbEntity
  8
0
  6
CONTINUOUS
 62
     7
100
AcDbLine
 10
909.6888755968769
 20
204.1047599517496
 30
0.0
 11
906.5216173293811
 21
204.1047599517496
 31
0.0
  0
LINE
  5
1C7
330
1F
100
AcDbEntity
  8
0
  6
CONTINUOUS
 62
     7
100
AcDbLine
 10
739.769240761011
 20
170.1047599517496
 30
0.0
 11
745.2178545772919
 21
170.1047599517496
 31
0.0
  0
LINE
  5
1C8
330
1F
100
AcDbEntity
  8
0
  6
CONTINUOUS
 62
     7
100
AcDbLine
 10
709.7692142571514
 20
170.1047599517496
 30
0.0
 11
715.217918366652
 21
170.1047599517496
 31
0.0
  0
LINE
  5
1C9
330
1F
100
AcDbEntity
  8
0
  6
CONTINUOUS
 62
     7
100
AcDbLine
 10
800.3280057840159
 20
253.7160441286684
 30
0.0
 11
800.2156496119393
 21
253.0925960119294
 31
0.0
  0
LINE
  5
1CA
330
1F
100
AcDbEntity
  8
0
  6
CONTINUOUS
 62
     7
100
AcDbLine
 10
679.7691709799187
 20
170.1047599517496
 30
0.0
 11
685.2179162307432
 21
170.1047599517496
 31
0.0
  0
LINE
  5
1CB
330
1F
100
AcDbEntity
  8
0
  6
CONTINUOUS
 62
     7
100
AcDbLine
 10
729.7692712779706
 20
170.1047599517496
 30
0.0
 11
735.2178804282205
 21
170.1047599517496
 31
0.0
  0
LINE
  5
1CC
330
1F
100
AcDbEntity
  8
0
  6
CONTINUOUS
 62
     7
100
AcDbLine
 10
454.2974672293007
 20
197.95862572704
 30
0.0
 11
454.1205924964646
 21
198.5133973785479
 31
0.0
  0
LINE
  5
1CD
330
1F
100
AcDbEntity
  8
0
  6
CONTINUOUS
 62
     7
100
AcDbLine
 10
910.7193974084603
 20
198.0106861106393
 30
0.0
 11
910.8543494398526
 21
198.4335860938335
 31
0.0
  0
ARC
  5
1CE
330
1F
100
AcDbEntity
  8
0
  6
CONTINUOUS
 62
     7
100
AcDbCircle
 10
490.7179199588741
 20
218.6241862609009
 30
0.0
 40
41.86399987307338
100
AcDbArc
 50
209.4979248077291
 51
226.059474061135
  0
LINE
  5
1CF
330
1F
100
AcDbEntity
  8
0
  6
CONTINUOUS
 62
     7
100
AcDbLine
 10
659.7691672879453
 20
170.1047599517496
 30
0.0
 11
665.217876693406
 21
170.1047599517496
 31
0.0
  0
LINE
  5
1D0
330
1F
100
AcDbEntity
  8
0
  6
CONTINUOUS
 62
     7
100
AcDbLine
 10
740.3876819915455
 20
253.1047599517496
 30
0.0
 11
734.9390818772991
 21
253.1047599517496
 31
0.0
  0
LINE
  5
1D1
330
1F
100
AcDbEntity
  8
0
  6
CONTINUOUS
 62
     7
100
AcDbLine
 10
631.3285691293632
 20
170.1047599517496
 30
0.0
 11
635.2178048471256
 21
170.1047599517496
 31
0.0
  0
LINE
  5
1D2
330
1F
100
AcDbEntity
  8
0
  6
CONTINUOUS
 62
     7
100
AcDbLine
 10
700.3877297619084
 20
253.1047599517496
 30
0.0
 11
694.9391504348312
 21
253.1047599517496
 31
0.0
  0
LINE
  5
1D3
330
1F
100
AcDbEntity
  8
0
  6
CONTINUOUS
 62
     7
100
AcDbLine
 10
669.7691589737947
 20
170.1047599517496
 30
0.0
 11
675.2178991257684
 21
170.1047599517496
 31
0.0
  0
LINE
  5
1D4
330
1F
100
AcDbEntity
  8
0
  6
CONTINUOUS
 62
     7
100
AcDbLine
 10
750.3877154607802
 20
253.1047599517496
 30
0.0
 11
744.9390515157177
 21
253.1047599517496
 31
0.0
  0
CIRCLE
  5
1D5
330
1F
100
AcDbEntity
  8
0
  6
CONTINUOUS
 62
     7
100
AcDbCircle
 10
496.1277876670401
 20
211.6047599517496
 30
0.0
 40
38.39999999999999
  0
LINE
  5
1D6
330
1F
100
AcDbEntity
  8
0
  6
CONTINUOUS
 62
     7
100
AcDbLine
 10
867.8722123329599
 20
252.8047599517496
 30
0.0
 11
869.8722123329599
 21
252.8047599517496
 31
0.0
  0
LINE
  5
1D7
330
1F
100
AcDbEntity
  8
0
  6
CONTINUOUS
 62
     7
100
AcDbLine
 10
909.6888755968769
 20
219.1047599517496
 30
0.0
 11
906.521617329381
 21
219.1047599517496
 31
0.0
  0
CIRCLE
  5
1D8
330
1F
100
AcDbEntity
  8
0
  6
CONTINUOUS
 62
     7
100
AcDbCircle
 10
868.871828622338
 20
211.6044085946224
 30
0.0
 40
43.9995926657473
  0
LINE
  5
1D9
330
1F
100
AcDbEntity
  8
0
  6
CONTINUOUS
 62
     7
100
AcDbLine
 10
689.7691955927274
 20
170.1047599517496
 30
0.0
 11
695.2179256531459
 21
170.1047599517496
 31
0.0
  0
LINE
  5
1DA
330
1F
100
AcDbEntity
  8
0
  6
CONTINUOUS
 62
     7
100
AcDbLine
 10
800.3285691293632
 20
252.4214232156667
 30
0.0
 11
800.3285691293632
 21
253.6981916162514
 31
0.0
  0
ARC
  5
1DB
330
1F
100
AcDbEntity
  8
0
  6
CONTINUOUS
 62
     7
100
AcDbCircle
 10
877.7002250801652
 20
211.1497532839708
 30
0.0
 40
42.56915811209598
100
AcDbArc
 50
83.57200550858816
 51
91.78772323455401
  0
ARC
  5
1DC
330
1F
100
AcDbEntity
  8
0
  6
CONTINUOUS
 62
     7
100
AcDbCircle
 10
868.8722123329599
 20
211.6047599517496
 30
0.0
 40
41.49999999999997
100
AcDbArc
 50
91.38075483435549
 51
349.5881309835299
  0
ARC
  5
1DD
330
1F
100
AcDbEntity
  8
0
  6
CONTINUOUS
 62
     7
100
AcDbCircle
 10
496.1273705223533
 20
211.6049444156876
 30
0.0
 40
43.99949823713614
100
AcDbArc
 50
198.0680645679248
 51
197.996803763974
  0
LINE
  5
1DE
330
1F
100
AcDbEntity
  8
0
  6
CONTINUOUS
 62
     7
100
AcDbLine
 10
749.7692619006912
 20
170.1047599517496
 30
0.0
 11
755.2178359512802
 21
170.1047599517496
 31
0.0
  0
LINE
  5
1DF
330
1F
100
AcDbEntity
  8
0
  6
CONTINUOUS
 62
     7
100
AcDbLine
 10
719.7692533950199
 20
170.1047599517496
 30
0.0
 11
725.2179025282738
 21
170.1047599517496
 31
0.0
  0
LINE
  5
1E0
330
1F
100
AcDbEntity
  8
0
  6
CONTINUOUS
 62
     7
100
AcDbLine
 10
699.769211650018
 20
170.1047599517496
 30
0.0
 11
705.2179434556346
 21
170.1047599517496
 31
0.0
  0
LINE
  5
1E1
330
1F
100
AcDbEntity
  8
0
  6
CONTINUOUS
 62
     7
100
AcDbLine
 10
649.769173378802
 20
170.1047599517496
 30
0.0
 11
655.2178511181247
 21
170.1047599517496
 31
0.0
  0
CIRCLE
  5
1E2
330
1F
100
AcDbEntity
  8
0
  6
CONTINUOUS
 62
     7
100
AcDbCircle
 10
496.1277876670401
 20
211.6047599517496
 30
0.0
 40
38.00000000000001
  0
ARC
  5
1E3
330
1F
100
AcDbEntity
  8
0
  6
CONTINUOUS
 62
     7
100
AcDbCircle
 10
489.0833302669005
 20
216.9827007460194
 30
0.0
 40
41.90494977997353
100
AcDbArc
 50
43.94332782372099
 51
60.48615850174864
  0
CIRCLE
  5
1E4
330
1F
100
AcDbEntity
  8
0
  6
CONTINUOUS
 62
     7
100
AcDbCircle
 10
868.8722123329599
 20
211.6047599517496
 30
0.0
 40
37.59999999999999
  0
LINE
  5
1E5
330
1F
100
AcDbEntity
  8
0
  6
CONTINUOUS
 62
     7
100
AcDbLine
 10
631.3285691293631
 20
249.6047599517496
 30
0.0
 11
572.3285691293632
 21
249.6047599517496
 31
0.0
  0
LINE
  5
1E6
330
1F
100
AcDbEntity
  8
0
  6
CENTER
 62
     1
100
AcDbLine
 10
559.3285691293632
 20
212.5
 30
0.0
 11
804.3285691293632
 21
212.5
 31
0.0
  0
LINE
  5
1E7
330
1F
100
AcDbEntity
  8
0
  6
CONTINUOUS
 62
     7
100
AcDbLine
 10
508.7607838292971
 20
253.751549569369
 30
0.0
 11
510.0266513510373
 21
253.3514671997043
 31
0.0
  0
LINE
  5
1E8
330
1F
100
AcDbEntity
  8
0
  6
CONTINUOUS
 62
     7
100
AcDbLine
 10
710.3877150296358
 20
253.1047599517496
 30
0.0
 11
704.9391478556424
 21
253.1047599517496
 31
0.0
  0
LINE
  5
1E9
330
1F
100
AcDbEntity
  8
0
  6
CONTINUOUS
 62
     7
100
AcDbLine
 10
690.3877583000558
 20
253.1047599517496
 30
0.0
 11
684.9391383004935
 21
253.1047599517496
 31
0.0
  0
LINE
  5
1EA
330
1F
100
AcDbEntity
  8
0
  6
CONTINUOUS
 62
     7
100
AcDbLine
 10
760.3877044589851
 20
253.1047599517496
 30
0.0
 11
754.9390362170539
 21
253.1047599517496
 31
0.0
  0
LINE
  5
1EB
330
1F
100
AcDbEntity
  8
0
  6
CONTINUOUS
 62
     7
100
AcDbLine
 10
572.3285691293632
 20
173.6047599517496
 30
0.0
 11
572.3285691293632
 21
249.6047599517496
 31
0.0
  0
CIRCLE
  5
1EC
330
1F
100
AcDbEntity
  8
0
  6
CONTINUOUS
 62
     7
100
AcDbCircle
 10
496.1277876670401
 20
211.6047599517496
 30
0.0
 40
34.5
  0
LINE
  5
1ED
330
1F
100
AcDbEntity
  8
0
  6
CONTINUOUS
 62
     7
100
AcDbLine
 10
831.2228073365386
 20
219.1047599517496
 30
0.0
 11
828.0555490690427
 21
219.1047599517496
 31
0.0
  0
LINE
  5
1EE
330
1F
100
AcDbEntity
  8
0
  6
CONTINUOUS
 62
     7
100
AcDbLine
 10
670.3877761413555
 20
253.1047599517496
 30
0.0
 11
664.9390918837788
 21
253.1047599517496
 31
0.0
  0
LINE
  5
1EF
330
1F
100
AcDbEntity
  8
0
  6
CONTINUOUS
 62
     7
100
AcDbLine
 10
680.387775563776
 20
253.1047599517496
 30
0.0
 11
674.9391130334394
 21
253.1047599517496
 31
0.0
  0
LINE
  5
1F0
330
1F
100
AcDbEntity
  8
0
  6
CONTINUOUS
 62
     7
100
AcDbLine
 10
876.3722123329599
 20
173.9553549553292
 30
0.0
 11
876.3722123329597
 21
170.7880966878325
 31
0.0
  0
LINE
  5
1F1
330
1F
100
AcDbEntity
  8
0
  6
CONTINUOUS
 62
     7
100
AcDbLine
 10
876.3722123329599
 20
249.2541649481708
 30
0.0
 11
876.3722123329599
 21
253.6981916162514
 31
0.0
  0
LINE
  5
1F2
330
1F
100
AcDbEntity
  8
0
  6
CONTINUOUS
 62
     7
100
AcDbLine
 10
759.7692549523507
 20
170.1047599517496
 30
0.0
 11
765.2178090425192
 21
170.1047599517496
 31
0.0
  0
CIRCLE
  5
1F3
330
1F
100
AcDbEntity
  8
0
  6
CONTINUOUS
 62
     7
100
AcDbCircle
 10
496.1277876670401
 20
211.6047599517496
 30
0.0
 40
33.5
  0
LWPOLYLINE
  5
1F4
330
1F
100
AcDbEntity
  8
0
  6
CONTINUOUS
 62
     7
100
AcDbPolyline
 90
        3
 70
     0
 43
0.0
 10
640.5535717387696
 20
252.8794980987896
 10
640.4898328721594
 20
253.0193344417011
 10
640.4261140611751
 20
253.0927100095676
  0
LWPOLYLINE
  5
1F5
330
1F
100
AcDbEntity
  8
0
  6
CONTINUOUS
 62
     7
100
AcDbPolyline
 90
        3
 70
     0
 43
0.0
 10
690.5164697843546
 20
252.9688845260635
 10
690.4483190834485
 20
253.0745908998434
 10
690.3877592879841
 20
253.1047599517016
  0
LWPOLYLINE
  5
1F6
330
1F
100
AcDbEntity
  8
0
  6
CONTINUOUS
 62
     7
100
AcDbPolyline
 90
      105
 70
     0
 43
0.0
 10
-650.8284159952731
 20
255.6039152500019
 10
-650.8733970876806
 20
255.5865003793006
 10
-650.9183781800881
 20
255.534043295559
 10
-650.9633592724955
 20
255.4465297249427
 10
-651.0083403649031
 20
255.3239453936176
 10
-651.0533214573106
 20
255.1662799850151
 10
-651.0983025497181
 20
254.9736472488109
 10
-651.1432836421255
 20
254.7463067249746
 10
-651.1882647345332
 20
254.4845262910422
 10
-651.2332458269406
 20
254.1885738245498
 10
-651.2782269193481
 20
253.8587172030333
 10
-651.3232080117554
 20
253.4952243040288
 10
-651.3681891041631
 20
253.0983630050725
 10
-651.4131701965706
 20
252.6684011837001
 10
-651.4581512889779
 20
252.2056067174479
 10
-651.5031323813855
 20
251.7102486965131
 10
-651.548113473793
 20
251.1826874491551
 10
-651.5930945662004
 20
250.623436515314
 10
-651.6380756586079
 20
250.033024096101
 10
-651.6830567510154
 20
249.4119783926273
 10
-651.728037843423
 20
248.7608276060044
 10
-651.7730189358304
 20
248.0800999373434
 10
-651.818000028238
 20
247.3703235877558
 10
-651.8629811206455
 20
246.6320267583529
 10
-651.9079622130528
 20
245.8657376502457
 10
-651.9529433054603
 20
245.071984638532
 10
-651.9979243978679
 20
244.2513532155798
 10
-652.0429054902752
 20
243.4045680647769
 10
-652.0878865826828
 20
242.5323746707489
 10
-652.1328676750901
 20
241.6355185181207
 10
-652.1778487674977
 20
240.7147450915178
 10
-652.2228298599052
 20
239.7707998755652
 10
-652.2678109523126
 20
238.8044283548881
 10
-652.31279204472
 20
237.8163760141118
 10
-652.3577731371277
 20
236.8073883378615
 10
-652.402754229535
 20
235.7782108117877
 10
-652.4477353219426
 20
234.7296177597401
 10
-652.4927164143501
 20
233.6624876865432
 10
-652.5376975067576
 20
232.5777226150945
 10
-652.5826785991652
 20
231.476224568292
 10
-652.6276596915726
 20
230.3588955690332
 10
-652.6726407839802
 20
229.226637640216
 10
-652.7176218763876
 20
228.0803528047379
 10
-652.7626029687952
 20
226.9209430854969
 10
-652.8075840612028
 20
225.7493105053906
 10
-652.8525651536102
 20
224.5663570873167
 10
-652.8975462460177
 20
223.3729949183896
 10
-652.9425273384251
 20
222.1701906438848
 10
-652.9875084308325
 20
220.9589293101814
 10
-653.03248952324
 20
219.7401959778076
 10
-653.0774706156475
 20
218.5149757072915
 10
-653.122451708055
 20
217.2842535591611
 10
-653.1674328004624
 20
216.0490145939445
 10
-653.2124138928698
 20
214.81024387217
 10
-653.2573949852773
 20
213.5689264543655
 10
-653.3023760776848
 20
212.3260474010591
 10
-653.3473571700923
 20
211.0825919791327
 10
-653.3923382624997
 20
209.8395471670733
 10
-653.4373193549072
 20
208.5979007901103
 10
-653.4823004473149
 20
207.3586406795025
 10
-653.5272815397224
 20
206.1227546665087
 10
-653.5722626321297
 20
204.8912305823878
 10
-653.6172437245373
 20
203.6650562583988
 10
-653.6622248169449
 20
202.4452195258006
 10
-653.7072059093524
 20
201.2327082158519
 10
-653.7521870017598
 20
200.0285101598117
 10
-653.7971680941672
 20
198.833609953269
 10
-653.8421491865749
 20
197.6489490579334
 10
-653.8871302789823
 20
196.4754382404232
 10
-653.9321113713897
 20
195.3139876100577
 10
-653.9770924637972
 20
194.1655072761561
 10
-654.0220735562046
 20
193.0309073480376
 10
-654.067054648612
 20
191.9110979350213
 10
-654.1120357410198
 20
190.8069891464266
 10
-654.1570168334273
 20
189.7194910915725
 10
-654.2019979258346
 20
188.6495138797783
 10
-654.2469790182421
 20
187.597964549333
 10
-654.2919601106496
 20
186.5656778333851
 10
-654.3369412030571
 20
185.5534152189874
 10
-654.3819222954646
 20
184.5619349339612
 10
-654.4269033878721
 20
183.5919952061283
 10
-654.4718844802795
 20
182.64435426331
 10
-654.5168655726869
 20
181.7197703333279
 10
-654.5618466650944
 20
180.8190016440036
 10
-654.6068277575021
 20
179.9428064231586
 10
-654.6518088499095
 20
179.0919428986145
 10
-654.6967899423171
 20
178.2671676325097
 10
-654.7417710347244
 20
177.4691542119532
 10
-654.786752127132
 20
176.6984565214997
 10
-654.8317332195395
 20
175.955619123862
 10
-654.8767143119469
 20
175.2411865817533
 10
-654.9216954043544
 20
174.5557034578862
 10
-654.9666764967618
 20
173.8997143149738
 10
-655.0116575891693
 20
173.2737637157291
 10
-655.0566386815768
 20
172.6783962228649
 10
-655.1016197739843
 20
172.1141563990942
 10
-655.1466008663919
 20
171.5815883135549
 10
-655.1915819587994
 20
171.0811588428969
 10
-655.2365630512069
 20
170.6131744864386
 10
-655.2815441436143
 20
170.1779217685107
 10
-655.3265252360218
 20
169.7756872134434
 10
-655.3715063284292
 20
169.4067573455673
 10
-655.4164874208366
 20
169.0714186892127
 10
-655.4614685132442
 20
168.7699577687101
 10
-655.5064496056519
 20
168.5026611083887
210
0.0
220
0.0
230
-1.0
  0
LWPOLYLINE
  5
1F7
330
1F
100
AcDbEntity
  8
0
  6
CONTINUOUS
 62
     7
100
AcDbPolyline
 90
       33
 70
     0
 43
0.0
 10
-694.3282347439145
 20
255.6041534965663
 10
-694.3383033199808
 20
255.6032680664394
 10
-694.3483718960471
 20
255.6006253123463
 10
-694.3584404721133
 20
255.5962258934835
 10
-694.3685090481796
 20
255.5900704690476
 10
-694.378577624246
 20
255.582159698235
 10
-694.3886462003122
 20
255.5724942402425
 10
-694.3987147763785
 20
255.5610747542664
 10
-694.4087833524446
 20
255.5479018995034
 10
-694.418851928511
 20
255.5329763351501
 10
-694.4289205045773
 20
255.5162987204028
 10
-694.4389890806436
 20
255.4978697144583
 10
-694.4490576567099
 20
255.4776899765131
 10
-694.459126232776
 20
255.4557601657637
 10
-694.4691948088423
 20
255.4320809414066
 10
-694.4792633849087
 20
255.4066529626385
 10
-694.4893319609748
 20
255.3794768886558
 10
-694.4994005370412
 20
255.3505533786551
 10
-694.5094691131076
 20
255.3198830918331
 10
-694.5195376891737
 20
255.2874666873861
 10
-694.5296062652399
 20
255.2533048245108
 10
-694.5396748413062
 20
255.2173981624038
 10
-694.5497434173725
 20
255.1797473602614
 10
-694.5598119934389
 20
255.1403530772805
 10
-694.5698805695051
 20
255.0992159726574
 10
-694.5799491455714
 20
255.0563367055887
 10
-694.5900177216377
 20
255.011715935271
 10
-694.6000862977039
 20
254.9653543209008
 10
-694.61015487377
 20
254.9172525216747
 10
-694.6202234498362
 20
254.8674111967891
 10
-694.6302920259027
 20
254.8158310054409
 10
-694.640360601969
 20
254.7625126068263
 10
-694.6504291780354
 20
254.7074566601416
210
0.0
220
0.0
230
-1.0
  0
LWPOLYLINE
  5
1F8
330
1F
100
AcDbEntity
  8
0
  6
CONTINUOUS
 62
     7
100
AcDbPolyline
 90
       33
 70
     0
 43
0.0
 10
-754.3280779982787
 20
255.6046080348779
 10
-754.33816028665
 20
255.6038274220823
 10
-754.3482425750212
 20
255.6012736290135
 10
-754.3583248633927
 20
255.5969453405736
 10
-754.368407151764
 20
255.5908412416647
 10
-754.3784894401354
 20
255.5829603960299
 10
-754.3885717285067
 20
255.5733039673226
 10
-754.398654016878
 20
255.5618738426689
 10
-754.4087363052494
 20
255.548671909868
 10
-754.4188185936207
 20
255.5337000567189
 10
-754.4289008819921
 20
255.5169601710205
 10
-754.4389831703633
 20
255.498454140572
 10
-754.4490654587348
 20
255.4781838531725
 10
-754.459147747106
 20
255.4561511966209
 10
-754.4692300354774
 20
255.4323580587163
 10
-754.4793123238486
 20
255.4068063272579
 10
-754.4893946122199
 20
255.3794978900445
 10
-754.4994769005913
 20
255.3504346348753
 10
-754.5095591889625
 20
255.3196184495494
 10
-754.5196414773341
 20
255.2870512218657
 10
-754.5297237657053
 20
255.2527348396232
 10
-754.5398060540766
 20
255.2166711906212
 10
-754.549888342448
 20
255.1788621626586
 10
-754.5599706308193
 20
255.1393096435345
 10
-754.5700529191906
 20
255.0980155210478
 10
-754.5801352075619
 20
255.0549816829977
 10
-754.5902174959334
 20
255.0102100171833
 10
-754.6002997843045
 20
254.9637024114035
 10
-754.6103820726759
 20
254.9154607534574
 10
-754.6204643610473
 20
254.8654869311441
 10
-754.6305466494185
 20
254.8137828322625
 10
-754.64062893779
 20
254.7603503446119
 10
-754.6507112261614
 20
254.70519135599
210
0.0
220
0.0
230
-1.0
  0
LWPOLYLINE
  5
1F9
330
1F
100
AcDbEntity
  8
0
  6
CONTINUOUS
 62
     7
100
AcDbPolyline
 90
        4
 70
     0
 43
0.0
 10
660.561790387295
 20
252.8567203758679
 10
660.4937405195742
 20
253.0125993371613
 10
660.425614409215
 20
253.0927548502341
 10
660.3877991777556
 20
253.1047599517426
  0
LWPOLYLINE
  5
1FA
330
1F
100
AcDbEntity
  8
0
  6
CONTINUOUS
 62
     7
100
AcDbPolyline
 90
       33
 70
     0
 43
0.0
 10
705.5063343384795
 20
168.5037986220223
 10
705.516389791132
 20
168.4487747495739
 10
705.5264452437845
 20
168.3954676595794
 10
705.5365006964367
 20
168.3438795633947
 10
705.5465561490889
 20
168.2940126723757
 10
705.5566116017415
 20
168.2458691978785
 10
705.566667054394
 20
168.199451351259
 10
705.5767225070465
 20
168.1547613438734
 10
705.5867779596987
 20
168.1118013870774
 10
705.5968334123513
 20
168.0705736922271
 10
705.6068888650036
 20
168.0310804706785
 10
705.616944317656
 20
167.9933239337877
 10
705.6269997703083
 20
167.9573062929105
 10
705.6370552229608
 20
167.923029759403
 10
705.6471106756131
 20
167.8904965446211
 10
705.6571661282657
 20
167.8597088599209
 10
705.6672215809181
 20
167.8306689166583
 10
705.6772770335704
 20
167.8033789261893
 10
705.6873324862229
 20
167.7778410998699
 10
705.6973879388754
 20
167.7540576490561
 10
705.7074433915277
 20
167.7320307851038
 10
705.71749884418
 20
167.7117627193691
 10
705.7275542968325
 20
167.6932556632079
 10
705.737609749485
 20
167.6765118279763
 10
705.7476652021373
 20
167.6615329846462
 10
705.7577206547899
 20
167.6483187994319
 10
705.7677761074423
 20
167.6368683104641
 10
705.7778315600946
 20
167.627180555764
 10
705.787887012747
 20
167.6192545733527
 10
705.7979424653995
 20
167.6130894012511
 10
705.8079979180518
 20
167.6086840774804
 10
705.8180533707043
 20
167.6060376400616
 10
705.8281088233568
 20
167.6051491270157
  0
LWPOLYLINE
  5
1FB
330
1F
100
AcDbEntity
  8
0
  6
CONTINUOUS
 62
     7
100
AcDbPolyline
 90
       33
 70
     0
 43
0.0
 10
759.3284736459052
 20
167.6049689445736
 10
759.3385405621062
 20
167.6058078997754
 10
759.3486074783074
 20
167.6084127519719
 10
759.3586743945083
 20
167.6127847084986
 10
759.3687413107092
 20
167.6189249766906
 10
759.3788082269103
 20
167.6268347638831
 10
759.3888751431115
 20
167.6365152201485
 10
759.3989420593125
 20
167.6479660166896
 10
759.4090089755136
 20
167.6611852499289
 10
759.4190758917147
 20
167.6761709398203
 10
759.4291428079159
 20
167.692921106317
 10
759.4392097241168
 20
167.7114337693728
 10
759.4492766403179
 20
167.7317069489413
 10
759.4593435565189
 20
167.7537386649761
 10
759.46941047272
 20
167.7775269374307
 10
759.4794773889212
 20
167.8030697862588
 10
759.4895443051222
 20
167.8303652314139
 10
759.4996112213232
 20
167.8594112928497
 10
759.5096781375242
 20
167.8902059905198
 10
759.5197450537254
 20
167.9227473443777
 10
759.5298119699265
 20
167.9570333743771
 10
759.5398788861273
 20
167.9930621004714
 10
759.5499458023287
 20
168.0308315426145
 10
759.5600127185296
 20
168.0703397207598
 10
759.5700796347307
 20
168.1115846548609
 10
759.5801465509317
 20
168.1545643648714
 10
759.5902134671328
 20
168.1992768707451
 10
759.600280383334
 20
168.2457201924353
 10
759.610347299535
 20
168.2938923498957
 10
759.6204142157361
 20
168.34379136308
 10
759.6304811319372
 20
168.3954152519416
 10
759.6405480481382
 20
168.4487620364343
 10
759.6506149643394
 20
168.5038297365124
  0
LWPOLYLINE
  5
1FC
330
1F
100
AcDbEntity
  8
0
  6
CONTINUOUS
 62
     7
100
AcDbPolyline
 90
       33
 70
     0
 43
0.0
 10
-730.5061546688588
 20
254.7048774822976
 10
-730.5162118020357
 20
254.7599015163124
 10
-730.5262689352128
 20
254.8132068026828
 10
-730.5363260683898
 20
254.8647916314718
 10
-730.546383201567
 20
254.9146542927421
 10
-730.5564403347441
 20
254.9627930765567
 10
-730.566497467921
 20
255.0092062729785
 10
-730.5765546010979
 20
255.0538921720702
 10
-730.5866117342749
 20
255.0968490638948
 10
-730.596668867452
 20
255.1380752385151
 10
-730.6067260006291
 20
255.1775689859941
 10
-730.616783133806
 20
255.2153285963943
 10
-730.6268402669832
 20
255.251352359779
 10
-730.6368974001601
 20
255.2856385662107
 10
-730.6469545333373
 20
255.3181855057526
 10
-730.6570116665141
 20
255.3489914684673
 10
-730.6670687996913
 20
255.3780547444178
 10
-730.6771259328682
 20
255.4053736236668
 10
-730.6871830660452
 20
255.4309463962773
 10
-730.6972401992223
 20
255.4547713523122
 10
-730.7072973323994
 20
255.4768467818344
 10
-730.7173544655766
 20
255.4971709749065
 10
-730.7274115987534
 20
255.5157422215916
 10
-730.7374687319307
 20
255.5325588119525
 10
-730.7475258651075
 20
255.547619036052
 10
-730.7575829982845
 20
255.5609211839531
 10
-730.7676401314616
 20
255.5724635457185
 10
-730.7776972646386
 20
255.5822444114112
 10
-730.7877543978157
 20
255.590262071094
 10
-730.7978115309927
 20
255.5965148148297
 10
-730.8078686641699
 20
255.6010009326814
 10
-730.8179257973468
 20
255.6037188771683
 10
-730.8279829305235
 20
255.6046689382605
210
0.0
220
0.0
230
-1.0
  0
LWPOLYLINE
  5
1FD
330
1F
100
AcDbEntity
  8
0
  6
CONTINUOUS
 62
     7
100
AcDbPolyline
 90
       33
 70
     0
 43
0.0
 10
715.5062974486835
 20
168.5039769157689
 10
715.5163507717523
 20
168.4489753647833
 10
715.526404094821
 20
168.3956899882969
 10
715.5364574178899
 20
168.3441227959767
 10
715.5465107409586
 20
168.294275797489
 10
715.5565640640274
 20
168.2461510025006
 10
715.5666173870961
 20
168.199750420678
 10
715.5766707101649
 20
168.1550760616879
 10
715.5867240332337
 20
168.1121299351969
 10
715.5967773563025
 20
168.0709140508717
 10
715.6068306793713
 20
168.0314304183788
 10
715.61688400244
 20
167.9936810473849
 10
715.626937325509
 20
167.9576679475565
 10
715.6369906485778
 20
167.9233931285604
 10
715.6470439716464
 20
167.8908586000631
 10
715.6570972947154
 20
167.8600663717313
 10
715.667150617784
 20
167.8310184532316
 10
715.6772039408528
 20
167.8037168542306
 10
715.6872572639215
 20
167.7781635843949
 10
715.6973105869903
 20
167.7543606533911
 10
715.7073639100591
 20
167.7323100708859
 10
715.717417233128
 20
167.712013846546
 10
715.7274705561966
 20
167.6934739900378
 10
715.7375238792655
 20
167.6766925110281
 10
715.7475772023345
 20
167.6616714191834
 10
715.7576305254029
 20
167.6484127241704
 10
715.7676838484718
 20
167.6369184356413
 10
715.7777371715407
 20
167.6271899850283
 10
715.7877904946093
 20
167.6192266905427
 10
715.7978438176782
 20
167.6130273877646
 10
715.8078971407468
 20
167.6085909122736
 10
715.8179504638158
 20
167.6059160996498
 10
715.8280037868846
 20
167.6050017854729
  0
LWPOLYLINE
  5
1FE
330
1F
100
AcDbEntity
  8
0
  6
CONTINUOUS
 62
     7
100
AcDbPolyline
 90
        3
 70
     0
 43
0.0
 10
670.4987459582578
 20
253.0039151833038
 10
670.4325896689768
 20
253.0881811471781
 10
670.3877926346161
 20
253.1047599517071
  0
LWPOLYLINE
  5
1FF
330
1F
100
AcDbEntity
  8
0
  6
CONTINUOUS
 62
     7
100
AcDbPolyline
 90
       33
 70
     0
 43
0.0
 10
-720.5062709825388
 20
254.7054276183768
 10
-720.5163257139058
 20
254.7604331410558
 10
-720.5263804452728
 20
254.8137217290351
 10
-720.53643517664
 20
254.8652914722454
 10
-720.546489908007
 20
254.9151404606176
 10
-720.556544639374
 20
254.963266784082
 10
-720.5665993707411
 20
255.0096685325697
 10
-720.576654102108
 20
255.0543437960111
 10
-720.5867088334752
 20
255.0972906643371
 10
-720.5967635648421
 20
255.1385072274783
 10
-720.6068182962092
 20
255.1779915753654
 10
-720.6168730275762
 20
255.2157417979291
 10
-720.6269277589433
 20
255.2517559851001
 10
-720.6369824903103
 20
255.2860322268092
 10
-720.6470372216774
 20
255.318568612987
 10
-720.6570919530445
 20
255.3493632335642
 10
-720.6671466844116
 20
255.3784141784716
 10
-720.6772014157784
 20
255.4057195376397
 10
-720.6872561471454
 20
255.4312774009994
 10
-720.6973108785126
 20
255.4550858584813
 10
-720.7073656098795
 20
255.4771430000161
 10
-720.7174203412467
 20
255.4974469155345
 10
-720.7274750726136
 20
255.5159956949673
 10
-720.7375298039808
 20
255.5327874282451
 10
-720.7475845353476
 20
255.5478202052985
 10
-720.7576392667148
 20
255.5610921160584
 10
-720.7676939980818
 20
255.5726012504554
 10
-720.7777487294488
 20
255.5823456984203
 10
-720.7878034608158
 20
255.5903236533263
 10
-720.7978581921828
 20
255.5965349840128
 10
-720.8079129235499
 20
255.600980917672
 10
-720.8179676549171
 20
255.6036627206399
 10
-720.828022386284
 20
255.604581659252
210
0.0
220
0.0
230
-1.0
  0
LWPOLYLINE
  5
200
330
1F
100
AcDbEntity
  8
0
  6
CONTINUOUS
 62
     7
100
AcDbPolyline
 90
        3
 70
     0
 43
0.0
 10
740.551163239394
 20
252.8861181454292
 10
740.4848775652996
 20
253.0272080380179
 10
740.3876705233002
 20
253.1047599517479
  0
LWPOLYLINE
  5
201
330
1F
100
AcDbEntity
  8
0
  6
CONTINUOUS
 62
     7
100
AcDbPolyline
 90
        3
 70
     0
 43
0.0
 10
760.4987112714299
 20
253.003821330903
 10
760.4325282048511
 20
253.0881431579295
 10
760.387700202426
 20
253.1047599517079
  0
LWPOLYLINE
  5
202
330
1F
100
AcDbEntity
  8
0
  6
CONTINUOUS
 62
     7
100
AcDbPolyline
 90
       97
 70
     0
 43
0.0
 10
631.328569129363
 20
253.4499264171238
 10
631.3720901237829
 20
253.0626695800078
 10
631.4156111182026
 20
252.6443471922426
 10
631.4591321126223
 20
252.195180476343
 10
631.502653107042
 20
251.7155252640479
 10
631.5461741014617
 20
251.2058297787449
 10
631.5896950958816
 20
250.6665440532332
 10
631.6332160903012
 20
250.098118120312
 10
631.6767370847208
 20
249.5010020127802
 10
631.7202580791406
 20
248.8756457634373
 10
631.7637790735604
 20
248.2224994050824
 10
631.8073000679799
 20
247.5420129705146
 10
631.8508210623997
 20
246.8346364925331
 10
631.8943420568196
 20
246.1008201660822
 10
631.9378630512391
 20
245.3410674783885
 10
631.9813840456588
 20
244.5560118144957
 10
632.0249050400785
 20
243.746305976517
 10
632.0684260344982
 20
242.9126027665657
 10
632.111947028918
 20
242.0555549867549
 10
632.1554680233377
 20
241.1758154391978
 10
632.1989890177574
 20
240.2740369260078
 10
632.2425100121771
 20
239.3508722492979
 10
632.2860310065969
 20
238.4069742111815
 10
632.3295520010166
 20
237.4429956137716
 10
632.3730729954362
 20
236.459597588719
 10
632.4165939898561
 20
235.4575291159744
 10
632.4601149842757
 20
234.4375918589651
 10
632.5036359786955
 20
233.4005881960402
 10
632.5471569731152
 20
232.3473205055489
 10
632.5906779675349
 20
231.27859116584
 10
632.6341989619548
 20
230.1952025552628
 10
632.6777199563744
 20
229.0979570521661
 10
632.721240950794
 20
227.9876570348993
 10
632.7647619452138
 20
226.8651048818113
 10
632.8082829396335
 20
225.7311031189602
 10
632.8518039340532
 20
224.5864791097481
 10
632.8953249284729
 20
223.4321127468324
 10
632.9388459228926
 20
222.2688906036156
 10
632.9823669173123
 20
221.0976992534997
 10
633.025887911732
 20
219.919425269887
 10
633.0694089061518
 20
218.7349552261797
 10
633.1129299005714
 20
217.54517569578
 10
633.156450894991
 20
216.3509732520901
 10
633.1999718894108
 20
215.1532344685122
 10
633.2434928838305
 20
213.9528459184484
 10
633.2870138782504
 20
212.750694997101
 10
633.33053487267
 20
211.5476763874452
 10
633.3740558670897
 20
210.3446885829195
 10
633.4175768615095
 20
209.1426301102273
 10
633.4610978559292
 20
207.9423994960721
 10
633.5046188503488
 20
206.7448952671574
 10
633.5481398447687
 20
205.5510159501865
 10
633.5916608391884
 20
204.361660071863
 10
633.635181833608
 20
203.1777261588902
 10
633.6787028280277
 20
202.0001127379717
 10
633.7222238224474
 20
200.8297181356114
 10
633.7657448168671
 20
199.6674205813803
 10
633.8092658112869
 20
198.5140613172017
 10
633.8527868057067
 20
197.370477607323
 10
633.8963078001265
 20
196.2375067159915
 10
633.9398287945461
 20
195.1159859074542
 10
633.9833497889657
 20
194.0067524459586
 10
634.0268707833854
 20
192.9106435957519
 10
634.0703917778052
 20
191.8284966210813
 10
634.1139127722249
 20
190.7611487861942
 10
634.1574337666448
 20
189.7094373553378
 10
634.2009547610644
 20
188.6741887531681
 10
634.2444757554841
 20
187.6561479684541
 10
634.2879967499039
 20
186.6560229653444
 10
634.3315177443236
 20
185.6745215217967
 10
634.3750387387433
 20
184.7123514157688
 10
634.4185597331631
 20
183.7702204252184
 10
634.4620807275827
 20
182.8488363281033
 10
634.5056017220024
 20
181.9489069023813
 10
634.5491227164221
 20
181.0711399260101
 10
634.5926437108419
 20
180.2162431769475
 10
634.6361647052616
 20
179.3849234095784
 10
634.6796856996814
 20
178.577819704873
 10
634.7232066941011
 20
177.795462483413
 10
634.7667276885207
 20
177.0383723641241
 10
634.8102486829404
 20
176.3070699659319
 10
634.8537696773601
 20
175.6020759077621
 10
634.8972906717798
 20
174.9239108085405
 10
634.9408116661997
 20
174.2730952871926
 10
634.9843326606192
 20
173.650149962644
 10
635.027853655039
 20
173.0555954538205
 10
635.0713746494587
 20
172.4899523796478
 10
635.1148956438783
 20
171.9537182400945
 10
635.1584166382983
 20
171.4472425441964
 10
635.2019376327179
 20
170.9708164710093
 10
635.2454586271376
 20
170.5247310581939
 10
635.2889796215572
 20
170.1092773434109
 10
635.3325006159771
 20
169.7247463643212
 10
635.3760216103967
 20
169.3714291585856
 10
635.4195426048163
 20
169.0496167638648
 10
635.4630635992362
 20
168.7596002178196
 10
635.5065845936558
 20
168.5016705581107
  0
LWPOLYLINE
  5
203
330
1F
100
AcDbEntity
  8
0
  6
CONTINUOUS
 62
     7
100
AcDbPolyline
 90
        3
 70
     0
 43
0.0
 10
770.5036826854428
 20
252.9944180208849
 10
770.435593590364
 20
253.0859619913887
 10
770.3877248419436
 20
253.1047599516951
  0
LWPOLYLINE
  5
204
330
1F
100
AcDbEntity
  8
0
  6
CONTINUOUS
 62
     7
100
AcDbPolyline
 90
       33
 70
     0
 43
0.0
 10
695.5064263313465
 20
168.5032636233855
 10
695.5164984247923
 20
168.4481489181711
 10
695.5265705182386
 20
168.3947571668986
 10
695.5366426116847
 20
168.3430907925828
 10
695.5467147051307
 20
168.2931522182383
 10
695.5567867985768
 20
168.24494386688
 10
695.5668588920228
 20
168.1984681615224
 10
695.5769309854688
 20
168.1537275251803
 10
695.5870030789149
 20
168.1107243808684
 10
695.5970751723611
 20
168.0694611516015
 10
695.6071472658069
 20
168.0299402603942
 10
695.617219359253
 20
167.9921641302613
 10
695.6272914526992
 20
167.9561351842174
 10
695.6373635461453
 20
167.9218558452773
 10
695.6474356395913
 20
167.8893285364557
 10
695.6575077330373
 20
167.8585556807673
 10
695.6675798264833
 20
167.8295397012267
 10
695.6776519199295
 20
167.8022830208488
 10
695.6877240133755
 20
167.7767880626482
 10
695.6977961068217
 20
167.7530572496397
 10
695.7078682002675
 20
167.7310930048378
 10
695.7179402937138
 20
167.710897383642
 10
695.7280123871597
 20
167.6924703578424
 10
695.7380844806058
 20
167.6758111660065
 10
695.7481565740518
 20
167.6609190458881
 10
695.7582286674979
 20
167.647793235241
 10
695.7683007609438
 20
167.6364329718191
 10
695.7783728543899
 20
167.6268374933761
 10
695.788444947836
 20
167.6190060376659
 10
695.7985170412821
 20
167.6129378424423
 10
695.8085891347282
 20
167.6086321454591
 10
695.818661228174
 20
167.6060881844701
 10
695.8287333216202
 20
167.6053051972291
  0
LWPOLYLINE
  5
205
330
1F
100
AcDbEntity
  8
0
  6
CONTINUOUS
 62
     7
100
AcDbPolyline
 90
        4
 70
     0
 43
0.0
 10
750.5619068978638
 20
252.8565775495352
 10
750.4937690193574
 20
253.0125120828691
 10
750.4255954656448
 20
253.0927236772893
 10
750.3876808661265
 20
253.1047599517436
  0
LWPOLYLINE
  5
206
330
1F
100
AcDbEntity
  8
0
  6
CONTINUOUS
 62
     7
100
AcDbPolyline
 90
       33
 70
     0
 43
0.0
 10
-784.3284244931851
 20
255.6041789662872
 10
-784.3384921813102
 20
255.6033561545069
 10
-784.3485598694353
 20
255.6007746199346
 10
-784.3586275575603
 20
255.5964336652068
 10
-784.3686952456854
 20
255.5903325929606
 10
-784.3787629338103
 20
255.5824707058322
 10
-784.3888306219354
 20
255.5728473064588
 10
-784.3988983100605
 20
255.5614616974769
 10
-784.4089659981854
 20
255.5483131815233
 10
-784.4190336863106
 20
255.5334010612348
 10
-784.4291013744355
 20
255.5167246392478
 10
-784.4391690625606
 20
255.4982832181994
 10
-784.4492367506857
 20
255.4780761007262
 10
-784.4593044388107
 20
255.456102595627
 10
-784.4693721269359
 20
255.432362964934
 10
-784.4794398150609
 20
255.4068594457428
 10
-784.4895075031859
 20
255.3795945203518
 10
-784.499575191311
 20
255.3505706710591
 10
-784.509642879436
 20
255.3197903801629
 10
-784.5197105675611
 20
255.2872561299613
 10
-784.5297782556861
 20
255.2529704027527
 10
-784.5398459438112
 20
255.216935680835
 10
-784.5499136319361
 20
255.1791544465067
 10
-784.5599813200611
 20
255.1396291820658
 10
-784.5700490081863
 20
255.0983623698107
 10
-784.5801166963113
 20
255.0553564920394
 10
-784.5901843844364
 20
255.0106140310501
 10
-784.6002520725613
 20
254.9641374691411
 10
-784.6103197606864
 20
254.9159292886106
 10
-784.6203874488116
 20
254.8659919717568
 10
-784.6304551369365
 20
254.8143280008777
 10
-784.6405228250615
 20
254.7609398582716
 10
-784.6505905131864
 20
254.7058300262374
210
0.0
220
0.0
230
-1.0
  0
LWPOLYLINE
  5
207
330
1F
100
AcDbEntity
  8
0
  6
CONTINUOUS
 62
     7
100
AcDbPolyline
 90
       33
 70
     0
 43
0.0
 10
-700.5062761640478
 20
254.7054034983984
 10
-700.5163298707702
 20
254.7604364745652
 10
-700.5263835774922
 20
254.8137531224697
 10
-700.5364372842145
 20
254.8653511320281
 10
-700.5464909909367
 20
254.9152281931566
 10
-700.5565446976591
 20
254.9633819957713
 10
-700.5665984043814
 20
255.0098102297886
 10
-700.5766521111034
 20
255.0545105851246
 10
-700.5867058178256
 20
255.0974807516956
 10
-700.5967595245479
 20
255.1387184194177
 10
-700.6068132312702
 20
255.178221278207
 10
-700.6168669379924
 20
255.21598701798
 10
-700.6269206447146
 20
255.2520133286528
 10
-700.6369743514371
 20
255.2862979001416
 10
-700.6470280581591
 20
255.3188384223624
 10
-700.6570817648815
 20
255.3496325852317
 10
-700.6671354716036
 20
255.3786780786656
 10
-700.6771891783259
 20
255.4059725925803
 10
-700.6872428850481
 20
255.4315138168921
 10
-700.6972965917703
 20
255.455299441517
 10
-700.7073502984925
 20
255.4773271563714
 10
-700.7174040052148
 20
255.4975946513715
 10
-700.7274577119371
 20
255.5160996458804
 10
-700.7375114186593
 20
255.5328411359343
 10
-700.7475651253814
 20
255.5478198566424
 10
-700.757618832104
 20
255.5610366678195
 10
-700.767672538826
 20
255.57249242928
 10
-700.7777262455483
 20
255.5821880008392
 10
-700.7877799522704
 20
255.5901242423114
 10
-700.7978336589928
 20
255.5963020135116
 10
-700.807887365715
 20
255.6007221742544
 10
-700.8179410724372
 20
255.6033855843547
 10
-700.8279947791596
 20
255.6042931036271
210
0.0
220
0.0
230
-1.0
  0
LWPOLYLINE
  5
208
330
1F
100
AcDbEntity
  8
0
  6
CONTINUOUS
 62
     7
100
AcDbPolyline
 90
       33
 70
     0
 43
0.0
 10
749.3279632345528
 20
167.6048659650131
 10
749.3380496517237
 20
167.6056384051744
 10
749.3481360688943
 20
167.6081875428589
 10
749.3582224860652
 20
167.6125147780561
 10
749.3683089032359
 20
167.6186203329849
 10
749.3783953204065
 20
167.6265025809507
 10
749.3884817375772
 20
167.6361597334495
 10
749.3985681547481
 20
167.6475900019771
 10
749.408654571919
 20
167.6607915980295
 10
749.4187409890898
 20
167.6757627331025
 10
749.4288274062603
 20
167.6925016186921
 10
749.4389138234312
 20
167.7110064662943
 10
749.449000240602
 20
167.7312754874048
 10
749.4590866577727
 20
167.7533068935197
 10
749.4691730749435
 20
167.7770988961348
 10
749.4792594921144
 20
167.802649706746
 10
749.489345909285
 20
167.8299575368493
 10
749.4994323264557
 20
167.8590205979406
 10
749.5095187436266
 20
167.8898371015158
 10
749.5196051607973
 20
167.9224052590707
 10
749.5296915779679
 20
167.9567232821014
 10
749.5397779951388
 20
167.9927893821038
 10
749.5498644123097
 20
168.0306017705737
 10
749.5599508294804
 20
168.0701586590069
 10
749.570037246651
 20
168.1114582588996
 10
749.580123663822
 20
168.1544987817476
 10
749.5902100809926
 20
168.1992784390468
 10
749.6002964981633
 20
168.2457954422931
 10
749.6103829153341
 20
168.2940480029824
 10
749.6204693325049
 20
168.3440343326106
 10
749.6305557496756
 20
168.3957526426737
 10
749.6406421668464
 20
168.4492011446676
 10
749.6507285840171
 20
168.504378050088
  0
LWPOLYLINE
  5
209
330
1F
100
AcDbEntity
  8
0
  6
CONTINUOUS
 62
     7
100
AcDbPolyline
 90
        3
 70
     0
 43
0.0
 10
780.5125996099035
 20
252.9767984525974
 10
780.4463798360201
 20
253.07643537206
 10
780.3877502568439
 20
253.1047599517084
  0
LWPOLYLINE
  5
20A
330
1F
100
AcDbEntity
  8
0
  6
CONTINUOUS
 62
     7
100
AcDbPolyline
 90
       33
 70
     0
 43
0.0
 10
-710.506374613946
 20
254.7059521317778
 10
-710.5164483471208
 20
254.7610589239433
 10
-710.5265220802955
 20
254.8144426833158
 10
-710.5365958134702
 20
254.8661012871213
 10
-710.5466695466451
 20
254.9160326125856
 10
-710.5567432798198
 20
254.9642345369345
 10
-710.5668170129944
 20
255.010704937394
 10
-710.5768907461693
 20
255.0554416911899
 10
-710.5869644793439
 20
255.0984426755479
 10
-710.5970382125187
 20
255.1397057676942
 10
-710.6071119456935
 20
255.1792288448543
 10
-710.6171856788683
 20
255.2170097842543
 10
-710.6272594120429
 20
255.2530464631198
 10
-710.6373331452177
 20
255.287336758677
 10
-710.6474068783923
 20
255.3198785481516
 10
-710.6574806115674
 20
255.3506697087695
 10
-710.6675543447418
 20
255.3797081177564
 10
-710.6776280779167
 20
255.4069916523382
 10
-710.6877018110914
 20
255.432518189741
 10
-710.6977755442663
 20
255.4562856071904
 10
-710.707849277441
 20
255.4782917819124
 10
-710.7179230106156
 20
255.4985345911327
 10
-710.7279967437904
 20
255.5170119120774
 10
-710.7380704769653
 20
255.5337216219722
 10
-710.7481442101398
 20
255.5486615980429
 10
-710.7582179433145
 20
255.5618298006014
 10
-710.7682916764893
 20
255.5732257951187
 10
-710.7783654096643
 20
255.5828505987307
 10
-710.7884391428388
 20
255.5907052808629
 10
-710.7985128760138
 20
255.5967909109412
 10
-710.8085866091883
 20
255.6011085583911
 10
-710.818660342363
 20
255.6036592926384
 10
-710.8287340755379
 20
255.6044441831089
210
0.0
220
0.0
230
-1.0
  0
LWPOLYLINE
  5
20B
330
1F
100
AcDbEntity
  8
0
  6
CONTINUOUS
 62
     7
100
AcDbPolyline
 90
       33
 70
     0
 43
0.0
 10
735.5061387405411
 20
168.5046690368285
 10
735.5161969987356
 20
168.4496419374171
 10
735.5262552569302
 20
168.3963346973881
 10
735.5363135151247
 20
168.3447489262485
 10
735.5463717733193
 20
168.2948862335049
 10
735.5564300315139
 20
168.2467482286642
 10
735.5664882897084
 20
168.2003365212332
 10
735.5765465479027
 20
168.1556527207187
 10
735.5866048060974
 20
168.1126984366274
 10
735.596663064292
 20
168.0714752784661
 10
735.6067213224864
 20
168.0319848557416
 10
735.6167795806809
 20
167.9942287779607
 10
735.6268378388754
 20
167.9582086546303
 10
735.63689609707
 20
167.9239260952569
 10
735.6469543552646
 20
167.8913827093476
 10
735.657012613459
 20
167.8605801064089
 10
735.6670708716536
 20
167.8315198959478
 10
735.677129129848
 20
167.804203687471
 10
735.6871873880425
 20
167.7786330904854
 10
735.6972456462371
 20
167.7548097144976
 10
735.7073039044317
 20
167.7327351690145
 10
735.7173621626262
 20
167.7124110635428
 10
735.7274204208207
 20
167.6938390075894
 10
735.7374786790153
 20
167.677020610661
 10
735.7475369372097
 20
167.6619574822644
 10
735.7575951954043
 20
167.6486512319065
 10
735.7676534535988
 20
167.6371034690939
 10
735.7777117117932
 20
167.6273158033335
 10
735.7877699699878
 20
167.6192898441321
 10
735.7978282281824
 20
167.6130272009964
 10
735.807886486377
 20
167.6085294834333
 10
735.8179447445715
 20
167.6057983009495
 10
735.8280030027659
 20
167.6048352569538
  0
LWPOLYLINE
  5
20C
330
1F
100
AcDbEntity
  8
0
  6
CONTINUOUS
 62
     7
100
AcDbPolyline
 90
       33
 70
     0
 43
0.0
 10
-744.3285778674413
 20
255.6046869014795
 10
-744.3386437701216
 20
255.6037953549509
 10
-744.348709672802
 20
255.6011323327114
 10
-744.3587755754824
 20
255.5966986749927
 10
-744.3688414781628
 20
255.5904960558067
 10
-744.3789073808431
 20
255.5825261516212
 10
-744.3889732835235
 20
255.5727906389039
 10
-744.3990391862039
 20
255.5612911941228
 10
-744.4091050888843
 20
255.5480294937455
 10
-744.4191709915647
 20
255.5330072142398
 10
-744.429236894245
 20
255.5162260320735
 10
-744.4393027969255
 20
255.4976876237144
 10
-744.4493686996059
 20
255.4773936656302
 10
-744.4594346022863
 20
255.4553458342888
 10
-744.4695005049666
 20
255.4315458061579
 10
-744.479566407647
 20
255.4059952577054
 10
-744.4896323103274
 20
255.3786958653989
 10
-744.4996982130078
 20
255.3496493057064
 10
-744.5097641156883
 20
255.3188572550955
 10
-744.5198300183686
 20
255.2863213900339
 10
-744.5298959210489
 20
255.2520433869897
 10
-744.5399618237294
 20
255.2160249224304
 10
-744.5500277264097
 20
255.1782676728239
 10
-744.5600936290901
 20
255.138773314638
 10
-744.5701595317705
 20
255.0975435243405
 10
-744.5802254344508
 20
255.054579978399
 10
-744.5902913371312
 20
255.0098843532814
 10
-744.6003572398117
 20
254.9634583254556
 10
-744.610423142492
 20
254.9153035713892
 10
-744.6204890451725
 20
254.8654217675502
 10
-744.6305549478529
 20
254.8138145904061
 10
-744.6406208505332
 20
254.7604837164248
 10
-744.6506867532138
 20
254.7054308220735
210
0.0
220
0.0
230
-1.0
  0
LWPOLYLINE
  5
20D
330
1F
100
AcDbEntity
  8
0
  6
CONTINUOUS
 62
     7
100
AcDbPolyline
 90
      105
 70
     0
 43
0.0
 10
-660.8284894826033
 20
255.6039008517137
 10
-660.8734706323627
 20
255.5863550091684
 10
-660.9184517821218
 20
255.533788476158
 10
-660.9634329318811
 20
255.4462052494975
 10
-661.0084140816402
 20
255.3236093260016
 10
-661.0533952313995
 20
255.1660047024852
 10
-661.0983763811588
 20
254.9734186105916
 10
-661.1433575309183
 20
254.7460549194889
 10
-661.1883386806774
 20
254.4841986338809
 10
-661.2333198304368
 20
254.1881351852596
 10
-661.2783009801959
 20
253.8581500051168
 10
-661.3232821299553
 20
253.4945285249446
 10
-661.3682632797145
 20
253.0975561762348
 10
-661.4132444294738
 20
252.6675183904793
 10
-661.458225579233
 20
252.20470059917
 10
-661.5032067289923
 20
251.7093882337988
 10
-661.5481878787516
 20
251.1818789012667
 10
-661.5931690285107
 20
250.6226170962327
 10
-661.63815017827
 20
250.0321446828102
 10
-661.6831313280293
 20
249.4110052690023
 10
-661.7281124777884
 20
248.7597424628129
 10
-661.7730936275477
 20
248.0788998722449
 10
-661.818074777307
 20
247.3690211053021
 10
-661.8630559270663
 20
246.6306497699877
 10
-661.9080370768255
 20
245.8643294743052
 10
-661.9530182265847
 20
245.070603826258
 10
-661.9979993763438
 20
244.2500214977582
 10
-662.0429805261032
 20
243.4032365304999
 10
-662.0879616758625
 20
242.5310025149829
 10
-662.1329428256215
 20
241.6340769402418
 10
-662.1779239753808
 20
240.7132172953118
 10
-662.2229051251401
 20
239.7691810692275
 10
-662.2678862748992
 20
238.8027257510236
 10
-662.3128674246585
 20
237.8146088297352
 10
-662.357848574418
 20
236.8055877943969
 10
-662.4028297241771
 20
235.7764201340435
 10
-662.4478108739364
 20
234.7278648081952
 10
-662.4927920236955
 20
233.6607425686975
 10
-662.5377731734548
 20
232.5759572222856
 10
-662.5827543232142
 20
231.4744184156145
 10
-662.6277354729733
 20
230.3570357953385
 10
-662.6727166227327
 20
229.2247190081128
 10
-662.7176977724919
 20
228.0783777005917
 10
-662.7626789222511
 20
226.9189215194303
 10
-662.8076600720104
 20
225.7472601112831
 10
-662.8526412217695
 20
224.5643031228048
 10
-662.8976223715291
 20
223.3709604096012
 10
-662.942603521288
 20
222.168166535999
 10
-662.9875846710474
 20
220.9569037484848
 10
-663.0325658208067
 20
219.7381597294748
 10
-663.0775469705659
 20
218.5129221613856
 10
-663.122528120325
 20
217.2821787266337
 10
-663.1675092700843
 20
216.0469171076358
 10
-663.2124904198436
 20
214.8081249868083
 10
-663.2574715696028
 20
213.5667900465676
 10
-663.302452719362
 20
212.3238999693305
 10
-663.3474338691212
 20
211.0804424368505
 10
-663.3924150188805
 20
209.8374045647432
 10
-663.4373961686398
 20
208.5957718705948
 10
-663.4823773183991
 20
207.3565295920414
 10
-663.5273584681584
 20
206.1206629667192
 10
-663.5723396179176
 20
204.8891572322643
 10
-663.6173207676769
 20
203.6629976263128
 10
-663.662301917436
 20
202.443169386501
 10
-663.7072830671954
 20
201.2306577504651
 10
-663.7522642169546
 20
200.0264479558411
 10
-663.7972453667138
 20
198.8315252402653
 10
-663.842226516473
 20
197.6468617498836
 10
-663.8872076662324
 20
196.4733745041481
 10
-663.9321888159916
 20
195.3119660146527
 10
-663.9771699657509
 20
194.1635387929222
 10
-664.02215111551
 20
193.0289953504812
 10
-664.0671322652694
 20
191.9092381988543
 10
-664.1121134150286
 20
190.8051698495663
 10
-664.1570945647878
 20
189.7176928141418
 10
-664.2020757145472
 20
188.6477096041056
 10
-664.2470568643064
 20
187.5961227309824
 10
-664.2920380140656
 20
186.5638188159033
 10
-664.3370191638248
 20
185.5515836319204
 10
-664.382000313584
 20
184.5601635151797
 10
-664.4269814633433
 20
183.5903047106367
 10
-664.4719626131025
 20
182.6427534632472
 10
-664.5169437628618
 20
181.718256017967
 10
-664.561924912621
 20
180.8175586197515
 10
-664.6069060623803
 20
179.9414075135566
 10
-664.6518872121394
 20
179.0905489443379
 10
-664.6968683618987
 20
178.2657291570511
 10
-664.741849511658
 20
177.4676812594928
 10
-664.7868306614172
 20
176.6970089164082
 10
-664.8318118111765
 20
175.9542421504588
 10
-664.8767929609359
 20
175.239910132835
 10
-664.9217741106951
 20
174.5545420347272
 10
-664.9667552604542
 20
173.8986670273257
 10
-665.0117364102134
 20
173.2728142818208
 10
-665.0567175599729
 20
172.6775129694029
 10
-665.1016987097322
 20
172.1132922612624
 10
-665.1466798594914
 20
171.5806813285894
 10
-665.1916610092508
 20
171.0802009382482
 10
-665.2366421590099
 20
170.61223484953
 10
-665.2816233087692
 20
170.1770552835574
 10
-665.3266044585284
 20
169.7749312186479
 10
-665.3715856082878
 20
169.406131633119
 10
-665.4165667580469
 20
169.0709255052881
 10
-665.4615479078061
 20
168.7695818134729
 10
-665.5065290575651
 20
168.5023695359925
210
0.0
220
0.0
230
-1.0
  0
LWPOLYLINE
  5
20E
330
1F
100
AcDbEntity
  8
0
  6
CONTINUOUS
 62
     7
100
AcDbPolyline
 90
       33
 70
     0
 43
0.0
 10
769.3282680087509
 20
167.6051143539259
 10
769.3383394449078
 20
167.6059085995383
 10
769.3484108810648
 20
167.6084668859994
 10
769.3584823172215
 20
167.6127902181882
 10
769.3685537533783
 20
167.6188796009837
 10
769.3786251895353
 20
167.626736039265
 10
769.3886966256922
 20
167.6363605379108
 10
769.3987680618491
 20
167.6477541018003
 10
769.4088394980059
 20
167.6609177358125
 10
769.4189109341628
 20
167.6758523509359
 10
769.4289823703198
 20
167.6925572116199
 10
769.4390538064767
 20
167.7110301785882
 10
769.4491252426336
 20
167.7312690676246
 10
769.4591966787904
 20
167.7532716945125
 10
769.4692681149473
 20
167.7770358750357
 10
769.4793395511041
 20
167.8025594249777
 10
769.4894109872611
 20
167.8298401601223
 10
769.499482423418
 20
167.8588758962531
 10
769.5095538595747
 20
167.8896644491535
 10
769.5196252957317
 20
167.9222036346075
 10
769.5296967318887
 20
167.9564912683985
 10
769.5397681680455
 20
167.9925251663103
 10
769.5498396042025
 20
168.0303031441263
 10
769.5599110403593
 20
168.0698230176303
 10
769.5699824765162
 20
168.111082602606
 10
769.5800539126731
 20
168.1540797148369
 10
769.59012534883
 20
168.1988121701066
 10
769.6001967849868
 20
168.2452777841989
 10
769.6102682211437
 20
168.2934743728974
 10
769.6203396573005
 20
168.3433997519856
 10
769.6304110934576
 20
168.3950517372474
 10
769.6404825296146
 20
168.4484281444662
 10
769.650553965771
 20
168.5035267894234
  0
LWPOLYLINE
  5
20F
330
1F
100
AcDbEntity
  8
0
  6
CONTINUOUS
 62
     7
100
AcDbPolyline
 90
       33
 70
     0
 43
0.0
 10
-690.5064300312754
 20
254.7063070262564
 10
-690.5164864281925
 20
254.7613443639051
 10
-690.5265428251096
 20
254.8146636694292
 10
-690.5365992220267
 20
254.8662624315618
 10
-690.5466556189438
 20
254.9161381390358
 10
-690.5567120158609
 20
254.9642882805843
 10
-690.5667684127778
 20
255.0107103449403
 10
-690.5768248096952
 20
255.0554018208369
 10
-690.5868812066119
 20
255.0983601970069
 10
-690.5969376035292
 20
255.1395829621835
 10
-690.6069940004463
 20
255.1790676050997
 10
-690.6170503973634
 20
255.2168116144884
 10
-690.6271067942804
 20
255.2528124790827
 10
-690.6371631911975
 20
255.2870676876156
 10
-690.6472195881146
 20
255.3195747288201
 10
-690.6572759850316
 20
255.3503310914293
 10
-690.6673323819488
 20
255.3793342641762
 10
-690.6773887788657
 20
255.4065817357937
 10
-690.6874451757828
 20
255.4320709950149
 10
-690.6975015726997
 20
255.4557995454491
 10
-690.7075579696169
 20
255.4777660027588
 10
-690.7176143665342
 20
255.4979708459502
 10
-690.7276707634511
 20
255.5164147318306
 10
-690.7377271603682
 20
255.5330983172072
 10
-690.7477835572852
 20
255.548022258887
 10
-690.7578399542024
 20
255.5611872136775
 10
-690.7678963511194
 20
255.5725938383856
 10
-690.7779527480366
 20
255.5822427898187
 10
-690.7880091449537
 20
255.5901347247839
 10
-690.7980655418706
 20
255.5962703000883
 10
-690.8081219387876
 20
255.6006501725393
 10
-690.8181783357047
 20
255.603274998944
 10
-690.8282347326218
 20
255.6041454361095
210
0.0
220
0.0
230
-1.0
  0
LWPOLYLINE
  5
210
330
1F
100
AcDbEntity
  8
0
  6
CONTINUOUS
 62
     7
100
AcDbPolyline
 90
        3
 70
     0
 43
0.0
 10
710.5342104065335
 20
252.929285150178
 10
710.4660849692873
 20
253.0543755169656
 10
710.3877143792982
 20
253.1047599516798
  0
LWPOLYLINE
  5
211
330
1F
100
AcDbEntity
  8
0
  6
CONTINUOUS
 62
     7
100
AcDbPolyline
 90
        3
 70
     0
 43
0.0
 10
720.5391765748061
 20
252.9170009387513
 10
720.4710496415848
 20
253.0479430364208
 10
720.3876910507465
 20
253.1047599516865
  0
LWPOLYLINE
  5
212
330
1F
100
AcDbEntity
  8
0
  6
CONTINUOUS
 62
     7
100
AcDbPolyline
 90
      105
 70
     0
 43
0.0
 10
-640.8277378956678
 20
255.6039728124921
 10
-640.8727259513518
 20
255.5871428021299
 10
-640.9177140070354
 20
255.535226675656
 10
-640.9627020627192
 20
255.4481918782848
 10
-641.0076901184033
 20
255.3260058731037
 10
-641.052678174087
 20
255.1686941986328
 10
-641.0976662297709
 20
254.9764695690165
 10
-641.1426542854546
 20
254.749582335139
 10
-641.1876423411385
 20
254.4882828478848
 10
-641.2326303968223
 20
254.1928214581382
 10
-641.2776184525061
 20
253.8634485167836
 10
-641.3226065081899
 20
253.5004143747053
 10
-641.3675945638737
 20
253.1039693827879
 10
-641.4125826195576
 20
252.6743638919157
 10
-641.4575706752413
 20
252.2118482529729
 10
-641.5025587309251
 20
251.7167090632272
 10
-641.547546786609
 20
251.1894069831217
 10
-641.5925348422928
 20
250.6304548597293
 10
-641.6375228979766
 20
250.0403655499552
 10
-641.6825109536605
 20
249.4196519107042
 10
-641.7274990093445
 20
248.7688267988817
 10
-641.772487065028
 20
248.0884030713924
 10
-641.817475120712
 20
247.3788935851419
 10
-641.8624631763959
 20
246.6408111970349
 10
-641.9074512320797
 20
245.8746687639767
 10
-641.9524392877636
 20
245.0809984065476
 10
-641.9974273434474
 20
244.2604718907026
 10
-642.0424153991313
 20
243.4138225211591
 10
-642.0874034548151
 20
242.5417838710922
 10
-642.132391510499
 20
241.6450895136772
 10
-642.1773795661827
 20
240.7244730220895
 10
-642.2223676218666
 20
239.7806679695043
 10
-642.2673556775505
 20
238.814407929097
 10
-642.3123437332345
 20
237.8264264740428
 10
-642.3573317889181
 20
236.817457177517
 10
-642.4023198446021
 20
235.7882417840434
 10
-642.4473079002859
 20
234.7396149259376
 10
-642.4922959559696
 20
233.6724701788965
 10
-642.5372840116535
 20
232.5877020577195
 10
-642.5822720673372
 20
231.4862050772061
 10
-642.6272601230213
 20
230.3688737521557
 10
-642.6722481787049
 20
229.2366025973677
 10
-642.7172362343887
 20
228.0902861276418
 10
-642.7622242900725
 20
226.9308188577772
 10
-642.8072123457565
 20
225.7590953025734
 10
-642.8522004014402
 20
224.5760122837227
 10
-642.8971884571239
 20
223.3825109617559
 10
-642.9421765128079
 20
222.1795724729153
 10
-642.9871645684916
 20
220.9681793847738
 10
-643.0321526241755
 20
219.7493142649045
 10
-643.0771406798593
 20
218.5239596808805
 10
-643.1221287355431
 20
217.2930982002748
 10
-643.1671167912269
 20
216.0577123906604
 10
-643.2121048469108
 20
214.8187848196106
 10
-643.2570929025948
 20
213.5772980546983
 10
-643.3020809582785
 20
212.3342347529485
 10
-643.3470690139624
 20
211.0905809185103
 10
-643.3920570696462
 20
209.8473268296384
 10
-643.4370451253301
 20
208.6054630429164
 10
-643.4820331810139
 20
207.365980114928
 10
-643.5270212366977
 20
206.1298686022567
 10
-643.5720092923815
 20
204.8981190614861
 10
-643.6169973480653
 20
203.6717220491999
 10
-643.6619854037493
 20
202.4516681219816
 10
-643.7069734594329
 20
201.2389478364149
 10
-643.7519615151167
 20
200.034551501514
 10
-643.7969495708006
 20
198.8394453911826
 10
-643.8419376264844
 20
197.6545519869015
 10
-643.8869256821682
 20
196.4807891195236
 10
-643.9319137378524
 20
195.3190746199015
 10
-643.9769017935361
 20
194.1703263188879
 10
-644.02188984922
 20
193.0354620473354
 10
-644.0668779049039
 20
191.915399636097
 10
-644.1118659605875
 20
190.811056916025
 10
-644.1568540162714
 20
189.7233517179725
 10
-644.2018420719553
 20
188.6532018050675
 10
-644.2468301276391
 20
187.6014887691818
 10
-644.291818183323
 20
186.5689985547703
 10
-644.3368062390067
 20
185.5565014782137
 10
-644.3817942946906
 20
184.5647678558925
 10
-644.4267823503744
 20
183.5945680041873
 10
-644.4717704060582
 20
182.6466722394788
 10
-644.516758461742
 20
181.7218508781474
 10
-644.561746517426
 20
180.8208742365739
 10
-644.6067345731099
 20
179.9445126311388
 10
-644.6517226287936
 20
179.0935363782105
 10
-644.6967106844772
 20
178.2686800047865
 10
-644.7416987401613
 20
177.470537859422
 10
-644.7866867958451
 20
176.6996699753872
 10
-644.8316748515288
 20
175.9566363859529
 10
-644.8766629072128
 20
175.2419971243898
 10
-644.9216509628966
 20
174.5563122239682
 10
-644.9666390185804
 20
173.9001417179591
 10
-645.0116270742642
 20
173.2740456396328
 10
-645.056615129948
 20
172.6785840222599
 10
-645.101603185632
 20
172.1143168991113
 10
-645.1465912413156
 20
171.581775842895
 10
-645.1915792969995
 20
171.0813256313206
 10
-645.2365673526833
 20
170.6132704663158
 10
-645.2815554083672
 20
170.1779144641606
 10
-645.326543464051
 20
169.7755617411354
 10
-645.3715315197348
 20
169.4065164135205
 10
-645.4165195754185
 20
169.0710825975959
 10
-645.4615076311026
 20
168.7695644096422
 10
-645.5064956867863
 20
168.5022659659394
210
0.0
220
0.0
230
-1.0
  0
LWPOLYLINE
  5
213
330
1F
100
AcDbEntity
  8
0
  6
CONTINUOUS
 62
     7
100
AcDbPolyline
 90
        3
 70
     0
 43
0.0
 10
700.5234457124332
 20
252.9539636759616
 10
700.4571943149375
 20
253.0650387866379
 10
700.3877385321235
 20
253.1047599517365
  0
LWPOLYLINE
  5
214
330
1F
100
AcDbEntity
  8
0
  6
CONTINUOUS
 62
     7
100
AcDbPolyline
 90
        3
 70
     0
 43
0.0
 10
730.5480524096037
 20
252.8942505432611
 10
730.4817796962467
 20
253.0321896227878
 10
730.3876740268198
 20
253.104759951733
  0
LWPOLYLINE
  5
215
330
1F
100
AcDbEntity
  8
0
  6
CONTINUOUS
 62
     7
100
AcDbPolyline
 90
       33
 70
     0
 43
0.0
 10
-774.3283876476672
 20
255.6043291553939
 10
-774.3384548997007
 20
255.6035159774071
 10
-774.3485221517337
 20
255.6009417001748
 10
-774.3585894037674
 20
255.5966054221152
 10
-774.3686566558005
 20
255.5905062416463
 10
-774.378723907834
 20
255.5826432571864
 10
-774.3887911598673
 20
255.5730155671537
 10
-774.3988584119006
 20
255.5616222699663
 10
-774.408925663934
 20
255.5484624640425
 10
-774.4189929159672
 20
255.5335352478002
 10
-774.4290601680008
 20
255.5168397205845
 10
-774.4391274200341
 20
255.4983757242994
 10
-774.4491946720675
 20
255.4781451797494
 10
-774.4592619241008
 20
255.4561503687844
 10
-774.4693291761341
 20
255.4323935732544
 10
-774.4793964281674
 20
255.4068770750091
 10
-774.4894636802007
 20
255.3796031558985
 10
-774.4995309322343
 20
255.3505740977724
 10
-774.5095981842676
 20
255.3197921824808
 10
-774.519665436301
 20
255.2872596918735
 10
-774.5297326883343
 20
255.2529789078003
 10
-774.5397999403674
 20
255.216952112111
 10
-774.5498671924009
 20
255.1791815866558
 10
-774.5599344444344
 20
255.1396696132843
 10
-774.5700016964678
 20
255.0984184738466
 10
-774.5800689485012
 20
255.0554304501923
 10
-774.5901362005345
 20
255.0107078241714
 10
-774.6002034525678
 20
254.9642528776339
 10
-774.6102707046011
 20
254.9160678924295
 10
-774.6203379566344
 20
254.8661551504081
 10
-774.6304052086679
 20
254.8145169334197
 10
-774.6404724607014
 20
254.7611555233141
 10
-774.6505397127346
 20
254.7060732019409
210
0.0
220
0.0
230
-1.0
  0
LWPOLYLINE
  5
216
330
1F
100
AcDbEntity
  8
0
  6
CONTINUOUS
 62
     7
100
AcDbPolyline
 90
       33
 70
     0
 43
0.0
 10
725.5062083995392
 20
168.5043970302295
 10
725.5162854337711
 20
168.4492682595267
 10
725.5263624680028
 20
168.3958644752379
 10
725.5364395022348
 20
168.344187498898
 10
725.5465165364666
 20
168.2942391520413
 10
725.5565935706985
 20
168.2460212562023
 10
725.5666706049302
 20
168.1995356329158
 10
725.576747639162
 20
168.1547841037161
 10
725.5868246733938
 20
168.1117684901378
 10
725.5969017076259
 20
168.0704906137156
 10
725.6069787418575
 20
168.0309522959839
 10
725.6170557760895
 20
167.9931553584772
 10
725.6271328103212
 20
167.9571016227302
 10
725.6372098445531
 20
167.9227929102774
 10
725.6472868787849
 20
167.8902310426533
 10
725.6573639130166
 20
167.8594178413924
 10
725.6674409472487
 20
167.8303551280294
 10
725.6775179814804
 20
167.8030447240987
 10
725.6875950157122
 20
167.7774884511349
 10
725.6976720499441
 20
167.7536881306726
 10
725.7077490841759
 20
167.7316455842462
 10
725.7178261184076
 20
167.7113626333904
 10
725.7279031526396
 20
167.6928410996398
 10
725.7379801868713
 20
167.6760828045286
 10
725.7480572211032
 20
167.6610895695918
 10
725.7581342553349
 20
167.6478632163636
 10
725.7682112895668
 20
167.6364055663788
 10
725.7782883237985
 20
167.6267184411716
 10
725.7883653580304
 20
167.618803662277
 10
725.7984423922624
 20
167.6126630477368
 10
725.8085194264941
 20
167.608297537793
 10
725.8185964607258
 20
167.6057060419874
 10
725.8286734949576
 20
167.604887183543
  0
LWPOLYLINE
  5
217
330
1F
100
AcDbEntity
  8
0
  6
CONTINUOUS
 62
     7
100
AcDbPolyline
 90
       33
 70
     0
 43
0.0
 10
-764.327975575219
 20
255.6044772544593
 10
-764.3380585490752
 20
255.60372889622
 10
-764.3481415229311
 20
255.6012108448705
 10
-764.3582244967871
 20
255.5969219896347
 10
-764.3683074706433
 20
255.5908612197368
 10
-764.3783904444992
 20
255.5830274244011
 10
-764.3884734183551
 20
255.5734194928516
 10
-764.3985563922114
 20
255.5620363143125
 10
-764.4086393660674
 20
255.5488772934427
 10
-764.4187223399233
 20
255.5339439688143
 10
-764.4288053137794
 20
255.5172384311485
 10
-764.4388882876355
 20
255.4987627711671
 10
-764.4489712614916
 20
255.4785190795921
 10
-764.4590542353475
 20
255.4565094471453
 10
-764.4691372092037
 20
255.4327359645487
 10
-764.4792201830597
 20
255.4072007225242
 10
-764.4893031569159
 20
255.3799058117938
 10
-764.4993861307718
 20
255.3508533230791
 10
-764.5094691046277
 20
255.3200453471024
 10
-764.5195520784839
 20
255.2874839745855
 10
-764.5296350523399
 20
255.2531712962502
 10
-764.539718026196
 20
255.2171094028185
 10
-764.549801000052
 20
255.1793003850122
 10
-764.5598839739079
 20
255.1397463335534
 10
-764.5699669477642
 20
255.0984493391639
 10
-764.5800499216201
 20
255.0554114925656
 10
-764.5901328954761
 20
255.0106348844805
 10
-764.6002158693323
 20
254.9641216056305
 10
-764.6102988431883
 20
254.9158737467374
 10
-764.6203818170443
 20
254.8658933985233
 10
-764.6304647909003
 20
254.8141826517099
 10
-764.6405477647564
 20
254.7607435970193
 10
-764.6506307386121
 20
254.7055783251749
210
0.0
220
0.0
230
-1.0
  0
LWPOLYLINE
  5
218
330
1F
100
AcDbEntity
  8
0
  6
CONTINUOUS
 62
     7
100
AcDbPolyline
 90
        3
 70
     0
 43
0.0
 10
680.5095069254174
 20
252.9832929028204
 10
680.4433537174359
 20
253.0794809194824
 10
680.3877786564497
 20
253.1047599516754
  0
ENDSEC
  0
SECTION
  2
OBJECTS
  0
DICTIONARY
  5
C
330
0
100
AcDbDictionary
  3
ACAD_GROUP
350
D
  3
ACAD_LAYOUT
350
1A
  3
ACAD_MATERIAL
350
43
  3
ACAD_MLEADERSTYLE
350
6B
  3
ACAD_MLINESTYLE
350
17
  3
ACAD_PLOTSETTINGS
350
19
  3
ACAD_SCALELIST
350
47
  3
ACAD_VISUALSTYLE
350
2A
  3
ACDBHEADERROUNDTRIPXREC
350
219
  3
ACDBVARIABLEDICTIONARY
350
23A
  0
DICTIONARY
  5
241
330
8
100
AcDbDictionary
280
     1
  3
ACAD_XREC_ROUNDTRIP
360
242
  0
DICTIONARY
  5
D
102
{ACAD_REACTORS
330
C
102
}
330
C
100
AcDbDictionary
  0
DICTIONARY
  5
1A
102
{ACAD_REACTORS
330
C
102
}
330
C
100
AcDbDictionary
  0
DICTIONARY
  5
43
102
{ACAD_REACTORS
330
C
102
}
330
C
100
AcDbDictionary
  3
BYBLOCK
350
45
  3
BYLAYER
350
44
  3
GLOBAL
350
46
  0
DICTIONARY
  5
6B
102
{ACAD_REACTORS
330
C
102
}
330
C
100
AcDbDictionary
  3
STANDARD
350
6C
  0
DICTIONARY
  5
17
102
{ACAD_REACTORS
330
C
102
}
330
C
100
AcDbDictionary
  3
STANDARD
350
18
  0
DICTIONARY
  5
19
102
{ACAD_REACTORS
330
C
102
}
330
C
100
AcDbDictionary
  0
DICTIONARY
  5
47
102
{ACAD_REACTORS
330
C
102
}
330
C
100
AcDbDictionary
  3
A0
350
48
  3
A1
350
49
  3
A2
350
4A
  3
A3
350
4B
  3
A4
350
4C
  3
A5
350
4D
  3
A6
350
4E
  3
A7
350
4F
  3
A8
350
50
  3
A9
350
51
  3
B0
350
52
  3
B1
350
53
  3
B2
350
54
  3
B3
350
55
  3
B4
350
56
  3
B5
350
57
  3
B6
350
58
  3
B7
350
59
  3
B8
350
5A
  3
B9
350
5B
  3
C0
350
5C
  3
C1
350
5D
  3
C2
350
5E
  3
C3
350
5F
  3
C4
350
60
  3
C5
350
61
  3
C6
350
62
  3
C7
350
63
  3
C8
350
64
  3
C9
350
65
  3
D0
350
66
  3
D1
350
67
  3
D2
350
68
  0
DICTIONARY
  5
2A
102
{ACAD_REACTORS
330
C
102
}
330
C
100
AcDbDictionary
  3
2DWIREFRAME
350
2F
  3
BASIC
350
32
  3
BRIGHTEN
350
36
  3
COLORCHANGE
350
3A
  3
CONCEPTUAL
350
34
  3
DIM
350
35
  3
EDGECOLOROFF
350
3D
  3
FACEPATTERN
350
39
  3
FLAT
350
2B
  3
FLATWITHEDGES
350
2C
  3
GOURAUD
350
2D
  3
GOURAUDWITHEDGES
350
2E
  3
HIDDEN
350
31
  3
JITTEROFF
350
3B
  3
LINEPATTERN
350
38
  3
OVERHANGOFF
350
3C
  3
REALISTIC
350
33
  3
SHADED
350
42
  3
SHADED_WITH_EDGES
350
41
  3
SHADES_OF_GRAY
350
3E
  3
SKETCHY
350
3F
  3
THICKEN
350
37
  3
WIREFRAME
350
30
  3
X-RAY
350
40
  0
DICTIONARY
  5
219
102
{ACAD_REACTORS
330
C
102
}
330
C
100
AcDbDictionary
  3
CEPSNID
350
223
  3
CEPSNTYPE
350
222
  3
DIMSTYLEDATA
350
239
  3
FINGERPRINTGUID
350
224
  3
HYPERLINKBASE
350
21C
  3
INSUNITS
350
221
  3
LAYOUTDICT
350
21E
  3
LWETCUNION
350
220
  3
PLOTSETDICT
350
21F
  3
PSVPSCALE
350
226
  3
PUCSBASE
350
229
  3
PUCSORGBACK
350
22F
  3
PUCSORGBOTTOM
350
22B
  3
PUCSORGFRONT
350
22E
  3
PUCSORGLEFT
350
22C
  3
PUCSORGRIGHT
350
22D
  3
PUCSORGTOP
350
22A
  3
PUCSORTHOREF
350
227
  3
PUCSORTHOVIEW
350
228
  3
STYLESHEET
350
21D
  3
TSTACKALIGN
350
21A
  3
TSTACKSIZE
350
21B
  3
UCSBASE
350
232
  3
UCSORGBACK
350
238
  3
UCSORGBOTTOM
350
234
  3
UCSORGFRONT
350
237
  3
UCSORGLEFT
350
235
  3
UCSORGRIGHT
350
236
  3
UCSORGTOP
350
233
  3
UCSORTHOREF
350
230
  3
UCSORTHOVIEW
350
231
  3
VERSIONGUID
350
225
  0
DICTIONARY
  5
23A
102
{ACAD_REACTORS
330
C
102
}
330
C
100
AcDbDictionary
  3
CANNOSCALE
350
243
  3
CMLEADERSTYLE
350
23C
  3
CTABLESTYLE
350
23B
  3
DIMASSOC
350
23F
  3
HIDETEXT
350
240
  3
MSLTSCALE
350
244
  0
XRECORD
  5
242
102
{ACAD_REACTORS
330
241
102
}
330
241
100
AcDbXrecord
102
VTR_0.000_0.000_1.000_1.000_VISUALSTYLE
340
2F
102
VTR_0.000_0.000_1.000_1.000_GRIDDISPLAY
 70
     3
102
VTR_0.000_0.000_1.000_1.000_GRIDMAJOR
 70
     5
102
VTR_0.000_0.000_1.000_1.000_DEFAULTLIGHTING
280
     1
102
VTR_0.000_0.000_1.000_1.000_DEFAULTLIGHTINGTYPE
 70
     1
102
VTR_0.000_0.000_1.000_1.000_BRIGHTNESS
141
0.0
102
VTR_0.000_0.000_1.000_1.000_CONTRAST
142
0.0
  0
MATERIAL
  5
45
102
{ACAD_REACTORS
330
43
102
}
102
{ACAD_XDICTIONARY
360
247
102
}
330
43
100
AcDbMaterial
  1
BYBLOCK
  0
MATERIAL
  5
44
102
{ACAD_REACTORS
330
43
102
}
102
{ACAD_XDICTIONARY
360
245
102
}
330
43
100
AcDbMaterial
  1
BYLAYER
  0
MATERIAL
  5
46
102
{ACAD_REACTORS
330
43
102
}
102
{ACAD_XDICTIONARY
360
249
102
}
330
43
100
AcDbMaterial
  1
GLOBAL
  0
ACAD_PROXY_OBJECT
  5
6C
102
{ACAD_REACTORS
330
6B
102
}
330
6B
100
AcDbProxyObject
 90
      499
 91
      505
 93
      610
310
40901902A4063FBFFFFFE056BD1B81E855B9FC0AD7A3703D0AD73F4214DD185B99185C9900AD7A3703D0AC73F90141901A02B5E8DC0F42B1CFC02B5E8DC0F42B1CFE5764000000000000300FC0
340
14
340
0
340
11
340
0
 94
        0
1001
ACAD_MLEADERVER
1070
     2
  0
MLINESTYLE
  5
18
102
{ACAD_REACTORS
330
17
102
}
330
17
100
AcDbMlineStyle
  2
Standard
 70
     0
  3

 62
   256
 51
90.0
 52
90.0
 71
     2
 49
0.5
 62
   256
  6
BYLAYER
 49
-0.5
 62
   256
  6
BYLAYER
  0
ACAD_PROXY_OBJECT
  5
48
102
{ACAD_REACTORS
330
47
102
}
330
47
100
AcDbProxyObject
 90
      499
 91
      503
 93
       41
310
903313A31580
  0
ACAD_PROXY_OBJECT
  5
49
102
{ACAD_REACTORS
330
47
102
}
330
47
100
AcDbProxyObject
 90
      499
 91
      503
 93
      105
310
903313A324000000000000004000
  0
ACAD_PROXY_OBJECT
  5
4A
102
{ACAD_REACTORS
330
47
102
}
330
47
100
AcDbProxyObject
 90
      499
 91
      503
 93
      105
310
903313A344000000000000104000
  0
ACAD_PROXY_OBJECT
  5
4B
102
{ACAD_REACTORS
330
47
102
}
330
47
100
AcDbProxyObject
 90
      499
 91
      503
 93
      105
310
903313A354000000000000144000
  0
ACAD_PROXY_OBJECT
  5
4C
102
{ACAD_REACTORS
330
47
102
}
330
47
100
AcDbProxyObject
 90
      499
 91
      503
 93
      105
310
903313A384000000000000204000
  0
ACAD_PROXY_OBJECT
  5
4D
102
{ACAD_REACTORS
330
47
102
}
330
47
100
AcDbProxyObject
 90
      499
 91
      503
 93
      113
310
904313A31304000000000000244000
  0
ACAD_PROXY_OBJECT
  5
4E
102
{ACAD_REACTORS
330
47
102
}
330
47
100
AcDbProxyObject
 90
      499
 91
      503
 93
      113
310
904313A31364000000000000304000
  0
ACAD_PROXY_OBJECT
  5
4F
102
{ACAD_REACTORS
330
47
102
}
330
47
100
AcDbProxyObject
 90
      499
 91
      503
 93
      113
310
904313A32304000000000000344000
  0
ACAD_PROXY_OBJECT
  5
50
102
{ACAD_REACTORS
330
47
102
}
330
47
100
AcDbProxyObject
 90
      499
 91
      503
 93
      113
310
904313A333040000000000003E4000
  0
ACAD_PROXY_OBJECT
  5
51
102
{ACAD_REACTORS
330
47
102
}
330
47
100
AcDbProxyObject
 90
      499
 91
      503
 93
      113
310
904313A34304000000000000444000
  0
ACAD_PROXY_OBJECT
  5
52
102
{ACAD_REACTORS
330
47
102
}
330
47
100
AcDbProxyObject
 90
      499
 91
      503
 93
      113
310
904313A35304000000000000494000
  0
ACAD_PROXY_OBJECT
  5
53
102
{ACAD_REACTORS
330
47
102
}
330
47
100
AcDbProxyObject
 90
      499
 91
      503
 93
      121
310
905313A3130304000000000000594000
  0
ACAD_PROXY_OBJECT
  5
54
102
{ACAD_REACTORS
330
47
102
}
330
47
100
AcDbProxyObject
 90
      499
 91
      503
 93
      105
310
903323A310000000000000010100
  0
ACAD_PROXY_OBJECT
  5
55
102
{ACAD_REACTORS
330
47
102
}
330
47
100
AcDbProxyObject
 90
      499
 91
      503
 93
      105
310
903343A310000000000000410100
  0
ACAD_PROXY_OBJECT
  5
56
102
{ACAD_REACTORS
330
47
102
}
330
47
100
AcDbProxyObject
 90
      499
 91
      503
 93
      105
310
903383A310000000000000810100
  0
ACAD_PROXY_OBJECT
  5
57
102
{ACAD_REACTORS
330
47
102
}
330
47
100
AcDbProxyObject
 90
      499
 91
      503
 93
      113
310
90431303A310000000000000910100
  0
ACAD_PROXY_OBJECT
  5
58
102
{ACAD_REACTORS
330
47
102
}
330
47
100
AcDbProxyObject
 90
      499
 91
      503
 93
      121
310
9053130303A310000000000001650100
  0
ACAD_PROXY_OBJECT
  5
59
102
{ACAD_REACTORS
330
47
102
}
330
47
100
AcDbProxyObject
 90
      499
 91
      503
 93
      257
310
90E312F31323822203D2031272D3022000000000000200FC000000000000284000
  0
ACAD_PROXY_OBJECT
  5
5A
102
{ACAD_REACTORS
330
47
102
}
330
47
100
AcDbProxyObject
 90
      499
 91
      503
 93
      249
310
90D312F363422203D2031272D3022000000000000240FC000000000000284000
  0
ACAD_PROXY_OBJECT
  5
5B
102
{ACAD_REACTORS
330
47
102
}
330
47
100
AcDbProxyObject
 90
      499
 91
      503
 93
      249
310
90D312F333222203D2031272D3022000000000000280FC000000000000284000
  0
ACAD_PROXY_OBJECT
  5
5C
102
{ACAD_REACTORS
330
47
102
}
330
47
100
AcDbProxyObject
 90
      499
 91
      503
 93
      249
310
90D312F313622203D2031272D30220000000000002C0FC000000000000284000
  0
ACAD_PROXY_OBJECT
  5
5D
102
{ACAD_REACTORS
330
47
102
}
330
47
100
AcDbProxyObject
 90
      499
 91
      503
 93
      249
310
90D332F333222203D2031272D30220000000000002E0FC000000000000284000
  0
ACAD_PROXY_OBJECT
  5
5E
102
{ACAD_REACTORS
330
47
102
}
330
47
100
AcDbProxyObject
 90
      499
 91
      503
 93
      241
310
90C312F3822203D2031272D3022000000000000300FC000000000000284000
  0
ACAD_PROXY_OBJECT
  5
5F
102
{ACAD_REACTORS
330
47
102
}
330
47
100
AcDbProxyObject
 90
      499
 91
      503
 93
      249
310
90D332F313622203D2031272D3022000000000000320FC000000000000284000
  0
ACAD_PROXY_OBJECT
  5
60
102
{ACAD_REACTORS
330
47
102
}
330
47
100
AcDbProxyObject
 90
      499
 91
      503
 93
      241
310
90C312F3422203D2031272D3022000000000000340FC000000000000284000
  0
ACAD_PROXY_OBJECT
  5
61
102
{ACAD_REACTORS
330
47
102
}
330
47
100
AcDbProxyObject
 90
      499
 91
      503
 93
      241
310
90C332F3822203D2031272D3022000000000000360FC000000000000284000
  0
ACAD_PROXY_OBJECT
  5
62
102
{ACAD_REACTORS
330
47
102
}
330
47
100
AcDbProxyObject
 90
      499
 91
      503
 93
      241
310
90C312F3222203D2031272D3022000000000000380FC000000000000284000
  0
ACAD_PROXY_OBJECT
  5
63
102
{ACAD_REACTORS
330
47
102
}
330
47
100
AcDbProxyObject
 90
      499
 91
      503
 93
      241
310
90C332F3422203D2031272D30220000000000003A0FC000000000000284000
  0
ACAD_PROXY_OBJECT
  5
64
102
{ACAD_REACTORS
330
47
102
}
330
47
100
AcDbProxyObject
 90
      499
 91
      503
 93
      161
310
90A3122203D2031272D30224000000000000284000
  0
ACAD_PROXY_OBJECT
  5
65
102
{ACAD_REACTORS
330
47
102
}
330
47
100
AcDbProxyObject
 90
      499
 91
      503
 93
      257
310
90E312D312F3222203D2031272D30220000000000003E0FC000000000000284000
  0
ACAD_PROXY_OBJECT
  5
66
102
{ACAD_REACTORS
330
47
102
}
330
47
100
AcDbProxyObject
 90
      499
 91
      503
 93
      225
310
90A3322203D2031272D302200000000000002100000000000000284000
  0
ACAD_PROXY_OBJECT
  5
67
102
{ACAD_REACTORS
330
47
102
}
330
47
100
AcDbProxyObject
 90
      499
 91
      503
 93
      225
310
90A3622203D2031272D302200000000000006100000000000000284000
  0
ACAD_PROXY_OBJECT
  5
68
102
{ACAD_REACTORS
330
47
102
}
330
47
100
AcDbProxyObject
 90
      499
 91
      503
 93
      249
310
90D31272D3022203D2031272D30220000000000000A100000000000000284000
  0
ACAD_PROXY_OBJECT
  5
2F
102
{ACAD_REACTORS
330
2A
102
}
330
2A
100
AcDbProxyObject
 90
      499
 91
      501
 93
      436
310
42CC9915DA5C99599C985B595049028333333333333E33F0000000000000F90107901411070040501600405405064090741402480A0340
1001
ACAD
1000
AcDbSavedByObjectVersion
1070
     0
  0
ACAD_PROXY_OBJECT
  5
32
102
{ACAD_REACTORS
330
2A
102
}
330
2A
100
AcDbProxyObject
 90
      499
 91
      501
 93
      388
310
4150985CDA58D07406404333333333333E33F0000000000000F90107A41107004050150841D405064090741402480A0350
1001
ACAD
1000
AcDbSavedByObjectVersion
1070
     0
  0
ACAD_PROXY_OBJECT
  5
36
102
{ACAD_REACTORS
330
2A
102
}
330
2A
100
AcDbProxyObject
 90
      499
 91
      501
 93
      428
310
42109C9A59DA1D195B90C409028333333333333E33F0000000000000F9010790141107004050150841D405064090741402480A029950
1001
ACAD
1000
AcDbSavedByObjectVersion
1070
     0
  0
ACAD_PROXY_OBJECT
  5
3A
102
{ACAD_REACTORS
330
2A
102
}
330
2A
100
AcDbProxyObject
 90
      499
 91
      501
 93
      452
310
42D0DBDB1BDC90DA185B99D95104090240C333333333333E33F0000000000000F90108901411070040501508421405064090741402480A0350
1001
ACAD
1000
AcDbSavedByObjectVersion
1070
     0
  0
ACAD_PROXY_OBJECT
  5
34
102
{ACAD_REACTORS
330
2A
102
}
330
2A
100
AcDbProxyObject
 90
      499
 91
      501
 93
      500
310
4290DBDB98D95C1D1D585B10940D028333333333333E33F0000000000000F90107902409070040501000000000018199010841D405064090740C02480A0340
1001
ACAD
1000
AcDbSavedByObjectVersion
1070
     0
  0
ACAD_PROXY_OBJECT
  5
35
102
{ACAD_REACTORS
330
2A
102
}
330
2A
100
AcDbProxyObject
 90
      499
 91
      501
 93
      412
310
40D11A5B50B409028333333333333E33F0000000000000F9010790141107004050150841D405064090741402480A02677FFFFFD0
1001
ACAD
1000
AcDbSavedByObjectVersion
1070
     0
  0
ACAD_PROXY_OBJECT
  5
3D
102
{ACAD_REACTORS
330
2A
102
}
330
2A
100
AcDbProxyObject
 90
      499
 91
      501
 93
      452
310
43115919D950DBDB1BDC93D999916409028333333333333E33F0000000000000F9010790141107004050150841D405064090741402480A0350
1001
ACAD
1000
AcDbSavedByObjectVersion
1070
     0
  0
ACAD_PROXY_OBJECT
  5
39
102
{ACAD_REACTORS
330
2A
102
}
330
2A
100
AcDbProxyObject
 90
      499
 91
      501
 93
      444
310
42D19858D95C185D1D195C9B90F409028333333333333E33F0000000000000F9010790141107004050150841D405064090741402480A0350
1001
ACAD
1000
AcDbSavedByObjectVersion
1070
     0
  0
ACAD_PROXY_OBJECT
  5
2B
102
{ACAD_REACTORS
330
2A
102
}
330
2A
100
AcDbProxyObject
 90
      499
 91
      501
 93
      380
310
41119B185D240901404333333333333E33F0000000000000F9010740A907004050150841D405064090741402480A1B50
1001
ACAD
1000
AcDbSavedByObjectVersion
1070
     0
  0
ACAD_PROXY_OBJECT
  5
2C
102
{ACAD_REACTORS
330
2A
102
}
330
2A
100
AcDbProxyObject
 90
      499
 91
      501
 93
      468
310
43519B185D15DA5D1A115919D95CD0140901404333333333333E33F0000000000000F90107409019070040501600405405064090741402480A1B50
1001
ACAD
1000
AcDbSavedByObjectVersion
1070
     0
  0
ACAD_PROXY_OBJECT
  5
2D
102
{ACAD_REACTORS
330
2A
102
}
330
2A
100
AcDbProxyObject
 90
      499
 91
      501
 93
      404
310
41D1DBDD5C985D5910240902404333333333333E33F0000000000000F9010740A9070040501641D405064090741402480A1B50
1001
ACAD
1000
AcDbSavedByObjectVersion
1070
     0
  0
ACAD_PROXY_OBJECT
  5
2E
102
{ACAD_REACTORS
330
2A
102
}
330
2A
100
AcDbProxyObject
 90
      499
 91
      501
 93
      492
310
4411DBDD5C985D5915DA5D1A115919D95CD0340902404333333333333E33F0000000000000F90107409019070040501600405405064090741402480A1B50
1001
ACAD
1000
AcDbSavedByObjectVersion
1070
     0
  0
ACAD_PROXY_OBJECT
  5
31
102
{ACAD_REACTORS
330
2A
102
}
330
2A
100
AcDbProxyObject
 90
      499
 91
      501
 93
      476
310
41921A5919195B90640502408333333333333E33F0000000000000F901079024090700405020000000000001110200405405064090740C02480A0340
1001
ACAD
1000
AcDbSavedByObjectVersion
1070
     0
  0
ACAD_PROXY_OBJECT
  5
3B
102
{ACAD_REACTORS
330
2A
102
}
330
2A
100
AcDbProxyObject
 90
      499
 91
      501
 93
      428
310
42529A5D1D195C93D999914409028333333333333E33F0000000000000F9010790141107004050150A41D405064090741402480A0350
1001
ACAD
1000
AcDbSavedByObjectVersion
1070
     0
  0
ACAD_PROXY_OBJECT
  5
38
102
{ACAD_REACTORS
330
2A
102
}
330
2A
100
AcDbProxyObject
 90
      499
 91
      501
 93
      444
310
42D31A5B995C185D1D195C9B90E409028333333333333E33F0000000000000F9010790141107004050750841D405064090741402483A0350
1001
ACAD
1000
AcDbSavedByObjectVersion
1070
     0
  0
ACAD_PROXY_OBJECT
  5
3C
102
{ACAD_REACTORS
330
2A
102
}
330
2A
100
AcDbProxyObject
 90
      499
 91
      501
 93
      444
310
42D3DD995C9A185B99D3D999915409028333333333333E33F0000000000000F9010790141107004050150941D405064090741402480A0350
1001
ACAD
1000
AcDbSavedByObjectVersion
1070
     0
  0
ACAD_PROXY_OBJECT
  5
33
102
{ACAD_REACTORS
330
2A
102
}
330
2A
100
AcDbProxyObject
 90
      499
 91
      501
 93
      428
310
425499585B1A5CDD1A58D08409038333333333333E33F0000000000000F9010740A907004050150800405405064090740C02480A1B40
1001
ACAD
1000
AcDbSavedByObjectVersion
1070
     0
  0
ACAD_PROXY_OBJECT
  5
42
102
{ACAD_REACTORS
330
2A
102
}
330
2A
100
AcDbProxyObject
 90
      499
 91
      501
 93
      420
310
4194DA1859195911B40902404333333333333E33F0000000000000F9010740A41107004050150800405405064090840C02480A0B40
1001
ACAD
1000
AcDbSavedByObjectVersion
1070
     0
  0
ACAD_PROXY_OBJECT
  5
41
102
{ACAD_REACTORS
330
2A
102
}
330
2A
100
AcDbProxyObject
 90
      499
 91
      501
 93
      516
310
4454DA18591959081DDA5D1A08195919D95CD1A40902404333333333333E33F0000000000000F901074090142907004050250800405405064090740C02480A0B40
1001
ACAD
1000
AcDbSavedByObjectVersion
1070
     0
  0
ACAD_PROXY_OBJECT
  5
3E
102
{ACAD_REACTORS
330
2A
102
}
330
2A
100
AcDbProxyObject
 90
      499
 91
      501
 93
      532
310
4394DA1859195CC81BD98811DC985E5174090240C333333333333E33F0000000000000F901079024090741D01000000000000111010841D405064090740C02480A0340
1001
ACAD
1000
AcDbSavedByObjectVersion
1070
     0
  0
ACAD_PROXY_OBJECT
  5
3F
102
{ACAD_REACTORS
330
2A
102
}
330
2A
100
AcDbProxyObject
 90
      499
 91
      501
 93
      476
310
41D4DAD95D18DA1E51840502408333333333333E33F0000000000000F901079024090741D01000000000000111010B41D405064090741802480A0340
1001
ACAD
1000
AcDbSavedByObjectVersion
1070
     0
  0
ACAD_PROXY_OBJECT
  5
37
102
{ACAD_REACTORS
330
2A
102
}
330
2A
100
AcDbProxyObject
 90
      499
 91
      501
 93
      412
310
41D51A1A58DAD95B90D409028333333333333E33F0000000000000F9010790141107004050150C41D405064090741402480A0350
1001
ACAD
1000
AcDbSavedByObjectVersion
1070
     0
  0
ACAD_PROXY_OBJECT
  5
30
102
{ACAD_REACTORS
330
2A
102
}
330
2A
100
AcDbProxyObject
 90
      499
 91
      501
 93
      420
310
4255DA5C99599C985B595059028333333333333E33F0000000000000F90107901411070040501600405405064090740C02480A0340
1001
ACAD
1000
AcDbSavedByObjectVersion
1070
     0
  0
ACAD_PROXY_OBJECT
  5
40
102
{ACAD_REACTORS
330
2A
102
}
330
2A
100
AcDbProxyObject
 90
      499
 91
      501
 93
      404
310
41560B54985E51940902404000000000000E03F0000000000000F9010740501907004050150841D405064090740C02480A1B40
1001
ACAD
1000
AcDbSavedByObjectVersion
1070
     0
  0
XRECORD
  5
223
102
{ACAD_REACTORS
330
219
102
}
330
219
100
AcDbXrecord
340
0
  0
XRECORD
  5
222
102
{ACAD_REACTORS
330
219
102
}
330
219
100
AcDbXrecord
 90
        0
  0
XRECORD
  5
239
102
{ACAD_REACTORS
330
219
102
}
330
219
100
AcDbXrecord
1000
DSTYLE
1002
{
1070
   179
 70
     2
1070
   171
 70
     2
1070
   143
 40
25.4
1070
   274
 70
     2
1070
    41
 40
3.0
1070
   141
 40
0.09
1070
    43
 40
0.38
1070
   278
 70
    46
1070
    44
 40
1.5
1070
    42
 40
0.0625
1070
   147
 40
1.5
1070
   272
 70
     4
1070
    73
 70
     1
1070
   172
 70
     0
1070
    74
 70
     1
1070
   283
 70
     1
1070
   340
340
6E
1070
   140
 40
3.0
1070
   284
 70
     0
1070
    78
 70
     0
1002
}
  0
XRECORD
  5
224
102
{ACAD_REACTORS
330
219
102
}
330
219
100
AcDbXrecord
  1
{5D689F67-03DA-4D42-9B5E-1BF3F39CF607}
  0
XRECORD
  5
21C
102
{ACAD_REACTORS
330
219
102
}
330
219
100
AcDbXrecord
  1

  0
XRECORD
  5
221
102
{ACAD_REACTORS
330
219
102
}
330
219
100
AcDbXrecord
 90
        4
  0
XRECORD
  5
21E
102
{ACAD_REACTORS
330
219
102
}
330
219
100
AcDbXrecord
340
1A
  0
XRECORD
  5
220
102
{ACAD_REACTORS
330
219
102
}
330
219
100
AcDbXrecord
 90
    10269
  0
XRECORD
  5
21F
102
{ACAD_REACTORS
330
219
102
}
330
219
100
AcDbXrecord
340
19
  0
XRECORD
  5
226
102
{ACAD_REACTORS
330
219
102
}
330
219
100
AcDbXrecord
 40
0.0
  0
XRECORD
  5
229
102
{ACAD_REACTORS
330
219
102
}
330
219
100
AcDbXrecord
340
0
  0
XRECORD
  5
22F
102
{ACAD_REACTORS
330
219
102
}
330
219
100
AcDbXrecord
 10
0.0
 20
0.0
 30
0.0
  0
XRECORD
  5
22B
102
{ACAD_REACTORS
330
219
102
}
330
219
100
AcDbXrecord
 10
0.0
 20
0.0
 30
0.0
  0
XRECORD
  5
22E
102
{ACAD_REACTORS
330
219
102
}
330
219
100
AcDbXrecord
 10
0.0
 20
0.0
 30
0.0
  0
XRECORD
  5
22C
102
{ACAD_REACTORS
330
219
102
}
330
219
100
AcDbXrecord
 10
0.0
 20
0.0
 30
0.0
  0
XRECORD
  5
22D
102
{ACAD_REACTORS
330
219
102
}
330
219
100
AcDbXrecord
 10
0.0
 20
0.0
 30
0.0
  0
XRECORD
  5
22A
102
{ACAD_REACTORS
330
219
102
}
330
219
100
AcDbXrecord
 10
0.0
 20
0.0
 30
0.0
  0
XRECORD
  5
227
102
{ACAD_REACTORS
330
219
102
}
330
219
100
AcDbXrecord
340
0
  0
XRECORD
  5
228
102
{ACAD_REACTORS
330
219
102
}
330
219
100
AcDbXrecord
 70
     0
  0
XRECORD
  5
21D
102
{ACAD_REACTORS
330
219
102
}
330
219
100
AcDbXrecord
  1

  0
XRECORD
  5
21A
102
{ACAD_REACTORS
330
219
102
}
330
219
100
AcDbXrecord
 90
        1
  0
XRECORD
  5
21B
102
{ACAD_REACTORS
330
219
102
}
330
219
100
AcDbXrecord
 90
       70
  0
XRECORD
  5
232
102
{ACAD_REACTORS
330
219
102
}
330
219
100
AcDbXrecord
340
0
  0
XRECORD
  5
238
102
{ACAD_REACTORS
330
219
102
}
330
219
100
AcDbXrecord
 10
0.0
 20
0.0
 30
0.0
  0
XRECORD
  5
234
102
{ACAD_REACTORS
330
219
102
}
330
219
100
AcDbXrecord
 10
0.0
 20
0.0
 30
0.0
  0
XRECORD
  5
237
102
{ACAD_REACTORS
330
219
102
}
330
219
100
AcDbXrecord
 10
0.0
 20
0.0
 30
0.0
  0
XRECORD
  5
235
102
{ACAD_REACTORS
330
219
102
}
330
219
100
AcDbXrecord
 10
0.0
 20
0.0
 30
0.0
  0
XRECORD
  5
236
102
{ACAD_REACTORS
330
219
102
}
330
219
100
AcDbXrecord
 10
0.0
 20
0.0
 30
0.0
  0
XRECORD
  5
233
102
{ACAD_REACTORS
330
219
102
}
330
219
100
AcDbXrecord
 10
0.0
 20
0.0
 30
0.0
  0
XRECORD
  5
230
102
{ACAD_REACTORS
330
219
102
}
330
219
100
AcDbXrecord
340
0
  0
XRECORD
  5
231
102
{ACAD_REACTORS
330
219
102
}
330
219
100
AcDbXrecord
 70
     0
  0
XRECORD
  5
225
102
{ACAD_REACTORS
330
219
102
}
330
219
100
AcDbXrecord
  1
{FAEB1C32-E019-11D5-929B-00C0DF256EC4}
  0
DICTIONARYVAR
  5
243
102
{ACAD_REACTORS
330
23A
102
}
330
23A
100
DictionaryVariables
280
     0
  1
1:1
  0
DICTIONARYVAR
  5
23C
102
{ACAD_REACTORS
330
23A
102
}
330
23A
100
DictionaryVariables
280
     0
  1
Standard
  0
DICTIONARYVAR
  5
23B
102
{ACAD_REACTORS
330
23A
102
}
330
23A
100
DictionaryVariables
280
     0
  1
Standard
  0
DICTIONARYVAR
  5
23F
102
{ACAD_REACTORS
330
23A
102
}
330
23A
100
DictionaryVariables
280
     0
  1
2
  0
DICTIONARYVAR
  5
240
102
{ACAD_REACTORS
330
23A
102
}
330
23A
100
DictionaryVariables
280
     0
  1
1
  0
DICTIONARYVAR
  5
244
102
{ACAD_REACTORS
330
23A
102
}
330
23A
100
DictionaryVariables
280
     0
  1
1
  0
DICTIONARY
  5
247
330
45
100
AcDbDictionary
280
     1
  3
ACAD_XREC_ROUNDTRIP
360
248
  0
DICTIONARY
  5
245
330
44
100
AcDbDictionary
280
     1
  3
ACAD_XREC_ROUNDTRIP
360
246
  0
DICTIONARY
  5
249
330
46
100
AcDbDictionary
280
     1
  3
ACAD_XREC_ROUNDTRIP
360
24A
  0
XRECORD
  5
248
102
{ACAD_REACTORS
330
247
102
}
330
247
100
AcDbXrecord
102
MATERIAL
148
0.0
149
0.0
149
0.0
 93
        0
 94
      127
282
     0
 72
     1
 77
     1
171
     1
175
     1
179
     1
273
     0
  0
XRECORD
  5
246
102
{ACAD_REACTORS
330
245
102
}
330
245
100
AcDbXrecord
102
MATERIAL
148
0.0
149
0.0
149
0.0
 93
        0
 94
      127
282
     0
 72
     1
 77
     1
171
     1
175
     1
179
     1
273
     0
  0
XRECORD
  5
24A
102
{ACAD_REACTORS
330
249
102
}
330
249
100
AcDbXrecord
102
MATERIAL
148
0.0
149
0.0
149
0.0
 93
        0
 94
      127
282
     0
 72
     1
 77
     1
171
     1
175
     1
179
     1
273
     0
  0
ENDSEC
  0
EOF
