  0
SECTION
  2
HEADER
  9
$ACADVER
  1
AC1014
  9
$ACADMAINTVER
 70
     9
  9
$DWGCODEPAGE
  3
ANSI_932
  9
$INSBASE
 10
0.0
 20
0.0
 30
0.0
  9
$EXTMIN
 10
485.7404595439119
 20
77.21251094160311
 30
0.0
  9
$EXTMAX
 10
1056.759363378264
 20
231.759479752964
 30
0.0
  9
$LIMMIN
 10
0.0
 20
0.0
  9
$LIMMAX
 10
12.0
 20
9.0
  9
$ORTHOMODE
 70
     0
  9
$REGENMODE
 70
     1
  9
$FILLMODE
 70
     1
  9
$QTEXTMODE
 70
     0
  9
$MIRRTEXT
 70
     1
  9
$DRAGMODE
 70
     2
  9
$LTSCALE
 40
1.0
  9
$OSMODE
 70
    37
  9
$ATTMODE
 70
     1
  9
$TEXTSIZE
 40
0.2
  9
$TRACEWID
 40
0.05
  9
$TEXTSTYLE
  7
STANDARD
  9
$CLAYER
  8
0
  9
$CELTYPE
  6
BYLAYER
  9
$CECOLOR
 62
   256
  9
$CELTSCALE
 40
1.0
  9
$DELOBJ
 70
     1
  9
$DISPSILH
 70
     0
  9
$DIMSCALE
 40
1.0
  9
$DIMASZ
 40
3.0
  9
$DIMEXO
 40
0.0625
  9
$DIMDLI
 40
0.38
  9
$DIMRND
 40
0.0
  9
$DIMDLE
 40
0.0
  9
$DIMEXE
 40
1.5
  9
$DIMTP
 40
0.0
  9
$DIMTM
 40
0.0
  9
$DIMTXT
 40
3.0
  9
$DIMCEN
 40
0.09
  9
$DIMTSZ
 40
0.0
  9
$DIMTOL
 70
     0
  9
$DIMLIM
 70
     0
  9
$DIMTIH
 70
     1
  9
$DIMTOH
 70
     1
  9
$DIMSE1
 70
     0
  9
$DIMSE2
 70
     0
  9
$DIMTAD
 70
     1
  9
$DIMZIN
 70
     0
  9
$DIMBLK
  1

  9
$DIMASO
 70
     1
  9
$DIMSHO
 70
     1
  9
$DIMPOST
  1

  9
$DIMAPOST
  1

  9
$DIMALT
 70
     0
  9
$DIMALTD
 70
     2
  9
$DIMALTF
 40
25.4
  9
$DIMLFAC
 40
1.0
  9
$DIMTOFL
 70
     0
  9
$DIMTVP
 40
0.0
  9
$DIMTIX
 70
     0
  9
$DIMSOXD
 70
     0
  9
$DIMSAH
 70
     0
  9
$DIMBLK1
  1

  9
$DIMBLK2
  1

  9
$DIMSTYLE
  2
STANDARD
  9
$DIMCLRD
 70
     0
  9
$DIMCLRE
 70
     0
  9
$DIMCLRT
 70
     0
  9
$DIMTFAC
 40
1.0
  9
$DIMGAP
 40
1.5
  9
$DIMJUST
 70
     0
  9
$DIMSD1
 70
     0
  9
$DIMSD2
 70
     0
  9
$DIMTOLJ
 70
     1
  9
$DIMTZIN
 70
     0
  9
$DIMALTZ
 70
     0
  9
$DIMALTTZ
 70
     0
  9
$DIMFIT
 70
     3
  9
$DIMUPT
 70
     0
  9
$DIMUNIT
 70
     2
  9
$DIMDEC
 70
     2
  9
$DIMTDEC
 70
     4
  9
$DIMALTU
 70
     2
  9
$DIMALTTD
 70
     2
  9
$DIMTXSTY
  7
ＭＳ_ゴシック
  9
$DIMAUNIT
 70
     0
  9
$LUNITS
 70
     2
  9
$LUPREC
 70
     4
  9
$SKETCHINC
 40
0.1
  9
$FILLETRAD
 40
0.5
  9
$AUNITS
 70
     0
  9
$AUPREC
 70
     0
  9
$MENU
  1
.
  9
$ELEVATION
 40
0.0
  9
$PELEVATION
 40
0.0
  9
$THICKNESS
 40
0.0
  9
$LIMCHECK
 70
     0
  9
$CHAMFERA
 40
0.0
  9
$CHAMFERB
 40
0.0
  9
$CHAMFERC
 40
0.0
  9
$CHAMFERD
 40
0.0
  9
$SKPOLY
 70
     0
  9
$TDCREATE
 40
2459548.624357419
  9
$TDUPDATE
 40
2459548.62435772
  9
$TDINDWG
 40
0.0000000116
  9
$TDUSRTIMER
 40
0.0000000116
  9
$USRTIMER
 70
     1
  9
$ANGBASE
 50
0.0
  9
$ANGDIR
 70
     0
  9
$PDMODE
 70
     0
  9
$PDSIZE
 40
0.0
  9
$PLINEWID
 40
0.0
  9
$COORDS
 70
     1
  9
$SPLFRAME
 70
     0
  9
$SPLINETYPE
 70
     6
  9
$SPLINESEGS
 70
     8
  9
$ATTDIA
 70
     0
  9
$ATTREQ
 70
     1
  9
$HANDLING
 70
     1
  9
$HANDSEED
  5
267
  9
$SURFTAB1
 70
     6
  9
$SURFTAB2
 70
     6
  9
$SURFTYPE
 70
     6
  9
$SURFU
 70
     6
  9
$SURFV
 70
     6
  9
$UCSNAME
  2

  9
$UCSORG
 10
0.0
 20
0.0
 30
0.0
  9
$UCSXDIR
 10
1.0
 20
0.0
 30
0.0
  9
$UCSYDIR
 10
0.0
 20
1.0
 30
0.0
  9
$PUCSNAME
  2

  9
$PUCSORG
 10
0.0
 20
0.0
 30
0.0
  9
$PUCSXDIR
 10
1.0
 20
0.0
 30
0.0
  9
$PUCSYDIR
 10
0.0
 20
1.0
 30
0.0
  9
$USERI1
 70
     0
  9
$USERI2
 70
     0
  9
$USERI3
 70
     0
  9
$USERI4
 70
     0
  9
$USERI5
 70
     0
  9
$USERR1
 40
0.0
  9
$USERR2
 40
0.0
  9
$USERR3
 40
0.0
  9
$USERR4
 40
0.0
  9
$USERR5
 40
0.0
  9
$WORLDVIEW
 70
     1
  9
$SHADEDGE
 70
     3
  9
$SHADEDIF
 70
    70
  9
$TILEMODE
 70
     1
  9
$MAXACTVP
 70
    64
  9
$PINSBASE
 10
0.0
 20
0.0
 30
0.0
  9
$PLIMCHECK
 70
     0
  9
$PEXTMIN
 10
1.000000000000000E+20
 20
1.000000000000000E+20
 30
1.000000000000000E+20
  9
$PEXTMAX
 10
-1.000000000000000E+20
 20
-1.000000000000000E+20
 30
-1.000000000000000E+20
  9
$PLIMMIN
 10
0.0
 20
0.0
  9
$PLIMMAX
 10
12.0
 20
9.0
  9
$UNITMODE
 70
     0
  9
$VISRETAIN
 70
     1
  9
$PLINEGEN
 70
     0
  9
$PSLTSCALE
 70
     1
  9
$TREEDEPTH
 70
  3020
  9
$PICKSTYLE
 70
     1
  9
$CMLSTYLE
  2
STANDARD
  9
$CMLJUST
 70
     0
  9
$CMLSCALE
 40
1.0
  9
$PROXYGRAPHICS
 70
     1
  9
$MEASUREMENT
 70
     1
  0
ENDSEC
  0
SECTION
  2
CLASSES
  0
CLASS
  1
ACDBDICTIONARYWDFLT
  2
AcDbDictionaryWithDefault
  3
ObjectDBX Classes
 90
        0
280
     0
281
     0
  0
CLASS
  1
VISUALSTYLE
  2
AcDbVisualStyle
  3
ObjectDBX Classes
 90
     4095
280
     0
281
     0
  0
CLASS
  1
MATERIAL
  2
AcDbMaterial
  3
ObjectDBX Classes
 90
     1153
280
     0
281
     0
  0
CLASS
  1
SCALE
  2
AcDbScale
  3
ObjectDBX Classes
 90
     1153
280
     0
281
     0
  0
CLASS
  1
TABLESTYLE
  2
AcDbTableStyle
  3
ObjectDBX Classes
 90
     4095
280
     0
281
     0
  0
CLASS
  1
MLEADERSTYLE
  2
AcDbMLeaderStyle
  3
ACDB_MLEADERSTYLE_CLASS
 90
     4095
280
     0
281
     0
  0
CLASS
  1
SUN
  2
AcDbSun
  3
SCENEOE
 90
     1153
280
     0
281
     0
  0
CLASS
  1
DICTIONARYVAR
  2
AcDbDictionaryVar
  3
ObjectDBX Classes
 90
        0
280
     0
281
     0
  0
CLASS
  1
XRECORD
  2
AcDbXrecord
  3
ObjectDBX Classes
 90
        0
280
     0
281
     0
  0
CLASS
  1
LWPOLYLINE
  2
AcDbPolyline
  3
ObjectDBX Classes
 90
        0
280
     0
281
     1
  0
CLASS
  1
HATCH
  2
AcDbHatch
  3
ObjectDBX Classes
 90
        0
280
     0
281
     1
  0
CLASS
  1
ACDBPLACEHOLDER
  2
AcDbPlaceHolder
  3
ObjectDBX Classes
 90
        0
280
     0
281
     0
  0
CLASS
  1
LAYOUT
  2
AcDbLayout
  3
ObjectDBX Classes
 90
        0
280
     0
281
     0
  0
ENDSEC
  0
SECTION
  2
TABLES
  0
TABLE
  2
VPORT
  5
8
102
{ACAD_XDICTIONARY
360
25C
102
}
330
0
100
AcDbSymbolTable
 70
     1
  0
VPORT
  5
29
330
8
100
AcDbSymbolTableRecord
100
AcDbViewportTableRecord
  2
*ACTIVE
 70
     0
 10
0.0
 20
0.0
 11
1.0
 21
1.0
 12
771.249911461088
 22
154.4859953472836
 13
0.0
 23
0.0
 14
0.5
 24
0.5
 15
0.5
 25
0.5
 16
0.0
 26
0.0
 36
1.0
 17
0.0
 27
0.0
 37
0.0
 40
154.5469688113609
 41
1.6
 42
50.0
 43
0.0
 44
0.0
 50
0.0
 51
0.0
 71
     0
 72
   100
 73
     1
 74
     3
 75
     0
 76
     0
 77
     0
 78
     0
  0
ENDTAB
  0
TABLE
  2
LTYPE
  5
5
330
0
100
AcDbSymbolTable
 70
     2
  0
LTYPE
  5
14
330
5
100
AcDbSymbolTableRecord
100
AcDbLinetypeTableRecord
  2
BYBLOCK
 70
     0
  3

 72
    65
 73
     0
 40
0.0
  0
LTYPE
  5
15
330
5
100
AcDbSymbolTableRecord
100
AcDbLinetypeTableRecord
  2
BYLAYER
 70
     0
  3

 72
    65
 73
     0
 40
0.0
  0
LTYPE
  5
16
330
5
100
AcDbSymbolTableRecord
100
AcDbLinetypeTableRecord
  2
CONTINUOUS
 70
     0
  3
Solid line
 72
    65
 73
     0
 40
0.0
  0
LTYPE
  5
204
330
5
100
AcDbSymbolTableRecord
100
AcDbLinetypeTableRecord
  2
CENTER
 70
     0
  3

 72
    65
 73
     0
 40
0.0
  0
ENDTAB
  0
TABLE
  2
LAYER
  5
2
330
0
100
AcDbSymbolTable
 70
     1
  0
LAYER
  5
10
330
2
100
AcDbSymbolTableRecord
100
AcDbLayerTableRecord
  2
0
 70
     0
 62
     7
  6
CONTINUOUS
  0
ENDTAB
  0
TABLE
  2
STYLE
  5
3
330
0
100
AcDbSymbolTable
 70
     2
  0
STYLE
  5
11
330
3
100
AcDbSymbolTableRecord
100
AcDbTextStyleTableRecord
  2
STANDARD
 70
     0
 40
0.0
 41
1.0
 50
0.0
 71
     0
 42
0.2
  3
txt
  4

  0
STYLE
  5
6E
330
3
100
AcDbSymbolTableRecord
100
AcDbTextStyleTableRecord
  2
ＭＳ_ゴシック
 70
     0
 40
0.0
 41
1.0
 50
0.0
 71
     0
 42
0.2
  3
ＭＳ ゴシック.shx
  4

  0
ENDTAB
  0
TABLE
  2
VIEW
  5
6
330
0
100
AcDbSymbolTable
 70
     0
  0
ENDTAB
  0
TABLE
  2
UCS
  5
7
330
0
100
AcDbSymbolTable
 70
     0
  0
ENDTAB
  0
TABLE
  2
APPID
  5
9
330
0
100
AcDbSymbolTable
 70
     2
  0
APPID
  5
12
330
9
100
AcDbSymbolTableRecord
100
AcDbRegAppTableRecord
  2
ACAD
 70
     0
  0
APPID
  5
266
330
9
100
AcDbSymbolTableRecord
100
AcDbRegAppTableRecord
  2
ACAD_MLEADERVER
 70
     0
  0
ENDTAB
  0
TABLE
  2
DIMSTYLE
  5
A
330
0
100
AcDbSymbolTable
 70
     1
  0
DIMSTYLE
105
27
330
A
100
AcDbSymbolTableRecord
100
AcDbDimStyleTableRecord
  2
STANDARD
 70
     0
  3

  4

  5

  6

  7

 40
1.0
 41
0.18
 42
0.0625
 43
0.38
 44
0.18
 45
0.0
 46
0.0
 47
0.0
 48
0.0
140
0.18
141
0.09
142
0.0
143
25.4
144
1.0
145
0.0
146
1.0
147
0.09
 71
     0
 72
     0
 73
     1
 74
     1
 75
     0
 76
     0
 77
     0
 78
     0
170
     0
171
     2
172
     0
173
     0
174
     0
175
     0
176
     0
177
     0
178
     0
270
     2
271
     4
272
     4
273
     2
274
     2
340
11
275
     0
280
     0
281
     0
282
     0
283
     1
284
     0
285
     0
286
     0
287
     3
288
     0
  0
ENDTAB
  0
TABLE
  2
BLOCK_RECORD
  5
1
330
0
100
AcDbSymbolTable
 70
     0
  0
BLOCK_RECORD
  5
1F
330
1
100
AcDbSymbolTableRecord
100
AcDbBlockTableRecord
  2
*MODEL_SPACE
  0
BLOCK_RECORD
  5
1B
330
1
100
AcDbSymbolTableRecord
100
AcDbBlockTableRecord
  2
*PAPER_SPACE
  0
ENDTAB
  0
ENDSEC
  0
SECTION
  2
BLOCKS
  0
BLOCK
  5
20
330
1F
100
AcDbEntity
  8
0
100
AcDbBlockBegin
  2
*MODEL_SPACE
 70
     0
 10
0.0
 20
0.0
 30
0.0
  3
*MODEL_SPACE
  1

  0
ENDBLK
  5
21
330
1F
100
AcDbEntity
  8
0
100
AcDbBlockEnd
  0
BLOCK
  5
1C
330
1B
100
AcDbEntity
 67
     1
  8
0
100
AcDbBlockBegin
  2
*PAPER_SPACE
 70
     0
 10
0.0
 20
0.0
 30
0.0
  3
*PAPER_SPACE
  1

  0
ENDBLK
  5
1D
330
1B
100
AcDbEntity
 67
     1
  8
0
100
AcDbBlockEnd
  0
ENDSEC
  0
SECTION
  2
ENTITIES
  0
POINT
  5
6F
330
1F
100
AcDbEntity
  8
0
 62
     1
100
AcDbPoint
 10
812.5
 20
177.5
 30
0.0
  0
POINT
  5
70
330
1F
100
AcDbEntity
  8
0
 62
     1
100
AcDbPoint
 10
1002.760090611893
 20
177.7589618586484
 30
0.0
  0
MTEXT
  5
71
330
1F
100
AcDbEntity
  8
0
 62
     4
100
AcDbMText
 10
762.6498917539247
 20
79.87160185069403
 30
0.0
 40
3.0
 41
0.0
 71
     1
 72
     1
  1
{\fＭＳ ゴシック;BML-80}
  0
ARC
  5
72
330
1F
100
AcDbEntity
  8
0
  6
CONTINUOUS
 62
     7
100
AcDbCircle
 10
2402.160314609698
 20
223.071391237958
 30
0.0
 40
1524.4655056702
100
AcDbArc
 50
181.3054123385289
 51
183.4378628586825
  0
ARC
  5
73
330
1F
100
AcDbEntity
  8
0
  6
CONTINUOUS
 62
     7
100
AcDbCircle
 10
2415.673726093091
 20
224.4092678466758
 30
0.0
 40
1558.003242183054
100
AcDbArc
 50
181.3180106135234
 51
183.4095847205461
  0
LINE
  5
74
330
1F
100
AcDbEntity
  8
0
  6
CONTINUOUS
 62
     7
100
AcDbLine
 10
870.4995821978099
 20
126.7595419969578
 30
0.0
 11
870.5776290122147
 21
126.8199445596543
 31
0.0
  0
ARC
  5
75
330
1F
100
AcDbEntity
  8
0
  6
CONTINUOUS
 62
     7
100
AcDbCircle
 10
2233.496491033764
 20
218.0183982279015
 30
0.0
 40
1385.727798262811
100
AcDbArc
 50
181.21390022349
 51
183.5936630541189
  0
ARC
  5
76
330
1F
100
AcDbEntity
  8
0
  6
CONTINUOUS
 62
     7
100
AcDbCircle
 10
344.1177758109936
 20
180.2090501583253
 30
0.0
 40
534.0346135555733
100
AcDbArc
 50
0.8725377153625685
 51
4.858550899227453
  0
ARC
  5
77
330
1F
100
AcDbEntity
  8
0
  6
CONTINUOUS
 62
     7
100
AcDbCircle
 10
763.4886951463168
 20
227.599451078264
 30
0.0
 40
2.32114433833072
100
AcDbArc
 50
9.36407332355799
 51
29.94314206580992
  0
ARC
  5
78
330
1F
100
AcDbEntity
  8
0
  6
CONTINUOUS
 62
     7
100
AcDbCircle
 10
320.9789856220342
 20
181.2100603038903
 30
0.0
 40
517.1494572515695
100
AcDbArc
 50
0.8544575864053741
 51
4.906167936244743
  0
ARC
  5
79
330
1F
100
AcDbEntity
  8
0
  6
CONTINUOUS
 62
     7
100
AcDbCircle
 10
314.2238650938016
 20
181.4120017890934
 30
0.0
 40
513.8991770944386
100
AcDbArc
 50
0.8538099155306894
 51
4.914730642660572
  0
ARC
  5
7A
330
1F
100
AcDbEntity
  8
0
  6
CONTINUOUS
 62
     7
100
AcDbCircle
 10
2248.285526525291
 20
219.4855719504567
 30
0.0
 40
1420.545202222312
100
AcDbArc
 50
181.2268754897409
 51
183.561329841778
  0
ARC
  5
7B
330
1F
100
AcDbEntity
  8
0
  6
CONTINUOUS
 62
     7
100
AcDbCircle
 10
814.6681398445676
 20
228.0210486388604
 30
0.0
 40
1.111811077391881
100
AcDbArc
 50
357.6693202210696
 51
41.5700574660155
  0
LINE
  5
7C
330
1F
100
AcDbEntity
  8
0
  6
CONTINUOUS
 62
     7
100
AcDbLine
 10
810.5826552617907
 20
126.8286593295881
 30
0.0
 11
810.7757474372008
 21
127.5237706009549
 31
0.0
  0
ARC
  5
7D
330
1F
100
AcDbEntity
  8
0
  6
CONTINUOUS
 62
     7
100
AcDbCircle
 10
744.1086100486094
 20
227.8210560230378
 30
0.0
 40
1.677358900562589
100
AcDbArc
 50
5.40845875809373
 51
33.95795803130721
  0
ARC
  5
7E
330
1F
100
AcDbEntity
  8
0
  6
CONTINUOUS
 62
     7
100
AcDbCircle
 10
2241.519387310982
 20
218.8188571940687
 30
0.0
 40
1403.766850601576
100
AcDbArc
 50
181.2203514832282
 51
183.5791115194977
  0
ARC
  5
7F
330
1F
100
AcDbEntity
  8
0
  6
CONTINUOUS
 62
     7
100
AcDbCircle
 10
840.1083794480282
 20
132.0447320911732
 30
0.0
 40
9.657922835776533
100
AcDbArc
 50
184.7457802698273
 51
195.9072702504624
  0
ARC
  5
80
330
1F
100
AcDbEntity
  8
0
  6
CONTINUOUS
 62
     7
100
AcDbCircle
 10
252.4949239596993
 20
178.3470206217645
 30
0.0
 40
565.7023579741358
100
AcDbArc
 50
0.9014663332624195
 51
4.77500636856962
  0
ARC
  5
81
330
1F
100
AcDbEntity
  8
0
  6
CONTINUOUS
 62
     7
100
AcDbCircle
 10
889.405256678368
 20
127.5899739554974
 30
0.0
 40
1.374228596763704
100
AcDbArc
 50
322.8375714921478
 51
357.8835008096174
  0
ARC
  5
82
330
1F
100
AcDbEntity
  8
0
  6
CONTINUOUS
 62
     7
100
AcDbCircle
 10
894.2807855064693
 20
227.8827885741799
 30
0.0
 40
1.500764232004069
100
AcDbArc
 50
3.691543603981301
 51
35.6763276611831
  0
ARC
  5
83
330
1F
100
AcDbEntity
  8
0
  6
CONTINUOUS
 62
     7
100
AcDbCircle
 10
794.6804144837624
 20
228.0246959654063
 30
0.0
 40
1.09949536189922
100
AcDbArc
 50
357.5160198672569
 51
41.86255011534479
  0
ARC
  5
84
330
1F
100
AcDbEntity
  8
0
  6
CONTINUOUS
 62
     7
100
AcDbCircle
 10
879.6544058332565
 20
127.5013949593163
 30
0.0
 40
1.124685048812707
100
AcDbArc
 50
318.7408620302768
 51
1.912284741696396
  0
ARC
  5
85
330
1F
100
AcDbEntity
  8
0
  6
CONTINUOUS
 62
     7
100
AcDbCircle
 10
779.6997303424179
 20
127.4788887659736
 30
0.0
 40
1.076283856498574
100
AcDbArc
 50
318.0732724366176
 51
2.207815181812975
  0
ARC
  5
86
330
1F
100
AcDbEntity
  8
0
  6
CONTINUOUS
 62
     7
100
AcDbCircle
 10
884.5273931754092
 20
227.9718059379418
 30
0.0
 40
1.251236595333052
100
AcDbArc
 50
0.2950897572038684
 51
38.93594520442593
  0
ARC
  5
87
330
1F
100
AcDbEntity
  8
0
  6
CONTINUOUS
 62
     7
100
AcDbCircle
 10
824.676118060013
 20
228.0236985227643
 30
0.0
 40
1.103772036609649
100
AcDbArc
 50
357.5506466976417
 51
41.76364858872825
  0
LINE
  5
88
330
1F
100
AcDbEntity
  8
0
  6
CONTINUOUS
 62
     7
100
AcDbLine
 10
750.4998521244852
 20
126.7599370163695
 30
0.0
 11
750.5855194757236
 21
126.8334690828453
 31
0.0
  0
LINE
  5
89
330
1F
100
AcDbEntity
  8
0
  6
CONTINUOUS
 62
     7
100
AcDbLine
 10
820.5747598284603
 20
126.8159227228302
 30
0.0
 11
820.7788698544009
 21
127.5412637309399
 31
0.0
  0
LINE
  5
8A
330
1F
100
AcDbEntity
  8
0
  6
CONTINUOUS
 62
     7
100
AcDbLine
 10
820.499623426873
 20
126.7590882402947
 30
0.0
 11
820.5747598284602
 21
126.8159227228302
 31
0.0
  0
ARC
  5
8B
330
1F
100
AcDbEntity
  8
0
  6
CONTINUOUS
 62
     7
100
AcDbCircle
 10
774.6791910394481
 20
228.0250986724349
 30
0.0
 40
1.100372242160355
100
AcDbArc
 50
357.5928582065784
 51
41.77162266901275
  0
ARC
  5
8C
330
1F
100
AcDbEntity
  8
0
  6
CONTINUOUS
 62
     7
100
AcDbCircle
 10
804.6663408790828
 20
228.0209556800861
 30
0.0
 40
1.113364732213028
100
AcDbArc
 50
357.7410110996064
 51
41.49454015108688
  0
LINE
  5
8D
330
1F
100
AcDbEntity
  8
0
  6
CONTINUOUS
 62
     7
100
AcDbLine
 10
810.5002034369209
 20
126.7592255702463
 30
0.0
 11
810.5826552617907
 21
126.828659329588
 31
0.0
  0
LINE
  5
8E
330
1F
100
AcDbEntity
  8
0
  6
CONTINUOUS
 62
     7
100
AcDbLine
 10
870.5776290122146
 20
126.8199445596543
 30
0.0
 11
870.7761428265861
 21
127.5261544004509
 31
0.0
  0
ARC
  5
8F
330
1F
100
AcDbEntity
  8
0
  6
CONTINUOUS
 62
     7
100
AcDbCircle
 10
758.6568216590064
 20
127.8584495158911
 30
0.0
 40
2.145659612374921
100
AcDbArc
 50
329.2044837881764
 51
351.4270519249035
  0
ARC
  5
90
330
1F
100
AcDbEntity
  8
0
  6
CONTINUOUS
 62
     7
100
AcDbCircle
 10
729.5028687109087
 20
127.5555548905268
 30
0.0
 40
1.275792351693648
100
AcDbArc
 50
321.4100811009809
 51
359.2719642751711
  0
ARC
  5
91
330
1F
100
AcDbEntity
  8
0
  6
CONTINUOUS
 62
     7
100
AcDbCircle
 10
859.0298509623979
 20
131.8496877854808
 30
0.0
 40
8.564108333870813
100
AcDbArc
 50
184.6138619134
 51
196.8174774697716
  0
ARC
  5
92
330
1F
100
AcDbEntity
  8
0
  6
CONTINUOUS
 62
     7
100
AcDbCircle
 10
329.9550748842439
 20
180.5619259668948
 30
0.0
 40
528.1883639428835
100
AcDbArc
 50
0.8690110427134529
 51
4.874078540576419
  0
ARC
  5
93
330
1F
100
AcDbEntity
  8
0
  6
CONTINUOUS
 62
     7
100
AcDbCircle
 10
849.5558495255029
 20
131.9375247142675
 30
0.0
 40
9.096407546757963
100
AcDbArc
 50
184.7366579015859
 51
196.2592319337611
  0
ARC
  5
94
330
1F
100
AcDbEntity
  8
0
  6
CONTINUOUS
 62
     7
100
AcDbCircle
 10
874.7679380139065
 20
228.0565990579277
 30
0.0
 40
1.013791434369725
100
AcDbArc
 50
355.5427754667675
 51
43.800725169347
  0
ARC
  5
95
330
1F
100
AcDbEntity
  8
0
  6
CONTINUOUS
 62
     7
100
AcDbCircle
 10
784.672350118531
 20
228.0223212932424
 30
0.0
 40
1.107524117891395
100
AcDbArc
 50
357.6466256859503
 51
41.64375383817446
  0
ARC
  5
96
330
1F
100
AcDbEntity
  8
0
  6
CONTINUOUS
 62
     7
100
AcDbCircle
 10
739.2466231060972
 20
127.6471619329114
 30
0.0
 40
1.535629557534973
100
AcDbArc
 50
324.7047518162319
 51
355.9302412751024
  0
ARC
  5
97
330
1F
100
AcDbEntity
  8
0
  6
CONTINUOUS
 62
     7
100
AcDbCircle
 10
734.3768021661414
 20
227.9172658750545
 30
0.0
 40
1.403092609003946
100
AcDbArc
 50
2.510359333888061
 51
36.81662083538924
  0
ARC
  5
98
330
1F
100
AcDbEntity
  8
0
  6
CONTINUOUS
 62
     7
100
AcDbCircle
 10
2276.3157508035
 20
224.1048364335457
 30
0.0
 40
1548.641377640728
100
AcDbArc
 50
181.3124598692852
 51
183.4209444283727
  0
ARC
  5
99
330
1F
100
AcDbEntity
  8
0
  6
CONTINUOUS
 62
     7
100
AcDbCircle
 10
201.8519468988457
 20
180.6719775428859
 30
0.0
 40
526.288933925262
100
AcDbArc
 50
0.8667957173268519
 51
4.879813833536446
  0
ARC
  5
9A
330
1F
100
AcDbEntity
  8
0
  6
CONTINUOUS
 62
     7
100
AcDbCircle
 10
740.3751360686643
 20
132.2076924581904
 30
0.0
 40
9.954400164126836
100
AcDbArc
 50
182.9497941076118
 51
196.5867510367487
  0
ARC
  5
9B
330
1F
100
AcDbEntity
  8
0
  6
CONTINUOUS
 62
     7
100
AcDbCircle
 10
889.7611609049994
 20
132.1042297398266
 30
0.0
 40
9.33375686189092
100
AcDbArc
 50
182.7571594435256
 51
197.1627363685392
  0
ARC
  5
9C
330
1F
100
AcDbEntity
  8
0
  6
CONTINUOUS
 62
     7
100
AcDbCircle
 10
799.6677782921267
 20
127.4970950319816
 30
0.0
 40
1.11216638748205
100
AcDbArc
 50
318.4480033597765
 51
2.308384726274312
  0
LINE
  5
9D
330
1F
100
AcDbEntity
  8
0
  6
CONTINUOUS
 62
     7
100
AcDbLine
 10
750.5855194757235
 20
126.8334690828453
 30
0.0
 11
750.7752210705233
 21
127.5204709099469
 31
0.0
  0
ARC
  5
9E
330
1F
100
AcDbEntity
  8
0
  6
CONTINUOUS
 62
     7
100
AcDbCircle
 10
337.367788336105
 20
180.4077265990634
 30
0.0
 40
530.7793788794106
100
AcDbArc
 50
0.8715979576052746
 51
4.866967350379468
  0
ARC
  5
9F
330
1F
100
AcDbEntity
  8
0
  6
CONTINUOUS
 62
     7
100
AcDbCircle
 10
2401.243157266291
 20
223.4748522300608
 30
0.0
 40
1533.556695952111
100
AcDbArc
 50
181.3075031319677
 51
183.4321618772573
  0
ARC
  5
A0
330
1F
100
AcDbEntity
  8
0
  6
CONTINUOUS
 62
     7
100
AcDbCircle
 10
879.9910037542122
 20
132.1422906610552
 30
0.0
 40
9.56579642109427
100
AcDbArc
 50
182.8548156169104
 51
196.9354917641809
  0
ARC
  5
A1
330
1F
100
AcDbEntity
  8
0
  6
CONTINUOUS
 62
     7
100
AcDbCircle
 10
829.6771703561277
 20
127.493816128998
 30
0.0
 40
1.102703952274387
100
AcDbArc
 50
318.2140478563072
 51
2.467282309527036
  0
ARC
  5
A2
330
1F
100
AcDbEntity
  8
0
  6
CONTINUOUS
 62
     7
100
AcDbCircle
 10
870.5859672468497
 20
132.2530533041071
 30
0.0
 40
10.17012087244779
100
AcDbArc
 50
182.8376232456049
 51
196.4701005915225
  0
ARC
  5
A3
330
1F
100
AcDbEntity
  8
0
  6
CONTINUOUS
 62
     7
100
AcDbCircle
 10
753.8138607343606
 20
227.7155737938124
 30
0.0
 40
1.982263646673069
100
AcDbArc
 50
7.645182307617801
 51
31.72679565668692
  0
ARC
  5
A4
330
1F
100
AcDbEntity
  8
0
  6
CONTINUOUS
 62
     7
100
AcDbCircle
 10
724.6262883470282
 20
228.007219495118
 30
0.0
 40
1.152092350543902
100
AcDbArc
 50
358.7026590421145
 51
40.68064439146941
  0
ARC
  5
A5
330
1F
100
AcDbEntity
  8
0
  6
CONTINUOUS
 62
     7
100
AcDbCircle
 10
324.4384503257747
 20
180.8124574375268
 30
0.0
 40
523.7000638811128
100
AcDbArc
 50
0.858794580993333
 51
4.888289651931814
  0
ARC
  5
A6
330
1F
100
AcDbEntity
  8
0
  6
CONTINUOUS
 62
     7
100
AcDbCircle
 10
789.6787508387281
 20
127.4934113042344
 30
0.0
 40
1.101006130095215
100
AcDbArc
 50
318.2011239042467
 51
2.433898223623373
  0
ARC
  5
A7
330
1F
100
AcDbEntity
  8
0
  6
CONTINUOUS
 62
     7
100
AcDbCircle
 10
2269.982871674492
 20
223.4042423754878
 30
0.0
 40
1532.294513944363
100
AcDbArc
 50
181.3079397326491
 51
183.4323013331595
  0
ARC
  5
A8
330
1F
100
AcDbEntity
  8
0
  6
CONTINUOUS
 62
     7
100
AcDbCircle
 10
783.0572805863012
 20
132.5533515307696
 30
0.0
 40
12.64661281134692
100
AcDbArc
 50
184.7321387713756
 51
194.1153002107602
  0
ARC
  5
A9
330
1F
100
AcDbEntity
  8
0
  6
CONTINUOUS
 62
     7
100
AcDbCircle
 10
221.2768853584989
 20
179.4443191421476
 30
0.0
 40
546.894386785717
100
AcDbArc
 50
0.8829980114026057
 51
4.824399078355043
  0
ARC
  5
AA
330
1F
100
AcDbEntity
  8
0
  6
CONTINUOUS
 62
     7
100
AcDbCircle
 10
2230.78460777614
 20
220.1376160593355
 30
0.0
 40
1453.034893296622
100
AcDbArc
 50
181.2782437812339
 51
183.4979919776383
  0
ARC
  5
AB
330
1F
100
AcDbEntity
  8
0
  6
CONTINUOUS
 62
     7
100
AcDbCircle
 10
2253.139322797755
 20
222.3125263484809
 30
0.0
 40
1505.430850019352
100
AcDbArc
 50
181.2975438132109
 51
183.4544756455539
  0
ARC
  5
AC
330
1F
100
AcDbEntity
  8
0
  6
CONTINUOUS
 62
     7
100
AcDbCircle
 10
2237.281520937438
 20
220.8323975051692
 30
0.0
 40
1469.544866746014
100
AcDbArc
 50
181.2851822922889
 51
183.4847189134154
  0
ARC
  5
AD
330
1F
100
AcDbEntity
  8
0
  6
CONTINUOUS
 62
     7
100
AcDbCircle
 10
2219.206288294974
 20
218.5133196410494
 30
0.0
 40
1411.427705806232
100
AcDbArc
 50
181.260948457033
 51
183.5413176858495
  0
ARC
  5
AE
330
1F
100
AcDbEntity
  8
0
  6
CONTINUOUS
 62
     7
100
AcDbCircle
 10
241.4813099200295
 20
178.8688939764578
 30
0.0
 40
556.7036773927302
100
AcDbArc
 50
0.8927810358773625
 51
4.798631711907943
  0
ARC
  5
AF
330
1F
100
AcDbEntity
  8
0
  6
CONTINUOUS
 62
     7
100
AcDbCircle
 10
356.510311979543
 20
179.7472504145327
 30
0.0
 40
541.6537931107163
100
AcDbArc
 50
0.8772946229783544
 51
4.839233598329542
  0
ARC
  5
B0
330
1F
100
AcDbEntity
  8
0
  6
CONTINUOUS
 62
     7
100
AcDbCircle
 10
2429.122455757707
 20
223.0664744494869
 30
0.0
 40
1531.422444060033
100
AcDbArc
 50
181.3105543345695
 51
183.4156501012228
  0
ARC
  5
B1
330
1F
100
AcDbEntity
  8
0
  6
CONTINUOUS
 62
     7
100
AcDbCircle
 10
2243.484038322165
 20
220.3088078133458
 30
0.0
 40
1455.7383561447
100
AcDbArc
 50
181.2794190292691
 51
183.4993299602826
  0
ARC
  5
B2
330
1F
100
AcDbEntity
  8
0
  6
CONTINUOUS
 62
     7
100
AcDbCircle
 10
802.4936459702969
 20
132.4535525863611
 30
0.0
 40
12.07510779640714
100
AcDbArc
 50
184.7430251558375
 51
194.3402163634975
  0
ARC
  5
B3
330
1F
100
AcDbEntity
  8
0
  6
CONTINUOUS
 62
     7
100
AcDbCircle
 10
792.7718161518318
 20
132.5030000161511
 30
0.0
 40
12.35719317675656
100
AcDbArc
 50
184.7357448322973
 51
194.226731525823
  0
ARC
  5
B4
330
1F
100
AcDbEntity
  8
0
  6
CONTINUOUS
 62
     7
100
AcDbCircle
 10
2246.615081923031
 20
221.678994614779
 30
0.0
 40
1488.895499503402
100
AcDbArc
 50
181.2910030444206
 51
183.4709421860489
  0
ARC
  5
B5
330
1F
100
AcDbEntity
  8
0
  6
CONTINUOUS
 62
     7
100
AcDbCircle
 10
899.2493320205236
 20
132.0036150649146
 30
0.0
 40
8.81392770316551
100
AcDbArc
 50
182.6882298028772
 51
197.5584838822565
  0
ARC
  5
B6
330
1F
100
AcDbEntity
  8
0
  6
CONTINUOUS
 62
     7
100
AcDbCircle
 10
238.2018850428785
 20
179.2745630934774
 30
0.0
 40
549.9728777026123
100
AcDbArc
 50
0.8887057547824497
 51
4.814965212200093
  0
ARC
  5
B7
330
1F
100
AcDbEntity
  8
0
  6
CONTINUOUS
 62
     7
100
AcDbCircle
 10
749.8099631644577
 20
132.1109044403049
 30
0.0
 40
9.38352964490886
100
AcDbArc
 50
182.7109209691051
 51
197.0726561202433
  0
LINE
  5
B8
330
1F
100
AcDbEntity
  8
0
  6
CONTINUOUS
 62
     7
100
AcDbLine
 10
900.4204436994028
 20
131.8258009551689
 30
0.0
 11
900.4999999552423
 21
131.1051996231041
 31
0.0
  0
LINE
  5
B9
330
1F
100
AcDbEntity
  8
0
  6
CONTINUOUS
 62
     7
100
AcDbLine
 10
900.4999999552434
 20
131.1051996231094
 30
0.0
 11
900.4999999552434
 21
126.7599148145125
 31
0.0
  0
ARC
  5
BA
330
1F
100
AcDbEntity
  8
0
  6
CONTINUOUS
 62
     7
100
AcDbCircle
 10
1332.21348629216
 20
169.178461920906
 30
0.0
 40
437.6973433851616
100
AcDbArc
 50
180.8646235108885
 51
185.1250658619872
  0
ARC
  5
BB
330
1F
100
AcDbEntity
  8
0
  6
CONTINUOUS
 62
     7
100
AcDbCircle
 10
217.1753735859796
 20
179.8056210307578
 30
0.0
 40
540.9862562859076
100
AcDbArc
 50
0.8820565118661535
 51
4.838979103408008
  0
ARC
  5
BC
330
1F
100
AcDbEntity
  8
0
  6
CONTINUOUS
 62
     7
100
AcDbCircle
 10
773.7437041092904
 20
132.655264204182
 30
0.0
 40
13.3398247536045
100
AcDbArc
 50
184.8052337020796
 51
193.7056879707868
  0
ARC
  5
BD
330
1F
100
AcDbEntity
  8
0
  6
CONTINUOUS
 62
     7
100
AcDbCircle
 10
352.1610139258954
 20
180.0993565059424
 30
0.0
 40
535.993563274928
100
AcDbArc
 50
0.8768371670834085
 51
4.85263220669691
  0
ARC
  5
BE
330
1F
100
AcDbEntity
  8
0
  6
CONTINUOUS
 62
     7
100
AcDbCircle
 10
2396.750901648646
 20
222.5002303160424
 30
0.0
 40
1509.046647628585
100
AcDbArc
 50
181.298566977507
 51
183.4537799784031
  0
ARC
  5
BF
330
1F
100
AcDbEntity
  8
0
  6
CONTINUOUS
 62
     7
100
AcDbCircle
 10
821.2548912085749
 20
132.2403547807634
 30
0.0
 40
10.81942231236402
100
AcDbArc
 50
184.8169567723369
 51
195.0481503946901
  0
ARC
  5
C0
330
1F
100
AcDbEntity
  8
0
  6
CONTINUOUS
 62
     7
100
AcDbCircle
 10
-921.750328310617
 20
119.3472583908735
 30
0.0
 40
1816.830605072572
100
AcDbArc
 50
1.363320452046511
 51
3.290901036363711
  0
ARC
  5
C1
330
1F
100
AcDbEntity
  8
0
  6
CONTINUOUS
 62
     7
100
AcDbCircle
 10
2229.622174319899
 20
219.2924929880994
 30
0.0
 40
1431.856811379866
100
AcDbArc
 50
181.2705574517988
 51
183.5188310722274
  0
ARC
  5
C2
330
1F
100
AcDbEntity
  8
0
  6
CONTINUOUS
 62
     7
100
AcDbCircle
 10
811.883218258407
 20
132.3571843083985
 30
0.0
 40
11.45756487743878
100
AcDbArc
 50
184.7419496095533
 51
194.7560478270605
  0
ARC
  5
C3
330
1F
100
AcDbEntity
  8
0
  6
CONTINUOUS
 62
     7
100
AcDbCircle
 10
246.7004709392518
 20
178.6086688492918
 30
0.0
 40
561.4895713574374
100
AcDbArc
 50
0.9025904217534162
 51
4.784223134728848
  0
ARC
  5
C4
330
1F
100
AcDbEntity
  8
0
  6
CONTINUOUS
 62
     7
100
AcDbCircle
 10
2214.306889737232
 20
217.8636944007554
 30
0.0
 40
1396.515276106344
100
AcDbArc
 50
181.2562258506081
 51
183.5535531205034
  0
ARC
  5
C5
330
1F
100
AcDbEntity
  8
0
  6
CONTINUOUS
 62
     7
100
AcDbCircle
 10
225.0768153776667
 20
179.0942809707591
 30
0.0
 40
553.1018059942344
100
AcDbArc
 50
0.8939605410938043
 51
4.806690086739765
  0
ARC
  5
C6
330
1F
100
AcDbEntity
  8
0
  6
CONTINUOUS
 62
     7
100
AcDbCircle
 10
764.4794814561147
 20
132.779040040748
 30
0.0
 40
14.08488316729822
100
AcDbArc
 50
184.7932157036311
 51
193.4461701241833
  0
ARC
  5
C7
330
1F
100
AcDbEntity
  8
0
  6
CONTINUOUS
 62
     7
100
AcDbCircle
 10
830.6537363775144
 20
132.1415524455346
 30
0.0
 40
10.2113158641736
100
AcDbArc
 50
184.6954764994418
 51
195.4915952119887
  0
ARC
  5
C8
330
1F
100
AcDbEntity
  8
0
  6
CONTINUOUS
 62
     7
100
AcDbCircle
 10
210.9435980607506
 20
180.017389155185
 30
0.0
 40
537.2135647983768
100
AcDbArc
 50
0.8751745024877666
 51
4.850395736152905
  0
ARC
  5
C9
330
1F
100
AcDbEntity
  8
0
  6
CONTINUOUS
 62
     7
100
AcDbCircle
 10
207.8802007068805
 20
180.4192726084813
 30
0.0
 40
530.2678737444614
100
AcDbArc
 50
0.8654116232029878
 51
4.870444689336694
  0
LWPOLYLINE
  5
CA
330
1F
100
AcDbEntity
  8
0
  6
CONTINUOUS
 62
     7
100
AcDbPolyline
 90
       33
 70
     0
 43
0.0
 10
860.5000403894641
 20
126.7593599818904
 10
860.508747737252
 20
126.7600989699525
 10
860.51745508504
 20
126.7623661941969
 10
860.5261624328278
 20
126.7661624073111
 10
860.5348697806157
 20
126.7714883619829
 10
860.5435771284036
 20
126.7783448108999
 10
860.5522844761917
 20
126.7867325067499
 10
860.5609918239796
 20
126.7966522022205
 10
860.5696991717676
 20
126.8081046499994
 10
860.5784065195555
 20
126.8210906027744
 10
860.5871138673435
 20
126.8356108044808
 10
860.5958212151314
 20
126.8516651988721
 10
860.6045285629193
 20
126.8692522984122
 10
860.6132359107073
 20
126.8883704670507
 10
860.6219432584952
 20
126.909018068737
 10
860.6306506062831
 20
126.9311934674206
 10
860.6393579540712
 20
126.954895027051
 10
860.6480653018589
 20
126.9801211115778
 10
860.6567726496469
 20
127.0068700849503
 10
860.6654799974349
 20
127.0351403111182
 10
860.6741873452229
 20
127.0649301540309
 10
860.6828946930108
 20
127.0962379776378
 10
860.6916020407987
 20
127.1290621458885
 10
860.7003093885864
 20
127.1634010227326
 10
860.7090167363747
 20
127.1992529721194
 10
860.7177240841627
 20
127.2366163579985
 10
860.7264314319507
 20
127.2754895443194
 10
860.7351387797385
 20
127.3158708950316
 10
860.7438461275265
 20
127.3577587740845
 10
860.7525534753142
 20
127.4011515454277
 10
860.7612608231025
 20
127.4460475730107
 10
860.7699681708903
 20
127.4924452207829
 10
860.7786755186783
 20
127.5403428526942
  0
LWPOLYLINE
  5
CB
330
1F
100
AcDbEntity
  8
0
  6
CONTINUOUS
 62
     7
100
AcDbPolyline
 90
      105
 70
     0
 43
0.0
 10
-891.9998931413126
 20
228.7580346795529
 10
-892.0452868451625
 20
228.7374664313304
 10
-892.0906805490126
 20
228.6755090753767
 10
-892.136074252863
 20
228.5721320065523
 10
-892.1814679567128
 20
228.4273046197179
 10
-892.2268616605628
 20
228.2410349011575
 10
-892.2722553644129
 20
228.0135508810398
 10
-892.3176490682631
 20
227.7451584626567
 10
-892.3630427721131
 20
227.4361636397026
 10
-892.4084364759632
 20
227.0868724058715
 10
-892.4538301798134
 20
226.6975907548576
 10
-892.4992238836633
 20
226.268624680355
 10
-892.5446175875136
 20
225.8002801760579
 10
-892.5900112913636
 20
225.2928632356605
 10
-892.6354049952135
 20
224.7466798528567
 10
-892.6807986990635
 20
224.1620668246037
 10
-892.7261924029137
 20
223.5395613968508
 10
-892.7715861067636
 20
222.8797810162715
 10
-892.8169798106139
 20
222.1833433417325
 10
-892.8623735144638
 20
221.4508660321007
 10
-892.9077672183137
 20
220.6829667462427
 10
-892.9531609221638
 20
219.8802631430255
 10
-892.9985546260136
 20
219.0433728813156
 10
-893.0439483298638
 20
218.1729136199801
 10
-893.0893420337136
 20
217.2695030178855
 10
-893.1347357375637
 20
216.3337808282128
 10
-893.1801294414138
 20
215.3665513988394
 10
-893.2255231452637
 20
214.3686933628026
 10
-893.2709168491137
 20
213.3410857146841
 10
-893.3163105529637
 20
212.2846074490656
 10
-893.3617042568138
 20
211.2001375605287
 10
-893.4070979606637
 20
210.088555043655
 10
-893.452491664514
 20
208.9507388930264
 10
-893.497885368364
 20
207.7875681032241
 10
-893.5432790722139
 20
206.5999216688301
 10
-893.588672776064
 20
205.3886921870574
 10
-893.6340664799142
 20
204.1548887299387
 10
-893.679460183764
 20
202.8995795380567
 10
-893.7248538876142
 20
201.6238333175106
 10
-893.7702475914643
 20
200.3287187743994
 10
-893.8156412953144
 20
199.0153046148219
 10
-893.8610349991645
 20
197.6846595448772
 10
-893.9064287030146
 20
196.3378522706643
 10
-893.9518224068646
 20
194.9759514982821
 10
-893.9972161107149
 20
193.6000259338299
 10
-894.0426098145649
 20
192.2111504648081
 10
-894.088003518415
 20
190.8104611246731
 10
-894.1333972222651
 20
189.3991288409786
 10
-894.1787909261151
 20
187.9783249486462
 10
-894.2241846299653
 20
186.5492207825976
 10
-894.2695783338153
 20
185.1129876777546
 10
-894.3149720376653
 20
183.6707969690389
 10
-894.3603657415154
 20
182.2238199913722
 10
-894.4057594453654
 20
180.7732280796763
 10
-894.4511531492154
 20
179.3201925688729
 10
-894.4965468530656
 20
177.865885153442
 10
-894.5419405569156
 20
176.4114816624821
 10
-894.5873342607657
 20
174.9581605712579
 10
-894.6327279646157
 20
173.5071003981887
 10
-894.6781216684659
 20
172.0594796616935
 10
-894.7235153723159
 20
170.6164768801915
 10
-894.768909076166
 20
169.1792705721019
 10
-894.8143027800161
 20
167.7490392558438
 10
-894.8596964838658
 20
166.3269614498363
 10
-894.905090187716
 20
164.9142156724988
 10
-894.9504838915661
 20
163.5119767913044
 10
-894.9958775954162
 20
162.1213704955952
 10
-895.0412712992662
 20
160.743487224748
 10
-895.086665003116
 20
159.3794166500122
 10
-895.1320587069662
 20
158.0302484426374
 10
-895.177452410816
 20
156.6970722738731
 10
-895.2228461146661
 20
155.3809778149687
 10
-895.268239818516
 20
154.0830547371737
 10
-895.3136335223661
 20
152.8043927117377
 10
-895.3590272262161
 20
151.54608140991
 10
-895.4044209300661
 20
150.3092045928507
 10
-895.4498146339163
 20
149.0947518991761
 10
-895.4952083377663
 20
147.9036374866616
 10
-895.5406020416162
 20
146.736773388363
 10
-895.5859957454664
 20
145.5950716373366
 10
-895.6313894493165
 20
144.4794442666384
 10
-895.6767831531665
 20
143.3908033093243
 10
-895.7221768570166
 20
142.3300607984505
 10
-895.7675705608668
 20
141.2981287670732
 10
-895.8129642647168
 20
140.2959192482482
 10
-895.8583579685669
 20
139.3243375957592
 10
-895.903751672417
 20
138.3841619695338
 10
-895.9491453762671
 20
137.4760564872477
 10
-895.9945390801171
 20
136.6006812274512
 10
-896.0399327839672
 20
135.7586962686948
 10
-896.0853264878174
 20
134.9507616895291
 10
-896.1307201916671
 20
134.1775375685042
 10
-896.1761138955175
 20
133.4396839841707
 10
-896.2215075993676
 20
132.7378610150791
 10
-896.2669013032175
 20
132.0727287397796
 10
-896.3122950070676
 20
131.4449408977855
 10
-896.3576887109176
 20
130.8550048810295
 10
-896.4030824147678
 20
130.3032814278114
 10
-896.4484761186176
 20
129.790124876183
 10
-896.4938698224676
 20
129.3158895641961
 10
-896.5392635263178
 20
128.8809298299022
 10
-896.5846572301676
 20
128.4856000113533
 10
-896.6300509340177
 20
128.1302544466009
 10
-896.6754446378677
 20
127.8152474736968
 10
-896.7208383417184
 20
127.5409334306896
210
0.0
220
0.0
230
-1.0
  0
LWPOLYLINE
  5
CC
330
1F
100
AcDbEntity
  8
0
  6
CONTINUOUS
 62
     7
100
AcDbPolyline
 90
        3
 70
     0
 43
0.0
 10
840.8232550387054
 20
129.3906788638348
 10
840.8913870730071
 20
129.2823529082471
 10
840.9406889883676
 20
129.2589618587238
  0
LWPOLYLINE
  5
CD
330
1F
100
AcDbEntity
  8
0
  6
CONTINUOUS
 62
     7
100
AcDbPolyline
 90
        3
 70
     0
 43
0.0
 10
830.8202919020229
 20
129.3976765119395
 10
830.8884328382424
 20
129.2850828596893
 10
830.9406972004664
 20
129.2589618587217
  0
LWPOLYLINE
  5
CE
330
1F
100
AcDbEntity
  8
0
  6
CONTINUOUS
 62
     7
100
AcDbPolyline
 90
      105
 70
     0
 43
0.0
 10
835.7788495170092
 20
227.9766088272777
 10
835.8242452079792
 20
227.7027201647611
 10
835.8696408989495
 20
227.3882837742306
 10
835.9150365899196
 20
227.0334778929514
 10
835.9604322808897
 20
226.6384807581889
 10
836.0058279718595
 20
226.2035028816149
 10
836.0512236628296
 20
225.7289636080122
 10
836.0966193537995
 20
225.2153654061769
 10
836.1420150447698
 20
224.6632109583681
 10
836.1874107357397
 20
224.0730029468448
 10
836.2328064267098
 20
223.4452440538661
 10
836.2782021176797
 20
222.780436961691
 10
836.3235978086497
 20
222.0790843525785
 10
836.3689934996197
 20
221.3416889087876
 10
836.4143891905898
 20
220.5687533125776
 10
836.4597848815598
 20
219.7608044167158
 10
836.50518057253
 20
218.9185478366492
 10
836.5505762635001
 20
218.0427693597129
 10
836.5959719544702
 20
217.1342551524823
 10
836.6413676454403
 20
216.1937913815327
 10
836.6867633364103
 20
215.2221642134397
 10
836.7321590273804
 20
214.2201598147784
 10
836.7775547183505
 20
213.1885643521244
 10
836.8229504093205
 20
212.1281639920529
 10
836.8683461002908
 20
211.0397449011396
 10
836.9137417912611
 20
209.9241091479688
 10
836.9591374822309
 20
208.782193753576
 10
837.0045331732011
 20
207.6150037877983
 10
837.0499288641712
 20
206.4235448413485
 10
837.0953245551412
 20
205.2088225049395
 10
837.1407202461113
 20
203.9718423692842
 10
837.1861159370815
 20
202.7136100250956
 10
837.2315116280516
 20
201.4351310630865
 10
837.2769073190216
 20
200.1374110739698
 10
837.3223030099919
 20
198.8214556484585
 10
837.3676987009618
 20
197.4882787677508
 10
837.4130943919316
 20
196.1389765193611
 10
837.4584900829017
 20
194.7746914502606
 10
837.5038857738718
 20
193.3965666355139
 10
837.5492814648418
 20
192.0057451501854
 10
837.594677155812
 20
190.6033700693398
 10
837.6400728467818
 20
189.1905844680414
 10
837.685468537752
 20
187.7685314213549
 10
837.7308642287219
 20
186.3383540043446
 10
837.7762599196919
 20
184.9011952920751
 10
837.821655610662
 20
183.4582006147663
 10
837.8670513016322
 20
182.0105409029223
 10
837.9124469926022
 20
180.5594033155338
 10
837.9578426835724
 20
179.1059752694245
 10
838.0032383745427
 20
177.6514441814179
 10
838.0486340655128
 20
176.1969974683375
 10
838.0940297564828
 20
174.7438225470067
 10
838.1394254474529
 20
173.2931068342492
 10
838.1848211384231
 20
171.8460377468885
 10
838.2302168293932
 20
170.403802701748
 10
838.2756125203632
 20
168.9675869202362
 10
838.3210082113334
 20
167.5385464993178
 10
838.3664039023032
 20
166.117816880509
 10
838.4117995932733
 20
164.7065330666458
 10
838.4571952842433
 20
163.3058300605639
 10
838.5025909752135
 20
161.9168428650993
 10
838.5479866661835
 20
160.5407064830876
 10
838.5933823571534
 20
159.1785559173648
 10
838.6387780481234
 20
157.8315261707666
 10
838.6841737390935
 20
156.500752246129
 10
838.7295694300634
 20
155.1873642144705
 10
838.7749651210338
 20
153.892415003543
 10
838.8203608120039
 20
152.6168963953957
 10
838.8657565029737
 20
151.3617984940437
 10
838.9111521939438
 20
150.1281114035018
 10
838.9565478849139
 20
148.9168252277849
 10
839.0019435758841
 20
147.7289300709079
 10
839.0473392668542
 20
146.5654160368858
 10
839.0927349578244
 20
145.4272732297335
 10
839.1381306487945
 20
144.3154917534657
 10
839.1835263397645
 20
143.2310555687088
 10
839.2289220307348
 20
142.1748340967085
 10
839.274317721705
 20
141.1475953664919
 10
839.3197134126751
 20
140.1501039053889
 10
839.3651091036452
 20
139.1831242407292
 10
839.4105047946153
 20
138.2474208998426
 10
839.4559004855854
 20
137.3437584100587
 10
839.5012961765553
 20
136.4729012987074
 10
839.5466918675254
 20
135.6356140931183
 10
839.5920875584955
 20
134.8326613206213
 10
839.6374832494655
 20
134.0648013467228
 10
839.6828789404354
 20
133.332653784103
 10
839.7282746314054
 20
132.6367011223479
 10
839.7736703223754
 20
131.9774200151805
 10
839.8190660133455
 20
131.355287116324
 10
839.8644617043153
 20
130.7707790795012
 10
839.9098573952854
 20
130.2243725584353
 10
839.9552530862554
 20
129.7165442068493
 10
840.0006487772253
 20
129.2477706784664
 10
840.0460444681953
 20
128.8185286270095
 10
840.0914401591655
 20
128.4292893243683
 10
840.1368358501355
 20
128.0803752871644
 10
840.1822315411056
 20
127.7719449185287
 10
840.2276272320757
 20
127.5041481588156
 10
840.2730229230459
 20
127.2771349483793
 10
840.3184186140159
 20
127.0910552275741
 10
840.3638143049861
 20
126.9460589367544
 10
840.4092099959563
 20
126.8422960162745
 10
840.4546056869266
 20
126.7799164064886
 10
840.5000013778966
 20
126.7590700477511
  0
LWPOLYLINE
  5
CF
330
1F
100
AcDbEntity
  8
0
  6
CONTINUOUS
 62
     7
100
AcDbPolyline
 90
      113
 70
     0
 43
0.0
 10
825.7788816780085
 20
227.9765274338771
 10
825.8210290725614
 20
227.7236170361454
 10
825.8631764671143
 20
227.4357045831307
 10
825.9053238616672
 20
227.1129154752717
 10
825.9474712562204
 20
226.7553755423631
 10
825.9896186507732
 20
226.3632868387593
 10
826.0317660453263
 20
225.9370147360943
 10
826.0739134398793
 20
225.4769456942834
 10
826.1160608344323
 20
224.9834661732418
 10
826.1582082289852
 20
224.4569626328846
 10
826.2003556235383
 20
223.8978215331271
 10
826.242503018091
 20
223.3064293338844
 10
826.2846504126439
 20
222.6831724950719
 10
826.326797807197
 20
222.0284374766047
 10
826.3689452017499
 20
221.342610738398
 10
826.411092596303
 20
220.6260811591629
 10
826.4532399908558
 20
219.8793325641706
 10
826.4953873854087
 20
219.1029726501083
 10
826.5375347799618
 20
218.2976174459785
 10
826.5796821745145
 20
217.4638829807839
 10
826.6218295690676
 20
216.6023852835274
 10
826.6639769636206
 20
215.7137403832114
 10
826.7061243581734
 20
214.7985643088386
 10
826.7482717527262
 20
213.8574730894118
 10
826.7904191472793
 20
212.8910827539337
 10
826.8325665418321
 20
211.9000093314068
 10
826.874713936385
 20
210.8848747514696
 10
826.9168613309381
 20
209.8463957590768
 10
826.9590087254908
 20
208.7853655759453
 10
827.0011561200438
 20
207.7025796035158
 10
827.0433035145967
 20
206.5988332432288
 10
827.0854509091496
 20
205.474921896525
 10
827.1275983037026
 20
204.331640964845
 10
827.1697456982555
 20
203.1697858496293
 10
827.2118930928085
 20
201.9901519523186
 10
827.2540404873613
 20
200.7935346743534
 10
827.2961878819142
 20
199.5807294171745
 10
827.3383352764673
 20
198.3525401673787
 10
827.3804826710203
 20
197.1098417505303
 10
827.4226300655732
 20
195.8535438835262
 10
827.464777460126
 20
194.5845565275702
 10
827.506924854679
 20
193.3037896438663
 10
827.5490722492319
 20
192.0121531936182
 10
827.5912196437849
 20
190.7105571380298
 10
827.6333670383378
 20
189.3999114383049
 10
827.6755144328909
 20
188.0811260556473
 10
827.7176618274437
 20
186.7551109512608
 10
827.7598092219968
 20
185.4227760863493
 10
827.8019566165497
 20
184.0850371964639
 10
827.8441040111028
 20
182.742836860082
 10
827.8862514056558
 20
181.3971254498387
 10
827.9283988002085
 20
180.0488533392122
 10
827.9705461947616
 20
178.6989709016806
 10
828.0126935893146
 20
177.348428510722
 10
828.0548409838676
 20
175.9981765398147
 10
828.0969883784206
 20
174.6491653624365
 10
828.1391357729733
 20
173.3023453520659
 10
828.1812831675265
 20
171.9586668821808
 10
828.2234305620794
 20
170.6190803114604
 10
828.2655779566323
 20
169.2845270618152
 10
828.3077253511854
 20
167.9559244886955
 10
828.3498727457384
 20
166.6341859374018
 10
828.3920201402913
 20
165.3202247532346
 10
828.4341675348444
 20
164.0149542814944
 10
828.4763149293973
 20
162.7192878674815
 10
828.5184623239502
 20
161.4341388564963
 10
828.560609718503
 20
160.1604205938394
 10
828.602757113056
 20
158.8990464248112
 10
828.6449045076089
 20
157.650929694712
 10
828.6870519021618
 20
156.4169831530781
 10
828.7291992967148
 20
155.198079430899
 10
828.7713466912676
 20
153.9950263216131
 10
828.8134940858208
 20
152.8086257191036
 10
828.8556414803736
 20
151.6396795172538
 10
828.8977888749264
 20
150.4889896099472
 10
828.9399362694793
 20
149.3573578910669
 10
828.9820836640324
 20
148.2455862544964
 10
829.0242310585851
 20
147.1544765941189
 10
829.0663784531381
 20
146.0848308038178
 10
829.1085258476911
 20
145.0374507774764
 10
829.1506732422441
 20
144.0131346904653
 10
829.1928206367968
 20
143.0125958288444
 10
829.2349680313499
 20
142.0364629414653
 10
829.2771154259028
 20
141.0853611290878
 10
829.3192628204558
 20
140.1599154924718
 10
829.3614102150085
 20
139.2607511323768
 10
829.4035576095617
 20
138.388493149563
 10
829.4457050041148
 20
137.54376664479
 10
829.4878523986678
 20
136.7271967188175
 10
829.5299997932207
 20
135.9394084724054
 10
829.5721471877737
 20
135.1810270063135
 10
829.6142945823265
 20
134.4526651970325
 10
829.6564419768796
 20
133.7548030882819
 10
829.6985893714326
 20
133.0878392329086
 10
829.7407367659854
 20
132.4521710026943
 10
829.7828841605384
 20
131.8481957694206
 10
829.8250315550914
 20
131.2763109048689
 10
829.8671789496442
 20
130.7369137808209
 10
829.9093263441972
 20
130.2304017690582
 10
829.95147373875
 20
129.7571722413623
 10
829.9936211333032
 20
129.3176225695148
 10
830.0357685278561
 20
128.9121501252974
 10
830.0779159224089
 20
128.5411237986954
 10
830.1200633169617
 20
128.2047432246998
 10
830.1622107115147
 20
127.9031457632884
 10
830.2043581060677
 20
127.6364686777304
 10
830.2465055006207
 20
127.4048492312953
 10
830.2886528951736
 20
127.2084246872522
 10
830.3308002897265
 20
127.0473323088705
 10
830.3729476842796
 20
126.9217093594196
 10
830.4150950788325
 20
126.8316931021688
 10
830.4572424733855
 20
126.7774208003874
 10
830.499389867938
 20
126.7590297105333
  0
LWPOLYLINE
  5
D0
330
1F
100
AcDbEntity
  8
0
  6
CONTINUOUS
 62
     7
100
AcDbPolyline
 90
      113
 70
     0
 43
0.0
 10
815.7790311904482
 20
227.9758348195275
 10
815.8211793354162
 20
227.7228278782544
 10
815.8633274803843
 20
227.434767241475
 10
815.9054756253524
 20
227.1117610253308
 10
815.9476237703205
 20
226.7539503353753
 10
815.9897719152887
 20
226.3616491835978
 10
816.0319200602565
 20
225.9352280372571
 10
816.0740682052246
 20
225.4750573951463
 10
816.1162163501926
 20
224.9815077560586
 10
816.1583644951609
 20
224.4549496187871
 10
816.2005126401289
 20
223.8957534821251
 10
816.2426607850969
 20
223.3042898448656
 10
816.2848089300651
 20
222.6809292058018
 10
816.3269570750331
 20
222.0260420637269
 10
816.3691052200012
 20
221.3399989499786
 10
816.4112533649693
 20
220.6232209897933
 10
816.4534015099373
 20
219.8762821325453
 10
816.4955496549053
 20
219.0997850698699
 10
816.5376977998735
 20
218.2943324934028
 10
816.5798459448416
 20
217.4605270947794
 10
816.6219940898097
 20
216.5989715656352
 10
816.6641422347778
 20
215.7102685976058
 10
816.7062903797458
 20
214.7950208823265
 10
816.748438524714
 20
213.853831111433
 10
816.7905866696822
 20
212.8873019765608
 10
816.8327348146502
 20
211.8960368281538
 10
816.8748829596183
 20
210.88070014204
 10
816.9170311045863
 20
209.8420662301058
 10
816.9591792495545
 20
208.780920866965
 10
817.0013273945226
 20
207.6980498272308
 10
817.0434755394907
 20
206.5942388855165
 10
817.0856236844587
 20
205.4702738164357
 10
817.1277718294268
 20
204.3269403946017
 10
817.169919974395
 20
203.165024394628
 10
817.212068119363
 20
201.9853115911279
 10
817.2542162643311
 20
200.7885877587148
 10
817.2963644092991
 20
199.5756406352877
 10
817.3385125542671
 20
198.3473121781788
 10
817.3806606992352
 20
197.1045041357844
 10
817.4228088442034
 20
195.8481213374556
 10
817.4649569891714
 20
194.5790686125434
 10
817.5071051341395
 20
193.2982507903993
 10
817.5492532791075
 20
192.0065727003744
 10
817.5914014240756
 20
190.70493917182
 10
817.6335495690437
 20
189.3942550340871
 10
817.6756977140117
 20
188.075425116527
 10
817.7178458589797
 20
186.7493542484911
 10
817.7599940039477
 20
185.4169493013666
 10
817.8021421489158
 20
184.0791427025795
 10
817.844290293884
 20
182.7368842734279
 10
817.8864384388519
 20
181.3911241686771
 10
817.9285865838201
 20
180.0428125430923
 10
817.9707347287882
 20
178.6928995514386
 10
818.0128828737562
 20
177.3423353484812
 10
818.0550310187242
 20
175.9920700889851
 10
818.0971791636923
 20
174.6430539277158
 10
818.1393273086604
 20
173.2962370194383
 10
818.1814754536285
 20
171.9525695189176
 10
818.2236235985965
 20
170.6129985149617
 10
818.2657717435648
 20
169.278450540843
 10
818.3079198885328
 20
167.9498436800936
 10
818.3500680335009
 20
166.6280959902621
 10
818.3922161784689
 20
165.3141255288974
 10
818.4343643234369
 20
164.0088503535483
 10
818.476512468405
 20
162.7131885217635
 10
818.5186606133731
 20
161.4280580910919
 10
818.5608087583411
 20
160.1543771190822
 10
818.6029569033092
 20
158.8930636632832
 10
818.6451050482772
 20
157.645035781187
 10
818.6872531932452
 20
156.4111929151141
 10
818.7294013382133
 20
155.1923632607326
 10
818.7715494831813
 20
153.9893579711615
 10
818.8136976281495
 20
152.8029881995198
 10
818.8558457731176
 20
151.6340650989267
 10
818.8979939180855
 20
150.4833998225011
 10
818.9401420630537
 20
149.3518035233621
 10
818.9822902080217
 20
148.2400873546288
 10
819.0244383529898
 20
147.1490624694201
 10
819.0665864979579
 20
146.0795400208552
 10
819.1087346429259
 20
145.0323309355951
 10
819.1508827878941
 20
144.0081973742749
 10
819.1930309328621
 20
143.0077923199859
 10
819.2351790778303
 20
142.0317539252293
 10
819.2773272227985
 20
141.0807203425062
 10
819.3194753677662
 20
140.1553297243179
 10
819.3616235127344
 20
139.2562202231655
 10
819.4037716577024
 20
138.3840299915502
 10
819.4459198026707
 20
137.5393971819734
 10
819.4880679476387
 20
136.7229599469359
 10
819.5302160926067
 20
135.9353564389392
 10
819.5723642375747
 20
135.1772227063003
 10
819.614512382543
 20
134.4491040516338
 10
819.656660527511
 20
133.7514224424951
 10
819.6988086724791
 20
133.0845910314017
 10
819.7409568174471
 20
132.4490229708713
 10
819.7831049624153
 20
131.8451314134213
 10
819.8252531073834
 20
131.2733295115693
 10
819.8674012523513
 20
130.7340304178328
 10
819.9095493973196
 20
130.2276472847293
 10
819.9516975422877
 20
129.7545932647764
 10
819.9938456872558
 20
129.3152815104917
 10
820.0359938322239
 20
128.9101173199259
 10
820.0781419771921
 20
128.5393715593178
 10
820.12029012216
 20
128.203202217964
 10
820.1624382671281
 20
127.9017637829835
 10
820.2045864120963
 20
127.6352107414948
 10
820.2467345570645
 20
127.4036975806168
 10
820.2888827020324
 20
127.207378787468
 10
820.3310308470005
 20
127.0464088491672
 10
820.3731789919686
 20
126.9209422528332
 10
820.4153271369368
 20
126.8311334855846
 10
820.4574752819046
 20
126.7771370345402
 10
820.499623426873
 20
126.7590882402947
  0
LWPOLYLINE
  5
D1
330
1F
100
AcDbEntity
  8
0
  6
CONTINUOUS
 62
     7
100
AcDbPolyline
 90
       33
 70
     0
 43
0.0
 10
-855.500251125288
 20
228.7586505360472
 10
-855.5089504663397
 20
228.7578725046029
 10
-855.5176498073913
 20
228.7555676214944
 10
-855.5263491484428
 20
228.7517350598522
 10
-855.5350484894948
 20
228.7463739928064
 10
-855.5437478305462
 20
228.7394835934869
 10
-855.552447171598
 20
228.731063035024
 10
-855.5611465126498
 20
228.7211114905478
 10
-855.5698458537013
 20
228.7096281331884
 10
-855.5785451947531
 20
228.6966125011896
 10
-855.5872445358048
 20
228.6820657198057
 10
-855.5959438768565
 20
228.6659893453773
 10
-855.6046432179081
 20
228.6483849342536
 10
-855.6133425589597
 20
228.6292540427835
 10
-855.6220419000115
 20
228.6085982273161
 10
-855.6307412410632
 20
228.5864190442006
 10
-855.6394405821148
 20
228.5627180497859
 10
-855.6481399231665
 20
228.5374968004211
 10
-855.6568392642181
 20
228.5107568524553
 10
-855.6655386052697
 20
228.4824997622376
 10
-855.6742379463216
 20
228.452727086117
 10
-855.6829372873733
 20
228.4214403804424
 10
-855.6916366284249
 20
228.3886412015632
 10
-855.7003359694767
 20
228.3543311058282
 10
-855.7090353105282
 20
228.3185116495865
 10
-855.7177346515798
 20
228.2811843891873
 10
-855.7264339926317
 20
228.2423508809796
 10
-855.7351333336833
 20
228.2020126813123
 10
-855.7438326747351
 20
228.1601713465346
 10
-855.7525320157866
 20
228.1168284329956
 10
-855.7612313568383
 20
228.0719854970442
 10
-855.76993069789
 20
228.0256440950297
 10
-855.7786300389417
 20
227.9778057833009
210
0.0
220
0.0
230
-1.0
  0
LWPOLYLINE
  5
D2
330
1F
100
AcDbEntity
  8
0
  6
CONTINUOUS
 62
     7
100
AcDbPolyline
 90
       33
 70
     0
 43
0.0
 10
770.499977568955
 20
126.759853311239
 10
770.5086872006274
 20
126.7606603016178
 10
770.5173968322996
 20
126.7629898335197
 10
770.5261064639719
 20
126.7668416427444
 10
770.5348160956443
 20
126.7722154650914
 10
770.5435257273167
 20
126.7791110363605
 10
770.5522353589889
 20
126.7875280923513
 10
770.5609449906613
 20
126.7974663688636
 10
770.5696546223336
 20
126.8089256016969
 10
770.5783642540059
 20
126.8219055266509
 10
770.5870738856783
 20
126.8364058795253
 10
770.5957835173504
 20
126.8524263961199
 10
770.6044931490228
 20
126.8699668122341
 10
770.6132027806951
 20
126.8890268636678
 10
770.6219124123675
 20
126.9096062862205
 10
770.6306220440397
 20
126.9317048156921
 10
770.6393316757119
 20
126.955322187882
 10
770.6480413073845
 20
126.98045813859
 10
770.6567509390566
 20
127.0071124036157
 10
770.665460570729
 20
127.0352847187589
 10
770.6741702024013
 20
127.0649748198192
 10
770.6828798340737
 20
127.0961824425963
 10
770.6915894657459
 20
127.1289073228898
 10
770.7002990974183
 20
127.1631491964993
 10
770.7090087290906
 20
127.1989077992247
 10
770.717718360763
 20
127.2361828668654
 10
770.7264279924352
 20
127.2749741352214
 10
770.7351376241077
 20
127.315281340092
 10
770.7438472557797
 20
127.3571042172771
 10
770.7525568874521
 20
127.4004425025763
 10
770.7612665191244
 20
127.4452959317894
 10
770.7699761507969
 20
127.4916642407158
 10
770.778685782469
 20
127.5395471649316
  0
LWPOLYLINE
  5
D3
330
1F
100
AcDbEntity
  8
0
  6
CONTINUOUS
 62
     7
100
AcDbPolyline
 90
      105
 70
     0
 43
0.0
 10
-732.0000585624718
 20
228.7580692772343
 10
-732.0454633024202
 20
228.7373648793435
 10
-732.0908680423685
 20
228.6752345121449
 10
-732.1362727823168
 20
228.5716393834446
 10
-732.1816775222652
 20
228.4265408198994
 10
-732.2270822622135
 20
228.2399803913671
 10
-732.2724870021619
 20
228.0122192088932
 10
-732.3178917421101
 20
227.7435555899113
 10
-732.3632964820583
 20
227.4342878518553
 10
-732.4087012220065
 20
227.084714312159
 10
-732.4541059619548
 20
226.6951332882561
 10
-732.4995107019031
 20
226.2658430975805
 10
-732.5449154418516
 20
225.7971420575659
 10
-732.5903201817997
 20
225.2893284856461
 10
-732.6357249217481
 20
224.7427007350159
 10
-732.6811296616964
 20
224.1576241949604
 10
-732.7265344016446
 20
223.5346704634254
 10
-732.771939141593
 20
222.8744506593059
 10
-732.8173438815413
 20
222.1775759014969
 10
-732.8627486214895
 20
221.4446573088934
 10
-732.9081533614376
 20
220.6763060003905
 10
-732.9535581013862
 20
219.8731330948831
 10
-732.9989628413344
 20
219.0357497112663
 10
-733.0443675812828
 20
218.1647669684351
 10
-733.0897723212311
 20
217.2607959901367
 10
-733.1351770611793
 20
216.324498337007
 10
-733.1805818011277
 20
215.3567103144962
 10
-733.2259865410759
 20
214.3583060464073
 10
-733.2713912810241
 20
213.3301596565434
 10
-733.3167960209726
 20
212.2731452687075
 10
-733.3622007609209
 20
211.1881370067026
 10
-733.4076055008692
 20
210.0760089943318
 10
-733.4530102408177
 20
208.9376353553982
 10
-733.4984149807659
 20
207.7738902137047
 10
-733.5438197207142
 20
206.5856476930698
 10
-733.5892244606625
 20
205.373814637687
 10
-733.6346292006107
 20
204.1394257317484
 10
-733.680033940559
 20
202.8835468766594
 10
-733.7254386805074
 20
201.6072439738249
 10
-733.7708434204558
 20
200.3115829246503
 10
-733.8162481604039
 20
198.9976296305407
 10
-733.861652900352
 20
197.6664499929013
 10
-733.9070576403004
 20
196.3191099131374
 10
-733.9524623802488
 20
194.9566752926541
 10
-733.9978671201969
 20
193.5802120328567
 10
-734.0432718601453
 20
192.1908018801145
 10
-734.0886766000937
 20
190.7895964218065
 10
-734.1340813400419
 20
189.3777664821922
 10
-734.1794860799903
 20
187.9564828861227
 10
-734.2248908199384
 20
186.5269164584492
 10
-734.2702955598869
 20
185.0902380240226
 10
-734.3157002998352
 20
183.647618407694
 10
-734.3611050397835
 20
182.2002284343145
 10
-734.4065097797318
 20
180.749238928735
 10
-734.45191451968
 20
179.2958207158067
 10
-734.4973192596285
 20
177.8411458862556
 10
-734.5427239995768
 20
176.3863928290183
 10
-734.588128739525
 20
174.9327418880242
 10
-734.6335334794733
 20
173.4813734078075
 10
-734.6789382194216
 20
172.0334677329027
 10
-734.72434295937
 20
170.590205207844
 10
-734.7697476993181
 20
169.1527661771657
 10
-734.8151524392663
 20
167.7223309854022
 10
-734.8605571792147
 20
166.3000799770878
 10
-734.905961919163
 20
164.8871934967569
 10
-734.9513666591114
 20
163.4848417990103
 10
-734.9967713990596
 20
162.0941384037994
 10
-735.042176139008
 20
160.7161770165457
 10
-735.0875808789563
 20
159.3520513220002
 10
-735.1329856189045
 20
158.0028550049138
 10
-735.178390358853
 20
156.6696817500374
 10
-735.2237950988014
 20
155.353625242122
 10
-735.2691998387497
 20
154.0557791659184
 10
-735.314604578698
 20
152.7772372061775
 10
-735.3600093186462
 20
151.5190930476504
 10
-735.4054140585945
 20
150.2824225651142
 10
-735.4508187985429
 20
149.0681882419251
 10
-735.4962235384911
 20
147.8773080896492
 10
-735.5416282784395
 20
146.7107000151933
 10
-735.5870330183877
 20
145.5692819254638
 10
-735.6324377583361
 20
144.4539717273675
 10
-735.6778424982843
 20
143.3656873278111
 10
-735.7232472382326
 20
142.3053466337012
 10
-735.7686519781809
 20
141.2738675519445
 10
-735.8140567181292
 20
140.2721679894476
 10
-735.8594614580775
 20
139.3011439085229
 10
-735.9048661980258
 20
138.3615326597343
 10
-735.9502709379741
 20
137.4540018776547
 10
-735.9956756779225
 20
136.5792188964084
 10
-736.0410804178706
 20
135.7378510501192
 10
-736.086485157819
 20
134.9305656729112
 10
-736.1318898977672
 20
134.1580300989084
 10
-736.1772946377157
 20
133.4209116622347
 10
-736.2226993776638
 20
132.7198776970143
 10
-736.2681041176122
 20
132.055595537371
 10
-736.3135088575606
 20
131.4287096043698
 10
-736.3589135975086
 20
130.839675672072
 10
-736.4043183374572
 20
130.2888567693688
 10
-736.4497230774056
 20
129.7766152803937
 10
-736.4951278173537
 20
129.30331358928
 10
-736.540532557302
 20
128.8693140801612
 10
-736.5859372972502
 20
128.4749791371707
 10
-736.6313420371987
 20
128.1206711444422
 10
-736.6767467771468
 20
127.8067524861088
 10
-736.7221515170952
 20
127.533585546304
210
0.0
220
0.0
230
-1.0
  0
LWPOLYLINE
  5
D4
330
1F
100
AcDbEntity
  8
0
  6
CONTINUOUS
 62
     7
100
AcDbPolyline
 90
        3
 70
     0
 43
0.0
 10
880.8430317501412
 20
129.3499622266458
 10
880.9092164011942
 20
129.2685322318215
 10
880.9405782655144
 20
129.2589618586499
  0
LWPOLYLINE
  5
D5
330
1F
100
AcDbEntity
  8
0
  6
CONTINUOUS
 62
     7
100
AcDbPolyline
 90
        3
 70
     0
 43
0.0
 10
860.8331486477555
 20
129.3696719673151
 10
860.8994074808021
 20
129.2753715503842
 10
860.9406377542056
 20
129.2589618586757
  0
LWPOLYLINE
  5
D6
330
1F
100
AcDbEntity
  8
0
  6
CONTINUOUS
 62
     7
100
AcDbPolyline
 90
       65
 70
     0
 43
0.0
 10
724.4999999552434
 20
177.7552694965677
 10
724.534699824986
 20
176.6434490807711
 10
724.5693996947288
 20
175.5321495850195
 10
724.6040995644712
 20
174.4218988898991
 10
724.6387994342138
 20
173.3132248759966
 10
724.6734993039564
 20
172.2066554238984
 10
724.7081991736991
 20
171.1027184141909
 10
724.7428990434415
 20
170.0019417274604
 10
724.7775989131843
 20
168.9048532442937
 10
724.8122987829267
 20
167.811980845277
 10
724.8469986526693
 20
166.7238524109968
 10
724.881698522412
 20
165.6409958220395
 10
724.9163983921545
 20
164.5639330658018
 10
724.9510982618971
 20
163.4931621366384
 10
724.9857981316397
 20
162.4291749237066
 10
725.0204980013823
 20
161.3724633161624
 10
725.055197871125
 20
160.3235192031619
 10
725.0898977408675
 20
159.2828344738612
 10
725.1245976106101
 20
158.2509010174163
 10
725.1592974803526
 20
157.2282107229832
 10
725.1939973500952
 20
156.2152554797182
 10
725.228697219838
 20
155.2125271767771
 10
725.2633970895804
 20
154.220517703316
 10
725.2980969593231
 20
153.2397189484911
 10
725.3327968290657
 20
152.2706228014583
 10
725.3674966988084
 20
151.3137131836499
 10
725.402196568551
 20
150.3694247545551
 10
725.4368964382935
 20
149.438173368117
 10
725.471596308036
 20
148.5203748408518
 10
725.5062961777786
 20
147.6164449892753
 10
725.5409960475213
 20
146.7267996299038
 10
725.5756959172638
 20
145.8518545792532
 10
725.6103957870064
 20
144.9920256538396
 10
725.6450956567489
 20
144.1477286701791
 10
725.6797955264916
 20
143.3193794447877
 10
725.7144953962342
 20
142.5073937941816
 10
725.7491952659767
 20
141.7121875348766
 10
725.7838951357194
 20
140.934176483389
 10
725.8185950054619
 20
140.1737696449169
 10
725.8532948752045
 20
139.4313101840934
 10
725.8879947449472
 20
138.7071043689677
 10
725.9226946146897
 20
138.001458060927
 10
725.9573944844324
 20
137.3146771213581
 10
725.9920943541749
 20
136.6470674116481
 10
726.0267942239177
 20
135.9989347931841
 10
726.0614940936601
 20
135.370585127353
 10
726.0961939634026
 20
134.762324275542
 10
726.1308938331453
 20
134.1744580991379
 10
726.1655937028879
 20
133.6072924595279
 10
726.2002935726306
 20
133.0611332180989
 10
726.234993442373
 20
132.536286236238
 10
726.2696933121158
 20
132.0330529567819
 10
726.3043931818582
 20
131.5516635891595
 10
726.339093051601
 20
131.0922907652813
 10
726.3737929213436
 20
130.6551054685254
 10
726.408492791086
 20
130.2402786822699
 10
726.4431926608287
 20
129.847981389893
 10
726.4778925305711
 20
129.4783845747726
 10
726.5125924003137
 20
129.1316592202868
 10
726.5472922700563
 20
128.8079763098139
 10
726.581992139799
 20
128.5075068267317
 10
726.6166920095416
 20
128.2304217544184
 10
726.6513918792841
 20
127.9768920762521
 10
726.6860917490267
 20
127.7470887756108
 10
726.7207916187693
 20
127.5411806669406
  0
LWPOLYLINE
  5
D7
330
1F
100
AcDbEntity
  8
0
  6
CONTINUOUS
 62
     7
100
AcDbPolyline
 90
        3
 70
     0
 43
0.0
 10
890.8460495046495
 20
129.34463696891
 10
890.9141994024154
 20
129.2659416644648
 10
890.9405557843468
 20
129.2589618586751
  0
LWPOLYLINE
  5
D8
330
1F
100
AcDbEntity
  8
0
  6
CONTINUOUS
 62
     7
100
AcDbPolyline
 90
        3
 70
     0
 43
0.0
 10
820.8134012501871
 20
129.4141404378226
 10
820.8796730878926
 20
129.2947552088418
 10
820.940686988883
 20
129.2589618586775
  0
LWPOLYLINE
  5
D9
330
1F
100
AcDbEntity
  8
0
  6
CONTINUOUS
 62
     7
100
AcDbPolyline
 90
      105
 70
     0
 43
0.0
 10
875.778663369217
 20
227.9778124566957
 10
875.8240595920512
 20
227.7037510364416
 10
875.8694558148857
 20
227.3891856317035
 10
875.9148520377198
 20
227.0343800222217
 10
875.9602482605541
 20
226.6395979877363
 10
876.0056444833884
 20
226.2051033079876
 10
876.0510407062226
 20
225.7311597627156
 10
876.096436929057
 20
225.2180321369096
 10
876.1418331518914
 20
224.6660884805418
 10
876.1872293747256
 20
224.0758882081601
 10
876.2326255975601
 20
223.4480114901923
 10
876.2780218203943
 20
222.7830384970663
 10
876.3234180432287
 20
222.0815493992101
 10
876.368814266063
 20
221.3441243670516
 10
876.4142104888974
 20
220.5713435710188
 10
876.4596067117317
 20
219.7637871815396
 10
876.505002934566
 20
218.9220353690419
 10
876.5503991574003
 20
218.046668815372
 10
876.5957953802346
 20
217.1383486231665
 10
876.6411916030689
 20
216.1979032067373
 10
876.6865878259034
 20
215.226181852459
 10
876.7319840487376
 20
214.2240338467062
 10
876.7773802715719
 20
213.1923084758533
 10
876.8227764944061
 20
212.131855026275
 10
876.8681727172403
 20
211.043522784346
 10
876.9135689400747
 20
209.9281610364406
 10
876.958965162909
 20
208.7866190689334
 10
877.0043613857433
 20
207.6197463724442
 10
877.0497576085775
 20
206.4284467851329
 10
877.095153831412
 20
205.213751336901
 10
877.1405500542462
 20
203.9767092266225
 10
877.1859462770806
 20
202.7183696531714
 10
877.2313424999147
 20
201.439781815422
 10
877.2767387227492
 20
200.1419949122481
 10
877.3221349455835
 20
198.826058142524
 10
877.3675311684179
 20
197.4930207051237
 10
877.4129273912522
 20
196.1439317989212
 10
877.4583236140866
 20
194.7798406761963
 10
877.5037198369208
 20
193.4018246995223
 10
877.549116059755
 20
192.0110353979398
 10
877.5945122825896
 20
190.608636389659
 10
877.6399085054237
 20
189.19579129289
 10
877.6853047282581
 20
187.773663725843
 10
877.7307009510923
 20
186.3434173067282
 10
877.7760971739266
 20
184.9062156537559
 10
877.8214933967608
 20
183.4632223851362
 10
877.8668896195952
 20
182.0156011190794
 10
877.9122858424294
 20
180.5645154769555
 10
877.9576820652637
 20
179.1111334029449
 10
878.003078288098
 20
177.6566357275263
 10
878.048474510932
 20
176.2022056717111
 10
878.0938707337665
 20
174.7490264565104
 10
878.1392669566006
 20
173.2982813029357
 10
878.1846631794349
 20
171.8511534319983
 10
878.2300594022693
 20
170.4088260647094
 10
878.2754556251036
 20
168.9724824220804
 10
878.3208518479378
 20
167.5433057251225
 10
878.366248070772
 20
166.122479192497
 10
878.4116442936063
 20
164.711170941315
 10
878.4570405164407
 20
163.3104981223692
 10
878.5024367392751
 20
161.9215671456178
 10
878.5478329621094
 20
160.545484421019
 10
878.5932291849438
 20
159.183356358531
 10
878.6386254077781
 20
157.8362893681122
 10
878.6840216306126
 20
156.5053898597206
 10
878.7294178534468
 20
155.1917642433147
 10
878.7748140762812
 20
153.8965189288525
 10
878.8202102991157
 20
152.6207603262027
 10
878.8656065219502
 20
151.3655657663671
 10
878.9110027447845
 20
150.131901305836
 10
878.9563989676188
 20
148.9207063885502
 10
879.0017951904532
 20
147.7329204584502
 10
879.0471914132875
 20
146.5694829594765
 10
879.0925876361218
 20
145.4313333355697
 10
879.1379838589563
 20
144.3194110306705
 10
879.1833800817903
 20
143.2346554887193
 10
879.2287763046247
 20
142.1780061536568
 10
879.274172527459
 20
141.1504024694236
 10
879.3195687502932
 20
140.1527465267023
 10
879.3649649731275
 20
139.1857782511127
 10
879.4103611959616
 20
138.2501935715351
 10
879.4557574187959
 20
137.3466884160257
 10
879.50115364163
 20
136.4759587126401
 10
879.5465498644642
 20
135.6387003894343
 10
879.5919460872987
 20
134.8356093744643
 10
879.6373423101327
 20
134.0673815957856
 10
879.682738532967
 20
133.3347129814545
 10
879.7281347558012
 20
132.6382994595265
 10
879.7735309786356
 20
131.9787966257283
 10
879.8189272014698
 20
131.3566613208814
 10
879.8643234243043
 20
130.7722892666829
 10
879.9097196471386
 20
130.2260761681416
 10
879.9551158699732
 20
129.7184177302663
 10
880.0005120928074
 20
129.2497096580655
 10
880.0459083156418
 20
128.8203476565481
 10
880.0913045384764
 20
128.4307274307227
 10
880.1367007613106
 20
128.0812446855981
 10
880.1820969841451
 20
127.7722951261831
 10
880.2274932069794
 20
127.5042355796906
 10
880.2728894298135
 20
127.2772051255717
 10
880.3182856526479
 20
127.0912670786937
 10
880.3636818754823
 20
126.9464846773
 10
880.4090780983165
 20
126.8429211596337
 10
880.4544743211509
 20
126.7806397639382
 10
880.4998705439859
 20
126.7597037284565
  0
LWPOLYLINE
  5
DA
330
1F
100
AcDbEntity
  8
0
  6
CONTINUOUS
 62
     7
100
AcDbPolyline
 90
      105
 70
     0
 43
0.0
 10
865.7785542698152
 20
227.9783008739704
 10
865.8239487691228
 20
227.704427904253
 10
865.8693432684304
 20
227.3900628474682
 10
865.914737767738
 20
227.0354481867426
 10
865.9601322670457
 20
226.6408264052029
 10
866.0055267663532
 20
226.2064399859755
 10
866.050921265661
 20
225.7325314121871
 10
866.0963157649686
 20
225.2193828041322
 10
866.1417102642763
 20
224.6674860206472
 10
866.187104763584
 20
224.0774020345205
 10
866.2324992628919
 20
223.4496918609754
 10
866.2778937621995
 20
222.7849165152356
 10
866.3232882615073
 20
222.0836370125245
 10
866.368682760815
 20
221.3464143680658
 10
866.4140772601227
 20
220.5738095970829
 10
866.4594717594305
 20
219.7663837147995
 10
866.5048662587382
 20
218.924697736439
 10
866.550260758046
 20
218.0493420805865
 10
866.5956552573537
 20
217.14108439171
 10
866.6410497566611
 20
216.2007583907461
 10
866.6864442559688
 20
215.2291979111212
 10
866.7318387552765
 20
214.2272367862619
 10
866.7772332545842
 20
213.1957088495945
 10
866.8226277538918
 20
212.1354479345456
 10
866.8680222531993
 20
211.0472878745416
 10
866.9134167525069
 20
209.9320625030091
 10
866.9588112518145
 20
208.7906056533744
 10
867.0042057511222
 20
207.6237701454508
 10
867.0496002504295
 20
206.432539487747
 10
867.0949947497373
 20
205.2179521960487
 10
867.1403892490449
 20
203.9810469777096
 10
867.1857837483523
 20
202.7228625400836
 10
867.2311782476598
 20
201.4444375905246
 10
867.2765727469676
 20
200.1468108363865
 10
867.321967246275
 20
198.8310209850231
 10
867.3673617455828
 20
197.4981067437884
 10
867.4127562448904
 20
196.149106820036
 10
867.458150744198
 20
194.7850694259751
 10
867.5035452435058
 20
193.4071177458207
 10
867.5489397428134
 20
192.0164105088217
 10
867.5943342421211
 20
190.6141066579895
 10
867.6397287414287
 20
189.2013651363355
 10
867.6851232407366
 20
187.7793448868709
 10
867.7305177400443
 20
186.3492048526071
 10
867.7759122393519
 20
184.9121039765553
 10
867.8213067386596
 20
183.469201201727
 10
867.8667012379673
 20
182.0216554711335
 10
867.9120957372747
 20
180.5706274521355
 10
867.9574902365825
 20
179.1172934668892
 10
868.0028847358905
 20
177.6628381806394
 10
868.0482792351979
 20
176.2084463364751
 10
868.0936737345056
 20
174.7553026774849
 10
868.1390682338133
 20
173.3045919467577
 10
868.1844627331209
 20
171.857498887382
 10
868.2298572324285
 20
170.4152082424468
 10
868.275251731736
 20
168.9789047550408
 10
868.3206462310438
 20
167.5497731682527
 10
868.3660407303514
 20
166.128994267635
 10
868.411435229659
 20
164.7177072576102
 10
868.4568297289665
 20
163.3170264780201
 10
868.5022242282743
 20
161.9280659341514
 10
868.547618727582
 20
160.551939631291
 10
868.5930132268895
 20
159.1897615747254
 10
868.6384077261973
 20
157.8426457697414
 10
868.6838022255049
 20
156.5117062216256
 10
868.7291967248124
 20
155.1980569356648
 10
868.7745912241201
 20
153.9028119171458
 10
868.8199857234279
 20
152.6270776917573
 10
868.8653802227354
 20
151.3718692220536
 10
868.910774722043
 20
150.1381401308248
 10
868.9561692213507
 20
148.9268429116915
 10
869.0015637206584
 20
147.7389300582743
 10
869.046958219966
 20
146.5753540641938
 10
869.092352719274
 20
145.4370674230705
 10
869.1377472185815
 20
144.3250226285249
 10
869.1831417178894
 20
143.2401721741777
 10
869.2285362171968
 20
142.1834685536493
 10
869.2739307165047
 20
141.1558552099729
 10
869.3193252158122
 20
140.1581454349594
 10
869.3647197151199
 20
139.1910549596416
 10
869.4101142144275
 20
138.2552971527636
 10
869.4555087137352
 20
137.3515853830698
 10
869.5009032130428
 20
136.4806330193042
 10
869.5462977123506
 20
135.6431534302112
 10
869.5916922116581
 20
134.839859984535
 10
869.637086710966
 20
134.0714660510199
 10
869.6824812102734
 20
133.33868499841
 10
869.7278757095811
 20
132.6422211332056
 10
869.7732702088887
 20
131.9826241445627
 10
869.8186647081961
 20
131.3603141517064
 10
869.8640592075037
 20
130.775707270201
 10
869.9094537068115
 20
130.2292196156111
 10
869.954848206119
 20
129.7212673035008
 10
870.0002427054266
 20
129.2522664494347
 10
870.045637204734
 20
128.8226331689771
 10
870.0910317040418
 20
128.4327835776923
 10
870.1364262033494
 20
128.0831337911448
 10
870.181820702657
 20
127.7740919283846
 10
870.2272152019647
 20
127.505902263808
 10
870.2726097012725
 20
127.2786556600474
 10
870.31800420058
 20
127.0924370726307
 10
870.3633986998877
 20
126.9473314570857
 10
870.4087931991955
 20
126.84342376894
 10
870.4541876985031
 20
126.7807989637214
 10
870.4995821978099
 20
126.7595419969578
  0
LWPOLYLINE
  5
DB
330
1F
100
AcDbEntity
  8
0
  6
CONTINUOUS
 62
     7
100
AcDbPolyline
 90
        3
 70
     0
 43
0.0
 10
780.7936082601813
 20
129.4661004603408
 10
780.8598139152132
 20
129.3216492041915
 10
780.9405754845209
 20
129.2589618587361
  0
LWPOLYLINE
  5
DC
330
1F
100
AcDbEntity
  8
0
  6
CONTINUOUS
 62
     7
100
AcDbPolyline
 90
      105
 70
     0
 43
0.0
 10
845.7788364440227
 20
227.9766379594557
 10
845.8242355783312
 20
227.7026594478185
 10
845.8696347126399
 20
227.3881593239057
 10
845.9150338469486
 20
227.033337361605
 10
845.9604329812572
 20
226.638393334804
 10
846.005832115566
 20
226.2035274433181
 10
846.0512312498747
 20
225.7290309555865
 10
846.0966303841835
 20
225.2153987065531
 10
846.1420295184922
 20
224.6631531340922
 10
846.1874286528009
 20
224.0728166760778
 10
846.2328277871097
 20
223.4449117703845
 10
846.2782269214183
 20
222.7799608548864
 10
846.323626055727
 20
222.0784863674579
 10
846.3690251900357
 20
221.3410107459732
 10
846.4144243243445
 20
220.5680564283066
 10
846.4598234586532
 20
219.7601460361688
 10
846.5052225929618
 20
218.917873930087
 10
846.5506217272706
 20
218.0420147662856
 10
846.5960208615791
 20
217.1333710761769
 10
846.6414199958878
 20
216.1927453911736
 10
846.6868191301963
 20
215.2209402426883
 10
846.7322182645053
 20
214.2187581621336
 10
846.7776173988137
 20
213.187001680922
 10
846.8230165331222
 20
212.1264733304661
 10
846.868415667431
 20
211.0379756421785
 10
846.9138148017394
 20
209.9223112040503
 10
846.9592139360483
 20
208.7803321808271
 10
847.0046130703569
 20
207.613031126312
 10
847.0500122046658
 20
206.4214252718012
 10
847.0954113389743
 20
205.2065318485903
 10
847.1408104732831
 20
203.9693680879755
 10
847.1862096075919
 20
202.7109512212525
 10
847.2316087419005
 20
201.4322984797172
 10
847.2770078762093
 20
200.1344270946656
 10
847.322407010518
 20
198.8183542973935
 10
847.3678061448267
 20
197.4850973284955
 10
847.4132052791355
 20
196.1357006891903
 10
847.4586044134443
 20
194.7712960398983
 10
847.5040035477529
 20
193.3930324234886
 10
847.5494026820617
 20
192.0020588828309
 10
847.5948018163702
 20
190.5995244607942
 10
847.6402009506791
 20
189.1865782002481
 10
847.6856000849879
 20
187.7643691440617
 10
847.7309992192965
 20
186.3340463351045
 10
847.7763983536053
 20
184.8967588162458
 10
847.8217974879141
 20
183.4536556305978
 10
847.8671966222228
 20
182.0058928486948
 10
847.9125957565315
 20
180.554651953656
 10
847.9579948908402
 20
179.1011201710497
 10
848.0033940251487
 20
177.646484726444
 10
848.0487931594574
 20
176.1919328454072
 10
848.094192293766
 20
174.7386517535075
 10
848.1395914280749
 20
173.2878286763131
 10
848.1849905623833
 20
171.8406508393921
 10
848.2303896966921
 20
170.3983054683129
 10
848.2757888310007
 20
168.9619797886436
 10
848.3211879653094
 20
167.5328514915522
 10
848.3665870996177
 20
166.1120592334017
 10
848.4119862339265
 20
164.7007316823013
 10
848.4573853682354
 20
163.2999975063557
 10
848.5027845025438
 20
161.9109853736695
 10
848.5481836368525
 20
160.5348239523475
 10
848.5935827711612
 20
159.1726419104943
 10
848.6389819054698
 20
157.8255679162146
 10
848.6843810397786
 20
156.494730637613
 10
848.7297801740873
 20
155.1812587427942
 10
848.775179308396
 20
153.8862593337074
 10
848.8205784427046
 20
152.6107395164998
 10
848.8659775770133
 20
151.3556774361416
 10
848.911376711322
 20
150.1220512346216
 10
848.9567758456307
 20
148.9108390539283
 10
849.0021749799395
 20
147.7230190360504
 10
849.0475741142482
 20
146.5595693229763
 10
849.0929732485569
 20
145.4214680566947
 10
849.1383723828658
 20
144.3096933791942
 10
849.1837715171744
 20
143.2252234324634
 10
849.229170651483
 20
142.1690074984593
 10
849.274569785792
 20
141.1418431765446
 10
849.3199689201003
 20
140.144478407965
 10
849.3653680544091
 20
139.1776611054454
 10
849.4107671887178
 20
138.2421391817105
 10
849.4561663230267
 20
137.338660549485
 10
849.5015654573351
 20
136.4679731214938
 10
849.5469645916439
 20
135.6308248104617
 10
849.5923637259526
 20
134.8279635291135
 10
849.6377628602613
 20
134.0601371901739
 10
849.6831619945699
 20
133.3280619700365
 10
849.7285611288786
 20
132.6322646687958
 10
849.7739602631875
 20
131.9732021384366
 10
849.819359397496
 20
131.3513311193265
 10
849.8647585318047
 20
130.7671083518333
 10
849.9101576661134
 20
130.2209905763247
 10
849.9555568004222
 20
129.7134345331687
 10
850.0009559347309
 20
129.2448969627328
 10
850.0463550690396
 20
128.8158346053848
 10
850.0917542033482
 20
128.4267042014925
 10
850.137153337657
 20
128.0779315816069
 10
850.1825524719656
 20
127.7697326695014
 10
850.2279516062742
 20
127.5022361014911
 10
850.2733507405829
 20
127.275570228449
 10
850.3187498748915
 20
127.0898634012482
 10
850.3641490092004
 20
126.945243970762
 10
850.4095481435089
 20
126.8418402878632
 10
850.4549472778175
 20
126.7797807034252
 10
850.5003464121257
 20
126.759193568321
  0
LWPOLYLINE
  5
DD
330
1F
100
AcDbEntity
  8
0
  6
CONTINUOUS
 62
     7
100
AcDbPolyline
 90
      105
 70
     0
 43
0.0
 10
-802.0002720810868
 20
228.7586059479358
 10
-802.0456639931552
 20
228.737236047822
 10
-802.0910559052235
 20
228.6744478604022
 10
-802.1364478172917
 20
228.5703547907054
 10
-802.1818397293599
 20
228.4250702437604
 10
-802.2272316414284
 20
228.2387076245963
 10
-802.2726235534967
 20
228.0113803382418
 10
-802.3180154655647
 20
227.7432017897259
 10
-802.3634073776333
 20
227.4342853840776
 10
-802.4087992897016
 20
227.0847584262166
 10
-802.4541912017698
 20
226.6949314720538
 10
-802.4995831138382
 20
226.2652444769587
 10
-802.5449750259065
 20
225.7961401154473
 10
-802.5903669379747
 20
225.2880610620356
 10
-802.6357588500432
 20
224.7414499912397
 10
-802.6811507621113
 20
224.1567495775757
 10
-802.7265426741798
 20
223.5344024955595
 10
-802.7719345862481
 20
222.8748514197073
 10
-802.8173264983163
 20
222.1785390245351
 10
-802.8627184103844
 20
221.4459180050957
 10
-802.9081103224528
 20
220.6775972882757
 10
-802.9535022345212
 20
219.8743093716211
 10
-802.9988941465895
 20
219.0367901281427
 10
-803.0442860586578
 20
218.1657754308512
 10
-803.0896779707261
 20
217.262001152757
 10
-803.1350698827945
 20
216.3262031668709
 10
-803.1804617948627
 20
215.3591173462036
 10
-803.2258537069312
 20
214.3614795637656
 10
-803.2712456189995
 20
213.3340256925677
 10
-803.3166375310677
 20
212.2774979566506
 10
-803.3620294431361
 20
211.192757004909
 10
-803.4074213552044
 20
210.0807683255354
 10
-803.4528132672725
 20
208.9425010279885
 10
-803.498205179341
 20
207.7789242217275
 10
-803.5435970914094
 20
206.591007016211
 10
-803.5889890034776
 20
205.379718520898
 10
-803.6343809155459
 20
204.1460278452474
 10
-803.6797728276141
 20
202.890904098718
 10
-803.7251647396826
 20
201.6153163907689
 10
-803.7705566517508
 20
200.3202371160039
 10
-803.8159485638191
 20
199.0067129426245
 10
-803.8613404758873
 20
197.6758641056198
 10
-803.9067323879557
 20
196.3288139837578
 10
-803.952124300024
 20
194.9666859558068
 10
-803.9975162120924
 20
193.5906034005349
 10
-804.0429081241605
 20
192.2016896967102
 10
-804.0883000362289
 20
190.8010682231008
 10
-804.133691948297
 20
189.3898623584749
 10
-804.1790838603654
 20
187.9691954816006
 10
-804.2244757724338
 20
186.5401919932473
 10
-804.269867684502
 20
185.104004787962
 10
-804.3152595965703
 20
183.6618183357842
 10
-804.3606515086385
 20
182.2148187471364
 10
-804.4060434207069
 20
180.7641921324409
 10
-804.4514353327753
 20
179.31112460212
 10
-804.4968272448435
 20
177.8568022665961
 10
-804.5422191569118
 20
176.4024112362916
 10
-804.58761106898
 20
174.9491376216288
 10
-804.6330029810483
 20
173.4981675330301
 10
-804.6783948931167
 20
172.0506866691334
 10
-804.723786805185
 20
170.6078662704035
 10
-804.7691787172532
 20
169.1708596461159
 10
-804.8145706293217
 20
167.7408189890518
 10
-804.8599625413899
 20
166.318896491992
 10
-804.9053544534581
 20
164.9062443477176
 10
-804.9507463655266
 20
163.5040147490095
 10
-804.9961382775949
 20
162.1133598886487
 10
-805.0415301896633
 20
160.7354319594162
 10
-805.0869221017314
 20
159.3713831540929
 10
-805.1323140137997
 20
158.0223645455816
 10
-805.1777059258682
 20
156.6894763588736
 10
-805.2230978379363
 20
155.3737481933277
 10
-805.2684897500046
 20
154.0762044385407
 10
-805.3138816620731
 20
152.7978694841097
 10
-805.3592735741412
 20
151.5397677196314
 10
-805.4046654862095
 20
150.3029235347027
 10
-805.4500573982777
 20
149.0883613189205
 10
-805.495449310346
 20
147.8971054618819
 10
-805.5408412224143
 20
146.7301803531835
 10
-805.5862331344827
 20
145.5886090984062
 10
-805.631625046551
 20
144.4733367962561
 10
-805.6770169586193
 20
143.3851870760951
 10
-805.7224088706876
 20
142.3249730527374
 10
-805.7678007827558
 20
141.2935078409975
 10
-805.813192694824
 20
140.2916045556897
 10
-805.8585846068924
 20
139.320076311628
 10
-805.9039765189607
 20
138.379736223627
 10
-805.9493684310289
 20
137.4713974065008
 10
-805.9947603430973
 20
136.5958729750637
 10
-806.0401522551656
 20
135.7539749323498
 10
-806.085544167234
 20
134.9464207575865
 10
-806.1309360793023
 20
134.1737626885837
 10
-806.1763279913706
 20
133.4365363093374
 10
-806.2217199034388
 20
132.7352772038444
 10
-806.2671118155072
 20
132.0705209561007
 10
-806.3125037275755
 20
131.4428031501028
 10
-806.3578956396437
 20
130.852659369847
 10
-806.4032875517123
 20
130.3006251993297
 10
-806.4486794637805
 20
129.7872362225472
 10
-806.4940713758486
 20
129.3130272307014
 10
-806.5394632879171
 20
128.8784327432312
 10
-806.5848551999853
 20
128.4836901558133
 10
-806.6302471120537
 20
128.1290138799762
 10
-806.675639024122
 20
127.8146183272482
 10
-806.7210309361902
 20
127.5407179091575
210
0.0
220
0.0
230
-1.0
  0
LWPOLYLINE
  5
DE
330
1F
100
AcDbEntity
  8
0
  6
CONTINUOUS
 62
     7
100
AcDbPolyline
 90
      105
 70
     0
 43
0.0
 10
-781.9999927662135
 20
228.7582597684953
 10
-782.045389374726
 20
228.7372126512583
 10
-782.0907859832386
 20
228.6748129635495
 10
-782.1361825917511
 20
228.5711307376876
 10
-782.1815792002639
 20
228.4262360059913
 10
-782.2269758087764
 20
228.2401988007793
 10
-782.272372417289
 20
228.0130891543702
 10
-782.3177690258016
 20
227.7449770990827
 10
-782.3631656343141
 20
227.4359747616094
 10
-782.4085622428267
 20
227.0864132469962
 10
-782.4539588513392
 20
226.6966946414499
 10
-782.4993554598519
 20
226.2672210678835
 10
-782.5447520683646
 20
225.7983946492102
 10
-782.5901486768771
 20
225.2906175083428
 10
-782.6355452853898
 20
224.7442917681946
 10
-782.6809418939022
 20
224.1598195516786
 10
-782.7263385024148
 20
223.5376029817078
 10
-782.7717351109274
 20
222.8780441811953
 10
-782.81713171944
 20
222.1815782168515
 10
-782.8625283279526
 20
221.4488350322513
 10
-782.9079249364653
 20
220.6805159666816
 10
-782.9533215449777
 20
219.8773224669733
 10
-782.9987181534902
 20
219.0399559799576
 10
-783.044114762003
 20
218.1691179524657
 10
-783.0895113705157
 20
217.2655098313286
 10
-783.1349079790281
 20
216.3298330633775
 10
-783.1803045875406
 20
215.3627890954434
 10
-783.2257011960533
 20
214.3650793743576
 10
-783.2710978045658
 20
213.337428328609
 10
-783.3164944130785
 20
212.2807153443241
 10
-783.361891021591
 20
211.1958838330272
 10
-783.4072876301036
 20
210.083877408612
 10
-783.4526842386164
 20
208.9456396849719
 10
-783.4980808471289
 20
207.7821142760006
 10
-783.5434774556416
 20
206.5942447955917
 10
-783.5888740641542
 20
205.3829748576386
 10
-783.6342706726666
 20
204.149248076035
 10
-783.6796672811795
 20
202.8940080646745
 10
-783.725063889692
 20
201.618211857928
 10
-783.7704604982046
 20
200.3229199674138
 10
-783.8158571067171
 20
199.0092410177448
 10
-783.8612537152296
 20
197.6782839002246
 10
-783.9066503237422
 20
196.3311575061566
 10
-783.9520469322548
 20
194.9689707268446
 10
-783.9974435407673
 20
193.5928324535919
 10
-784.04284014928
 20
192.2038515777024
 10
-784.0882367577925
 20
190.8031369904794
 10
-784.133633366305
 20
189.3917975832265
 10
-784.1790299748179
 20
187.9709474081899
 10
-784.2244265833301
 20
186.5417462105844
 10
-784.2698231918429
 20
185.1053775946599
 10
-784.3152198003554
 20
183.6630253719749
 10
-784.3606164088679
 20
182.215873354088
 10
-784.4060130173805
 20
180.7651053525576
 10
-784.4514096258931
 20
179.311905178942
 10
-784.4968062344057
 20
177.8574566447998
 10
-784.5422028429183
 20
176.4029435616895
 10
-784.587599451431
 20
174.9495497411694
 10
-784.6329960599437
 20
173.4984577478693
 10
-784.678392668456
 20
172.0508374040937
 10
-784.723789276969
 20
170.6078510738189
 10
-784.7691858854814
 20
169.1706610268835
 10
-784.8145824939942
 20
167.7404295331266
 10
-784.8599791025067
 20
166.318318862387
 10
-784.9053757110194
 20
164.9054912845037
 10
-784.9507723195318
 20
163.5031090693155
 10
-784.9961689280445
 20
162.1123344866613
 10
-785.0415655365572
 20
160.7343298063801
 10
-785.0869621450697
 20
159.3702517042738
 10
-785.1323587535823
 20
158.0211904556087
 10
-785.1777553620948
 20
156.6881928370341
 10
-785.2231519706073
 20
155.3723048700052
 10
-785.2685485791201
 20
154.0745725759774
 10
-785.3139451876325
 20
152.7960419764059
 10
-785.3593417961449
 20
151.5377590927461
 10
-785.4047384046577
 20
150.3007699464532
 10
-785.4501350131701
 20
149.0861205589827
 10
-785.4955316216826
 20
147.8948569517897
 10
-785.5409282301954
 20
146.7280171831307
 10
-785.5863248387079
 20
145.5865286689775
 10
-785.6317214472207
 20
144.471237805851
 10
-785.6771180557332
 20
143.382989132569
 10
-785.7225146642459
 20
142.3226271879493
 10
-785.7679112727585
 20
141.2909965108098
 10
-785.8133078812713
 20
140.2889416399685
 10
-785.8587044897838
 20
139.317307114243
 10
-785.9041010982965
 20
138.3769374724514
 10
-785.9494977068091
 20
137.4686772534114
 10
-785.9948943153216
 20
136.5933623422653
 10
-786.0402909238344
 20
135.7516865613831
 10
-786.0856875323469
 20
134.9442275602557
 10
-786.1310841408595
 20
134.1715595784674
 10
-786.176480749372
 20
133.4342568556025
 10
-786.2218773578845
 20
132.7328936312453
 10
-786.267273966397
 20
132.0680441449801
 10
-786.3126705749097
 20
131.4402826363913
 10
-786.3580671834223
 20
130.850183345063
 10
-786.4034637919348
 20
130.2983205105798
 10
-786.4488604004473
 20
129.7852602791167
 10
-786.49425700896
 20
129.3114100221133
 10
-786.5396536174724
 20
128.8770322015435
 10
-786.5850502259849
 20
128.4823839662874
 10
-786.6304468344977
 20
128.1277224652248
 10
-786.6758434430101
 20
127.8133048472355
 10
-786.721240051523
 20
127.5393882611981
210
0.0
220
0.0
230
-1.0
  0
LWPOLYLINE
  5
DF
330
1F
100
AcDbEntity
  8
0
  6
CONTINUOUS
 62
     7
100
AcDbPolyline
 90
        3
 70
     0
 43
0.0
 10
740.8399353249656
 20
129.3560488804577
 10
740.9060684824328
 20
129.2703383855928
 10
740.940548444033
 20
129.2589618586485
  0
LWPOLYLINE
  5
E0
330
1F
100
AcDbEntity
  8
0
  6
CONTINUOUS
 62
     7
100
AcDbPolyline
 90
      105
 70
     0
 43
0.0
 10
885.7786131759626
 20
227.9782501380895
 10
885.8240151210604
 20
227.7041345938304
 10
885.8694170661583
 20
227.3894814827861
 10
885.9148190112562
 20
227.0345758728213
 10
885.960220956354
 20
226.6397028318007
 10
886.0056229014517
 20
226.2051474275891
 10
886.0510248465497
 20
225.7311947280513
 10
886.0964267916474
 20
225.2181298010519
 10
886.141828736745
 20
224.6662504555112
 10
886.1872306818428
 20
224.0760279573831
 10
886.2326326269406
 20
223.4480588220732
 10
886.2780345720381
 20
222.7829423429173
 10
886.3234365171359
 20
222.0812778132509
 10
886.3688384622336
 20
221.3436645264098
 10
886.4142404073315
 20
220.5707017757296
 10
886.459642352429
 20
219.7629888545458
 10
886.5050442975266
 20
218.9211250561942
 10
886.5504462426243
 20
218.0457096740105
 10
886.5958481877218
 20
217.1373507875436
 10
886.6412501328196
 20
216.1967969499454
 10
886.6866520779173
 20
215.2249096506443
 10
886.732054023015
 20
214.2225535754905
 10
886.7774559681127
 20
213.1905934103337
 10
886.8228579132104
 20
212.1298938410239
 10
886.8682598583082
 20
211.0413195534112
 10
886.9136618034057
 20
209.9257352333454
 10
886.9590637485036
 20
208.7840055666765
 10
887.0044656936013
 20
207.6169952392546
 10
887.0498676386991
 20
206.4255741292988
 10
887.0952695837968
 20
205.2107106244098
 10
887.1406715288948
 20
203.9734612372644
 10
887.1860734739925
 20
202.7148855879654
 10
887.2314754190902
 20
201.4360432966155
 10
887.2768773641881
 20
200.1379939833174
 10
887.3222793092859
 20
198.8217972681739
 10
887.3676812543837
 20
197.4885127712877
 10
887.4130831994814
 20
196.1392001127617
 10
887.4584851445792
 20
194.7749189126985
 10
887.503887089677
 20
193.3967310791993
 10
887.5492890347749
 20
192.00575068175
 10
887.5946909798726
 20
190.6031436955192
 10
887.6400929249703
 20
189.1900783325332
 10
887.685494870068
 20
187.7677228048184
 10
887.7308968151658
 20
186.3372453244011
 10
887.7762987602634
 20
184.8998141033077
 10
887.8217007053612
 20
183.4565973535645
 10
887.8671026504585
 20
182.0087632871978
 10
887.9125045955564
 20
180.557480116234
 10
887.9579065406541
 20
179.1039162716478
 10
888.0033084857519
 20
177.6492462751713
 10
888.0487104308496
 20
176.1946513903214
 10
888.094112375947
 20
174.7413132301893
 10
888.1395143210449
 20
173.2904134078664
 10
888.1849162661423
 20
171.8431335364441
 10
888.23031821124
 20
170.4006552290137
 10
888.2757201563377
 20
168.9641600986665
 10
888.3211221014353
 20
167.5348297584939
 10
888.3665240465331
 20
166.1138458215873
 10
888.4119259916307
 20
164.7023888754659
 10
888.4573279367286
 20
163.3016040330005
 10
888.5027298818264
 20
161.9125927166267
 10
888.5481318269242
 20
160.5364536576669
 10
888.5935337720218
 20
159.1742855874433
 10
888.6389357171196
 20
157.8271872372783
 10
888.6843376622174
 20
156.4962573384941
 10
888.7297396073154
 20
155.182594622413
 10
888.7751415524132
 20
153.8872978203574
 10
888.820543497511
 20
152.6114656636495
 10
888.8659454426088
 20
151.3561953130888
 10
888.9113473877067
 20
150.1225147757511
 10
888.9567493328043
 20
148.9113572369391
 10
889.002151277902
 20
147.7236490169294
 10
889.047553223
 20
146.5603164359984
 10
889.0929551680978
 20
145.4222858144223
 10
889.1383571131954
 20
144.3104834724777
 10
889.1837590582933
 20
143.225835730441
 10
889.2291610033908
 20
142.1692689085884
 10
889.2745629484887
 20
141.1417093271965
 10
889.3199648935863
 20
140.1440817011926
 10
889.365366838684
 20
139.1772180463648
 10
889.4107687837816
 20
138.2418087395567
 10
889.4561707288792
 20
137.3385322095036
 10
889.5015726739772
 20
136.4680668849404
 10
889.5469746190748
 20
135.6310911946024
 10
889.5923765641724
 20
134.8282835672248
 10
889.6377785092702
 20
134.0603224315426
 10
889.6831804543679
 20
133.3278862162909
 10
889.7285823994654
 20
132.6316533502049
 10
889.7739843445631
 20
131.9723009260789
 10
889.8193862896609
 20
131.3504009036658
 10
889.8647882347587
 20
130.7663460261154
 10
889.9101901798564
 20
130.2205115493778
 10
889.955592124954
 20
129.7132727294032
 10
890.0009940700519
 20
129.2450048221417
 10
890.0463960151495
 20
128.8160830835433
 10
890.0917979602475
 20
128.4268827695584
 10
890.1371999053451
 20
128.0777791361369
 10
890.1826018504428
 20
127.769147439229
 10
890.2280037955405
 20
127.5013619893226
 10
890.2734057406383
 20
127.2746903707777
 10
890.318807685736
 20
127.0891968947327
 10
890.3642096308338
 20
126.9449230669101
 10
890.4096115759316
 20
126.8419103930326
 10
890.4550135210295
 20
126.7802003788228
 10
890.5004154661259
 20
126.7598345300032
  0
LWPOLYLINE
  5
E1
330
1F
100
AcDbEntity
  8
0
  6
CONTINUOUS
 62
     7
100
AcDbPolyline
 90
      113
 70
     0
 43
0.0
 10
785.7789401245509
 20
227.9768434932973
 10
785.821088327718
 20
227.7237745128218
 10
785.863236530885
 20
227.4354682142677
 10
785.9053847340521
 20
227.1122000836194
 10
785.947532937219
 20
226.7542919502267
 10
785.9896811403861
 20
226.3620656435942
 10
786.0318293435531
 20
225.9358429932263
 10
786.0739775467201
 20
225.4759458286275
 10
786.1161257498874
 20
224.9826959793025
 10
786.1582739530545
 20
224.4564152747557
 10
786.2004221562215
 20
223.8974255444917
 10
786.2425703593885
 20
223.306048618015
 10
786.2847185625557
 20
222.6826065172231
 10
786.3268667657227
 20
222.0274842613692
 10
786.3690149688897
 20
221.3412203170648
 10
786.4111631720567
 20
220.6243760705896
 10
786.4533113752236
 20
219.8775129082232
 10
786.4954595783908
 20
219.1011922162453
 10
786.5376077815578
 20
218.2959753809355
 10
786.5797559847247
 20
217.4624237885734
 10
786.6219041878919
 20
216.6010988254386
 10
786.6640523910589
 20
215.7125618778108
 10
786.7062005942258
 20
214.7973743319696
 10
786.7483487973931
 20
213.856098994883
 10
786.79049700056
 20
212.8893729943786
 10
786.8326452037272
 20
211.8979427800612
 10
786.8747934068942
 20
210.8825635508562
 10
786.9169416100613
 20
209.8439905056891
 10
786.9590898132284
 20
208.7829788434852
 10
787.0012380163955
 20
207.7002837631702
 10
787.0433862195625
 20
206.5966604636693
 10
787.0855344227294
 20
205.472864143908
 10
787.1276826258968
 20
204.329650002812
 10
787.1698308290636
 20
203.1677732393063
 10
787.2119790322308
 20
201.9879924674482
 10
787.2541272353978
 20
200.7911326988435
 10
787.2962754385647
 20
199.5780792210416
 10
787.3384236417319
 20
198.34971950881
 10
787.3805718448989
 20
197.1069410369162
 10
787.4227200480658
 20
195.8506312801279
 10
787.4648682512328
 20
194.5816777132127
 10
787.5070164544
 20
193.3009678109383
 10
787.549164657567
 20
192.0093890480721
 10
787.591312860734
 20
190.7078288993818
 10
787.633461063901
 20
189.3971748396349
 10
787.6756092670681
 20
188.0783180914268
 10
787.717757470235
 20
186.7521858386088
 10
787.7599056734023
 20
185.4197252998917
 10
787.8020538765692
 20
184.0818839106865
 10
787.8442020797363
 20
182.7396091064038
 10
787.8863502829033
 20
181.3938483224545
 10
787.9284984860702
 20
180.0455489942493
 10
787.9706466892375
 20
178.6956585571991
 10
788.0127948924046
 20
177.3451244467146
 10
788.0549430955716
 20
175.9948940982067
 10
788.0970912987387
 20
174.645914947086
 10
788.1392395019055
 20
173.2991322973775
 10
788.1813877050727
 20
171.9554801070322
 10
788.2235359082398
 20
170.6158885735045
 10
788.2656841114068
 20
169.2812878918026
 10
788.3078323145741
 20
167.9526082569346
 10
788.349980517741
 20
166.6307798639087
 10
788.3921287209081
 20
165.3167329077329
 10
788.4342769240751
 20
164.0113975834154
 10
788.4764251272422
 20
162.7157040859645
 10
788.5185733304094
 20
161.4305826103881
 10
788.5607215335764
 20
160.1569633406516
 10
788.6028697367435
 20
158.895756462608
 10
788.6450179399104
 20
157.6478108465105
 10
788.6871661430775
 20
156.4139636507397
 10
788.7293143462446
 20
155.1950520336762
 10
788.7714625494115
 20
153.9919131537007
 10
788.8136107525785
 20
152.8053841691936
 10
788.8557589557455
 20
151.6363022385356
 10
788.8979071589125
 20
150.4855045201073
 10
788.9400553620795
 20
149.3538281722892
 10
788.9822035652464
 20
148.2421103534621
 10
789.0243517684137
 20
147.1511876728983
 10
789.0664999715807
 20
146.0818434445571
 10
789.1086481747478
 20
145.0347638853459
 10
789.1507963779148
 20
144.010624901811
 10
789.192944581082
 20
143.0101024004985
 10
789.2350927842491
 20
142.0338722879546
 10
789.2772409874162
 20
141.0826104707255
 10
789.3193891905834
 20
140.1569928553575
 10
789.3615373937503
 20
139.2576953483967
 10
789.4036855969175
 20
138.3853938563892
 10
789.4458338000845
 20
137.5407642858815
 10
789.4879820032517
 20
136.7244790918211
 10
789.5301302064187
 20
135.9371129133386
 10
789.5722784095857
 20
135.1791310872084
 10
789.6144266127527
 20
134.4509931924172
 10
789.6565748159198
 20
133.7531588079517
 10
789.6987230190869
 20
133.0860875127985
 10
789.7408712222538
 20
132.4502388859442
 10
789.7830194254207
 20
131.8460725063756
 10
789.8251676285878
 20
131.2740479530795
 10
789.8673158317548
 20
130.7346248050423
 10
789.9094640349218
 20
130.2282626412509
 10
789.9516122380887
 20
129.7554098728532
 10
789.993760441256
 20
129.3163724912368
 10
790.0359086444228
 20
128.9113582475451
 10
790.0780568475898
 20
128.540572944765
 10
790.1202050507569
 20
128.2042223858834
 10
790.1623532539239
 20
127.902512373887
 10
790.204501457091
 20
127.6356487117627
 10
790.246649660258
 20
127.4038372024975
 10
790.288797863425
 20
127.207283649078
 10
790.3309460665921
 20
127.0461938544913
 10
790.3730942697593
 20
126.9207736217241
 10
790.4152424729265
 20
126.8312033774993
 10
790.4573906760934
 20
126.7774906944194
 10
790.4995388792607
 20
126.7595710688794
  0
LWPOLYLINE
  5
E2
330
1F
100
AcDbEntity
  8
0
  6
CONTINUOUS
 62
     7
100
AcDbPolyline
 90
      113
 70
     0
 43
0.0
 10
775.7785923160345
 20
227.9788828271292
 10
775.8207520762354
 20
227.7258921110024
 10
775.8629118364364
 20
227.4376825881906
 10
775.9050715966374
 20
227.1145582770625
 10
775.9472313568383
 20
226.7568248111871
 10
775.9893911170393
 20
226.3647878241332
 10
776.0315508772402
 20
225.93875294947
 10
776.0737106374411
 20
225.4790258207662
 10
776.1158703976421
 20
224.9859120715908
 10
776.1580301578429
 20
224.4597173355128
 10
776.2001899180439
 20
223.9007472461011
 10
776.2423496782448
 20
223.3093074369247
 10
776.2845094384458
 20
222.6857288383822
 10
776.3266691986469
 20
222.0304990854121
 10
776.3688289588476
 20
221.3441657411142
 10
776.4109887190486
 20
220.6272764892287
 10
776.4531484792495
 20
219.8803790134956
 10
776.4953082394504
 20
219.1040209976548
 10
776.5374679996514
 20
218.2987501254465
 10
776.5796277598523
 20
217.4651140806106
 10
776.6217875200532
 20
216.603660546887
 10
776.6639472802541
 20
215.7149372080159
 10
776.706107040455
 20
214.7994917503482
 10
776.7482668006559
 20
213.8579091802988
 10
776.7904265608568
 20
212.8909057626063
 10
776.8325863210579
 20
211.8992266035935
 10
776.8747460812586
 20
210.883616809583
 10
776.9169058414598
 20
209.8448214868977
 10
776.9590656016607
 20
208.7835857418602
 10
777.0012253618615
 20
207.7006546807931
 10
777.0433851220625
 20
206.5967734100194
 10
777.0855448822635
 20
205.4726870358615
 10
777.1277046424644
 20
204.3291406646424
 10
777.1698644026653
 20
203.1668796799655
 10
777.2120241628663
 20
201.9866907572959
 10
777.2541839230671
 20
200.7894453098242
 10
777.296343683268
 20
199.5760251520401
 10
777.338503443469
 20
198.3473120984333
 10
777.38066320367
 20
197.1041879634935
 10
777.4228229638711
 20
195.8475345617104
 10
777.4649827240719
 20
194.5782337075738
 10
777.507142484273
 20
193.2971672155733
 10
777.5493022444738
 20
192.0052169001987
 10
777.5914620046747
 20
190.7032645759397
 10
777.6336217648756
 20
189.3921928414089
 10
777.6757815250766
 20
188.0729119162978
 10
777.7179412852776
 20
186.746366328088
 10
777.7601010454785
 20
185.4135027454608
 10
777.8022608056793
 20
184.0752678370972
 10
777.8444205658802
 20
182.7326082716784
 10
777.8865803260813
 20
181.3864707178856
 10
777.9287400862821
 20
180.0378018443999
 10
777.970899846483
 20
178.6875483199026
 10
778.0130596066842
 20
177.3366568130747
 10
778.055219366885
 20
175.9860739925974
 10
778.0973791270859
 20
174.6367460757758
 10
778.1395388872871
 20
173.2896126345761
 10
778.1816986474879
 20
171.945608180342
 10
778.2238584076889
 20
170.6056670973769
 10
778.2660181678898
 20
169.2707237699837
 10
778.3081779280906
 20
167.9417125824656
 10
778.3503376882916
 20
166.6195679191258
 10
778.3924974484927
 20
165.3052241642673
 10
778.4346572086935
 20
163.9996157021933
 10
778.4768169688945
 20
162.7036769172069
 10
778.5189767290954
 20
161.4183421936113
 10
778.5611364892962
 20
160.1445386180523
 10
778.6032962494972
 20
158.8831377833063
 10
778.645456009698
 20
157.6349857859636
 10
778.6876157698989
 20
156.4009285883628
 10
778.7297755300999
 20
155.1818121528427
 10
778.7719352903008
 20
153.9784824417421
 10
778.8140950505017
 20
152.7917854173996
 10
778.8562548107025
 20
151.622567042154
 10
778.8984145709035
 20
150.471673278344
 10
778.9405743311045
 20
149.3399500883083
 10
778.9827340913055
 20
148.2282434343856
 10
779.0248938515064
 20
147.1373747317324
 10
779.0670536117074
 20
146.068060566482
 10
779.1092133719083
 20
145.02098954669
 10
779.1513731321093
 20
143.9968502801403
 10
779.19353289231
 20
142.9963313746165
 10
779.235692652511
 20
142.0201214379022
 10
779.2778524127119
 20
141.0689090777814
 10
779.3200121729129
 20
140.1433829020374
 10
779.3621719331139
 20
139.2442315184543
 10
779.4043316933149
 20
138.3721435348156
 10
779.4464914535159
 20
137.5278073983964
 10
779.4886512137169
 20
136.7118559101223
 10
779.5308109739176
 20
135.9247849075426
 10
779.5729707341187
 20
135.1670695332103
 10
779.6151304943196
 20
134.4391849296784
 10
779.6572902545206
 20
133.7416062394999
 10
779.6994500147216
 20
133.0748086052278
 10
779.7416097749225
 20
132.439267169415
 10
779.7837695351235
 20
131.8354570746146
 10
779.8259292953244
 20
131.2638534633795
 10
779.8680890555254
 20
130.7249314782628
 10
779.9102488157264
 20
130.2191644243019
 10
779.9524085759273
 20
129.746929021165
 10
779.9945683361283
 20
129.3084596510209
 10
780.036728096329
 20
128.9039792745663
 10
780.07888785653
 20
128.533710852498
 10
780.121047616731
 20
128.1978773455128
 10
780.163207376932
 20
127.8967017143073
 10
780.2053671371327
 20
127.6304069195784
 10
780.2475268973336
 20
127.3992159220227
 10
780.2896866575346
 20
127.2033516823371
 10
780.3318464177355
 20
127.0430371612182
 10
780.3740061779364
 20
126.918488250867
 10
780.4161659381373
 20
126.8297847689496
 10
780.4583256983383
 20
126.7768837316434
 10
780.5004854585396
 20
126.759737750008
  0
LWPOLYLINE
  5
E3
330
1F
100
AcDbEntity
  8
0
  6
CONTINUOUS
 62
     7
100
AcDbPolyline
 90
      105
 70
     0
 43
0.0
 10
855.7786300389416
 20
227.9778057833009
 10
855.824028215389
 20
227.7039297158838
 10
855.8694263918364
 20
227.3895510711649
 10
855.9148245682835
 20
227.0348910379588
 10
855.9602227447308
 20
226.6401708050802
 10
856.0056209211784
 20
226.2056115613438
 10
856.0510190976257
 20
225.7314434861416
 10
856.096417274073
 20
225.2180606049961
 10
856.1418154505205
 20
224.6659999821262
 10
856.1872136269677
 20
224.0758034867646
 10
856.2326118034151
 20
223.4480129881438
 10
856.2780099798625
 20
222.7831703554966
 10
856.3234081563098
 20
222.0818174580556
 10
856.3688063327571
 20
221.3444961650536
 10
856.4142045092046
 20
220.5717483457232
 10
856.4596026856518
 20
219.7641158692969
 10
856.5050008620993
 20
218.9221467327132
 10
856.5503990385463
 20
218.0465232237103
 10
856.5957972149937
 20
217.1380583289721
 10
856.6411953914411
 20
216.1975704443516
 10
856.6865935678884
 20
215.2258779657017
 10
856.7319917443358
 20
214.2237992888756
 10
856.7773899207831
 20
213.1921528097263
 10
856.8227880972303
 20
212.1317569241066
 10
856.8681862736777
 20
211.0434300278697
 10
856.913584450125
 20
209.9279905168686
 10
856.9589826265722
 20
208.7862603894179
 10
857.0043808030194
 20
207.6191580476518
 10
857.0497789794669
 20
206.4277064844327
 10
857.0951771559139
 20
205.2129339358771
 10
857.1405753323613
 20
203.975868638102
 10
857.1859735088087
 20
202.7175388272237
 10
857.2313716852562
 20
201.438972739359
 10
857.2767698617033
 20
200.1411986106245
 10
857.3221680381505
 20
198.8252446771367
 10
857.3675662145978
 20
197.4921391750125
 10
857.4129643910452
 20
196.1429119775819
 10
857.4583625674924
 20
194.7786474760788
 10
857.5037607439399
 20
193.4004960121341
 10
857.5491589203872
 20
192.0096118770988
 10
857.5945570968346
 20
190.6071493623238
 10
857.639955273282
 20
189.1942627591603
 10
857.6853534497294
 20
187.7721063589591
 10
857.7307516261769
 20
186.3418344530715
 10
857.7761498026243
 20
184.9046013328483
 10
857.8215479790714
 20
183.4615612896407
 10
857.8669461555189
 20
182.0138689203453
 10
857.9123443319663
 20
180.5626917839352
 10
857.9577425084135
 20
179.1092149329876
 10
858.003140684861
 20
177.6546246575451
 10
858.0485388613083
 20
176.20010724765
 10
858.0939370377556
 20
174.7468489933447
 10
858.1393352142031
 20
173.2960361846716
 10
858.1847333906504
 20
171.848855111673
 10
858.2301315670976
 20
170.4064920643913
 10
858.275529743545
 20
168.9701333328689
 10
858.3209279199922
 20
167.5409647688877
 10
858.3663260964396
 20
166.120147819601
 10
858.411724272887
 20
164.7088071540142
 10
858.4571224493342
 20
163.3080643969293
 10
858.5025206257814
 20
161.9190411731481
 10
858.5479188022288
 20
160.5428591074726
 10
858.5933169786758
 20
159.1806398247046
 10
858.6387151551232
 20
157.8335049496461
 10
858.6841133315706
 20
156.5025761070989
 10
858.7295115080178
 20
155.1889749218649
 10
858.7749096844652
 20
153.8938223005614
 10
858.8203078609125
 20
152.6181845814542
 10
858.8657060373597
 20
151.3630361650739
 10
858.911104213807
 20
150.1293426162476
 10
858.9565023902543
 20
148.9180694998022
 10
859.0019005667018
 20
147.7301823805647
 10
859.0472987431492
 20
146.5666468233622
 10
859.0926969195964
 20
145.4284283930215
 10
859.1380950960438
 20
144.3164926543698
 10
859.1834932724912
 20
143.2318051722339
 10
859.2288914489385
 20
142.1753308188777
 10
859.274289625386
 20
141.1479588602976
 10
859.3196878018332
 20
140.150435936776
 10
859.3650859782806
 20
139.1834928748574
 10
859.4104841547278
 20
138.2478605010868
 10
859.4558823311753
 20
137.3442696420086
 10
859.5012805076226
 20
136.4734511241678
 10
859.5466786840699
 20
135.6361357741088
 10
859.5920768605174
 20
134.8330544183765
 10
859.6374750369644
 20
134.0649378835156
 10
859.682873213412
 20
133.3325164809508
 10
859.7282713898593
 20
132.6364337390896
 10
859.7736695663066
 20
131.9771495616162
 10
859.8190677427539
 20
131.3551004859539
 10
859.8644659192012
 20
130.7707230495262
 10
859.9098640956486
 20
130.2244537897566
 10
859.9552622720958
 20
129.7167292440685
 10
860.0006604485432
 20
129.2479859498853
 10
860.0460586249906
 20
128.8186604446305
 10
860.0914568014379
 20
128.4291892657275
 10
860.1368549778853
 20
128.0800086438591
 10
860.1822531543326
 20
127.7714663123493
 10
860.2276513307798
 20
127.5036995542858
 10
860.2730495072273
 20
127.2768150470546
 10
860.3184476836745
 20
127.0909194680416
 10
860.3638458601218
 20
126.9461194946327
 10
860.4092440365691
 20
126.8425218042139
 10
860.4546422130165
 20
126.7802330741712
 10
860.5000403894641
 20
126.7593599818904
  0
LWPOLYLINE
  5
E4
330
1F
100
AcDbEntity
  8
0
  6
CONTINUOUS
 62
     7
100
AcDbPolyline
 90
      105
 70
     0
 43
0.0
 10
765.7789087957569
 20
227.9771182323599
 10
765.8243036878068
 20
227.702841199154
 10
765.8696985798568
 20
227.3878452646414
 10
765.9150934719069
 20
227.0324912813628
 10
765.9604883639568
 20
226.6371401018588
 10
766.0058832560069
 20
226.2021525786699
 10
766.0512781480568
 20
225.7278895643368
 10
766.0966730401069
 20
225.2147119114001
 10
766.1420679321569
 20
224.6629804724003
 10
766.1874628242068
 20
224.0730560998781
 10
766.232857716257
 20
223.4453010158989
 10
766.2782526083067
 20
222.7801835672527
 10
766.3236475003566
 20
222.0783520823244
 10
766.3690423924068
 20
221.3404723351312
 10
766.4144372844567
 20
220.5672100996899
 10
766.4598321765067
 20
219.7592311500174
 10
766.5052270685568
 20
218.9172012601307
 10
766.5506219606067
 20
218.0417862040468
 10
766.5960168526566
 20
217.1336517557825
 10
766.6414117447065
 20
216.1934636893549
 10
766.6868066367567
 20
215.2218884917175
 10
766.7322015288065
 20
214.2196728652665
 10
766.7775964208565
 20
213.1877161503687
 10
766.8229913129065
 20
212.1269347924335
 10
766.8683862049566
 20
211.0382452368705
 10
766.9137810970064
 20
209.9225639290892
 10
766.9591759890563
 20
208.780807314499
 10
767.0045708811064
 20
207.6138918385095
 10
767.0499657731563
 20
206.4227339465303
 10
767.0953606652064
 20
205.2082500839708
 10
767.1407555572564
 20
203.9713569881599
 10
767.1861504493064
 20
202.7130228528805
 10
767.2315453413563
 20
201.4343259351811
 10
767.2769402334062
 20
200.1363586760142
 10
767.3223351254562
 20
198.8202135163326
 10
767.3677300175062
 20
197.4869828970889
 10
767.4131249095562
 20
196.1377592592357
 10
767.4585198016063
 20
194.7736350437257
 10
767.5039146936562
 20
193.3957026915116
 10
767.5493095857062
 20
192.005054643546
 10
767.5947044777561
 20
190.6027834155068
 10
767.6400993698061
 20
189.190004605617
 10
767.6854942618561
 20
187.767889426689
 10
767.730889153906
 20
186.3376172985076
 10
767.7762840459562
 20
184.9003676408579
 10
767.821678938006
 20
183.4573198735246
 10
767.8670738300559
 20
182.0096534162927
 10
767.9124687221062
 20
180.5585476889471
 10
767.957863614156
 20
179.1051821112726
 10
768.0032585062061
 20
177.6507361030541
 10
768.0486533982562
 20
176.1963890807052
 10
768.0940482903059
 20
174.743318277388
 10
768.139443182356
 20
173.2926949877693
 10
768.184838074406
 20
171.8456895063521
 10
768.2302329664561
 20
170.4034721276393
 10
768.275627858506
 20
168.9672131461338
 10
768.321022750556
 20
167.5380828563387
 10
768.3664176426058
 20
166.1172515527568
 10
768.4118125346557
 20
164.7058895298911
 10
768.4572074267058
 20
163.3051670822446
 10
768.5026023187557
 20
161.9162544924394
 10
768.5479972108059
 20
160.5402996604492
 10
768.5933921028559
 20
159.1783816031349
 10
768.6387869949057
 20
157.8315661291698
 10
768.6841818869558
 20
156.5009190472274
 10
768.7295767790058
 20
155.187506165981
 10
768.7749716710558
 20
153.8923932941042
 10
768.8203665631057
 20
152.6166462402703
 10
768.8657614551556
 20
151.3613308131527
 10
768.9111563472056
 20
150.1275128214249
 10
768.9565512392555
 20
148.916258070721
 10
769.0019461313057
 20
147.7285959175985
 10
769.0473410233556
 20
146.5654285537568
 10
769.0927359154057
 20
145.4276304554398
 10
769.1381308074556
 20
144.3160760988911
 10
769.1835256995056
 20
143.2316399603545
 10
769.2289205915557
 20
142.1751965160739
 10
769.2743154836055
 20
141.1476202422929
 10
769.3197103756555
 20
140.1497856152554
 10
769.3651052677055
 20
139.182567111205
 10
769.4105001597555
 20
138.246839206384
 10
769.4558950518054
 20
137.3434321745607
 10
769.5012899438556
 20
136.4730012334287
 10
769.5466848359055
 20
135.636158270778
 10
769.5920797279556
 20
134.8335151743984
 10
769.6374746200055
 20
134.0656838320799
 10
769.6828695120553
 20
133.3332761316122
 10
769.7282644041053
 20
132.6369039607853
 10
769.7736592961554
 20
131.9771792073892
 10
769.8190541882054
 20
131.3547137592136
 10
769.8644490802553
 20
130.7701195040484
 10
769.9098439723053
 20
130.2239621179139
 10
769.9552388643554
 20
129.716599445117
 10
770.0006337564054
 20
129.2483309288843
 10
770.0460286484553
 20
128.8194560093459
 10
770.0914235405054
 20
128.4302741266319
 10
770.1368184325555
 20
128.0810847208721
 10
770.1822133246055
 20
127.7721872321967
 10
770.2276082166554
 20
127.5038811007355
 10
770.2730031087053
 20
127.2764657666186
 10
770.3183980007555
 20
127.0902406699761
 10
770.3637928928055
 20
126.9454617319074
 10
770.4091877848555
 20
126.8421624490812
 10
770.4545826769054
 20
126.7803054445846
 10
770.499977568955
 20
126.759853311239
  0
LWPOLYLINE
  5
E5
330
1F
100
AcDbEntity
  8
0
  6
CONTINUOUS
 62
     7
100
AcDbPolyline
 90
      105
 70
     0
 43
0.0
 10
755.7785039152221
 20
227.9792901884775
 10
755.8239023697998
 20
227.7052805684651
 10
755.8693008243778
 20
227.3906140278518
 10
755.9146992789554
 20
227.0356307014672
 10
755.9600977335331
 20
226.6406707241408
 10
756.0054961881108
 20
226.2060742307024
 10
756.0508946426886
 20
225.7321813559815
 10
756.0962930972664
 20
225.2193322348077
 10
756.1416915518441
 20
224.6678670020105
 10
756.187090006422
 20
224.0781257924196
 10
756.2324884609997
 20
223.4504905614741
 10
756.2778869155773
 20
222.7855470849628
 10
756.3232853701551
 20
222.0839431395766
 10
756.3686838247328
 20
221.3463265165397
 10
756.4140822793105
 20
220.5733450070765
 10
756.4594807338882
 20
219.7656464024113
 10
756.5048791884659
 20
218.9238784937685
 10
756.5502776430436
 20
218.0486890723724
 10
756.5956760976214
 20
217.1407259294473
 10
756.6410745521989
 20
216.2006368562176
 10
756.6864730067766
 20
215.229099867932
 10
756.7318714613543
 20
214.2269601195307
 10
756.777269915932
 20
213.1951202214519
 10
756.8226683705096
 20
212.1344828365448
 10
756.8680668250875
 20
211.0459506276588
 10
756.913465279665
 20
209.9304262576433
 10
756.9588637342428
 20
208.7888123893475
 10
757.0042621888203
 20
207.6220116856209
 10
757.0496606433982
 20
206.4309268093127
 10
757.095059097976
 20
205.2164604232723
 10
757.1404575525537
 20
203.9795338263402
 10
757.1858560071315
 20
202.7211854795466
 10
757.2312544617091
 20
201.4424992649693
 10
757.2766529162868
 20
200.1445591642947
 10
757.3220513708644
 20
198.828449159209
 10
757.3674498254423
 20
197.4952532313984
 10
757.41284828002
 20
196.1460553625491
 10
757.4582467345977
 20
194.7819395343473
 10
757.5036451891754
 20
193.4039897284793
 10
757.5490436437532
 20
192.0132899266312
 10
757.5944420983309
 20
190.610932335195
 10
757.6398405529086
 20
189.1980681049617
 10
757.6852390074864
 20
187.775874102081
 10
757.7306374620641
 20
186.3455272996617
 10
757.7760359166418
 20
184.908204670813
 10
757.8214343712195
 20
183.4650831886438
 10
757.8668328257971
 20
182.0173398262631
 10
757.912231280375
 20
180.56615155678
 10
757.9576297349525
 20
179.1126953533034
 10
758.0030281895303
 20
177.6581481889424
 10
758.0484266441081
 20
176.2036868168197
 10
758.0938250986857
 20
174.7504861864094
 10
758.1392235532635
 20
173.2997203635545
 10
758.1846220078411
 20
171.852563408038
 10
758.2300204624189
 20
170.410189379643
 10
758.2754189169966
 20
168.9737723381528
 10
758.3208173715743
 20
167.5444863433503
 10
758.366215826152
 20
166.1235054550189
 10
758.4116142807297
 20
164.7120037329416
 10
758.4570127353074
 20
163.3111552369014
 10
758.502411189885
 20
161.9221277271915
 10
758.5478096444629
 20
160.5460296103081
 10
758.5932080990406
 20
159.1839367015702
 10
758.6386065536183
 20
157.8369244800766
 10
758.6840050081961
 20
156.506068424926
 10
758.7294034627737
 20
155.1924440152172
 10
758.7748019173514
 20
153.8971267300488
 10
758.8202003719291
 20
152.6211920485195
 10
758.8655988265067
 20
151.365715449728
 10
758.9109972810844
 20
150.1317724127732
 10
758.9563957356622
 20
148.9204284451822
 10
759.0017941902398
 20
147.7326404861285
 10
759.0471926448176
 20
146.569298770329
 10
759.0925910993951
 20
145.4312925616106
 10
759.1379895539728
 20
144.3195111238003
 10
759.1833880085507
 20
143.2348437207252
 10
759.2287864631284
 20
142.1781796162121
 10
759.2741849177061
 20
141.1504080740881
 10
759.3195833722838
 20
140.1524183581803
 10
759.3649818268616
 20
139.1850997323155
 10
759.4103802814392
 20
138.2493299805855
 10
759.455778736017
 20
137.3458414731889
 10
759.5011771905947
 20
136.4752667536606
 10
759.5465756451725
 20
135.6382364095766
 10
759.5919740997502
 20
134.8353810285134
 10
759.6373725543278
 20
134.067331198047
 10
759.6827710089058
 20
133.3347175057537
 10
759.7281694634836
 20
132.6381705392096
 10
759.7735679180611
 20
131.9783208859909
 10
759.8189663726389
 20
131.3557991336739
 10
759.8643648272165
 20
130.7712246083269
 10
759.9097632817943
 20
130.225049309598
 10
759.9551617363721
 20
129.717597029325
 10
760.0005601909498
 20
129.2491882958895
 10
760.0459586455273
 20
128.8201436376734
 10
760.0913571001053
 20
128.4307835830583
 10
760.1367555546828
 20
128.0814286604258
 10
760.1821540092606
 20
127.7723993981577
 10
760.2275524638382
 20
127.5040163246358
 10
760.272950918416
 20
127.2765999682416
 10
760.3183493729936
 20
127.0904610066913
 10
760.3637478275713
 20
126.9457367237349
 10
760.409146282149
 20
126.8424162365961
 10
760.4545447367266
 20
126.7804838964535
 10
760.4999431913044
 20
126.7599240544856
  0
LWPOLYLINE
  5
E6
330
1F
100
AcDbEntity
  8
0
  6
CONTINUOUS
 62
     7
100
AcDbPolyline
 90
       33
 70
     0
 43
0.0
 10
840.5000013778966
 20
126.7590700477511
 10
840.5086292885936
 20
126.7598174223017
 10
840.5172571992905
 20
126.7620715419857
 10
840.5258851099877
 20
126.7658334362208
 10
840.534513020685
 20
126.7711038027114
 10
840.5431409313819
 20
126.7778817937145
 10
840.551768842079
 20
126.7861661117619
 10
840.5603967527763
 20
126.7959554593348
 10
840.5690246634732
 20
126.8072485389142
 10
840.5776525741705
 20
126.8200440529815
 10
840.5862804848676
 20
126.8343407040178
 10
840.5949083955647
 20
126.8501371945043
 10
840.6035363062617
 20
126.8674322269221
 10
840.6121642169588
 20
126.8862245037523
 10
840.6207921276559
 20
126.9065127274763
 10
840.6294200383531
 20
126.928295600575
 10
840.6380479490502
 20
126.9515718255298
 10
840.6466758597472
 20
126.9763401048218
 10
840.6553037704444
 20
127.0025991409321
 10
840.6639316811415
 20
127.0303476363419
 10
840.6725595918385
 20
127.0595842935324
 10
840.6811875025357
 20
127.0903078149848
 10
840.689815413233
 20
127.1225169031802
 10
840.69844332393
 20
127.1562102605998
 10
840.7070712346273
 20
127.1913865897248
 10
840.7156991453244
 20
127.2280445930363
 10
840.7243270560213
 20
127.2661829730154
 10
840.7329549667184
 20
127.3058004321435
 10
840.7415828774156
 20
127.3468956729017
 10
840.7502107881127
 20
127.3894673977711
 10
840.7588386988095
 20
127.4335143092328
 10
840.7674666095066
 20
127.4790351097681
 10
840.7760945202039
 20
127.5260285018581
  0
LWPOLYLINE
  5
E7
330
1F
100
AcDbEntity
  8
0
  6
CONTINUOUS
 62
     7
100
AcDbPolyline
 90
      113
 70
     0
 43
0.0
 10
-842.000272243055
 20
228.758791382515
 10
-842.0424195556592
 20
228.7406745057838
 10
-842.0845668682634
 20
228.6866047479853
 10
-842.1267141808678
 20
228.5967014382074
 10
-842.168861493472
 20
228.4711244238595
 10
-842.211008806076
 20
228.3100335523511
 10
-842.2531561186805
 20
228.1135886710921
 10
-842.2953034312848
 20
227.8819496274918
 10
-842.337450743889
 20
227.6152762689597
 10
-842.3795980564933
 20
227.3137284429055
 10
-842.4217453690974
 20
226.9774659967387
 10
-842.4638926817017
 20
226.606648777869
 10
-842.5060399943062
 20
226.2014370896653
 10
-842.5481873069104
 20
225.76206747835
 10
-842.5903346195148
 20
225.2889375205596
 10
-842.6324819321188
 20
224.7824652406011
 10
-842.6746292447233
 20
224.2430686627813
 10
-842.7167765573275
 20
223.6711658114067
 10
-842.7589238699318
 20
223.0671747107843
 10
-842.8010711825361
 20
222.4315133852209
 10
-842.8432184951403
 20
221.764599859023
 10
-842.8853658077446
 20
221.0668521564977
 10
-842.9275131203489
 20
220.3386883019517
 10
-842.9696604329532
 20
219.5805287734588
 10
-843.0118077455573
 20
218.7928874986031
 10
-843.0539550581617
 20
217.97639868825
 10
-843.0961023707658
 20
217.1317044812142
 10
-843.1382496833701
 20
216.2594470163107
 10
-843.1803969959744
 20
215.3602684323542
 10
-843.2225443085786
 20
214.4348108681595
 10
-843.2646916211828
 20
213.4837164625415
 10
-843.3068389337872
 20
212.507627354315
 10
-843.3489862463913
 20
211.5071856822949
 10
-843.3911335589955
 20
210.483033585296
 10
-843.4332808715997
 20
209.4358190034806
 10
-843.475428184204
 20
208.366281186528
 10
-843.5175754968081
 20
207.2752320516731
 10
-843.5597228094124
 20
206.1634855280512
 10
-843.6018701220167
 20
205.0318555447978
 10
-843.6440174346209
 20
203.8811560310483
 10
-843.6861647472251
 20
202.7122009159379
 10
-843.7283120598297
 20
201.5258041286022
 10
-843.7704593724338
 20
200.3227795981763
 10
-843.8126066850381
 20
199.1039412537958
 10
-843.8547539976425
 20
197.8701030245961
 10
-843.8969013102469
 20
196.6220869021092
 10
-843.939048622851
 20
195.3607803001149
 10
-843.9811959354553
 20
194.0871024051282
 10
-844.0233432480595
 20
192.8019726142153
 10
-844.0654905606639
 20
191.5063103244424
 10
-844.1076378732682
 20
190.2010349328759
 10
-844.1497851858725
 20
188.887065836582
 10
-844.1919324984767
 20
187.5653224326269
 10
-844.234079811081
 20
186.2367241180769
 10
-844.2762271236853
 20
184.9021902899983
 10
-844.3183744362897
 20
183.5626403454573
 10
-844.3605217488939
 20
182.2189981171635
 10
-844.4026690614983
 20
180.8722077451884
 10
-844.4448163741023
 20
179.5232191777039
 10
-844.4869636867066
 20
178.1729823633441
 10
-844.5291109993111
 20
176.8224472507434
 10
-844.5712583119151
 20
175.4725637885357
 10
-844.6134056245195
 20
174.1242819253555
 10
-844.6555529371238
 20
172.778551609837
 10
-844.6977002497279
 20
171.4363227906144
 10
-844.7398475623321
 20
170.0985454163219
 10
-844.7819948749363
 20
168.7661694146678
 10
-844.8241421875406
 20
167.4401332611473
 10
-844.8662895001448
 20
166.1213450362403
 10
-844.9084368127491
 20
164.8107078343154
 10
-844.9505841253532
 20
163.5091247497407
 10
-844.9927314379573
 20
162.2174988768845
 10
-845.0348787505617
 20
160.9367333101151
 10
-845.0770260631659
 20
159.6677311438007
 10
-845.11917337577
 20
158.4113954723097
 10
-845.1613206883743
 20
157.1686293900104
 10
-845.2034680009784
 20
155.9403359912709
 10
-845.2456153135827
 20
154.7274176955899
 10
-845.287762626187
 20
153.530733164077
 10
-845.3299099387914
 20
152.351071284474
 10
-845.3720572513955
 20
151.189214708933
 10
-845.4142045639999
 20
150.0459460896063
 10
-845.4563518766041
 20
148.922048078646
 10
-845.4984991892084
 20
147.8183033282045
 10
-845.5406465018126
 20
146.7354944904339
 10
-845.5827938144173
 20
145.6744042174865
 10
-845.6249411270214
 20
144.6358151615144
 10
-845.6670884396257
 20
143.62050997467
 10
-845.70923575223
 20
142.6292673172989
 10
-845.7513830648342
 20
141.662776821809
 10
-845.7935303774386
 20
140.7216406122002
 10
-845.8356776900429
 20
139.8064571245997
 10
-845.8778250026471
 20
138.9178247951352
 10
-845.9199723152515
 20
138.056342059934
 10
-845.9621196278556
 20
137.2226073551235
 10
-846.00426694046
 20
136.4172191168312
 10
-846.0464142530642
 20
135.6407757811845
 10
-846.0885615656684
 20
134.8938757843108
 10
-846.1307088782726
 20
134.1771175623376
 10
-846.1728561908769
 20
133.4910867704722
 10
-846.2150035034812
 20
132.8362326136114
 10
-846.2571508160855
 20
132.2129217005024
 10
-846.2992981286897
 20
131.6215194881403
 10
-846.341445441294
 20
131.0623914335199
 10
-846.3835927538984
 20
130.5359029936363
 10
-846.4257400665025
 20
130.0424196254845
 10
-846.4678873791069
 20
129.5823067860595
 10
-846.5100346917113
 20
129.1559299323563
 10
-846.5521820043155
 20
128.7636545213699
 10
-846.5943293169196
 20
128.4058460100953
 10
-846.6364766295238
 20
128.0828405879311
 10
-846.6786239421281
 20
127.7948031629422
 10
-846.720771254733
 20
127.5418365209822
210
0.0
220
0.0
230
-1.0
  0
LWPOLYLINE
  5
E8
330
1F
100
AcDbEntity
  8
0
  6
CONTINUOUS
 62
     7
100
AcDbPolyline
 90
      105
 70
     0
 43
0.0
 10
745.7785014483977
 20
227.9791559730982
 10
745.8238990510525
 20
227.7051283643308
 10
745.869296653707
 20
227.3905037488893
 10
745.9146942563618
 20
227.0356013266583
 10
745.9600918590164
 20
226.6407402975223
 10
746.0054894616712
 20
226.2062398613657
 10
746.0508870643259
 20
225.7324192180731
 10
746.0962846669806
 20
225.219597567529
 10
746.1416822696353
 20
224.6680941096179
 10
746.18707987229
 20
224.0782379633554
 10
746.2324774749449
 20
223.4505212392874
 10
746.2778750775994
 20
222.7855694162986
 10
746.3232726802541
 20
222.0840118929424
 10
746.3686702829089
 20
221.3464780677726
 10
746.4140678855637
 20
220.5735973393425
 10
746.4594654882183
 20
219.765999106206
 10
746.5048630908728
 20
218.9243127669164
 10
746.5502606935275
 20
218.0491677200276
 10
746.5956582961821
 20
217.1411933640929
 10
746.6410558988367
 20
216.2010257057229
 10
746.6864535014915
 20
215.2294303933653
 10
746.731851104146
 20
214.2272913995942
 10
746.777248706801
 20
213.1954970355751
 10
746.8226463094555
 20
212.1349356124734
 10
746.86804391211
 20
211.0464954414549
 10
746.9134415147647
 20
209.9310648336852
 10
746.9588391174194
 20
208.7895321003296
 10
747.004236720074
 20
207.6227855525539
 10
747.0496343227288
 20
206.4317135015237
 10
747.0950319253836
 20
205.2172079891342
 10
747.1404295280383
 20
203.9802496467258
 10
747.1858271306929
 20
202.7219092691503
 10
747.2312247333476
 20
201.4432616968329
 10
747.2766223360024
 20
200.1453817701991
 10
747.3220199386571
 20
198.8293443296743
 10
747.3674175413117
 20
197.4962242156836
 10
747.4128151439666
 20
196.1470962686526
 10
747.4582127466213
 20
194.7830353290066
 10
747.503610349276
 20
193.4051162371709
 10
747.5490079519308
 20
192.014415351334
 10
747.5944055545855
 20
190.6120533893571
 10
747.6398031572401
 20
189.1992014169572
 10
747.6852007598949
 20
187.7770332212739
 10
747.7305983625495
 20
186.3467225894469
 10
747.7759959652041
 20
184.9094433086159
 10
747.8213935678586
 20
183.4663691659205
 10
747.8667911705134
 20
182.0186739485003
 10
747.9121887731682
 20
180.5675314434951
 10
747.9575863758228
 20
179.1141154380445
 10
748.0029839784775
 20
177.65959975714
 10
748.048381581132
 20
176.2051596160112
 10
748.0937791837868
 20
174.7519719902065
 10
748.1391767864415
 20
173.3012139684375
 10
748.1845743890962
 20
171.8540626394158
 10
748.2299719917509
 20
170.4116950918529
 10
748.2753695944056
 20
168.9752884144604
 10
748.3207671970603
 20
167.5460196959499
 10
748.3661647997151
 20
166.1250660250328
 10
748.4115624023696
 20
164.7136044904207
 10
748.4569600050244
 20
163.3128114116958
 10
748.5023576076791
 20
161.92382667012
 10
748.5477552103337
 20
160.5477386385948
 10
748.5931528129884
 20
159.1856317932353
 10
748.6385504156431
 20
157.8385906101564
 10
748.6839480182977
 20
156.5076995654732
 10
748.7293456209524
 20
155.1940431353005
 10
748.774743223607
 20
153.8987057957536
 10
748.8201408262616
 20
152.6227720229473
 10
748.8655384289166
 20
151.3673262929966
 10
748.910936031571
 20
150.1334520347946
 10
748.9563336342258
 20
148.9221665048957
 10
749.0017312368803
 20
147.734382425284
 10
749.047128839535
 20
146.5710032917756
 10
749.0925264421898
 20
145.4329326001867
 10
749.1379240448445
 20
144.3210738463336
 10
749.1833216474992
 20
143.2363305260324
 10
749.2287192501539
 20
142.1796061350992
 10
749.2741168528086
 20
141.1518041693504
 10
749.3195144554633
 20
140.1538281246022
 10
749.3649120581179
 20
139.1865805198296
 10
749.4103096607726
 20
138.2508778560623
 10
749.4557072634274
 20
137.3473845731322
 10
749.5011048660821
 20
136.4767495658951
 10
749.5465024687367
 20
135.6396217292065
 10
749.5919000713915
 20
134.8366499579221
 10
749.6372976740461
 20
134.0684831468975
 10
749.6826952767007
 20
133.3357701909883
 10
749.7280928793552
 20
132.6391599850503
 10
749.7734904820101
 20
131.9793014239389
 10
749.8188880846648
 20
131.3568426697641
 10
749.8642856873195
 20
130.7723364655021
 10
749.909683289974
 20
130.226146485795
 10
749.9550808926288
 20
129.7186141498397
 10
750.0004784952835
 20
129.250080876833
 10
750.0458760979382
 20
128.8208880859715
 10
750.0912737005929
 20
128.4313771964522
 10
750.1366713032473
 20
128.0818896274716
 10
750.182068905902
 20
127.7727667982267
 10
750.2274665085567
 20
127.5043501279141
 10
750.2728641112116
 20
127.2769805821993
 10
750.3182617138663
 20
127.0909041436466
 10
750.363659316521
 20
126.9461554445299
 10
750.4090569191757
 20
126.8427406081068
 10
750.4544545218305
 20
126.7806657576342
 10
750.4998521244852
 20
126.7599370163695
  0
LWPOLYLINE
  5
E9
330
1F
100
AcDbEntity
  8
0
  6
CONTINUOUS
 62
     7
100
AcDbPolyline
 90
      105
 70
     0
 43
0.0
 10
735.7785482533662
 20
227.9787213580581
 10
735.8239466519152
 20
227.7046611652577
 10
735.8693450504641
 20
227.3900479587864
 10
735.9147434490129
 20
227.0351799311499
 10
735.9601418475619
 20
226.6403552748544
 10
736.0055402461107
 20
226.2058721824058
 10
736.0509386446597
 20
225.7320288463097
 10
736.0963370432086
 20
225.2191234590723
 10
736.1417354417574
 20
224.6674547726342
 10
736.1871338403064
 20
224.0774140677801
 10
736.2325322388551
 20
223.4495875347324
 10
736.2779306374042
 20
222.784586036465
 10
736.3233290359531
 20
222.0830204359513
 10
736.3687274345019
 20
221.3455015961653
 10
736.4141258330509
 20
220.5726403800806
 10
736.4595242315997
 20
219.7650476506709
 10
736.5049226301487
 20
218.9233342709099
 10
736.5503210286975
 20
218.0481111037715
 10
736.5957194272465
 20
217.1399892636123
 10
736.6411178257954
 20
216.1996506708062
 10
736.6865162243442
 20
215.2279448377544
 10
736.7319146228934
 20
214.2257455221983
 10
736.7773130214422
 20
213.1939264818801
 10
736.822711419991
 20
212.1333614745414
 10
736.8681098185399
 20
211.0449242579243
 10
736.913508217089
 20
209.9294885897707
 10
736.9589066156379
 20
208.7879282278223
 10
737.0043050141867
 20
207.621116929821
 10
737.0497034127357
 20
206.4299285364577
 10
737.0951018112845
 20
205.2152835731952
 10
737.1405002098335
 20
203.9782269913896
 10
737.1858986083823
 20
202.7198242460734
 10
737.2312970069312
 20
201.4411407922788
 10
737.27669540548
 20
200.1432420850383
 10
737.3220938040291
 20
198.8271935793843
 10
737.3674922025779
 20
197.494060730349
 10
737.4128906011267
 20
196.144908992965
 10
737.4582889996756
 20
194.7808038222645
 10
737.5036873982244
 20
193.4028106886782
 10
737.5490857967735
 20
192.0120180051829
 10
737.5944841953225
 20
190.6095831868451
 10
737.6398825938713
 20
189.1966765682038
 10
737.6852809924201
 20
187.774468483798
 10
737.730679390969
 20
186.3441292681666
 10
737.776077789518
 20
184.9068292558485
 10
737.821476188067
 20
183.4637387813827
 10
737.866874586616
 20
182.0160281793081
 10
737.9122729851648
 20
180.5648677841635
 10
737.9576713837138
 20
179.1114279307417
 10
738.0030697822626
 20
177.6568808113066
 10
738.0484681808115
 20
176.2024049346432
 10
738.0938665793605
 20
174.7491801509871
 10
738.1392649779093
 20
173.2983863105737
 10
738.1846633764582
 20
171.8512032636388
 10
738.2300617750071
 20
170.4088108604178
 10
738.275460173556
 20
168.9723889511464
 10
738.3208585721048
 20
167.5431173860602
 10
738.3662569706538
 20
166.1221760153948
 10
738.4116553692027
 20
164.7107446893561
 10
738.4570537677516
 20
163.3099882638465
 10
738.5024521663005
 20
161.9210138596609
 10
738.5478505648495
 20
160.5449147035424
 10
738.5932489633983
 20
159.1827840222342
 10
738.6386473619472
 20
157.8357150424794
 10
738.6840457604961
 20
156.5048009910213
 10
738.7294441590451
 20
155.1911350946027
 10
738.774842557594
 20
153.895810579967
 10
738.8202409561428
 20
152.6199206738572
 10
738.8656393546919
 20
151.3645586030165
 10
738.9110377532407
 20
150.1307907745214
 10
738.9564361517897
 20
148.9195666036968
 10
739.0018345503385
 20
147.731803613758
 10
739.0472329488874
 20
146.5684193272152
 10
739.0926313474364
 20
145.4303312665787
 10
739.1380297459851
 20
144.3184569543585
 10
739.1834281445342
 20
143.2337139130652
 10
739.2288265430831
 20
142.1770196652089
 10
739.2742249416319
 20
141.1492917332997
 10
739.3196233401809
 20
140.151447639848
 10
739.3650217387298
 20
139.1843713792126
 10
739.4104201372787
 20
138.2487811667444
 10
739.4558185358277
 20
137.3453440717049
 10
739.5012169343764
 20
136.4747271487552
 10
739.5466153329254
 20
135.6375974525568
 10
739.5920137314743
 20
134.8346220377706
 10
739.6374121300232
 20
134.0664679590579
 10
739.6828105285721
 20
133.3338022710799
 10
739.728208927121
 20
132.6372920284977
 10
739.7736073256698
 20
131.9776042859725
 10
739.8190057242186
 20
131.3553705283759
 10
739.8644041227677
 20
130.771022637549
 10
739.9098025213165
 20
130.2249229173125
 10
739.9552009198655
 20
129.7174336000425
 10
740.0005993184144
 20
129.2489169181152
 10
740.0459977169634
 20
128.8197351039064
 10
740.0913961155122
 20
128.4302503897923
 10
740.1367945140611
 20
128.0808250081489
 10
740.1821929126102
 20
127.7718211913523
 10
740.2275913111589
 20
127.5036011717784
 10
740.272989709708
 20
127.2764933957038
 10
740.3183881082567
 20
127.0906107007179
 10
740.3637865068057
 20
126.9459811826806
 10
740.4091849053547
 20
126.8426327354561
 10
740.4545833039035
 20
126.7805932529087
 10
740.4999817024525
 20
126.7598906289027
  0
LWPOLYLINE
  5
EA
330
1F
100
AcDbEntity
  8
0
  6
CONTINUOUS
 62
     7
100
AcDbPolyline
 90
      105
 70
     0
 43
0.0
 10
725.7780853715365
 20
227.9811350454205
 10
725.8234890370157
 20
227.7075017317548
 10
725.8688927024953
 20
227.3933348301796
 10
725.9142963679748
 20
227.0389115052725
 10
725.9597000334542
 20
226.6445089216115
 10
726.0051036989335
 20
226.2104042437741
 10
726.0505073644131
 20
225.7368746363383
 10
726.0959110298924
 20
225.2241972638817
 10
726.1413146953715
 20
224.6726819912009
 10
726.1867183608512
 20
224.0828425344449
 10
726.2321220263307
 20
223.4552710249155
 10
726.2775256918101
 20
222.7905597577263
 10
726.3229293572895
 20
222.0893010279912
 10
726.3683330227689
 20
221.3520871308241
 10
726.4137366882484
 20
220.5795103613389
 10
726.4591403537275
 20
219.7721630146492
 10
726.5045440192071
 20
218.930637385869
 10
726.5499476846865
 20
218.0555257701122
 10
726.5953513501657
 20
217.1474444057991
 10
726.6407550156451
 20
216.2071790247494
 10
726.6861586811248
 20
215.2355885012802
 10
726.731562346604
 20
214.2335319983297
 10
726.7769660120834
 20
213.2018686788357
 10
726.822369677563
 20
212.1414577057365
 10
726.8677733430424
 20
211.0531582419699
 10
726.9131770085216
 20
209.9378294504741
 10
726.9585806740012
 20
208.7963304941871
 10
727.0039843394806
 20
207.6295205360469
 10
727.0493880049598
 20
206.43827389736
 10
727.0947916704393
 20
205.2235871513047
 10
727.1401953359187
 20
203.9865159369583
 10
727.1855990013981
 20
202.7281162768518
 10
727.2310026668777
 20
201.449444193516
 10
727.2764063323569
 20
200.151555709482
 10
727.3218099978365
 20
198.8355068472808
 10
727.367213663316
 20
197.5023536294433
 10
727.4126173287952
 20
196.1531520785003
 10
727.4580209942748
 20
194.788958216983
 10
727.503424659754
 20
193.4108353304665
 10
727.5488283252336
 20
192.0199137165818
 10
727.5942319907128
 20
190.6173598553535
 10
727.6396356561924
 20
189.2043405797216
 10
727.6850393216718
 20
187.7820227226264
 10
727.730442987151
 20
186.3515731170076
 10
727.7758466526305
 20
184.9141585958054
 10
727.82125031811
 20
183.4709459919599
 10
727.8666539835893
 20
182.0231021384111
 10
727.9120576490689
 20
180.571793868099
 10
727.9574613145481
 20
179.1181888837081
 10
728.0028649800277
 20
177.6634641150604
 10
728.048268645507
 20
176.208802050586
 10
728.0936723109866
 20
174.7553852551493
 10
728.1390759764658
 20
173.3043962936145
 10
728.1844796419454
 20
171.8570177308461
 10
728.2298833074248
 20
170.4144321317083
 10
728.2752869729042
 20
168.9778220610654
 10
728.3206906383834
 20
167.5483700837819
 10
728.3660943038628
 20
166.1272587647221
 10
728.4114979693422
 20
164.7156669472212
 10
728.4569016348219
 20
163.3147277951648
 10
728.5023053003011
 20
161.925543812166
 10
728.5477089657805
 20
160.5492169346251
 10
728.59311263126
 20
159.1868490989419
 10
728.6385162967393
 20
157.8395422415167
 10
728.6839199622186
 20
156.5083982987494
 10
728.7293236276982
 20
155.1945192070401
 10
728.7747272931775
 20
153.899006902789
 10
728.820130958657
 20
152.6229633223961
 10
728.8655346241366
 20
151.3674839106041
 10
728.9109382896158
 20
150.133571233641
 10
728.9563419550952
 20
148.9221584756926
 10
729.0017456205748
 20
147.7341771542546
 10
729.047149286054
 20
146.5705587868226
 10
729.0925529515335
 20
145.4322348908923
 10
729.1379566170128
 20
144.3201369839593
 10
729.1833602824923
 20
143.2351965835193
 10
729.2287639479717
 20
142.178345207068
 10
729.2741676134511
 20
141.150514372101
 10
729.3195712789307
 20
140.1526279534958
 10
729.36497494441
 20
139.1854812215783
 10
729.4103786098894
 20
138.2497626124947
 10
729.455782275369
 20
137.3461573208494
 10
729.5011859408482
 20
136.4753505412469
 10
729.5465896063275
 20
135.6380274682916
 10
729.5919932718073
 20
134.8348732965882
 10
729.6373969372864
 20
134.066573220741
 10
729.682800602766
 20
133.3338124353545
 10
729.7282042682453
 20
132.6372761350333
 10
729.7736079337249
 20
131.9776419925462
 10
729.8190115992043
 20
131.3554371984531
 10
729.8644152646837
 20
130.7710500011349
 10
729.9098189301629
 20
130.2248634397494
 10
729.9552225956426
 20
129.7172605534546
 10
730.0006262611217
 20
129.2486243814083
 10
730.0460299266012
 20
128.8193379627684
 10
730.0914335920806
 20
128.4297843366929
 10
730.1368372575602
 20
128.0803465423396
 10
730.1822409230397
 20
127.7714076188664
 10
730.2276445885188
 20
127.5033440622224
 10
730.2730482539984
 20
127.2763746876248
 10
730.3184519194776
 20
127.0905565303528
 10
730.363855584957
 20
126.9459392624666
 10
730.4092592504365
 20
126.8425725560261
 10
730.4546629159161
 20
126.7805060830915
 10
730.5000665813955
 20
126.7597895157229
  0
LWPOLYLINE
  5
EB
330
1F
100
AcDbEntity
  8
0
  6
CONTINUOUS
 62
     7
100
AcDbPolyline
 90
        3
 70
     0
 43
0.0
 10
751.6858146247739
 20
226.1054724471284
 10
751.6177774281919
 20
226.2259426641632
 10
751.5592339763265
 20
226.2589618585693
  0
LWPOLYLINE
  5
EC
330
1F
100
AcDbEntity
  8
0
  6
CONTINUOUS
 62
     7
100
AcDbPolyline
 90
      113
 70
     0
 43
0.0
 10
805.7788403761847
 20
227.9770706497936
 10
805.8209954035127
 20
227.7241777843972
 10
805.8631504308408
 20
227.4361563329177
 10
805.9053054581688
 20
227.1131065477883
 10
805.9474604854968
 20
226.7552705105573
 10
805.9896155128248
 20
226.362999940569
 10
806.0317705401526
 20
225.9366494039834
 10
806.0739255674808
 20
225.4765734669604
 10
806.116080594809
 20
224.9831266956601
 10
806.158235622137
 20
224.4566636562424
 10
806.2003906494649
 20
223.8975389148672
 10
806.2425456767928
 20
223.3061070376946
 10
806.284700704121
 20
222.6827225908844
 10
806.326855731449
 20
222.0277401405968
 10
806.3690107587769
 20
221.3415331316715
 10
806.4111657861048
 20
220.6246218168633
 10
806.4533208134329
 20
219.8775952105196
 10
806.495475840761
 20
219.1010427201127
 10
806.5376308680891
 20
218.2955537531151
 10
806.5797858954169
 20
217.461717716999
 10
806.621940922745
 20
216.6001240192372
 10
806.6640959500729
 20
215.7113620673018
 10
806.7062509774008
 20
214.7960212686655
 10
806.7484060047291
 20
213.8546910308006
 10
806.790561032057
 20
212.8879607611794
 10
806.832716059385
 20
211.8964482901794
 10
806.8748710867131
 20
210.8808958259422
 10
806.9170261140412
 20
209.8420795890036
 10
806.9591811413691
 20
208.7807758007337
 10
807.0013361686971
 20
207.6977606825028
 10
807.0434911960252
 20
206.5938104556813
 10
807.085646223353
 20
205.4697013416393
 10
807.1278012506813
 20
204.3262095617472
 10
807.1699562780093
 20
203.1641113373753
 10
807.2121113053372
 20
201.9841828898936
 10
807.2542663326651
 20
200.7872005187076
 10
807.2964213599932
 20
199.573972016645
 10
807.3385763873212
 20
198.3453847834585
 10
807.3807314146492
 20
197.1023386046146
 10
807.4228864419772
 20
195.8457332655801
 10
807.4650414693052
 20
194.5764685518218
 10
807.5071964966331
 20
193.2954442488061
 10
807.5493515239611
 20
192.003560142
 10
807.5915065512893
 20
190.70171601687
 10
807.6336615786172
 20
189.3908116588828
 10
807.6758166059453
 20
188.0717468535051
 10
807.7179716332732
 20
186.7454217204005
 10
807.7601266606013
 20
185.4127552700673
 10
807.8022816879294
 20
184.0746951450618
 10
807.8444367152572
 20
182.7321913766201
 10
807.8865917425852
 20
181.3861939959786
 10
807.9287467699132
 20
180.0376530343737
 10
807.9709017972411
 20
178.6875185230416
 10
808.0130568245693
 20
177.3367404932187
 10
808.0552118518972
 20
175.9862689761412
 10
808.0973668792252
 20
174.6370540030454
 10
808.139521906553
 20
173.2900456051676
 10
808.181676933881
 20
171.9461931489212
 10
808.2238319612092
 20
170.6064325207693
 10
808.2659869885371
 20
169.2716870625981
 10
808.3081420158651
 20
167.9428796388488
 10
808.3502970431932
 20
166.6209331139628
 10
808.3924520705214
 20
165.3067703523813
 10
808.4346070978493
 20
164.0013142185454
 10
808.4767621251774
 20
162.7054875768965
 10
808.5189171525053
 20
161.4202132918757
 10
808.5610721798332
 20
160.1464142279243
 10
808.6032272071612
 20
158.8850132494835
 10
808.6453822344894
 20
157.6369270267701
 10
808.6875372618172
 20
156.4030111899647
 10
808.7296922891453
 20
155.1840866394853
 10
808.7718473164731
 20
153.9809738740786
 10
808.8140023438012
 20
152.7944933924917
 10
808.8561573711293
 20
151.6254656934713
 10
808.8983123984574
 20
150.4747112757642
 10
808.9404674257853
 20
149.3430506381175
 10
808.9826224531132
 20
148.2313042792778
 10
809.0247774804411
 20
147.1402926979921
 10
809.0669325077693
 20
146.0708363930074
 10
809.1090875350973
 20
145.0237353557283
 10
809.1512425624252
 20
143.9996783940356
 10
809.1933975897534
 20
142.9993168121399
 10
809.2355526170812
 20
142.0233018853843
 10
809.2777076444092
 20
141.072284889112
 10
809.3198626717373
 20
140.1469170986661
 10
809.3620176990653
 20
139.2478497893895
 10
809.4041727263933
 20
138.3757342366255
 10
809.4463277537213
 20
137.5312217157171
 10
809.4884827810494
 20
136.7149635020074
 10
809.5306378083774
 20
135.9276108480455
 10
809.5727928357053
 20
135.1697677689129
 10
809.6149478630334
 20
134.4418916246083
 10
809.6571028903613
 20
133.7444113984007
 10
809.6992579176894
 20
133.0777560735589
 10
809.7414129450174
 20
132.4423546333516
 10
809.7835679723455
 20
131.8386360610479
 10
809.8257229996734
 20
131.2670293399164
 10
809.8678780270016
 20
130.7279634532261
 10
809.9100330543295
 20
130.2218673842457
 10
809.9521880816576
 20
129.7491701162443
 10
809.9943431089855
 20
129.3102997802943
 10
810.0364981363134
 20
128.9055999096292
 10
810.0786531636415
 20
128.5352588586375
 10
810.1208081909695
 20
128.1994483631421
 10
810.1629632182975
 20
127.8983401589656
 10
810.2051182456256
 20
127.632105981931
 10
810.2472732729535
 20
127.400917567861
 10
810.2894283002815
 20
127.2049466525786
 10
810.3315833276097
 20
127.0443649719064
 10
810.3737383549375
 20
126.9193442616674
 10
810.4158933822657
 20
126.8300562576844
 10
810.4580484095935
 20
126.7766683892089
 10
810.5002034369209
 20
126.7592255702463
  0
LWPOLYLINE
  5
ED
330
1F
100
AcDbEntity
  8
0
  6
CONTINUOUS
 62
     7
100
AcDbPolyline
 90
        3
 70
     0
 43
0.0
 10
790.794772907707
 20
129.4628006139868
 10
790.86093272955
 20
129.3198337580992
 10
790.9406025305996
 20
129.258961858735
  0
LWPOLYLINE
  5
EE
330
1F
100
AcDbEntity
  8
0
  6
CONTINUOUS
 62
     7
100
AcDbPolyline
 90
        3
 70
     0
 43
0.0
 10
761.6888418377482
 20
226.0979430853518
 10
761.6207987910009
 20
226.2226783376088
 10
761.5592289535895
 20
226.2589618586213
  0
LWPOLYLINE
  5
EF
330
1F
100
AcDbEntity
  8
0
  6
CONTINUOUS
 62
     7
100
AcDbPolyline
 90
        3
 70
     0
 43
0.0
 10
800.8035346505142
 20
129.4388964422503
 10
800.8697096472496
 20
129.3073419303081
 10
800.9406334843273
 20
129.2589618586792
  0
LWPOLYLINE
  5
F0
330
1F
100
AcDbEntity
  8
0
  6
CONTINUOUS
 62
     7
100
AcDbPolyline
 90
      113
 70
     0
 43
0.0
 10
-831.9995819282968
 20
228.7588780604516
 10
-832.0417360126971
 20
228.7412012941311
 10
-832.0838900970974
 20
228.6876055226168
 10
-832.1260441814974
 20
228.598232378167
 10
-832.1681982658978
 20
228.4732245770664
 10
-832.210352350298
 20
228.3127248355996
 10
-832.2525064346981
 20
228.1168758700513
 10
-832.2946605190986
 20
227.8858203967064
 10
-832.3368146034989
 20
227.6197011318493
 10
-832.3789686878989
 20
227.3186607917649
 10
-832.4211227722991
 20
226.9828420927377
 10
-832.4632768566992
 20
226.6123877510525
 10
-832.5054309410995
 20
226.2074717620348
 10
-832.5475850254998
 20
225.7684387116503
 10
-832.5897391098999
 20
225.2956910554726
 10
-832.6318931942998
 20
224.7896312959988
 10
-832.6740472787001
 20
224.2506619357258
 10
-832.7162013631004
 20
223.6791854771508
 10
-832.7583554475004
 20
223.0756044227706
 10
-832.8005095319004
 20
222.4403212750823
 10
-832.8426636163007
 20
221.7737385365832
 10
-832.884817700701
 20
221.0762587097699
 10
-832.926971785101
 20
220.3482843186708
 10
-832.9691258695012
 20
219.5902658390289
 10
-833.0112799539015
 20
218.8028035780356
 10
-833.0534340383017
 20
217.9865270267934
 10
-833.0955881227018
 20
217.1420656764053
 10
-833.1377422071021
 20
216.2700490179742
 10
-833.1798962915022
 20
215.371106542603
 10
-833.2220503759023
 20
214.4458677413946
 10
-833.2642044603027
 20
213.494962105452
 10
-833.3063585447028
 20
212.5190191258781
 10
-833.3485126291032
 20
211.5186682937758
 10
-833.3906667135035
 20
210.494539666807
 10
-833.4328207979036
 20
209.4473208001869
 10
-833.4749748823039
 20
208.3778054163725
 10
-833.5171289667041
 20
207.286798701474
 10
-833.5592830511043
 20
206.1751058416019
 10
-833.6014371355044
 20
205.0435320228666
 10
-833.6435912199046
 20
203.8928824313785
 10
-833.6857453043046
 20
202.7239622532479
 10
-833.7278993887048
 20
201.5375766745853
 10
-833.7700534731051
 20
200.334530881501
 10
-833.8122075575054
 20
199.1156300601054
 10
-833.8543616419055
 20
197.8816811139505
 10
-833.8965157263057
 20
196.6335404812436
 10
-833.9386698107058
 20
195.3721204474688
 10
-833.980823895106
 20
194.098336283773
 10
-834.0229779795061
 20
192.813103261303
 10
-834.0651320639063
 20
191.5173366512058
 10
-834.1072861483065
 20
190.2119517246282
 10
-834.1494402327065
 20
188.897863752717
 10
-834.1915943171067
 20
187.5759880066191
 10
-834.2337484015069
 20
186.2472397574814
 10
-834.2759024859072
 20
184.9125342764507
 10
-834.3180565703072
 20
183.5727883832609
 10
-834.3602106547077
 20
182.2289387875927
 10
-834.4023647391078
 20
180.88193598854
 10
-834.4445188235079
 20
179.5327307621207
 10
-834.4866729079083
 20
178.1822738843524
 10
-834.5288269923084
 20
176.831516131253
 10
-834.5709810767087
 20
175.4814082788404
 10
-834.6131351611089
 20
174.1329011031323
 10
-834.6552892455092
 20
172.7869453801465
 10
-834.6974433299093
 20
171.4444918859008
 10
-834.7395974143095
 20
170.106491396413
 10
-834.7817514987098
 20
168.7738907568458
 10
-834.8239055831099
 20
167.4476100033994
 10
-834.8660596675101
 20
166.1285579810533
 10
-834.9082137519104
 20
164.8176434974436
 10
-834.9503678363103
 20
163.5157753602063
 10
-834.9925219207105
 20
162.2238623769776
 10
-835.0346760051106
 20
160.9428133553936
 10
-835.0768300895106
 20
159.6735371030902
 10
-835.1189841739108
 20
158.4169424277038
 10
-835.161138258311
 20
157.1739381368702
 10
-835.2032923427109
 20
155.9454330382013
 10
-835.2454464271113
 20
154.7323159683749
 10
-835.2876005115114
 20
153.5353984296442
 10
-835.3297545959117
 20
152.3554732077725
 10
-835.3719086803119
 20
151.1933330885226
 10
-835.4140627647122
 20
150.0497708576578
 10
-835.4562168491123
 20
148.9255793009411
 10
-835.4983709335127
 20
147.8215512041355
 10
-835.5405250179127
 20
146.738479353004
 10
-835.582679102313
 20
145.6771565333098
 10
-835.6248331867133
 20
144.6383755308158
 10
-835.6669872711135
 20
143.6229289032261
 10
-835.7091413555138
 20
142.6315585681815
 10
-835.751295439914
 20
141.6648923120293
 10
-835.7934495243145
 20
140.7235422991211
 10
-835.8356036087145
 20
139.8081206938088
 10
-835.8777576931146
 20
138.9192396604442
 10
-835.919911777515
 20
138.0575113633791
 10
-835.9620658619153
 20
137.2235479669652
 10
-836.0042199463155
 20
136.4179616355544
 10
-836.0463740307156
 20
135.6413645334983
 10
-836.0885281151157
 20
134.8943688251489
 10
-836.1306821995158
 20
134.1775845335545
 10
-836.1728362839159
 20
133.4915288466432
 10
-836.2149903683162
 20
132.8365924936705
 10
-836.257144452716
 20
132.2131571358357
 10
-836.2992985371163
 20
131.6216044343377
 10
-836.3414526215164
 20
131.0623160503757
 10
-836.3836067059163
 20
130.5356736451487
 10
-836.4257607903163
 20
130.0420588798558
 10
-836.4679148747167
 20
129.5818534156962
 10
-836.5100689591167
 20
129.1554389138688
 10
-836.552223043517
 20
128.7631970355728
 10
-836.594377127917
 20
128.4055014700386
 10
-836.6365312123172
 20
128.0825898453331
 10
-836.6786852967175
 20
127.7945857455978
 10
-836.7208393811183
 20
127.5416092295058
210
0.0
220
0.0
230
-1.0
  0
LWPOLYLINE
  5
F1
330
1F
100
AcDbEntity
  8
0
  6
CONTINUOUS
 62
     7
100
AcDbPolyline
 90
      105
 70
     0
 43
0.0
 10
-821.9994202229346
 20
228.758868166807
 10
-822.0448328452637
 20
228.7383489500415
 10
-822.0902454675928
 20
228.676240253437
 10
-822.135658089922
 20
228.5726989385541
 10
-822.1810707122512
 20
228.4278818669531
 10
-822.2264833345802
 20
228.2419459001947
 10
-822.2718959569092
 20
228.0150478998395
 10
-822.3173085792384
 20
227.7473447274478
 10
-822.3627212015676
 20
227.4389932445802
 10
-822.4081338238966
 20
227.0901503127972
 10
-822.4535464462257
 20
226.7009748006175
 10
-822.4989590685549
 20
226.2717464170749
 10
-822.5443716908838
 20
225.802932417644
 10
-822.589784313213
 20
225.2950162193366
 10
-822.635196935542
 20
224.7484812391645
 10
-822.6806095578712
 20
224.1638108941395
 10
-822.7260221802003
 20
223.5414886012734
 10
-822.7714348025294
 20
222.8819977775779
 10
-822.8168474248585
 20
222.185821840065
 10
-822.8622600471875
 20
221.4534442057463
 10
-822.9076726695165
 20
220.6853495130051
 10
-822.9530852918454
 20
219.8821213147922
 10
-822.9984979141747
 20
219.0445133801977
 10
-823.0439105365035
 20
218.1732962908213
 10
-823.0893231588327
 20
217.2692406282626
 10
-823.1347357811617
 20
216.3331169741211
 10
-823.1801484034908
 20
215.3656959099966
 10
-823.2255610258197
 20
214.3677480174886
 10
-823.2709736481489
 20
213.3400438781969
 10
-823.3163862704779
 20
212.2833540737209
 10
-823.361798892807
 20
211.198449812895
 10
-823.407211515136
 20
210.0861738870596
 10
-823.452624137465
 20
208.9475058500786
 10
-823.4980367597942
 20
207.7834406578907
 10
-823.5434493821231
 20
206.5949732664341
 10
-823.5888620044523
 20
205.3830986316472
 10
-823.6342746267812
 20
204.1488117094685
 10
-823.6796872491102
 20
202.8931074558364
 10
-823.7250998714394
 20
201.6169808266893
 10
-823.7705124937685
 20
200.3214267779655
 10
-823.8159251160976
 20
199.007440511492
 10
-823.8613377384265
 20
197.6760593529605
 10
-823.9067503607557
 20
196.3284101180438
 10
-823.9521629830847
 20
194.9656310637998
 10
-823.9975756054137
 20
193.5888604472862
 10
-824.0429882277429
 20
192.1992365255606
 10
-824.0884008500719
 20
190.7978975556807
 10
-824.133813472401
 20
189.3859817947042
 10
-824.17922609473
 20
187.9646274996888
 10
-824.2246387170593
 20
186.5349729276923
 10
-824.2700513393881
 20
185.0981563841822
 10
-824.3154639617172
 20
183.6553297925171
 10
-824.3608765840463
 20
182.207677300342
 10
-824.4062892063754
 20
180.7563877158331
 10
-824.4517018287047
 20
179.3026498471662
 10
-824.4971144510337
 20
177.8476525025174
 10
-824.5425270733629
 20
176.3925844900627
 10
-824.587939695692
 20
174.9386346179781
 10
-824.6333523180209
 20
173.4869916944394
 10
-824.67876494035
 20
172.0388445276227
 10
-824.7241775626792
 20
170.5953819042134
 10
-824.7695901850083
 20
169.1577812395032
 10
-824.8150028073372
 20
167.7271899222532
 10
-824.8604154296664
 20
166.3047504426376
 10
-824.9058280519954
 20
164.8916052908307
 10
-824.9512406743246
 20
163.4888969570068
 10
-824.9966532966537
 20
162.0977679313401
 10
-825.0420659189826
 20
160.7193607040049
 10
-825.0874785413116
 20
159.3548177651755
 10
-825.1328911636407
 20
158.0052816050262
 10
-825.1783037859695
 20
156.6718946888985
 10
-825.2237164082987
 20
155.3557684656479
 10
-825.2691290306279
 20
154.0579228249823
 10
-825.3145416529567
 20
152.779360844141
 10
-825.3599542752858
 20
151.5210856003634
 10
-825.405366897615
 20
150.2841001708887
 10
-825.450779519944
 20
149.0694076329562
 10
-825.4961921422731
 20
147.8780110638054
 10
-825.5416047646021
 20
146.7109135406754
 10
-825.5870173869313
 20
145.5691181408056
 10
-825.6324300092602
 20
144.4536279318606
 10
-825.6778426315893
 20
143.3654016467391
 10
-825.7232552539184
 20
142.3052514580247
 10
-825.7686678762476
 20
141.2739592950443
 10
-825.8140804985766
 20
140.2723070871249
 10
-825.8594931209055
 20
139.3010767635932
 10
-825.9049057432348
 20
138.3610502537763
 10
-825.950318365564
 20
137.453009487001
 10
-825.9957309878929
 20
136.5777363925942
 10
-826.0411436102221
 20
135.7360128998829
 10
-826.0865562325512
 20
134.9286209374183
 10
-826.1319688548801
 20
134.1562912534668
 10
-826.1773814772093
 20
133.4195648687984
 10
-826.2227940995385
 20
132.7189388499179
 10
-826.2682067218675
 20
132.0549102633298
 10
-826.3136193441966
 20
131.4279761755387
 10
-826.3590319665255
 20
130.8386336530492
 10
-826.4044445888546
 20
130.287379762366
 10
-826.4498572111837
 20
129.7747115699935
 10
-826.4952698335126
 20
129.3011261424365
 10
-826.5406824558418
 20
128.8671205461995
 10
-826.5860950781708
 20
128.4731397174992
 10
-826.6315077005002
 20
128.1194117371011
 10
-826.6769203228289
 20
127.8061083057266
 10
-826.7223329451585
 20
127.533401123974
210
0.0
220
0.0
230
-1.0
  0
LWPOLYLINE
  5
F2
330
1F
100
AcDbEntity
  8
0
  6
CONTINUOUS
 62
     7
100
AcDbPolyline
 90
      105
 70
     0
 43
0.0
 10
-791.9992613439053
 20
228.7584316411659
 10
-792.044676316646
 20
228.7379837714072
 10
-792.0900912893867
 20
228.6761179093573
 10
-792.1355062621273
 20
228.5729259181019
 10
-792.1809212348678
 20
228.4284996607264
 10
-792.2263362076084
 20
228.2429310003162
 10
-792.271751180349
 20
228.016311799957
 10
-792.3171661530897
 20
227.7487339227339
 10
-792.3625811258302
 20
227.4402901701006
 10
-792.407996098571
 20
227.0911792536436
 10
-792.4534110713116
 20
226.7018015957779
 10
-792.4988260440521
 20
226.2725802479159
 10
-792.5442410167927
 20
225.8039382614701
 10
-792.5896559895333
 20
225.296298687853
 10
-792.635070962274
 20
224.7500845784772
 10
-792.6804859350148
 20
224.1657189847553
 10
-792.7259009077552
 20
223.5436249580995
 10
-792.771315880496
 20
222.8842255499225
 10
-792.8167308532367
 20
222.1879443325818
 10
-792.8621458259773
 20
221.4552924197029
 10
-792.9075607987178
 20
220.6869660400539
 10
-792.9529757714585
 20
219.8836849613552
 10
-792.9983907441991
 20
219.0461689513274
 10
-793.0438057169399
 20
218.175137777691
 10
-793.0892206896805
 20
217.2713112081665
 10
-793.1346356624209
 20
216.3354090104745
 10
-793.1800506351617
 20
215.3681509523355
 10
-793.2254656079024
 20
214.3702568014701
 10
-793.2708805806429
 20
213.3424465620442
 10
-793.3162955533835
 20
212.2855046997587
 10
-793.3617105261242
 20
211.2003672756507
 10
-793.4071254988646
 20
210.0879921240296
 10
-793.4525404716054
 20
208.9493370792048
 10
-793.4979554443461
 20
207.7853599754857
 10
-793.5433704170866
 20
206.5970186471815
 10
-793.5887853898272
 20
205.3852709286017
 10
-793.6342003625678
 20
204.1510746540557
 10
-793.6796153353085
 20
202.8953876578529
 10
-793.725030308049
 20
201.61916785292
 10
-793.7704452807895
 20
200.3234127029469
 10
-793.8158602535302
 20
199.0092232964702
 10
-793.8612752262708
 20
197.677717485996
 10
-793.9066901990115
 20
196.3300131240303
 10
-793.9521051717521
 20
194.9672280630793
 10
-793.9975201444928
 20
193.5904801556489
 10
-794.0429351172334
 20
192.2008872542456
 10
-794.088350089974
 20
190.7995672113752
 10
-794.1337650627146
 20
189.3876378795439
 10
-794.1791800354553
 20
187.9662171247362
 10
-794.2245950081958
 20
186.536438279396
 10
-794.2700099809365
 20
185.099479903531
 10
-794.3154249536769
 20
183.6565287804922
 10
-794.3608399264177
 20
182.2087716936307
 10
-794.4062548991584
 20
180.7573954262974
 10
-794.4516698718991
 20
179.3035867618436
 10
-794.4970848446396
 20
177.8485324836201
 10
-794.5424998173803
 20
176.393419374978
 10
-794.5879147901209
 20
174.9394342192684
 10
-794.6333297628616
 20
173.4877637984154
 10
-794.6787447356022
 20
172.0395892682681
 10
-794.7241597083427
 20
170.5960733916181
 10
-794.7695746810834
 20
169.1583751785329
 10
-794.8149896538239
 20
167.7276536390795
 10
-794.8604046265646
 20
166.3050677833253
 10
-794.9058195993051
 20
164.8917766213375
 10
-794.9512345720459
 20
163.4889391631834
 10
-794.9966495447865
 20
162.0977144189304
 10
-795.042064517527
 20
160.7192613986456
 10
-795.0874794902676
 20
159.354739111866
 10
-795.1328944630083
 20
158.0052843357965
 10
-795.1783094357488
 20
156.6719524771976
 10
-795.2237244084894
 20
155.3557803318089
 10
-795.26913938123
 20
154.0578046953698
 10
-795.3145543539706
 20
152.7790623636197
 10
-795.3599693267113
 20
151.5205901322983
 10
-795.4053842994517
 20
150.2834247971449
 10
-795.4507992721926
 20
149.0686031538991
 10
-795.4962142449332
 20
147.8771619983004
 10
-795.5416292176737
 20
146.7101381260882
 10
-795.5870441904144
 20
145.5685347317103
 10
-795.632459163155
 20
144.453217225823
 10
-795.6778741358958
 20
143.3650157073542
 10
-795.7232891086362
 20
142.3047602752119
 10
-795.768704081377
 20
141.2732810283045
 10
-795.8141190541174
 20
140.2714080655399
 10
-795.8595340268582
 20
139.2999714858265
 10
-795.9049489995988
 20
138.3598013880724
 10
-795.9503639723396
 20
137.4517278711858
 10
-795.99577894508
 20
136.5765810340749
 10
-796.0411939178209
 20
135.7351513005206
 10
-796.0866088905614
 20
134.9280467748885
 10
-796.1320238633019
 20
134.1558232237902
 10
-796.1774388360427
 20
133.4190364093314
 10
-796.2228538087832
 20
132.7182420936179
 10
-796.2682687815238
 20
132.0539960387553
 10
-796.3136837542644
 20
131.4268540068494
 10
-796.3590987270051
 20
130.8373717600059
 10
-796.4045136997457
 20
130.2861050603305
 10
-796.4499286724864
 20
129.7736096699289
 10
-796.495343645227
 20
129.3004004226215
 10
-796.5407586179676
 20
128.8667812362782
 10
-796.5861735907082
 20
128.4729882820463
 10
-796.6315885634488
 20
128.1192576993812
 10
-796.6770035361894
 20
127.8058256277384
 10
-796.7224185089308
 20
127.5329282065698
210
0.0
220
0.0
230
-1.0
  0
LWPOLYLINE
  5
F3
330
1F
100
AcDbEntity
  8
0
  6
CONTINUOUS
 62
     7
100
AcDbPolyline
 90
      105
 70
     0
 43
0.0
 10
-771.9998552896177
 20
228.7581180738444
 10
-772.0452520107312
 20
228.7372700112337
 10
-772.0906487318448
 20
228.6750854819709
 10
-772.1360454529585
 20
228.5716127758269
 10
-772.1814421740718
 20
228.4269001825729
 10
-772.2268388951854
 20
228.24099599198
 10
-772.272235616299
 20
228.0139484938191
 10
-772.3176323374125
 20
227.7458153445737
 10
-772.3630290585261
 20
227.4368245758412
 10
-772.4084257796397
 20
227.0873527838065
 10
-772.4538225007534
 20
226.6977815435867
 10
-772.4992192218668
 20
226.2684924302989
 10
-772.5446159429804
 20
225.7998670190605
 10
-772.5900126640938
 20
225.2922868849884
 10
-772.6354093852075
 20
224.7461336032
 10
-772.6808061063209
 20
224.1617887488123
 10
-772.7262028274347
 20
223.5396338969427
 10
-772.771599548548
 20
222.8800573241141
 10
-772.8169962696616
 20
222.1835940856369
 10
-772.8623929907752
 20
221.4509220429358
 10
-772.9077897118888
 20
220.682724964119
 10
-772.9531864330022
 20
219.8796866172948
 10
-772.9985831541157
 20
219.0424907705715
 10
-773.0439798752292
 20
218.1718211920575
 10
-773.0893765963428
 20
217.2683616498611
 10
-773.1347733174564
 20
216.3327959120905
 10
-773.1801700385698
 20
215.3658077468541
 10
-773.2255667596835
 20
214.3680851483685
 10
-773.2709634807971
 20
213.340429315067
 10
-773.3163602019106
 20
212.2837643262167
 10
-773.3617569230241
 20
211.1990204265984
 10
-773.4071536441376
 20
210.0871278609931
 10
-773.4525503652511
 20
208.9490168741818
 10
-773.4979470863647
 20
207.7856177109455
 10
-773.5433438074782
 20
206.5978606160652
 10
-773.5887405285918
 20
205.3866758343219
 10
-773.6341372497053
 20
204.1529936104964
 10
-773.6795339708189
 20
202.897746398067
 10
-773.7249306919324
 20
201.6219404089127
 10
-773.770327413046
 20
200.3266712018337
 10
-773.8157241341595
 20
199.013039698003
 10
-773.861120855273
 20
197.6821468185937
 10
-773.9065175763867
 20
196.3350934847787
 10
-773.9519142975001
 20
194.9729806177311
 10
-773.9973110186137
 20
193.596909138624
 10
-774.0427077397273
 20
192.2079799686305
 10
-774.0881044608407
 20
190.8072940289234
 10
-774.1335011819543
 20
189.395953008777
 10
-774.1788979030678
 20
187.9750913512977
 10
-774.2242946241813
 20
186.5458878022248
 10
-774.2696913452949
 20
185.1095242514083
 10
-774.3150880664086
 20
183.6671825886981
 10
-774.3604847875222
 20
182.2200447039442
 10
-774.4058815086356
 20
180.7692924869965
 10
-774.4512782297493
 20
179.3161078277051
 10
-774.4966749508628
 20
177.8616726159198
 10
-774.5420716719764
 20
176.4071687414906
 10
-774.5874683930899
 20
174.9537779913751
 10
-774.6328651142035
 20
173.5026763763437
 10
-774.6782618353169
 20
172.0550311753769
 10
-774.7236585564305
 20
170.6120089416162
 10
-774.7690552775442
 20
169.1747762282029
 10
-774.8144519986577
 20
167.7444995882782
 10
-774.8598487197712
 20
166.3223455749837
 10
-774.9052454408849
 20
164.9094807414606
 10
-774.9506421619983
 20
163.5070716408503
 10
-774.9960388831119
 20
162.1162848262942
 10
-775.0414356042254
 20
160.7382863503562
 10
-775.0868323253388
 20
159.3742037744626
 10
-775.1322290464525
 20
158.0250995494495
 10
-775.177625767566
 20
156.6920298360638
 10
-775.2230224886795
 20
155.3760507950529
 10
-775.268419209793
 20
154.0782185871637
 10
-775.3138159309066
 20
152.7995893731435
 10
-775.3592126520201
 20
151.5412193137393
 10
-775.4046093731336
 20
150.3041645696983
 10
-775.4500060942471
 20
149.0894813017677
 10
-775.4954028153608
 20
147.8982251030527
 10
-775.5407995364743
 20
146.7313885252842
 10
-775.5861962575879
 20
145.589844608122
 10
-775.6315929787013
 20
144.4744530594725
 10
-775.676989699815
 20
143.3860735872425
 10
-775.7223864209284
 20
142.3255658993386
 10
-775.767783142042
 20
141.2937897036675
 10
-775.8131798631555
 20
140.2916047081358
 10
-775.8585765842691
 20
139.3198706206501
 10
-775.9039733053827
 20
138.3794471491171
 10
-775.9493700264962
 20
137.4711935484216
 10
-775.9947667476099
 20
136.5958908502781
 10
-776.0401634687236
 20
135.7541535908033
 10
-776.085560189837
 20
134.9465749724258
 10
-776.1309569109507
 20
134.1737481975741
 10
-776.1763536320641
 20
133.4362664686767
 10
-776.2217503531776
 20
132.7347229881622
 10
-776.2671470742913
 20
132.069710958459
 10
-776.3125437954047
 20
131.4418235819957
 10
-776.3579405165184
 20
130.8516540612008
 10
-776.4033372376321
 20
130.299795317692
 10
-776.4487339587456
 20
129.7867562904445
 10
-776.494130679859
 20
129.3128448137971
 10
-776.5395274009726
 20
128.8783392480562
 10
-776.5849241220861
 20
128.4835179535287
 10
-776.6303208431996
 20
128.1286592905212
 10
-776.6757175643132
 20
127.8140416193404
 10
-776.7211142854272
 20
127.5399433002899
210
0.0
220
0.0
230
-1.0
  0
LWPOLYLINE
  5
F4
330
1F
100
AcDbEntity
  8
0
  6
CONTINUOUS
 62
     7
100
AcDbPolyline
 90
        3
 70
     0
 43
0.0
 10
810.8064887628807
 20
129.4313005794189
 10
810.8746568806532
 20
129.300972236852
 10
810.9406645359558
 20
129.2589618586579
  0
LWPOLYLINE
  5
F5
330
1F
100
AcDbEntity
  8
0
  6
CONTINUOUS
 62
     7
100
AcDbPolyline
 90
      113
 70
     0
 43
0.0
 10
795.778876736166
 20
227.9770437788616
 10
795.8210302701455
 20
227.7240872615927
 10
795.863183804125
 20
227.4359306216361
 10
795.9053373381046
 20
227.1127390894165
 10
795.947490872084
 20
226.7548352516959
 10
795.9896444060635
 20
226.3625574053716
 10
796.031797940043
 20
225.9362438473405
 10
796.0739514740227
 20
225.4762328744998
 10
796.1161050080023
 20
224.9828627837467
 10
796.1582585419817
 20
224.456471871978
 10
796.2004120759614
 20
223.8973984360911
 10
796.2425656099409
 20
223.3059807729829
 10
796.2847191439205
 20
222.6825571795507
 10
796.3268726778999
 20
222.0274702383002
 10
796.3690262118795
 20
221.3411727485907
 10
796.4111797458589
 20
220.6242346144464
 10
796.4533332798386
 20
219.8772314046502
 10
796.4954868138183
 20
219.1007386879846
 10
796.5376403477977
 20
218.2953320332322
 10
796.5797938817773
 20
217.4615870091756
 10
796.6219474157568
 20
216.6000791845975
 10
796.6641009497364
 20
215.7113841282805
 10
796.7062544837161
 20
214.7960774090073
 10
796.7484080176956
 20
213.8547345955605
 10
796.790561551675
 20
212.8879404706844
 10
796.8327150856546
 20
211.8963886790682
 10
796.874868619634
 20
210.8808439387352
 10
796.9170221536135
 20
209.8420721905742
 10
796.9591756875931
 20
208.7808393754738
 10
797.0013292215724
 20
207.6979114343223
 10
797.0434827555518
 20
206.5940543080084
 10
797.0856362895315
 20
205.4700339374207
 10
797.1277898235112
 20
204.3266162634476
 10
797.1699433574905
 20
203.1645672269777
 10
797.2120968914701
 20
201.9846527688995
 10
797.2542504254495
 20
200.7876518195004
 10
797.2964039594291
 20
199.5744258723261
 10
797.3385574934086
 20
198.3458687528688
 10
797.3807110273881
 20
197.1028743620186
 10
797.4228645613676
 20
195.8463366006658
 10
797.4650180953471
 20
194.5771493697004
 10
797.5071716293265
 20
193.2962065700128
 10
797.5493251633061
 20
192.0044021024929
 10
797.5914786972858
 20
190.7026298680311
 10
797.6336322312652
 20
189.3917837675175
 10
797.6757857652447
 20
188.0727577021756
 10
797.7179392992242
 20
186.7464557017678
 10
797.7600928332038
 20
185.4138184840872
 10
797.8022463671832
 20
184.0757950711992
 10
797.8443999011629
 20
182.7333344851688
 10
797.8865534351426
 20
181.3873857480613
 10
797.9287069691221
 20
180.0388978819418
 10
797.9708605031017
 20
178.6888199088757
 10
798.013014037081
 20
177.338100850928
 10
798.0551675710606
 20
175.9876897301639
 10
798.0973211050404
 20
174.6385355686488
 10
798.1394746390197
 20
173.2915873498054
 10
798.1816281729992
 20
171.9477875140764
 10
798.2237817069789
 20
170.6080646407181
 10
798.2659352409584
 20
169.2733455426376
 10
798.3080887749379
 20
167.9445570327419
 10
798.3502423089175
 20
166.622625923938
 10
798.3923958428968
 20
165.3084790291331
 10
798.4345493768764
 20
164.0030431612343
 10
798.4767029108559
 20
162.7072451331485
 10
798.5188564448355
 20
161.4220117577829
 10
798.5610099788148
 20
160.1482698480445
 10
798.6031635127944
 20
158.8869451427883
 10
798.6453170467739
 20
157.6389225976239
 10
798.6874705807536
 20
156.4050347440087
 10
798.7296241147329
 20
155.1861106650547
 10
798.7717776487126
 20
153.9829794438739
 10
798.813931182692
 20
152.7964701635781
 10
798.8560847166716
 20
151.6274119072795
 10
798.898238250651
 20
150.4766337580897
 10
798.9403917846306
 20
149.3449647991208
 10
798.9825453186102
 20
148.2332341134848
 10
799.0246988525896
 20
147.1422707842935
 10
799.0668523865692
 20
146.072898252757
 10
799.1090059205487
 20
145.0258519093877
 10
799.1511594545283
 20
144.0017974565955
 10
799.193312988508
 20
143.0013986904976
 10
799.2354665224874
 20
142.0253194072107
 10
799.277620056467
 20
141.0742234028521
 10
799.3197735904464
 20
140.1487744735387
 10
799.361927124426
 20
139.2496364153876
 10
799.4040806584055
 20
138.3774730245158
 10
799.4462341923852
 20
137.5329480970403
 10
799.4883877263646
 20
136.716725429078
 10
799.5305412603443
 20
135.9294518042705
 10
799.5726947943236
 20
135.1716376206997
 10
799.6148483283031
 20
134.4437277156223
 10
799.6570018622829
 20
133.7461665092443
 10
799.6991553962622
 20
133.0793984217716
 10
799.7413089302418
 20
132.4438678734102
 10
799.7834624642214
 20
131.8400192843661
 10
799.8256159982009
 20
131.2682970748453
 10
799.8677695321805
 20
130.7291456650537
 10
799.9099230661598
 20
130.2230094751973
 10
799.9520766001394
 20
129.7503329254822
 10
799.994230134119
 20
129.311522707577
 10
800.0363836680984
 20
128.9068155143777
 10
800.0785372020779
 20
128.5364001795973
 10
800.1206907360574
 20
128.200465534292
 10
800.1628442700371
 20
127.8992004095181
 10
800.2049978040167
 20
127.6327936363318
 10
800.247151337996
 20
127.4014340457893
 10
800.2893048719757
 20
127.2053104689468
 10
800.3314584059552
 20
127.0446117368607
 10
800.3736119399348
 20
126.919526680587
 10
800.4157654739141
 20
126.830243991236
 10
800.4579190078939
 20
126.7768849845961
 10
800.5000725418732
 20
126.759395665516
  0
LWPOLYLINE
  5
F6
330
1F
100
AcDbEntity
  8
0
  6
CONTINUOUS
 62
     7
100
AcDbPolyline
 90
       33
 70
     0
 43
0.0
 10
-865.4997833617607
 20
228.758472726639
 10
-865.5084949526374
 20
228.757779343079
 10
-865.517206543514
 20
228.7555575345674
 10
-865.5259181343908
 20
228.7518066239583
 10
-865.5346297252677
 20
228.7465259341056
 10
-865.5433413161442
 20
228.7397147878632
 10
-865.552052907021
 20
228.7313725080851
 10
-865.5607644978978
 20
228.7214984176253
 10
-865.5694760887742
 20
228.7100918393378
 10
-865.5781876796511
 20
228.6971520960766
 10
-865.5868992705279
 20
228.6826785106957
 10
-865.5956108614046
 20
228.666670406049
 10
-865.6043224522812
 20
228.649127183075
 10
-865.6130340431579
 20
228.6300495046303
 10
-865.6217456340347
 20
228.6094390551821
 10
-865.6304572249114
 20
228.5872975485464
 10
-865.639168815788
 20
228.5636266985394
 10
-865.6478804066647
 20
228.5384282189774
 10
-865.6565919975415
 20
228.5117038236766
 10
-865.6653035884183
 20
228.4834552264532
 10
-865.6740151792949
 20
228.4536841411234
 10
-865.6827267701716
 20
228.4223922815034
 10
-865.6914383610485
 20
228.3895813614095
 10
-865.700149951925
 20
228.3552530946578
 10
-865.708861542802
 20
228.3194091950646
 10
-865.7175731336785
 20
228.282051376446
 10
-865.7262847245554
 20
228.2431813526183
 10
-865.7349963154319
 20
228.2028008373976
 10
-865.7437079063088
 20
228.1609115446003
 10
-865.7524194971855
 20
228.1175151880425
 10
-865.7611310880623
 20
228.0726134815405
 10
-865.7698426789389
 20
228.0262081389102
 10
-865.7785542698152
 20
227.9783008739704
210
0.0
220
0.0
230
-1.0
  0
LWPOLYLINE
  5
F7
330
1F
100
AcDbEntity
  8
0
  6
CONTINUOUS
 62
     7
100
AcDbPolyline
 90
       33
 70
     0
 43
0.0
 10
-845.5002722430455
 20
228.758799443063
 10
-845.5089773743262
 20
228.7580022401325
 10
-845.5176825056068
 20
228.7556729488646
 10
-845.5263876368873
 20
228.7518105881343
 10
-845.5350927681677
 20
228.7464141768169
 10
-845.5437978994484
 20
228.7394827483137
 10
-845.5525030307289
 20
228.7310162183295
 10
-845.5612081620096
 20
228.7210158763482
 10
-845.5699132932898
 20
228.7094831307566
 10
-845.5786184245705
 20
228.6964193899416
 10
-845.587323555851
 20
228.6818260622902
 10
-845.5960286871315
 20
228.6657045561892
 10
-845.6047338184121
 20
228.6480562800257
 10
-845.6134389496925
 20
228.6288826421864
 10
-845.6221440809732
 20
228.6081850510584
 10
-845.6308492122537
 20
228.5859649150285
 10
-845.6395543435343
 20
228.5622236424836
 10
-845.6482594748148
 20
228.5369626418108
 10
-845.6569646060954
 20
228.5101833213967
 10
-845.6656697373758
 20
228.4818870896285
 10
-845.6743748686563
 20
228.4520753548929
 10
-845.6830799999368
 20
228.420749525577
 10
-845.6917851312173
 20
228.3879110100676
 10
-845.7004902624979
 20
228.3535612167516
 10
-845.7091953937785
 20
228.3177015540161
 10
-845.7179005250591
 20
228.2803334302478
 10
-845.7266056563396
 20
228.2414582538336
 10
-845.7353107876202
 20
228.2010774331605
 10
-845.7440159189007
 20
228.1591923766155
 10
-845.7527210501813
 20
228.1158044925855
 10
-845.7614261814617
 20
228.0709151894572
 10
-845.7701313127424
 20
228.0245258756177
 10
-845.7788364440227
 20
227.9766379594557
210
0.0
220
0.0
230
-1.0
  0
LWPOLYLINE
  5
F8
330
1F
100
AcDbEntity
  8
0
  6
CONTINUOUS
 62
     7
100
AcDbPolyline
 90
       33
 70
     0
 43
0.0
 10
-835.4995819282875
 20
228.7588861210133
 10
-835.5083090404352
 20
228.7581811491794
 10
-835.5170361525826
 20
228.7559327928386
 10
-835.5257632647301
 20
228.7521413072116
 10
-835.5344903768778
 20
228.7468079343982
 10
-835.5432174890253
 20
228.7399339407848
 10
-835.551944601173
 20
228.731520592758
 10
-835.5606717133204
 20
228.7215691567043
 10
-835.5693988254679
 20
228.7100808990103
 10
-835.5781259376155
 20
228.6970570860624
 10
-835.5868530497631
 20
228.6824989842474
 10
-835.5955801619107
 20
228.6664078599516
 10
-835.6043072740582
 20
228.6487849795618
 10
-835.6130343862058
 20
228.6296316094644
 10
-835.6217614983532
 20
228.6089490160458
 10
-835.6304886105008
 20
228.5867384656929
 10
-835.6392157226484
 20
228.5630012247919
 10
-835.647942834796
 20
228.5377385597296
 10
-835.6566699469435
 20
228.5109517368924
 10
-835.665397059091
 20
228.4826420226668
 10
-835.6741241712386
 20
228.4528106834396
 10
-835.6828512833862
 20
228.4214589855971
 10
-835.6915783955337
 20
228.3885881955259
 10
-835.7003055076812
 20
228.3541995796126
 10
-835.7090326198286
 20
228.3182944042438
 10
-835.7177597319765
 20
228.280873935806
 10
-835.7264868441238
 20
228.2419394406855
 10
-835.7352139562715
 20
228.2014921852693
 10
-835.743941068419
 20
228.1595334359436
 10
-835.7526681805666
 20
228.1160644590952
 10
-835.7613952927142
 20
228.0710865211104
 10
-835.7701224048616
 20
228.0246008883758
 10
-835.7788495170092
 20
227.9766088272777
210
0.0
220
0.0
230
-1.0
  0
LWPOLYLINE
  5
F9
330
1F
100
AcDbEntity
  8
0
  6
CONTINUOUS
 62
     7
100
AcDbPolyline
 90
       33
 70
     0
 43
0.0
 10
850.5003464121257
 20
126.759193568321
 10
850.5090453469235
 20
126.7599941588758
 10
850.517744281721
 20
126.7623230027947
 10
850.5264432165187
 20
126.7661810030084
 10
850.5351421513162
 20
126.7715690624473
 10
850.5438410861138
 20
126.778488084042
 10
850.5525400209115
 20
126.786938970723
 10
850.5612389557092
 20
126.7969225112716
 10
850.5699378905068
 20
126.8084381341832
 10
850.5786368253044
 20
126.8214843742729
 10
850.5873357601021
 20
126.8360597507224
 10
850.5960346948998
 20
126.8521627827132
 10
850.6047336296973
 20
126.8697919894268
 10
850.613432564495
 20
126.8889458900447
 10
850.6221314992925
 20
126.9096230037486
 10
850.6308304340904
 20
126.9318218497199
 10
850.6395293688879
 20
126.9555409471401
 10
850.6482283036855
 20
126.9807788151908
 10
850.656927238483
 20
127.0075339730535
 10
850.6656261732807
 20
127.0358049399097
 10
850.6743251080785
 20
127.0655902349411
 10
850.6830240428759
 20
127.096888377329
 10
850.6917229776737
 20
127.1296978862551
 10
850.7004219124713
 20
127.1640172809008
 10
850.7091208472688
 20
127.1998450804477
 10
850.7178197820665
 20
127.2371798040774
 10
850.7265187168641
 20
127.2760199709713
 10
850.735217651662
 20
127.316364100311
 10
850.7439165864594
 20
127.358210711278
 10
850.752615521257
 20
127.4015583230539
 10
850.7613144560545
 20
127.4464054548202
 10
850.7700133908522
 20
127.4927506257584
 10
850.7787123256502
 20
127.5405923550518
  0
LWPOLYLINE
  5
FA
330
1F
100
AcDbEntity
  8
0
  6
CONTINUOUS
 62
     7
100
AcDbPolyline
 90
      105
 70
     0
 43
0.0
 10
-751.9999053243189
 20
228.7579777152436
 10
-752.0453024809005
 20
228.7372619092677
 10
-752.090699637482
 20
228.6751996708192
 10
-752.1360967940636
 20
228.5717957622989
 10
-752.1814939506452
 20
228.4270549461073
 10
-752.2268911072267
 20
228.240981984645
 10
-752.2722882638082
 20
228.0136146474702
 10
-752.3176854203897
 20
227.7452062726065
 10
-752.3630825769712
 20
227.4360967323642
 10
-752.4084797335529
 20
227.0866261323455
 10
-752.4538768901344
 20
226.6971345781524
 10
-752.4992740467159
 20
226.267962175387
 10
-752.5446712032975
 20
225.7994490296514
 10
-752.5900683598791
 20
225.2919352465478
 10
-752.6354655164606
 20
224.7457609316782
 10
-752.6808626730422
 20
224.1612661906447
 10
-752.7262598296238
 20
223.5388170991629
 10
-752.7716569862054
 20
222.8789734435362
 10
-752.8170541427869
 20
222.1823825312739
 10
-752.8624512993684
 20
221.4496920979362
 10
-752.90784845595
 20
220.6815498790832
 10
-752.9532456125314
 20
219.8786036102752
 10
-752.998642769113
 20
219.0415010270723
 10
-753.0440399256946
 20
218.1708898650347
 10
-753.089437082276
 20
217.2674178597226
 10
-753.1348342388576
 20
216.3317327466961
 10
-753.1802313954391
 20
215.3645005618559
 10
-753.2256285520207
 20
214.3665438461533
 10
-753.2710257086021
 20
213.33876456238
 10
-753.3164228651835
 20
212.2820652958203
 10
-753.3618200217653
 20
211.1973486317584
 10
-753.4072171783466
 20
210.0855171554786
 10
-753.4526143349282
 20
208.9474734522651
 10
-753.4980114915098
 20
207.7841201074023
 10
-753.5434086480913
 20
206.5963597061743
 10
-753.5888058046729
 20
205.3850948338654
 10
-753.6342029612545
 20
204.151239048201
 10
-753.6796001178359
 20
202.8958140198372
 10
-753.7249972744174
 20
201.6199029261675
 10
-753.7703944309989
 20
200.3245896557325
 10
-753.8157915875805
 20
199.0109580970727
 10
-753.8611887441621
 20
197.6800921387287
 10
-753.9065859007436
 20
196.333075669241
 10
-753.9519830573252
 20
194.9709925771503
 10
-753.9973802139068
 20
193.594926750997
 10
-754.0427773704882
 20
192.2059620793218
 10
-754.0881745270698
 20
190.8051871445664
 10
-754.1335716836512
 20
189.3937441355286
 10
-754.1789688402329
 20
187.9728093751824
 10
-754.2243659968144
 20
186.5435597355008
 10
-754.269763153396
 20
185.1071720884563
 10
-754.3151603099774
 20
183.6648233060216
 10
-754.3605574665588
 20
182.2176902601695
 10
-754.4059546231404
 20
180.7669498228726
 10
-754.4513517797221
 20
179.3137788661035
 10
-754.4967489363034
 20
177.859354261835
 10
-754.542146092885
 20
176.4048527608012
 10
-754.5875432494666
 20
174.9514494971461
 10
-754.6329404060481
 20
173.5003184544156
 10
-754.6783375626296
 20
172.0526335915069
 10
-754.7237347192112
 20
170.6095688673171
 10
-754.7691318757928
 20
169.1722982407433
 10
-754.8145290323745
 20
167.7419956706827
 10
-754.8599261889558
 20
166.3198351160324
 10
-754.9053233455376
 20
164.9069905356896
 10
-754.950720502119
 20
163.5046358885513
 10
-754.9961176587003
 20
162.1139417959077
 10
-755.041514815282
 20
160.7360264570801
 10
-755.0869119718635
 20
159.3719664088188
 10
-755.1323091284453
 20
158.0228370378074
 10
-755.1777062850266
 20
156.6897137307297
 10
-755.2231034416081
 20
155.3736718742692
 10
-755.2685005981897
 20
154.0757868551097
 10
-755.3138977547713
 20
152.7971340599349
 10
-755.3592949113528
 20
151.5387888754283
 10
-755.4046920679342
 20
150.3018266882737
 10
-755.4500892245158
 20
149.0873178335478
 10
-755.4954863810973
 20
147.8962381790124
 10
-755.5408835376788
 20
146.729479815865
 10
-755.5862806942603
 20
145.5879319315187
 10
-755.6316778508419
 20
144.472483713387
 10
-755.6770750074232
 20
143.3840243488831
 10
-755.7224721640049
 20
142.3234430254203
 10
-755.7678693205863
 20
141.2916289304118
 10
-755.813266477168
 20
140.289471251271
 10
-755.8586636337494
 20
139.317859175411
 10
-755.904060790331
 20
138.3776763661207
 10
-755.9494579469125
 20
137.4696818775336
 10
-755.9948551034942
 20
136.5945114984007
 10
-756.0402522600756
 20
135.7527957621122
 10
-756.0856494166572
 20
134.9451652020583
 10
-756.1310465732387
 20
134.1722503516295
 10
-756.1764437298203
 20
133.4346817442162
 10
-756.2218408864021
 20
132.7330899132085
 10
-756.2672380429836
 20
132.0681053919968
 10
-756.3126351995651
 20
131.4403587139715
 10
-756.3580323561465
 20
130.8504753070782
 10
-756.4034295127282
 20
130.2989394485826
 10
-756.4488266693097
 20
129.7860796722008
 10
-756.4942238258913
 20
129.3122164787717
 10
-756.539620982473
 20
128.8776703691342
 10
-756.5850181390545
 20
128.4827618441273
 10
-756.6304152956359
 20
128.12781140459
 10
-756.6758124522174
 20
127.8131395513612
 10
-756.7212096087987
 20
127.5390667852809
210
0.0
220
0.0
230
-1.0
  0
LWPOLYLINE
  5
FB
330
1F
100
AcDbEntity
  8
0
  6
CONTINUOUS
 62
     7
100
AcDbPolyline
 90
        3
 70
     0
 43
0.0
 10
730.8349523234331
 20
129.3660421041192
 10
730.903084878394
 20
129.2725860643704
 10
730.9405653488229
 20
129.2589618586549
  0
LWPOLYLINE
  5
FC
330
1F
100
AcDbEntity
  8
0
  6
CONTINUOUS
 62
     7
100
AcDbPolyline
 90
      113
 70
     0
 43
0.0
 10
-852.0002511252973
 20
228.7586424755228
 10
-852.0424160149602
 20
228.7406295902005
 10
-852.0845809046237
 20
228.6866742590219
 10
-852.1267457942871
 20
228.5967865575515
 10
-852.1689106839505
 20
228.4711309184386
 10
-852.2110755736137
 20
228.3098845568025
 10
-852.2532404632773
 20
228.1132246877629
 10
-852.2954053529402
 20
227.8813285264389
 10
-852.3375702426038
 20
227.6143732879501
 10
-852.379735132267
 20
227.3125361874159
 10
-852.4219000219304
 20
226.9759944399557
 10
-852.4640649115937
 20
226.6049252606889
 10
-852.506229801257
 20
226.1995058647349
 10
-852.5483946909203
 20
225.759919918725
 10
-852.5905595805837
 20
225.2864792858595
 10
-852.6327244702469
 20
224.7796137222039
 10
-852.6748893599104
 20
224.2397573700584
 10
-852.7170542495736
 20
223.6673443717234
 10
-852.7592191392368
 20
223.0628088694992
 10
-852.8013840289001
 20
222.4265850056859
 10
-852.8435489185634
 20
221.7591069225841
 10
-852.8857138082269
 20
221.0608087624938
 10
-852.9278786978903
 20
220.3321246677155
 10
-852.9700435875535
 20
219.5734887805494
 10
-853.0122084772167
 20
218.7853490525125
 10
-853.0543733668801
 20
217.9682862441231
 10
-853.0965382565433
 20
217.1229552425937
 10
-853.1387031462067
 20
216.250011741654
 10
-853.1808680358702
 20
215.3501114350338
 10
-853.2230329255334
 20
214.4239100164627
 10
-853.2651978151966
 20
213.4720631796702
 10
-853.3073627048598
 20
212.4952266183863
 10
-853.3495275945232
 20
211.4940560263406
 10
-853.3916924841865
 20
210.4692070972627
 10
-853.4338573738497
 20
209.4213355248824
 10
-853.4760222635128
 20
208.3511180368846
 10
-853.5181871531761
 20
207.2593421090016
 10
-853.5603520428393
 20
206.1468315364582
 10
-853.6025169325027
 20
205.014410135714
 10
-853.6446818221659
 20
203.8629017232289
 10
-853.6868467118293
 20
202.6931301154627
 10
-853.7290116014924
 20
201.5059191288751
 10
-853.771176491156
 20
200.3020925799259
 10
-853.8133413808191
 20
199.0824742850749
 10
-853.8555062704825
 20
197.8478880607818
 10
-853.8976711601456
 20
196.5991577389585
 10
-853.939836049809
 20
195.3371293223167
 10
-853.9820009394723
 20
194.0627152357644
 10
-854.0241658291357
 20
192.7768402904406
 10
-854.066330718799
 20
191.4804292974845
 10
-854.1084956084624
 20
190.1744070680354
 10
-854.1506604981257
 20
188.8596984132322
 10
-854.1928253877891
 20
187.5372281442143
 10
-854.2349902774524
 20
186.2079210721208
 10
-854.2771551671156
 20
184.8727020080909
 10
-854.319320056779
 20
183.5324957632637
 10
-854.3614849464425
 20
182.1882272482626
 10
-854.4036498361057
 20
180.8408300536249
 10
-854.445814725769
 20
179.4912530693896
 10
-854.4879796154323
 20
178.1404467438508
 10
-854.5301445050957
 20
176.7893615253028
 10
-854.572309394759
 20
175.4389478620394
 10
-854.6144742844223
 20
174.0901562023548
 10
-854.6566391740855
 20
172.7439369945431
 10
-854.6988040637488
 20
171.4012406868984
 10
-854.7409689534122
 20
170.0630177277148
 10
-854.7831338430756
 20
168.7302185652863
 10
-854.8252987327387
 20
167.4037927288617
 10
-854.8674636224019
 20
166.0846657756236
 10
-854.9096285120652
 20
164.773737601789
 10
-854.9517934017285
 20
163.4719068462585
 10
-854.9939582913917
 20
162.1800721479327
 10
-855.0361231810554
 20
160.8991321457126
 10
-855.0782880707184
 20
159.6299854784985
 10
-855.1204529603817
 20
158.3735307851913
 10
-855.1626178500447
 20
157.1306667046916
 10
-855.2047827397081
 20
155.9022918759002
 10
-855.2469476293713
 20
154.6893049377176
 10
-855.2891125190348
 20
153.4925984759621
 10
-855.3312774086982
 20
152.3129935737854
 10
-855.3734422983614
 20
151.1512646385809
 10
-855.4156071880246
 20
150.008185274956
 10
-855.457772077688
 20
148.8845290875184
 10
-855.4999369673512
 20
147.7810696808756
 10
-855.5421018570147
 20
146.6985806596349
 10
-855.5842667466778
 20
145.637835628404
 10
-855.6264316363412
 20
144.5996081917905
 10
-855.6685965260044
 20
143.5846719544017
 10
-855.7107614156679
 20
142.5938005208454
 10
-855.752926305331
 20
141.6277482033141
 10
-855.7950911949944
 20
140.6871478163453
 10
-855.8372560846576
 20
139.7725849981475
 10
-855.879420974321
 20
138.8846452824582
 10
-855.9215858639843
 20
138.0239142030155
 10
-855.9637507536476
 20
137.1909772935572
 10
-856.005915643311
 20
136.3864200878211
 10
-856.0480805329743
 20
135.610828119545
 10
-856.0902454226377
 20
134.8647869224669
 10
-856.132410312301
 20
134.1488820303246
 10
-856.174575201964
 20
133.4636989745273
 10
-856.2167400916275
 20
132.809779221097
 10
-856.2589049812909
 20
132.18750739901
 10
-856.3010698709542
 20
131.5972332593681
 10
-856.3432347606175
 20
131.0393065532731
 10
-856.3853996502806
 20
130.5140770318268
 10
-856.4275645399441
 20
130.0218944461312
 10
-856.4697294296072
 20
129.5631085472879
 10
-856.5118943192706
 20
129.1380690863989
 10
-856.5540592089342
 20
128.747125814566
 10
-856.5962240985975
 20
128.390628482891
 10
-856.6383889882608
 20
128.0689263248996
 10
-856.680553877924
 20
127.78228920843
 10
-856.7227187675862
 20
127.5308229203523
210
0.0
220
0.0
230
-1.0
  0
LWPOLYLINE
  5
FD
330
1F
100
AcDbEntity
  8
0
  6
CONTINUOUS
 62
     7
100
AcDbPolyline
 90
      105
 70
     0
 43
0.0
 10
-811.9999356912799
 20
228.758766503853
 10
-812.0453302120162
 20
228.7377216785571
 10
-812.0907247327526
 20
228.6751945336721
 10
-812.1361192534893
 20
228.5713201412131
 10
-812.1815137742256
 20
228.4262335731956
 10
-812.2269082949618
 20
228.2400699016352
 10
-812.2723028156983
 20
228.0129641985473
 10
-812.3176973364347
 20
227.7450515359473
 10
-812.363091857171
 20
227.4364669858506
 10
-812.4084863779073
 20
227.0873456202729
 10
-812.4538808986437
 20
226.6978744154704
 10
-812.49927541938
 20
226.2684587883039
 10
-812.5446699401164
 20
225.7995616112852
 10
-812.5900644608529
 20
225.2916457571917
 10
-812.6354589815892
 20
224.7451740988004
 10
-812.6808535023254
 20
224.1606095088886
 10
-812.7262480230618
 20
223.5384148602334
 10
-812.7716425437982
 20
222.8790530256122
 10
-812.8170370645346
 20
222.182986877802
 10
-812.8624315852708
 20
221.4506792895801
 10
-812.9078261060072
 20
220.682633370491
 10
-812.9532206267436
 20
219.8795446270925
 10
-812.99861514748
 20
219.0421660059718
 10
-813.0440096682162
 20
218.1712504638355
 10
-813.0894041889527
 20
217.2675509573904
 10
-813.1347987096891
 20
216.3318204433429
 10
-813.1801932304253
 20
215.3648118783999
 10
-813.2255877511619
 20
214.367278219268
 10
-813.2709822718982
 20
213.3399724226538
 10
-813.3163767926346
 20
212.2836474452639
 10
-813.3617713133709
 20
211.1990838670114
 10
-813.4071658341073
 20
210.0872125041404
 10
-813.4525603548437
 20
208.9490150029578
 10
-813.4979548755803
 20
207.7854730500017
 10
-813.5433493963166
 20
206.5975683318097
 10
-813.588743917053
 20
205.38628253492
 10
-813.6341384377893
 20
204.1525973458704
 10
-813.6795329585257
 20
202.8974944511988
 10
-813.7249274792621
 20
201.6219555374432
 10
-813.7703219999985
 20
200.3269622911414
 10
-813.8157165207348
 20
199.0135119338916
 10
-813.8611110414712
 20
197.6826979741895
 10
-813.9065055622075
 20
196.3356507620261
 10
-813.9519000829439
 20
194.9735007217978
 10
-813.9972946036804
 20
193.5973782779013
 10
-814.0426891244165
 20
192.2084138547331
 10
-814.0880836451529
 20
190.8077378766898
 10
-814.1334781658892
 20
189.396480768168
 10
-814.1788726866256
 20
187.9757729535643
 10
-814.2242672073621
 20
186.5467448572752
 10
-814.2696617280984
 20
185.1105319810828
 10
-814.3150562488347
 20
183.6683057882001
 10
-814.3604507695709
 20
182.2212532677152
 10
-814.4058452903074
 20
180.7705614701208
 10
-814.4512398110438
 20
179.3174174459093
 10
-814.4966343317801
 20
177.8630082455736
 10
-814.5420288525164
 20
176.4085209196059
 10
-814.587423373253
 20
174.9551425184991
 10
-814.6328178939893
 20
173.5040600927458
 10
-814.6782124147256
 20
172.0564606928384
 10
-814.7236069354618
 20
170.6135283076882
 10
-814.7690014561983
 20
169.1764220569761
 10
-814.8143959769346
 20
167.7462889717832
 10
-814.859790497671
 20
166.3242760028019
 10
-814.9051850184073
 20
164.9115301007242
 10
-814.9505795391437
 20
163.5091982162422
 10
-814.99597405988
 20
162.1184273000479
 10
-815.0413685806164
 20
160.7403643028336
 10
-815.0867631013529
 20
159.3761561752912
 10
-815.1321576220892
 20
158.026949868113
 10
-815.1775521428253
 20
156.6938837280042
 10
-815.2229466635617
 20
155.3780155748015
 10
-815.2683411842982
 20
154.0803592467798
 10
-815.3137357050348
 20
152.8019281364357
 10
-815.3591302257711
 20
151.5437356362656
 10
-815.4045247465074
 20
150.3067951387661
 10
-815.4499192672438
 20
149.0921200364338
 10
-815.4953137879801
 20
147.9007237217649
 10
-815.5407083087164
 20
146.7336195872561
 10
-815.5861028294528
 20
145.5918210254038
 10
-815.6314973501889
 20
144.4763297995586
 10
-815.6768918709256
 20
143.3880215479656
 10
-815.7222863916619
 20
142.3276946446126
 10
-815.7676809123983
 20
141.2961463482925
 10
-815.8130754331346
 20
140.2941739177976
 10
-815.858469953871
 20
139.3225746119208
 10
-815.9038644746073
 20
138.3821456894546
 10
-815.9492589953436
 20
137.4736844091917
 10
-815.9946535160802
 20
136.5979880299247
 10
-816.0400480368165
 20
135.7558538104462
 10
-816.0854425575527
 20
134.9480665218258
 10
-816.1308370782891
 20
134.1752528844125
 10
-816.1762315990258
 20
133.4379311807958
 10
-816.221626119762
 20
132.7366175720448
 10
-816.2670206404983
 20
132.0718282192288
 10
-816.3124151612349
 20
131.4440792834171
 10
-816.3578096819713
 20
130.8538869256785
 10
-816.4032042027076
 20
130.3017673070825
 10
-816.4485987234439
 20
129.7882365886981
 10
-816.4939932441803
 20
129.3138109315944
 10
-816.5393877649167
 20
128.8789947974794
 10
-816.5847822856531
 20
128.4841183703993
 10
-816.6301768063895
 20
128.129378072645
 10
-816.675571327126
 20
127.8149669085746
 10
-816.7209658478627
 20
127.5410778825443
210
0.0
220
0.0
230
-1.0
  0
LWPOLYLINE
  5
FE
330
1F
100
AcDbEntity
  8
0
  6
CONTINUOUS
 62
     7
100
AcDbPolyline
 90
      105
 70
     0
 43
0.0
 10
-741.9998914685901
 20
228.7579945270404
 10
-742.0452873329758
 20
228.7373786388069
 10
-742.0906831973613
 20
228.6753929357039
 10
-742.1360790617471
 20
228.5720204111461
 10
-742.1814749261325
 20
228.427244058548
 10
-742.2268707905181
 20
228.2410531155375
 10
-742.2722666549035
 20
228.0135939298577
 10
-742.3176625192893
 20
227.7451778426277
 10
-742.3630583836748
 20
227.4361240170166
 10
-742.4084542480605
 20
227.0867516161934
 10
-742.453850112446
 20
226.6973798033273
 10
-742.4992459768316
 20
226.2683277415873
 10
-742.5446418412173
 20
225.7999145941424
 10
-742.5900377056028
 20
225.2924595241618
 10
-742.6354335699884
 20
224.7462816948146
 10
-742.6808294343738
 20
224.1617046456266
 10
-742.7262252987596
 20
223.539188476646
 10
-742.7716211631451
 20
222.8793533916583
 10
-742.8170170275307
 20
222.1828287168216
 10
-742.8624128919163
 20
221.4502437782939
 10
-742.9078087563018
 20
220.6822279022334
 10
-742.9532046206875
 20
219.879410414798
 10
-742.9986004850731
 20
219.0424206421461
 10
-743.0439963494587
 20
218.1718879104356
 10
-743.0893922138442
 20
217.2684415458246
 10
-743.1347880782297
 20
216.3327135732925
 10
-743.1801839426153
 20
215.3654428472973
 10
-743.2255798070007
 20
214.3675081144068
 10
-743.2709756713864
 20
213.3397975836099
 10
-743.3163715357719
 20
212.2831994638958
 10
-743.3617674001575
 20
211.1986019642536
 10
-743.4071632645432
 20
210.0868932936724
 10
-743.4525591289286
 20
208.9489616611413
 10
-743.4979549933142
 20
207.7856952756493
 10
-743.5433508576998
 20
206.5979823461856
 10
-743.5887467220853
 20
205.3867124702514
 10
-743.6341425864711
 20
204.1528469923201
 10
-743.6795384508565
 20
202.8974522808548
 10
-743.7249343152422
 20
201.6216030526492
 10
-743.7703301796278
 20
200.3263740244968
 10
-743.8157260440133
 20
199.0128399131915
 10
-743.861121908399
 20
197.6820754355268
 10
-743.9065177727846
 20
196.3351553082964
 10
-743.9519136371703
 20
194.9731542482941
 10
-743.9973095015558
 20
193.5971469723133
 10
-744.0427053659413
 20
192.2082087012022
 10
-744.088101230327
 20
190.8074499363643
 10
-744.1334970947125
 20
189.3960389758119
 10
-744.1788929590981
 20
187.9751494716718
 10
-744.2242888234837
 20
186.5459550760706
 10
-744.2696846878691
 20
185.1096294411354
 10
-744.3150805522547
 20
183.6673462189927
 10
-744.3604764166403
 20
182.2202790617696
 10
-744.405872281026
 20
180.7696016215926
 10
-744.4512681454114
 20
179.3164875505887
 10
-744.496664009797
 20
177.8621105117786
 10
-744.5420598741828
 20
176.407645253048
 10
-744.5874557385682
 20
174.954268514149
 10
-744.6328516029539
 20
173.5031572484006
 10
-744.6782474673395
 20
172.0554884091217
 10
-744.723643331725
 20
170.6124389496312
 10
-744.7690391961106
 20
169.175185823248
 10
-744.8144350604963
 20
167.744905983291
 10
-744.8598309248819
 20
166.3227763830793
 10
-744.9052267892675
 20
164.9099739759317
 10
-744.9506226536531
 20
163.5076755312911
 10
-744.9960185180387
 20
162.1170299464447
 10
-745.0414143824243
 20
160.7391286629104
 10
-745.0868102468097
 20
159.375056032063
 10
-745.1322061111954
 20
158.0258964052776
 10
-745.177601975581
 20
156.6927341339289
 10
-745.2229978399663
 20
155.3766535693922
 10
-745.2683937043521
 20
154.0787390630424
 10
-745.3137895687377
 20
152.8000749662544
 10
-745.3591854331231
 20
151.5417456304033
 10
-745.4045812975087
 20
150.3048352119918
 10
-745.4499771618943
 20
149.0903783011732
 10
-745.4953730262797
 20
147.8992945414396
 10
-745.5407688906655
 20
146.7324873246839
 10
-745.586164755051
 20
145.5908600427994
 10
-745.6315606194365
 20
144.4753160876793
 10
-745.6769564838221
 20
143.3867588512164
 10
-745.7223523482077
 20
142.3260917253043
 10
-745.7677482125933
 20
141.2942181018357
 10
-745.8131440769789
 20
140.292041372704
 10
-745.8585399413644
 20
139.3204648028091
 10
-745.90393580575
 20
138.3803286221089
 10
-745.9493316701355
 20
137.4723082523173
 10
-745.9947275345212
 20
136.5970525136517
 10
-746.0401233989066
 20
135.7552102263297
 10
-746.0855192632923
 20
134.947430210569
 10
-746.1309151276779
 20
134.1743612865872
 10
-746.1763109920636
 20
133.4366522746019
 10
-746.221706856449
 20
132.7349519948307
 10
-746.2671027208346
 20
132.0699092674911
 10
-746.3124985852202
 20
131.4421728584655
 10
-746.357894449606
 20
130.8523231825848
 10
-746.4032903139913
 20
130.3007387284784
 10
-746.4486861783769
 20
129.7877608760718
 10
-746.4940820427626
 20
129.3137310052907
 10
-746.539477907148
 20
128.8789904960607
 10
-746.5848737715337
 20
128.4838807283073
 10
-746.6302696359194
 20
128.1287430819563
 10
-746.6756655003048
 20
127.8139189369331
 10
-746.7210613646903
 20
127.5397496731644
210
0.0
220
0.0
230
-1.0
  0
LWPOLYLINE
  5
FF
330
1F
100
AcDbEntity
  8
0
  6
CONTINUOUS
 62
     7
100
AcDbPolyline
 90
        3
 70
     0
 43
0.0
 10
870.8400441122421
 20
129.3558235787348
 10
870.9081518373554
 20
129.2690263670357
 10
870.9406057936307
 20
129.2589618586487
  0
LWPOLYLINE
  5
100
330
1F
100
AcDbEntity
  8
0
  6
CONTINUOUS
 62
     7
100
AcDbPolyline
 90
      113
 70
     0
 43
0.0
 10
-861.99978336177
 20
228.7584646661426
 10
-862.0419354469165
 20
228.7409094981663
 10
-862.0840875320628
 20
228.6875096106935
 10
-862.126239617209
 20
228.5982001281422
 10
-862.1683917023555
 20
228.4730679600371
 10
-862.2105437875017
 20
228.3123051463355
 10
-862.252695872648
 20
228.1161058332632
 10
-862.2948479577944
 20
227.8846641670459
 10
-862.3370000429408
 20
227.6181742939095
 10
-862.379152128087
 20
227.3168303600798
 10
-862.4213042132334
 20
226.9808265117823
 10
-862.4634562983798
 20
226.6103568952431
 10
-862.5056083835264
 20
226.2056156566877
 10
-862.5477604686725
 20
225.766796942342
 10
-862.5899125538191
 20
225.2941187722239
 10
-862.6320646389655
 20
224.7879620683781
 10
-862.6742167241122
 20
224.2487757849935
 10
-862.7163688092585
 20
223.6770091037916
 10
-862.7585208944049
 20
223.0731112064939
 10
-862.8006729795513
 20
222.4375312748222
 10
-862.842825064698
 20
221.7707184904979
 10
-862.8849771498445
 20
221.0731220352426
 10
-862.9271292349908
 20
220.3451910907779
 10
-862.9692813201373
 20
219.5873748388253
 10
-863.0114334052838
 20
218.8001224611446
 10
-863.0535854904301
 20
217.9839206643498
 10
-863.0957375755764
 20
217.1394017555332
 10
-863.137889660723
 20
216.2672333506852
 10
-863.1800417458694
 20
215.3680830657959
 10
-863.2221938310156
 20
214.4426185168555
 10
-863.2643459161619
 20
213.4915073198544
 10
-863.3064980013085
 20
212.5154170907826
 10
-863.3486500864549
 20
211.5150154456306
 10
-863.3908021716011
 20
210.4909700003885
 10
-863.4329542567475
 20
209.4439483710466
 10
-863.4751063418938
 20
208.3746183769985
 10
-863.51725842704
 20
207.2836937035939
 10
-863.5594105121864
 20
206.171991750952
 10
-863.6015625973326
 20
205.0403441691561
 10
-863.6437146824791
 20
203.8895826082894
 10
-863.6858667676253
 20
202.7205387184355
 10
-863.7280188527717
 20
201.5340441496776
 10
-863.770170937918
 20
200.3309305520989
 10
-863.8123230230644
 20
199.1120295757831
 10
-863.8544751082109
 20
197.8781728708133
 10
-863.896627193357
 20
196.6301920872728
 10
-863.9387792785035
 20
195.3689197577024
 10
-863.9809313636498
 20
194.0952270783432
 10
-864.0230834487965
 20
192.8100381485902
 10
-864.0652355339427
 20
191.5142808862524
 10
-864.1073876190891
 20
190.2088832091387
 10
-864.1495397042356
 20
188.8947730350581
 10
-864.1916917893819
 20
187.5728782818197
 10
-864.2338438745284
 20
186.2441268672322
 10
-864.2759959596748
 20
184.9094467091049
 10
-864.3181480448212
 20
183.5697657252466
 10
-864.3603001299678
 20
182.2260118334663
 10
-864.4024522151143
 20
180.8791135737553
 10
-864.4446043002606
 20
179.5300102033068
 10
-864.4867563854069
 20
178.1796500143203
 10
-864.5289084705532
 20
176.8289815816615
 10
-864.5710605556995
 20
175.4789534801957
 10
-864.6132126408461
 20
174.1305142847887
 10
-864.6553647259924
 20
172.7846125703058
 10
-864.6975168111387
 20
171.4421969116126
 10
-864.7396688962851
 20
170.1042158835747
 10
-864.7818209814315
 20
168.7716180610574
 10
-864.8239730665778
 20
167.4453520189265
 10
-864.8661251517241
 20
166.1263623426564
 10
-864.9082772368706
 20
164.8155589468955
 10
-864.9504293220168
 20
163.5138339163757
 10
-864.9925814071631
 20
162.2220791891257
 10
-865.0347334923096
 20
160.9411867031741
 10
-865.0768855774559
 20
159.6720483965496
 10
-865.1190376626024
 20
158.4155562072808
 10
-865.1611897477487
 20
157.1726020733963
 10
-865.2033418328951
 20
155.9440779329248
 10
-865.2454939180415
 20
154.7308757238948
 10
-865.287646003188
 20
153.5338873843351
 10
-865.3297980883344
 20
152.3539872056538
 10
-865.3719501734806
 20
151.1919637890709
 10
-865.4141022586272
 20
150.0485797626715
 10
-865.4562543437736
 20
148.9245977487629
 10
-865.49840642892
 20
147.8207803696524
 10
-865.5405585140664
 20
146.7378902476476
 10
-865.5827105992129
 20
145.6766900050558
 10
-865.6248626843592
 20
144.6379422641845
 10
-865.6670147695057
 20
143.622409647341
 10
-865.7091668546522
 20
142.6308547768327
 10
-865.7513189397986
 20
141.6640402190004
 10
-865.7934710249449
 20
140.7226838616877
 10
-865.8356231100913
 20
139.8073785710457
 10
-865.8777751952376
 20
138.9186955119683
 10
-865.9199272803841
 20
138.0572058493495
 10
-865.9620793655305
 20
137.2234807480831
 10
-866.0042314506769
 20
136.4180913730631
 10
-866.0463835358232
 20
135.6416088891835
 10
-866.0885356209695
 20
134.8946044613382
 10
-866.1306877061161
 20
134.177649254421
 10
-866.1728397912624
 20
133.491314433326
 10
-866.2149918764087
 20
132.8361700300496
 10
-866.257143961555
 20
132.2127023154004
 10
-866.2992960467014
 20
131.6212577334267
 10
-866.3414481318478
 20
131.0621694506768
 10
-866.3836002169942
 20
130.5357706336991
 10
-866.4257523021405
 20
130.0423944490419
 10
-866.4679043872868
 20
129.5823740632534
 10
-866.5100564724331
 20
129.1560426428821
 10
-866.5522085575794
 20
128.7637333544762
 10
-866.5943606427259
 20
128.405779364584
 10
-866.6365127278722
 20
128.0825138397539
 10
-866.6786648130186
 20
127.7942647236733
 10
-866.720816898166
 20
127.5412344496749
210
0.0
220
0.0
230
-1.0
  0
LWPOLYLINE
  5
101
330
1F
100
AcDbEntity
  8
0
  6
CONTINUOUS
 62
     7
100
AcDbPolyline
 90
        3
 70
     0
 43
0.0
 10
850.8320185207225
 20
129.3718873874481
 10
850.8983002940553
 20
129.2764045364074
 10
850.940666493855
 20
129.258961858683
  0
LWPOLYLINE
  5
102
330
1F
100
AcDbEntity
  8
0
  6
CONTINUOUS
 62
     7
100
AcDbPolyline
 90
      113
 70
     0
 43
0.0
 10
-871.9996434697823
 20
228.7582890794406
 10
-872.0417970921604
 20
228.7408568067571
 10
-872.0839507145388
 20
228.6876420623894
 10
-872.1261043369169
 20
228.5985855139215
 10
-872.1682579592951
 20
228.4736658347928
 10
-872.2104115816732
 20
228.3130412447372
 10
-872.2525652040515
 20
228.1169229326965
 10
-872.2947188264294
 20
227.8855220952657
 10
-872.3368724488076
 20
227.6190499290399
 10
-872.3790260711859
 20
227.3177176306141
 10
-872.421179693564
 20
226.9817363965834
 10
-872.4633333159422
 20
226.6113174235428
 10
-872.5054869383204
 20
226.2066719080874
 10
-872.5476405606987
 20
225.7680110468122
 10
-872.589794183077
 20
225.2955461292873
 10
-872.631947805455
 20
224.7895490086943
 10
-872.6741014278334
 20
224.2504564092154
 10
-872.7162550502115
 20
223.6787328472644
 10
-872.7584086725898
 20
223.0748428392551
 10
-872.8005622949679
 20
222.4392509016014
 10
-872.8427159173463
 20
221.7724215507169
 10
-872.8848695397245
 20
221.0748193030154
 10
-872.9270231621028
 20
220.3469086749107
 10
-872.969176784481
 20
219.5891541828166
 10
-873.0113304068593
 20
218.8020203431469
 10
-873.0534840292376
 20
217.9859728008799
 10
-873.0956376516154
 20
217.141554453515
 10
-873.1377912739939
 20
216.2694337727354
 10
-873.179944896372
 20
215.3702907440108
 10
-873.2220985187502
 20
214.4448053528109
 10
-873.2642521411284
 20
213.4936575846055
 10
-873.3064057635067
 20
212.5175274248645
 10
-873.3485593858848
 20
211.5170948590574
 10
-873.3907130082631
 20
210.4930398726542
 10
-873.4328666306412
 20
209.4460424511245
 10
-873.4750202530195
 20
208.3767825799381
 10
-873.5171738753978
 20
207.2859436000408
 10
-873.5593274977759
 20
206.1742856523584
 10
-873.601481120154
 20
205.0426454695061
 10
-873.6436347425323
 20
203.8918630979165
 10
-873.6857883649105
 20
202.7227785840223
 10
-873.7279419872889
 20
201.5362319742563
 10
-873.7700956096669
 20
200.3330633150508
 10
-873.8122492320452
 20
199.1141126528388
 10
-873.8544028544234
 20
197.8802200340527
 10
-873.8965564768017
 20
196.6322255051254
 10
-873.9387100991798
 20
195.3709691124894
 10
-873.980863721558
 20
194.0972958426768
 10
-874.0230173439364
 20
192.8121041639573
 10
-874.0651709663146
 20
191.516325262795
 10
-874.1073245886926
 20
190.210890796048
 10
-874.149478211071
 20
188.8967324205743
 10
-874.1916318334492
 20
187.5747817932319
 10
-874.2337854558273
 20
186.2459705708788
 10
-874.2759390782056
 20
184.911230410373
 10
-874.3180927005837
 20
183.5714929685725
 10
-874.360246322962
 20
182.2276899023354
 10
-874.4023999453401
 20
180.8807528685196
 10
-874.4445535677183
 20
179.5316152583167
 10
-874.4867071900965
 20
178.1812206855449
 10
-874.5288608124748
 20
176.8305164966567
 10
-874.5710144348527
 20
175.4804500435927
 10
-874.613168057231
 20
174.1319686782939
 10
-874.6553216796092
 20
172.7860197527008
 10
-874.6974753019872
 20
171.4435506187542
 10
-874.7396289243654
 20
170.1055086283951
 10
-874.7817825467438
 20
168.7728411335639
 10
-874.8239361691218
 20
167.4464954862016
 10
-874.8660897915
 20
166.1274190363054
 10
-874.9082434138784
 20
164.816547021785
 10
-874.9503970362566
 20
163.5147738782577
 10
-874.9925506586349
 20
162.2229854585027
 10
-875.0347042810132
 20
160.9420676152992
 10
-875.0768579033912
 20
159.6729062014262
 10
-875.1190115257693
 20
158.416387069663
 10
-875.1611651481477
 20
157.1733960727886
 10
-875.203318770526
 20
155.9448190635823
 10
-875.2454723929043
 20
154.7315418948231
 10
-875.2876260152824
 20
153.5344504192902
 10
-875.329779637661
 20
152.3544301703802
 10
-875.3719332600391
 20
151.1923251779454
 10
-875.4140868824175
 20
150.0488972808216
 10
-875.4562405047957
 20
148.9248986495935
 10
-875.4983941271739
 20
147.8210814548464
 10
-875.540547749552
 20
146.7381978671654
 10
-875.5827013719304
 20
145.6770000571354
 10
-875.6248549943085
 20
144.6382401953415
 10
-875.667008616687
 20
143.6226704523689
 10
-875.709162239065
 20
142.6310429988025
 10
-875.7513158614431
 20
141.6641100052275
 10
-875.7934694838215
 20
140.7226210875394
 10
-875.8356231061995
 20
139.8072413778763
 10
-875.8777767285775
 20
138.9185341436557
 10
-875.9199303509556
 20
138.0570565832267
 10
-875.9620839733337
 20
137.2233658949387
 10
-876.004237595712
 20
136.418019277141
 10
-876.04639121809
 20
135.6415739281828
 10
-876.0885448404682
 20
134.8945870464134
 10
-876.1306984628463
 20
134.1776158301823
 10
-876.1728520852246
 20
133.4912174778385
 10
-876.2150057076027
 20
132.8359491877314
 10
-876.2571593299809
 20
132.2123588910931
 10
-876.299312952359
 20
131.6208631902875
 10
-876.3414665747373
 20
131.0617812151646
 10
-876.3836201971156
 20
130.5354297889589
 10
-876.4257738194939
 20
130.0421257349049
 10
-876.4679274418722
 20
129.5821858762372
 10
-876.5100810642507
 20
129.1559270361902
 10
-876.5522346866289
 20
128.7636660379987
 10
-876.5943883090071
 20
128.405719704897
 10
-876.6365419313854
 20
128.0824048601198
 10
-876.6786955537636
 20
127.7940383269015
 10
-876.7208491761427
 20
127.5409142706026
210
0.0
220
0.0
230
-1.0
  0
LWPOLYLINE
  5
103
330
1F
100
AcDbEntity
  8
0
  6
CONTINUOUS
 62
     7
100
AcDbPolyline
 90
        3
 70
     0
 43
0.0
 10
770.7925078916378
 20
129.4691715184546
 10
770.8586784311422
 20
129.3235405546062
 10
770.9405547246915
 20
129.2589618587198
  0
LWPOLYLINE
  5
104
330
1F
100
AcDbEntity
  8
0
  6
CONTINUOUS
 62
     7
100
AcDbPolyline
 90
      113
 70
     0
 43
0.0
 10
-882.0006663538251
 20
228.7581389852211
 10
-882.0428327520543
 20
228.7397998051813
 10
-882.084999150284
 20
228.6857080170898
 10
-882.127165548513
 20
228.5958216554382
 10
-882.1693319467423
 20
228.4700997216265
 10
-882.2114983449716
 20
228.308591370599
 10
-882.253664743201
 20
228.1115080001927
 10
-882.2958311414303
 20
227.8790779726687
 10
-882.33799753966
 20
227.6115296502881
 10
-882.3801639378893
 20
227.3090913953122
 10
-882.4223303361188
 20
226.9719915700022
 10
-882.4644967343481
 20
226.6004585366192
 10
-882.5066631325775
 20
226.1947206574243
 10
-882.5488295308069
 20
225.7550062946789
 10
-882.5909959290362
 20
225.2815438106439
 10
-882.6331623272657
 20
224.7745658306064
 10
-882.6753287254951
 20
224.2344202822308
 10
-882.7174951237243
 20
223.6615808822723
 10
-882.7596615219536
 20
223.0565277128384
 10
-882.8018279201829
 20
222.4197408560365
 10
-882.8439943184121
 20
221.7517003939737
 10
-882.8861607166415
 20
221.0528864087576
 10
-882.9283271148707
 20
220.3237789824953
 10
-882.9704935131
 20
219.5648581972941
 10
-883.0126599113291
 20
218.7766041352614
 10
-883.0548263095585
 20
217.9594968785046
 10
-883.0969927077876
 20
217.1140264840607
 10
-883.139159106017
 20
216.2408038452841
 10
-883.1813255042463
 20
215.34052019489
 10
-883.2234919024754
 20
214.4138682157109
 10
-883.2656583007049
 20
213.4615405905787
 10
-883.3078246989343
 20
212.4842300023255
 10
-883.3499910971635
 20
211.4826291337836
 10
-883.3921574953929
 20
210.457430667785
 10
-883.4343238936221
 20
209.4093272871618
 10
-883.4764902918515
 20
208.3390116747463
 10
-883.5186566900809
 20
207.2471765133704
 10
-883.5608230883103
 20
206.1345301406982
 10
-883.6029894865396
 20
205.0018815016815
 10
-883.6451558847689
 20
203.8500793385986
 10
-883.6873222829984
 20
202.6799724922787
 10
-883.7294886812276
 20
201.4924098035505
 10
-883.7716550794572
 20
200.2882401132433
 10
-883.8138214776865
 20
199.0683122621861
 10
-883.8559878759158
 20
197.833475091208
 10
-883.8981542741452
 20
196.584577441138
 10
-883.9403206723747
 20
195.3224681528052
 10
-883.9824870706041
 20
194.047996067554
 10
-884.0246534688335
 20
192.7620260008647
 10
-884.0668198670627
 20
191.4654806696149
 10
-884.1089862652922
 20
190.1592959054886
 10
-884.1511526635214
 20
188.8444075401694
 10
-884.1933190617507
 20
187.5217514053413
 10
-884.2354854599799
 20
186.1922633326879
 10
-884.2776518582093
 20
184.8568791538932
 10
-884.3198182564387
 20
183.5165347006409
 10
-884.3619846546679
 20
182.1721658046149
 10
-884.4041510528973
 20
180.8247082974989
 10
-884.4463174511263
 20
179.4750980304543
 10
-884.4884838493557
 20
178.1242740387067
 10
-884.5306502475848
 20
176.7731820454948
 10
-884.5728166458141
 20
175.4227686178319
 10
-884.6149830440436
 20
174.0739803227316
 10
-884.6571494422728
 20
172.7277637272074
 10
-884.699315840502
 20
171.3850653982727
 10
-884.7414822387312
 20
170.046831902941
 10
-884.7836486369605
 20
168.7140098082258
 10
-884.8258150351896
 20
167.3875456811406
 10
-884.867981433419
 20
166.0683860886989
 10
-884.9101478316485
 20
164.7574768331581
 10
-884.9523142298777
 20
163.4557357311621
 10
-884.9944806281072
 20
162.1640452231395
 10
-885.0366470263365
 20
160.8832854811482
 10
-885.078813424566
 20
159.6143366772464
 10
-885.1209798227952
 20
158.3580789834919
 10
-885.1631462210248
 20
157.1153925719427
 10
-885.2053126192541
 20
155.8871576146569
 10
-885.2474790174834
 20
154.6742542836924
 10
-885.2896454157128
 20
153.4775627511073
 10
-885.3318118139424
 20
152.2979631889596
 10
-885.3739782121714
 20
151.1363308190032
 10
-885.4161446104009
 20
149.9934665330809
 10
-885.4583110086302
 20
148.8701138711216
 10
-885.5004774068598
 20
147.7670148900847
 10
-885.5426438050891
 20
146.6849116469292
 10
-885.5848102033185
 20
145.6245461986145
 10
-885.6269766015478
 20
144.5866606020998
 10
-885.6691429997773
 20
143.5719969143443
 10
-885.7113093980064
 20
142.5812971923073
 10
-885.7534757962356
 20
141.6153034929481
 10
-885.795642194465
 20
140.6747578732258
 10
-885.8378085926943
 20
139.7603862039119
 10
-885.8799749909236
 20
138.8727899568418
 10
-885.9221413891529
 20
138.0125129238818
 10
-885.964307787382
 20
137.1800985809517
 10
-886.0064741856114
 20
136.3760904039715
 10
-886.0486405838408
 20
135.6010318688609
 10
-886.09080698207
 20
134.8554664515397
 10
-886.1329733802993
 20
134.1399376279277
 10
-886.1751397785285
 20
133.4549888739446
 10
-886.2173061767578
 20
132.8011636655105
 10
-886.2594725749872
 20
132.179005478545
 10
-886.3016389732164
 20
131.5890200853995
 10
-886.3438053714457
 20
131.031551479204
 10
-886.385971769675
 20
130.5069002706395
 10
-886.4281381679043
 20
130.0153670698688
 10
-886.4703045661338
 20
129.5572524870551
 10
-886.5124709643628
 20
129.1328571323612
 10
-886.5546373625923
 20
128.7424816159502
 10
-886.5968037608216
 20
128.3864265479852
 10
-886.638970159051
 20
128.064992538629
 10
-886.6811365572804
 20
127.7784801980448
 10
-886.7233029555099
 20
127.527189934914
210
0.0
220
0.0
230
-1.0
  0
LWPOLYLINE
  5
105
330
1F
100
AcDbEntity
  8
0
  6
CONTINUOUS
 62
     7
100
AcDbPolyline
 90
      105
 70
     0
 43
0.0
 10
-762.0000158127099
 20
228.7580198073688
 10
-762.0454232916742
 20
228.7371027450425
 10
-762.0908307706386
 20
228.6748321770206
 10
-762.136238249603
 20
228.5712346526437
 10
-762.1816457285673
 20
228.4263367212522
 10
-762.2270532075318
 20
228.2401649321869
 10
-762.2724606864961
 20
228.0127462813518
 10
-762.3178681654605
 20
227.7442023595032
 10
-762.3632756444248
 20
227.4348657733642
 10
-762.4086831233892
 20
227.085097675669
 10
-762.4540906023536
 20
226.6952592191516
 10
-762.499498081318
 20
226.2657115565459
 10
-762.5449055602825
 20
225.796815840586
 10
-762.5903130392469
 20
225.288933224006
 10
-762.6357205182113
 20
224.7424248595397
 10
-762.6811279971755
 20
224.1576518999212
 10
-762.7265354761399
 20
223.5349757081462
 10
-762.7719429551044
 20
222.8748362983839
 10
-762.8173504340688
 20
222.1778699050542
 10
-762.862757913033
 20
221.4447428560318
 10
-762.9081653919974
 20
220.6761214791914
 10
-762.9535728709617
 20
219.8726721024078
 10
-762.9989803499262
 20
219.0350610535556
 10
-763.0443878288905
 20
218.1639546605094
 10
-763.0897953078548
 20
217.260019251144
 10
-763.1352027868191
 20
216.3239211533342
 10
-763.1806102657835
 20
215.356326768884
 10
-763.2260177447478
 20
214.3579610936024
 10
-763.2714252237123
 20
213.3297129300414
 10
-763.3168327026767
 20
212.272499486002
 10
-763.362240181641
 20
211.1872379692851
 10
-763.4076476606054
 20
210.0748455876918
 10
-763.4530551395699
 20
208.9362395490226
 10
-763.4984626185343
 20
207.7723370610789
 10
-763.5438700974986
 20
206.5840553316613
 10
-763.589277576463
 20
205.3723115685707
 10
-763.6346850554273
 20
204.1380229954125
 10
-763.6800925343916
 20
202.8821438927288
 10
-763.7255000133562
 20
201.6057448507829
 10
-763.7709074923204
 20
200.3099192193298
 10
-763.8163149712849
 20
198.9957603481243
 10
-763.8617224502492
 20
197.6643615869212
 10
-763.9071299292136
 20
196.3168162854753
 10
-763.952537408178
 20
194.9542177935415
 10
-763.9979448871424
 20
193.5776594608747
 10
-764.0433523661069
 20
192.1882346372296
 10
-764.0887598450713
 20
190.7870366734191
 10
-764.1341673240354
 20
189.3751753199995
 10
-764.1795748029999
 20
187.9538182128879
 10
-764.2249822819642
 20
186.5241457530288
 10
-764.2703897609288
 20
185.0873383413674
 10
-764.3157972398931
 20
183.6445763788482
 10
-764.3612047188576
 20
182.1970402664162
 10
-764.4066121978219
 20
180.745910405016
 10
-764.4520196767861
 20
179.2923671955925
 10
-764.4974271557504
 20
177.8375910390906
 10
-764.5428346347148
 20
176.382762336455
 10
-764.5882421136793
 20
174.929059956386
 10
-764.6336495926437
 20
173.4776566790462
 10
-764.679057071608
 20
172.0297237725071
 10
-764.7244645505724
 20
170.5864325048403
 10
-764.7698720295367
 20
169.1489541441174
 10
-764.8152795085012
 20
167.7184599584097
 10
-764.8606869874656
 20
166.2961212157889
 10
-764.9060944664299
 20
164.8831091843266
 10
-764.9515019453942
 20
163.4805951320942
 10
-764.9969094243587
 20
162.0897503271632
 10
-765.042316903323
 20
160.711730490389
 10
-765.0877243822873
 20
159.3476217707274
 10
-765.1331318612517
 20
157.9984908644079
 10
-765.1785393402162
 20
156.6654044667507
 10
-765.2239468191805
 20
155.349429273076
 10
-765.2693542981447
 20
154.051631978704
 10
-765.3147617771093
 20
152.7730792789549
 10
-765.3601692560737
 20
151.5148378691489
 10
-765.405576735038
 20
150.2779744446061
 10
-765.4509842140023
 20
149.0635557006467
 10
-765.4963916929667
 20
147.8726232314303
 10
-765.5417991719313
 20
146.7060920599172
 10
-765.5872066508957
 20
145.5648374043626
 10
-765.6326141298599
 20
144.4497344684875
 10
-765.6780216088243
 20
143.3616584560128
 10
-765.7234290877886
 20
142.3014845706597
 10
-765.768836566753
 20
141.2700880161489
 10
-765.8142440457174
 20
140.2683439962017
 10
-765.8596515246818
 20
139.2971277145388
 10
-765.9050590036461
 20
138.3573143748815
 10
-765.9504664826105
 20
137.4497489748846
 10
-765.995873961575
 20
136.5751046671297
 10
-766.0412814405393
 20
135.7339939177065
 10
-766.0866889195037
 20
134.9270291234348
 10
-766.132096398468
 20
134.1548226811342
 10
-766.1775038774324
 20
133.4179869876245
 10
-766.2229113563967
 20
132.7171344397251
 10
-766.268318835361
 20
132.0528774342558
 10
-766.3137263143253
 20
131.4258283680363
 10
-766.3591337932899
 20
130.8365996378861
 10
-766.4045412722543
 20
130.2857723155026
 10
-766.4499487512186
 20
129.7737260241221
 10
-766.4953562301831
 20
129.3007606511404
 10
-766.5407637091474
 20
128.867175885792
 10
-766.5861711881118
 20
128.4732714173113
 10
-766.6315786670762
 20
128.1193469349327
 10
-766.6769861460408
 20
127.8057021278906
 10
-766.7223936250051
 20
127.5326366854196
210
0.0
220
0.0
230
-1.0
  0
LWPOLYLINE
  5
106
330
1F
100
AcDbEntity
  8
0
  6
CONTINUOUS
 62
     7
100
AcDbPolyline
 90
        3
 70
     0
 43
0.0
 10
760.7837228165183
 20
129.4945982383015
 10
760.8517523594666
 20
129.3347272451381
 10
760.9405420639974
 20
129.2589618587142
  0
LWPOLYLINE
  5
107
330
1F
100
AcDbEntity
  8
0
  6
CONTINUOUS
 62
     7
100
AcDbPolyline
 90
        3
 70
     0
 43
0.0
 10
750.78068162503
 20
129.5038580573595
 10
750.8487195550083
 20
129.3397279255451
 10
750.9405399827596
 20
129.2589618586715
  0
LWPOLYLINE
  5
108
330
1F
100
AcDbEntity
  8
0
  6
CONTINUOUS
 62
     7
100
AcDbPolyline
 90
      105
 70
     0
 43
0.0
 10
895.7784358505717
 20
227.9794153141281
 10
895.8238355054242
 20
227.7054381425694
 10
895.8692351602771
 20
227.3908896265698
 10
895.9146348151296
 20
227.0360758802326
 10
895.9600344699821
 20
226.6413030176612
 10
896.0054341248349
 20
226.2068771529591
 10
896.0508337796874
 20
225.7331044002294
 10
896.0962334345402
 20
225.2202908735756
 10
896.1416330893928
 20
224.6687426871011
 10
896.1870327442454
 20
224.0788144675824
 10
896.232432399098
 20
223.4510685421641
 10
896.2778320539508
 20
222.7861228121593
 10
896.3232317088032
 20
222.0845951794848
 10
896.3686313636558
 20
221.3471035460575
 10
896.4140310185084
 20
220.5742658137945
 10
896.4594306733609
 20
219.7666998846127
 10
896.5048303282134
 20
218.925023660429
 10
896.5502299830658
 20
218.0498550431604
 10
896.5956296379186
 20
217.1418119347238
 10
896.641029292771
 20
216.2015479733817
 10
896.6864289476237
 20
215.2298900546481
 10
896.7318286024762
 20
214.2277175075934
 10
896.777228257329
 20
213.1959096726855
 10
896.8226279121814
 20
212.1353458903924
 10
896.8680275670339
 20
211.0469055011821
 10
896.9134272218865
 20
209.9314678455227
 10
896.9588268767391
 20
208.7899122638822
 10
897.0042265315918
 20
207.6231180967285
 10
897.0496261864444
 20
206.4319646845297
 10
897.095025841297
 20
205.2173540251752
 10
897.1404254961498
 20
203.9803126487354
 10
897.1858251510022
 20
202.7219096449627
 10
897.2312248058549
 20
201.4432141404945
 10
897.2766244607075
 20
200.1452952619679
 10
897.3220241155601
 20
198.8292221360204
 10
897.3674237704129
 20
197.4960638892891
 10
897.4128234252655
 20
196.1468896484113
 10
897.4582230801182
 20
194.7827685400244
 10
897.5036227349708
 20
193.4047696907654
 10
897.5490223898233
 20
192.0139728641073
 10
897.5944220446761
 20
190.6115242260284
 10
897.6398216995286
 20
189.1985955185079
 10
897.6852213543812
 20
187.7763585373905
 10
897.7306210092338
 20
186.345985078521
 10
897.7760206640864
 20
184.908646937744
 10
897.821420318939
 20
183.4655159109042
 10
897.8668199737916
 20
182.0177637938463
 10
897.9122196286444
 20
180.5665623824149
 10
897.9576192834968
 20
179.1130834724547
 10
898.0030189383497
 20
177.6584995013899
 10
898.0484185932022
 20
176.2039874677373
 10
898.0938182480548
 20
174.7507263457251
 10
898.1392179029076
 20
173.2998951175222
 10
898.18461755776
 20
171.8526727652973
 10
898.2300172126127
 20
170.4102382712194
 10
898.2754168674653
 20
168.9737706174573
 10
898.320816522318
 20
167.5444487861797
 10
898.3662161771705
 20
166.1234517595555
 10
898.4116158320231
 20
164.7119585197535
 10
898.4570154868757
 20
163.3111412638536
 10
898.5024151417283
 20
161.9221170669614
 10
898.5478147965807
 20
160.5459762073854
 10
898.5932144514333
 20
159.1838087851633
 10
898.6386141062858
 20
157.8367049003327
 10
898.6840137611384
 20
156.5057546529312
 10
898.7294134159911
 20
155.1920481429965
 10
898.7748130708435
 20
153.896675470566
 10
898.8202127256961
 20
152.6207267356775
 10
898.8656123805487
 20
151.3652920383685
 10
898.9110120354012
 20
150.1314499786188
 10
898.956411690254
 20
148.9201719257172
 10
899.0018113451066
 20
147.7323708575749
 10
899.0472109999592
 20
146.5689591661349
 10
899.092610654812
 20
145.4308492433405
 10
899.1380103096644
 20
144.3189534811348
 10
899.1834099645173
 20
143.2341842714608
 10
899.2288096193698
 20
142.1774540062617
 10
899.2742092742226
 20
141.1496750774808
 10
899.3196089290751
 20
140.151759877061
 10
899.3650085839279
 20
139.1846071021675
 10
899.4104082387804
 20
138.2489680940117
 10
899.4558078936329
 20
137.3455044638536
 10
899.5012075484857
 20
136.4748765499861
 10
899.5466072033382
 20
135.6377446907019
 10
899.5920068581909
 20
134.834769224294
 10
899.6374065130436
 20
134.0666104890551
 10
899.6828061678962
 20
133.3339288232781
 10
899.7282058227487
 20
132.6373845652558
 10
899.7736054776013
 20
131.9776380532811
 10
899.8190051324539
 20
131.3553358232501
 10
899.8644047873067
 20
130.7709519002392
 10
899.909804442159
 20
130.2248430052872
 10
899.9552040970116
 20
129.7173636158789
 10
900.0006037518643
 20
129.2488682094988
 10
900.0460034067166
 20
128.8197112636313
 10
900.0914030615694
 20
128.4302472557611
 10
900.1368027164219
 20
128.0808306633728
 10
900.1822023712747
 20
127.7718159639508
 10
900.2276020261272
 20
127.5035576349797
 10
900.2730016809797
 20
127.276397760487
 10
900.3184013358324
 20
127.0904970567126
 10
900.3638009906849
 20
126.9458786778769
 10
900.4092006455377
 20
126.842562356331
 10
900.4546003003901
 20
126.7805678244258
 10
900.4999999552434
 20
126.7599148145124
  0
LWPOLYLINE
  5
109
330
1F
100
AcDbEntity
  8
0
  6
CONTINUOUS
 62
     7
100
AcDbPolyline
 90
        3
 70
     0
 43
0.0
 10
801.7086909461365
 20
226.0450677786841
 10
801.6405907931339
 20
226.1955729118688
 10
801.5591357667639
 20
226.2589618585707
  0
LWPOLYLINE
  5
10A
330
1F
100
AcDbEntity
  8
0
  6
CONTINUOUS
 62
     7
100
AcDbPolyline
 90
        3
 70
     0
 43
0.0
 10
781.7026793421403
 20
226.0618570636383
 10
781.6345377643647
 20
226.2043327963532
 10
781.5591940034602
 20
226.2589618585941
  0
LWPOLYLINE
  5
10B
330
1F
100
AcDbEntity
  8
0
  6
CONTINUOUS
 62
     7
100
AcDbPolyline
 90
        3
 70
     0
 43
0.0
 10
841.6603099142317
 20
226.1609636443398
 10
841.5922053227539
 20
226.2482859319154
 10
841.5590990564938
 20
226.2589618586478
  0
LWPOLYLINE
  5
10C
330
1F
100
AcDbEntity
  8
0
  6
CONTINUOUS
 62
     7
100
AcDbPolyline
 90
       33
 70
     0
 43
0.0
 10
806.7210309361902
 20
127.5407179091575
 10
806.7297550768383
 20
127.492732744799
 10
806.7384792174864
 20
127.4462528837769
 10
806.7472033581345
 20
127.4012798483225
 10
806.7559274987827
 20
127.3578151606673
 10
806.7646516394309
 20
127.3158603430427
 10
806.7733757800789
 20
127.2754169176802
 10
806.7820999207272
 20
127.236486406811
 10
806.7908240613752
 20
127.1990703326667
 10
806.7995482020233
 20
127.1631702174785
 10
806.8082723426713
 20
127.1287875834779
 10
806.8169964833195
 20
127.0959239528964
 10
806.8257206239676
 20
127.0645808479653
 10
806.8344447646157
 20
127.034759790916
 10
806.843168905264
 20
127.0064623039799
 10
806.851893045912
 20
126.9796899093883
 10
806.86061718656
 20
126.9544441293729
 10
806.8693413272081
 20
126.9307264861648
 10
806.8780654678563
 20
126.9085385019956
 10
806.8867896085045
 20
126.8878816990965
 10
806.8955137491528
 20
126.8687575996992
 10
806.9042378898008
 20
126.8511677260348
 10
806.9129620304489
 20
126.8351136003349
 10
806.9216861710971
 20
126.8205967448308
 10
806.930410311745
 20
126.8076186817539
 10
806.939134452393
 20
126.7961809333122
 10
806.9478585930414
 20
126.7862845725903
 10
806.9565827336896
 20
126.7779290734095
 10
806.9653068743377
 20
126.7711135537741
 10
806.9740310149857
 20
126.7658371316888
 10
806.9827551556339
 20
126.7620989251581
 10
806.9914792962819
 20
126.7598980521864
 10
807.0002034369302
 20
126.7592336307783
  0
LWPOLYLINE
  5
10D
330
1F
100
AcDbEntity
  8
0
  6
CONTINUOUS
 62
     7
100
AcDbPolyline
 90
        3
 70
     0
 43
0.0
 10
731.7003189609909
 20
226.0681501321028
 10
731.6461622504553
 20
226.1864748153824
 10
731.5920128700102
 20
226.2486514843823
  0
LWPOLYLINE
  5
10E
330
1F
100
AcDbEntity
  8
0
  6
CONTINUOUS
 62
     7
100
AcDbPolyline
 90
       33
 70
     0
 43
0.0
 10
796.7224185089308
 20
127.5329282065698
 10
796.7310951968498
 20
127.4854217601821
 10
796.7397718847689
 20
127.4394051525623
 10
796.7484485726878
 20
127.3948800304818
 10
796.7571252606073
 20
127.3518480407119
 10
796.7658019485262
 20
127.3103108300241
 10
796.7744786364451
 20
127.2702700451896
 10
796.7831553243641
 20
127.2317273329801
 10
796.7918320122832
 20
127.1946843401668
 10
796.8005087002025
 20
127.1591427135211
 10
796.8091853881214
 20
127.1251040998145
 10
796.8178620760403
 20
127.0925701458183
 10
796.8265387639594
 20
127.0615424983039
 10
796.8352154518785
 20
127.0320228040428
 10
796.8438921397976
 20
127.0040127098063
 10
796.8525688277167
 20
126.9775138623659
 10
796.8612455156357
 20
126.9525279084928
 10
796.8699222035549
 20
126.9290564949586
 10
796.8785988914738
 20
126.9071012685346
 10
796.887275579393
 20
126.8866638759923
 10
796.8959522673119
 20
126.8677459641029
 10
796.9046289552311
 20
126.850349179638
 10
796.9133056431502
 20
126.8344751391801
 10
796.9219823310692
 20
126.820124440901
 10
796.9306590189884
 20
126.8072964433863
 10
796.9393357069074
 20
126.7959904302614
 10
796.9480123948264
 20
126.7862056851515
 10
796.9566890827454
 20
126.777941491682
 10
796.9653657706644
 20
126.7711971334782
 10
796.9740424585837
 20
126.7659718941655
 10
796.9827191465025
 20
126.7622650573692
 10
796.9913958344218
 20
126.7600759067147
 10
797.0000725223407
 20
126.7594037258272
  0
LWPOLYLINE
  5
10F
330
1F
100
AcDbEntity
  8
0
  6
CONTINUOUS
 62
     7
100
AcDbPolyline
 90
        3
 70
     0
 43
0.0
 10
881.6801010732333
 20
226.1188516266433
 10
881.6120678002517
 20
226.2319702167046
 10
881.5592040234294
 20
226.2589618585556
  0
LWPOLYLINE
  5
110
330
1F
100
AcDbEntity
  8
0
  6
CONTINUOUS
 62
     7
100
AcDbPolyline
 90
        3
 70
     0
 43
0.0
 10
821.7167203299554
 20
226.0214912947738
 10
821.6504399674311
 20
226.1789171419711
 10
821.5590894045531
 20
226.2589618586231
  0
LWPOLYLINE
  5
111
330
1F
100
AcDbEntity
  8
0
  6
CONTINUOUS
 62
     7
100
AcDbPolyline
 90
       33
 70
     0
 43
0.0
 10
-811.7211903962253
 20
227.9780906200027
 10
-811.7299011866957
 20
228.0259673662867
 10
-811.7386119771663
 20
228.0723435063057
 10
-811.7473227676367
 20
228.1172176005058
 10
-811.756033558107
 20
228.1605882093327
 10
-811.7647443485777
 20
228.2024538932322
 10
-811.773455139048
 20
228.2428132126502
 10
-811.7821659295183
 20
228.2816647280326
 10
-811.7908767199891
 20
228.3190069998252
 10
-811.7995875104594
 20
228.3548385884737
 10
-811.80829830093
 20
228.3891580544242
 10
-811.8170090914005
 20
228.4219639581223
 10
-811.8257198818708
 20
228.4532548600139
 10
-811.8344306723413
 20
228.483029320545
 10
-811.8431414628117
 20
228.5112859001612
 10
-811.851852253282
 20
228.5380231593084
 10
-811.8605630437527
 20
228.5632396584326
 10
-811.869273834223
 20
228.5869339579795
 10
-811.8779846246936
 20
228.609104618395
 10
-811.886695415164
 20
228.6297502001249
 10
-811.8954062056343
 20
228.648869263615
 10
-811.9041169961049
 20
228.6664603693112
 10
-811.9128277865752
 20
228.6825220776593
 10
-811.921538577046
 20
228.6970529491053
 10
-811.9302493675164
 20
228.7100515440947
 10
-811.9389601579867
 20
228.7215164230737
 10
-811.9476709484571
 20
228.7314461464879
 10
-811.9563817389275
 20
228.7398392910518
 10
-811.9650925293981
 20
228.7466953374482
 10
-811.9738033198686
 20
228.7520151275324
 10
-811.9825141103391
 20
228.7557996156985
 10
-811.9912249008095
 20
228.7580497563407
 10
-811.9999356912799
 20
228.758766503853
210
0.0
220
0.0
230
-1.0
  0
LWPOLYLINE
  5
112
330
1F
100
AcDbEntity
  8
0
  6
CONTINUOUS
 62
     7
100
AcDbPolyline
 90
        3
 70
     0
 43
0.0
 10
851.663285631804
 20
226.1548911791829
 10
851.5951995783323
 20
226.2464824590547
 10
851.5591225130063
 20
226.2589618586447
  0
LWPOLYLINE
  5
113
330
1F
100
AcDbEntity
  8
0
  6
CONTINUOUS
 62
     7
100
AcDbPolyline
 90
        3
 70
     0
 43
0.0
 10
871.671327081838
 20
226.1382603431348
 10
871.6051499118706
 20
226.2384056133765
 10
871.5591792299068
 20
226.2589618585914
  0
LWPOLYLINE
  5
114
330
1F
100
AcDbEntity
  8
0
  6
CONTINUOUS
 62
     7
100
AcDbPolyline
 90
       33
 70
     0
 43
0.0
 10
-801.7211082126747
 20
227.9776577128224
 10
-801.7298320835628
 20
228.0256365259038
 10
-801.7385559544505
 20
228.0721098688986
 10
-801.7472798253383
 20
228.1170761438032
 10
-801.7560036962262
 20
228.160533752614
 10
-801.7647275671142
 20
228.2024810973276
 10
-801.773451438002
 20
228.2429165799403
 10
-801.7821753088898
 20
228.2818386024484
 10
-801.7908991797779
 20
228.3192455668486
 10
-801.7996230506656
 20
228.3551358751371
 10
-801.8083469215535
 20
228.3895079293106
 10
-801.8170707924415
 20
228.4223601313652
 10
-801.8257946633295
 20
228.4536908832976
 10
-801.8345185342173
 20
228.483498587104
 10
-801.843242405105
 20
228.511781644781
 10
-801.8519662759929
 20
228.538538458325
 10
-801.8606901468809
 20
228.5637674297324
 10
-801.8694140177688
 20
228.5874669609996
 10
-801.8781378886567
 20
228.6096354541231
 10
-801.8868617595444
 20
228.6302713110992
 10
-801.8955856304324
 20
228.6493729339245
 10
-801.9043095013202
 20
228.6669387245954
 10
-801.913033372208
 20
228.6829670851082
 10
-801.921757243096
 20
228.6974564174595
 10
-801.9304811139839
 20
228.7104052725728
 10
-801.9392049848717
 20
228.7218136404236
 10
-801.9479288557599
 20
228.7316823171881
 10
-801.9566527266475
 20
228.7400121079191
 10
-801.9653765975355
 20
228.7468038176701
 10
-801.9741004684233
 20
228.752058251494
 10
-801.9828243393112
 20
228.7557762144441
 10
-801.991548210199
 20
228.7579585115737
 10
-802.0002720810868
 20
228.7586059479358
210
0.0
220
0.0
230
-1.0
  0
LWPOLYLINE
  5
115
330
1F
100
AcDbEntity
  8
0
  6
CONTINUOUS
 62
     7
100
AcDbPolyline
 90
       33
 70
     0
 43
0.0
 10
816.7209658478627
 20
127.5410778825443
 10
816.7296738972071
 20
127.4931860333357
 10
816.7383819465514
 20
127.4467938192176
 10
816.7470899958959
 20
127.4019026026367
 10
816.7557980452401
 20
127.3585137460392
 10
816.7645060945846
 20
127.3166286118719
 10
816.773214143929
 20
127.276248562581
 10
816.7819221932734
 20
127.2373749606132
 10
816.7906302426177
 20
127.2000091684148
 10
816.799338291962
 20
127.1641525484325
 10
816.8080463413064
 20
127.1298064631126
 10
816.8167543906508
 20
127.0969722749017
 10
816.8254624399952
 20
127.0656513462462
 10
816.8341704893396
 20
127.0358450395926
 10
816.8428785386839
 20
127.0075547173875
 10
816.8515865880282
 20
126.9807817420773
 10
816.8602946373726
 20
126.9555274761084
 10
816.8690026867171
 20
126.9317932819275
 10
816.8777107360613
 20
126.9095805219809
 10
816.8864187854057
 20
126.8888905587151
 10
816.89512683475
 20
126.8697247545767
 10
816.9038348840945
 20
126.8520844720122
 10
816.912542933439
 20
126.8359710734679
 10
816.9212509827832
 20
126.8213859213904
 10
816.9299590321277
 20
126.8083303782262
 10
816.938667081472
 20
126.7968058064218
 10
816.9473751308162
 20
126.7868135684236
 10
816.9560831801607
 20
126.7783550266782
 10
816.964791229505
 20
126.771431543632
 10
816.9734992788493
 20
126.7660443797448
 10
816.9822073281939
 20
126.762193461463
 10
816.9909153775382
 20
126.7598777784251
 10
816.9996234268824
 20
126.7590963008484
  0
LWPOLYLINE
  5
116
330
1F
100
AcDbEntity
  8
0
  6
CONTINUOUS
 62
     7
100
AcDbPolyline
 90
        3
 70
     0
 43
0.0
 10
831.6573554103926
 20
226.1664995861935
 10
831.5891775546635
 20
226.2499940517545
 10
831.5590859490753
 20
226.2589618586397
  0
LWPOLYLINE
  5
117
330
1F
100
AcDbEntity
  8
0
  6
CONTINUOUS
 62
     7
100
AcDbPolyline
 90
        3
 70
     0
 43
0.0
 10
771.6957489540453
 20
226.0802498422888
 10
771.6295665197166
 20
226.2114404957615
 10
771.5592166139114
 20
226.2589618586243
  0
LWPOLYLINE
  5
118
330
1F
100
AcDbEntity
  8
0
  6
CONTINUOUS
 62
     7
100
AcDbPolyline
 90
        3
 70
     0
 43
0.0
 10
791.7056992240018
 20
226.0537320322623
 10
791.6395214378404
 20
226.1970761304856
 10
791.5591658648759
 20
226.2589618585719
  0
LWPOLYLINE
  5
119
330
1F
100
AcDbEntity
  8
0
  6
CONTINUOUS
 62
     7
100
AcDbPolyline
 90
        3
 70
     0
 43
0.0
 10
861.6663794446504
 20
226.148560121791
 10
861.5982396712956
 20
226.2441420814266
 10
861.5591512113166
 20
226.2589618586355
  0
LWPOLYLINE
  5
11A
330
1F
100
AcDbEntity
  8
0
  6
CONTINUOUS
 62
     7
100
AcDbPolyline
 90
        3
 70
     0
 43
0.0
 10
811.7117372971617
 20
226.0360936806675
 10
811.6435548002783
 20
226.1906367048256
 10
811.5591086087937
 20
226.2589618585799
  0
LWPOLYLINE
  5
11B
330
1F
100
AcDbEntity
  8
0
  6
CONTINUOUS
 62
     7
100
AcDbPolyline
 90
       33
 70
     0
 43
0.0
 10
-821.7208757629654
 20
227.9763664146323
 10
-821.7295802773396
 20
228.0242460904482
 10
-821.7382847917135
 20
228.0706272237529
 10
-821.7469893060875
 20
228.1155085295296
 10
-821.7556938204616
 20
228.1588887227617
 10
-821.7643983348356
 20
228.2007665184323
 10
-821.7731028492096
 20
228.2411406315248
 10
-821.7818073635837
 20
228.2800097770224
 10
-821.7905118779578
 20
228.3173726699084
 10
-821.7992163923318
 20
228.3532280251661
 10
-821.8079209067058
 20
228.3875745577787
 10
-821.8166254210798
 20
228.4204109827296
 10
-821.8253299354539
 20
228.451736015002
 10
-821.834034449828
 20
228.4815483695792
 10
-821.8427389642021
 20
228.5098467614444
 10
-821.851443478576
 20
228.5366299055809
 10
-821.8601479929499
 20
228.561896516972
 10
-821.868852507324
 20
228.585645310601
 10
-821.8775570216981
 20
228.6078750014512
 10
-821.8862615360722
 20
228.6285843045058
 10
-821.8949660504461
 20
228.6477719347481
 10
-821.9036705648202
 20
228.6654366071614
 10
-821.9123750791944
 20
228.6815770367289
 10
-821.9210795935683
 20
228.6961919384339
 10
-821.9297841079424
 20
228.7092800272598
 10
-821.9384886223163
 20
228.7208400181897
 10
-821.9471931366904
 20
228.730870626207
 10
-821.9558976510644
 20
228.7393705662949
 10
-821.9646021654386
 20
228.7463385534367
 10
-821.9733066798126
 20
228.7517733026157
 10
-821.9820111941865
 20
228.7556735288151
 10
-821.9907157085605
 20
228.7580382746867
 10
-821.9994202229346
 20
228.758868166807
210
0.0
220
0.0
230
-1.0
  0
LWPOLYLINE
  5
11C
330
1F
100
AcDbEntity
  8
0
  6
CONTINUOUS
 62
     7
100
AcDbPolyline
 90
       33
 70
     0
 43
0.0
 10
826.7223329451585
 20
127.533401123974
 10
826.7309909739956
 20
127.486030746808
 10
826.7396490028328
 20
127.440143407894
 10
826.74830703167
 20
127.3957402971008
 10
826.7569650605072
 20
127.3528226042976
 10
826.7656230893443
 20
127.3113915193532
 10
826.7742811181814
 20
127.2714482321368
 10
826.7829391470186
 20
127.2329939325173
 10
826.7915971758557
 20
127.1960298103637
 10
826.8002552046929
 20
127.1605570555452
 10
826.80891323353
 20
127.1265768579306
 10
826.8175712623672
 20
127.0940904073891
 10
826.8262292912044
 20
127.0630988937896
 10
826.8348873200414
 20
127.033603507001
 10
826.8435453488786
 20
127.0056054368926
 10
826.8522033777158
 20
126.9791058733332
 10
826.8608614065528
 20
126.9541060061919
 10
826.86951943539
 20
126.9306070253377
 10
826.8781774642273
 20
126.9086101206397
 10
826.8868354930644
 20
126.8881164819667
 10
826.8954935219015
 20
126.8691272991879
 10
826.9041515507388
 20
126.8516437621723
 10
826.9128095795759
 20
126.8356670607888
 10
826.921467608413
 20
126.8211983849066
 10
826.9301256372501
 20
126.8082389243945
 10
826.9387836660871
 20
126.7967898691217
 10
826.9474416949245
 20
126.7868524089571
 10
826.9560997237616
 20
126.7784277337698
 10
826.9647577525988
 20
126.7715170334287
 10
826.9734157814357
 20
126.7661214978029
 10
826.9820738102729
 20
126.7622423167615
 10
826.9907318391101
 20
126.7598806801733
 10
826.9993898679472
 20
126.7590377710963
  0
LINE
  5
11D
330
1F
100
AcDbEntity
  8
0
  6
CONTINUOUS
 62
     7
100
AcDbLine
 10
860.9406399249489
 20
129.2589618586484
 30
0.0
 11
866.41304243625
 21
129.2589618586484
 31
0.0
  0
LINE
  5
11E
330
1F
100
AcDbEntity
  8
0
  6
CONTINUOUS
 62
     7
100
AcDbLine
 10
830.9406817083084
 20
129.2589618586484
 30
0.0
 11
836.4131297702926
 21
129.2589618586484
 31
0.0
  0
LINE
  5
11F
330
1F
100
AcDbEntity
  8
0
  6
CONTINUOUS
 62
     7
100
AcDbLine
 10
846.264105307409
 20
130.0900062681737
 30
0.0
 11
846.720810247319
 21
127.5416187584853
 31
0.0
  0
LINE
  5
120
330
1F
100
AcDbEntity
  8
0
  6
CONTINUOUS
 62
     7
100
AcDbLine
 10
820.9406828141623
 20
129.2589618586484
 30
0.0
 11
826.4131532768871
 21
129.2589618586484
 31
0.0
  0
LINE
  5
121
330
1F
100
AcDbEntity
  8
0
  6
CONTINUOUS
 62
     7
100
AcDbLine
 10
731.7211094043585
 20
227.9785367335247
 30
0.0
 11
731.411165692423
 21
226.2485405934803
 31
0.0
  0
LINE
  5
122
330
1F
100
AcDbEntity
  8
0
  6
CONTINUOUS
 62
     7
100
AcDbLine
 10
870.9405994028926
 20
129.2589618586484
 30
0.0
 11
876.4130212856365
 21
129.2589618586484
 31
0.0
  0
LINE
  5
123
330
1F
100
AcDbEntity
  8
0
  6
CONTINUOUS
 62
     7
100
AcDbLine
 10
861.720799844504
 20
227.9765098948137
 30
0.0
 11
861.4130562309447
 21
226.2588539492734
 31
0.0
  0
LINE
  5
124
330
1F
100
AcDbEntity
  8
0
  6
CONTINUOUS
 62
     7
100
AcDbLine
 10
810.9406395913204
 20
129.2589618586484
 30
0.0
 11
816.4131655222507
 21
129.2589618586484
 31
0.0
  0
LINE
  5
125
330
1F
100
AcDbEntity
  8
0
  6
CONTINUOUS
 62
     7
100
AcDbLine
 10
800.9406339851986
 20
129.2589618586484
 30
0.0
 11
806.4131693663415
 21
129.2589618586484
 31
0.0
  0
LINE
  5
126
330
1F
100
AcDbEntity
  8
0
  6
CONTINUOUS
 62
     7
100
AcDbLine
 10
790.9406184535936
 20
129.2589618586484
 30
0.0
 11
796.4131636374997
 21
129.2589618586484
 31
0.0
  0
LINE
  5
127
330
1F
100
AcDbEntity
  8
0
  6
CONTINUOUS
 62
     7
100
AcDbLine
 10
850.9406647262194
 20
129.2589618586484
 30
0.0
 11
856.4130742782565
 21
129.2589618586484
 31
0.0
  0
LINE
  5
128
330
1F
100
AcDbEntity
  8
0
  6
CONTINUOUS
 62
     7
100
AcDbLine
 10
760.9405661106882
 20
129.2589618586484
 30
0.0
 11
766.4130950866357
 21
129.2589618586484
 31
0.0
  0
LINE
  5
129
330
1F
100
AcDbEntity
  8
0
  6
CONTINUOUS
 62
     7
100
AcDbLine
 10
750.9405602791268
 20
129.2589618586484
 30
0.0
 11
756.4130646415152
 21
129.2589618586484
 31
0.0
  0
LINE
  5
12A
330
1F
100
AcDbEntity
  8
0
  6
CONTINUOUS
 62
     7
100
AcDbLine
 10
740.9405570205888
 20
129.2589618586484
 30
0.0
 11
746.4130255840662
 21
129.2589618586484
 31
0.0
  0
LINE
  5
12B
330
1F
100
AcDbEntity
  8
0
  6
CONTINUOUS
 62
     7
100
AcDbLine
 10
751.5592138468621
 20
226.2589618586484
 30
0.0
 11
746.0867080433105
 21
226.2589618586484
 31
0.0
  0
LINE
  5
12C
330
1F
100
AcDbEntity
  8
0
  6
CONTINUOUS
 62
     7
100
AcDbLine
 10
866.26412730393
 20
130.0895626783541
 30
0.0
 11
866.7208414299606
 21
127.5410974596243
 31
0.0
  0
LINE
  5
12D
330
1F
100
AcDbEntity
  8
0
  6
CONTINUOUS
 62
     7
100
AcDbLine
 10
831.720899887494
 20
227.976589821746
 30
0.0
 11
831.4131417793647
 21
226.25885354607
 31
0.0
  0
LINE
  5
12E
330
1F
100
AcDbEntity
  8
0
  6
CONTINUOUS
 62
     7
100
AcDbLine
 10
801.7211787894768
 20
227.978051901359
 30
0.0
 11
801.4131674146291
 21
226.2588530452921
 31
0.0
  0
LINE
  5
12F
330
1F
100
AcDbEntity
  8
0
  6
CONTINUOUS
 62
     7
100
AcDbLine
 10
770.9405642225151
 20
129.2589618586484
 30
0.0
 11
776.4131303374145
 21
129.2589618586484
 31
0.0
  0
LINE
  5
130
330
1F
100
AcDbEntity
  8
0
  6
CONTINUOUS
 62
     7
100
AcDbLine
 10
776.265946957239
 20
130.0799082740969
 30
0.0
 11
776.7211821513118
 21
127.5395640081962
 31
0.0
  0
LINE
  5
131
330
1F
100
AcDbEntity
  8
0
  6
CONTINUOUS
 62
     7
100
AcDbLine
 10
836.2643957736495
 20
130.0885445231059
 30
0.0
 11
836.7209055144207
 21
127.5412399305922
 31
0.0
  0
LINE
  5
132
330
1F
100
AcDbEntity
  8
0
  6
CONTINUOUS
 62
     7
100
AcDbLine
 10
816.2650722631223
 20
130.0849834478113
 30
0.0
 11
816.7210341572172
 21
127.5406963678925
 31
0.0
  0
LINE
  5
133
330
1F
100
AcDbEntity
  8
0
  6
CONTINUOUS
 62
     7
100
AcDbLine
 10
811.7212465701672
 20
227.9784041707144
 30
0.0
 11
811.4131686099672
 21
226.2588530482329
 31
0.0
  0
LINE
  5
134
330
1F
100
AcDbEntity
  8
0
  6
CONTINUOUS
 62
     7
100
AcDbLine
 10
840.9406432348175
 20
129.2589618586484
 30
0.0
 11
846.4131017462345
 21
129.2589618586484
 31
0.0
  0
LINE
  5
135
330
1F
100
AcDbEntity
  8
0
  6
CONTINUOUS
 62
     7
100
AcDbLine
 10
761.5592191894258
 20
226.2589618586484
 30
0.0
 11
756.0867356147402
 21
226.2589618586484
 31
0.0
  0
LINE
  5
136
330
1F
100
AcDbEntity
  8
0
  6
CONTINUOUS
 62
     7
100
AcDbLine
 10
826.2656296348824
 20
130.0818019943416
 30
0.0
 11
826.7224125694034
 21
127.5329587254385
 31
0.0
  0
LINE
  5
137
330
1F
100
AcDbEntity
  8
0
  6
CONTINUOUS
 62
     7
100
AcDbLine
 10
781.7215020124837
 20
227.9800679653168
 30
0.0
 11
781.4131360645165
 21
226.2588526868944
 31
0.0
  0
LINE
  5
138
330
1F
100
AcDbEntity
  8
0
  6
CONTINUOUS
 62
     7
100
AcDbLine
 10
780.9405832251606
 20
129.2589618586484
 30
0.0
 11
786.4131471566349
 21
129.2589618586484
 31
0.0
  0
LINE
  5
139
330
1F
100
AcDbEntity
  8
0
  6
CONTINUOUS
 62
     7
100
AcDbLine
 10
771.5592154241826
 20
226.2589618586484
 30
0.0
 11
766.0867546962471
 21
226.2589618586484
 31
0.0
  0
LINE
  5
13A
330
1F
100
AcDbEntity
  8
0
  6
CONTINUOUS
 62
     7
100
AcDbLine
 10
781.5591817940573
 20
226.2589618586484
 30
0.0
 11
776.0867601909375
 21
226.2589618586484
 31
0.0
  0
LINE
  5
13B
330
1F
100
AcDbEntity
  8
0
  6
CONTINUOUS
 62
     7
100
AcDbLine
 10
786.2663573125612
 20
130.0777437569341
 30
0.0
 11
786.7212958925255
 21
127.5390763704686
 31
0.0
  0
LINE
  5
13C
330
1F
100
AcDbEntity
  8
0
  6
CONTINUOUS
 62
     7
100
AcDbLine
 10
856.2655470698534
 20
130.0818185769363
 30
0.0
 11
856.7227259163725
 21
127.5307832726886
 31
0.0
  0
LINE
  5
13D
330
1F
100
AcDbEntity
  8
0
  6
CONTINUOUS
 62
     7
100
AcDbLine
 10
896.2643751976921
 20
130.0881216383418
 30
0.0
 11
896.7209171235484
 21
127.54049293085
 31
0.0
  0
LINE
  5
13E
330
1F
100
AcDbEntity
  8
0
  6
CONTINUOUS
 62
     7
100
AcDbLine
 10
766.2662109498768
 20
130.0782846453362
 30
0.0
 11
766.7224664528652
 21
127.532231477833
 31
0.0
  0
LINE
  5
13F
330
1F
100
AcDbEntity
  8
0
  6
CONTINUOUS
 62
     7
100
AcDbLine
 10
891.7212013238689
 20
227.9790460906884
 30
0.0
 11
891.4111685181002
 21
226.248540354456
 31
0.0
  0
LINE
  5
140
330
1F
100
AcDbEntity
  8
0
  6
CONTINUOUS
 62
     7
100
AcDbLine
 10
880.9405928579652
 20
129.2589618586484
 30
0.0
 11
886.4130191641956
 21
129.2589618586484
 31
0.0
  0
LINE
  5
141
330
1F
100
AcDbEntity
  8
0
  6
CONTINUOUS
 62
     7
100
AcDbLine
 10
856.2352308361952
 20
225.42998664791
 30
0.0
 11
855.7786257980734
 21
227.9778294685806
 31
0.0
  0
LINE
  5
142
330
1F
100
AcDbEntity
  8
0
  6
CONTINUOUS
 62
     7
100
AcDbLine
 10
791.5591496449027
 20
226.2589618586484
 30
0.0
 11
786.0867476551759
 21
226.2589618586484
 31
0.0
  0
LINE
  5
143
330
1F
100
AcDbEntity
  8
0
  6
CONTINUOUS
 62
     7
100
AcDbLine
 10
890.9405786060813
 20
129.2589618586484
 30
0.0
 11
896.4130247191573
 21
129.2589618586484
 31
0.0
  0
LINE
  5
144
330
1F
100
AcDbEntity
  8
0
  6
CONTINUOUS
 62
     7
100
AcDbLine
 10
801.5591556420163
 20
226.2589618586484
 30
0.0
 11
796.0867236336437
 21
226.2589618586484
 31
0.0
  0
LINE
  5
145
330
1F
100
AcDbEntity
  8
0
  6
CONTINUOUS
 62
     7
100
AcDbLine
 10
751.7216228748573
 20
227.9812422640671
 30
0.0
 11
751.4130500986862
 21
226.2588528166941
 31
0.0
  0
LINE
  5
146
330
1F
100
AcDbEntity
  8
0
  6
CONTINUOUS
 62
     7
100
AcDbLine
 10
866.2351867699131
 20
225.4302752514109
 30
0.0
 11
865.7785168781013
 21
227.9785097075512
 31
0.0
  0
LINE
  5
147
330
1F
100
AcDbEntity
  8
0
  6
CONTINUOUS
 62
     7
100
AcDbLine
 10
841.7212188564787
 20
227.9785047362744
 30
0.0
 11
841.4131162275997
 21
226.2588533523536
 31
0.0
  0
LINE
  5
148
330
1F
100
AcDbEntity
  8
0
  6
CONTINUOUS
 62
     7
100
AcDbLine
 10
846.2355831042439
 20
225.4280348769612
 30
0.0
 11
845.7787802906928
 21
227.976951664568
 31
0.0
  0
LINE
  5
149
330
1F
100
AcDbEntity
  8
0
  6
CONTINUOUS
 62
     7
100
AcDbLine
 10
796.2671139640918
 20
130.0736088289937
 30
0.0
 11
796.7224350486182
 21
127.532836232538
 31
0.0
  0
LINE
  5
14A
330
1F
100
AcDbEntity
  8
0
  6
CONTINUOUS
 62
     7
100
AcDbLine
 10
761.7211301611235
 20
227.9783282048581
 30
0.0
 11
761.4130964390166
 21
226.2589465562339
 31
0.0
  0
LINE
  5
14B
330
1F
100
AcDbEntity
  8
0
  6
CONTINUOUS
 62
     7
100
AcDbLine
 10
876.2351766737173
 20
225.4304247803032
 30
0.0
 11
875.7786071114748
 21
227.9781268524054
 31
0.0
  0
LINE
  5
14C
330
1F
100
AcDbEntity
  8
0
  6
CONTINUOUS
 62
     7
100
AcDbLine
 10
736.2650007241897
 20
130.0845985689326
 30
0.0
 11
736.7221596971538
 21
127.5335400262234
 31
0.0
  0
LINE
  5
14D
330
1F
100
AcDbEntity
  8
0
  6
CONTINUOUS
 62
     7
100
AcDbLine
 10
771.7213377207952
 20
227.9793128840363
 30
0.0
 11
771.413109615996
 21
226.2588528606158
 31
0.0
  0
LINE
  5
14E
330
1F
100
AcDbEntity
  8
0
  6
CONTINUOUS
 62
     7
100
AcDbLine
 10
881.7207693112747
 20
227.9766099662804
 30
0.0
 11
881.413015714392
 21
226.25885420484
 31
0.0
  0
LINE
  5
14F
330
1F
100
AcDbEntity
  8
0
  6
CONTINUOUS
 62
     7
100
AcDbLine
 10
886.2347910000763
 20
225.4327105583469
 30
0.0
 11
885.7785430395471
 21
227.9786420822196
 31
0.0
  0
LINE
  5
150
330
1F
100
AcDbEntity
  8
0
  6
CONTINUOUS
 62
     7
100
AcDbLine
 10
896.2356551313921
 20
225.4280531206219
 30
0.0
 11
895.7783670458172
 21
227.9797995908243
 31
0.0
  0
LINE
  5
151
330
1F
100
AcDbEntity
  8
0
  6
CONTINUOUS
 62
     7
100
AcDbLine
 10
876.2641511487983
 20
130.0893234463887
 30
0.0
 11
876.7209146989144
 21
127.5405483371262
 31
0.0
  0
LINE
  5
152
330
1F
100
AcDbEntity
  8
0
  6
CONTINUOUS
 62
     7
100
AcDbLine
 10
741.7210485351028
 20
227.9781549842442
 30
0.0
 11
741.4121624571776
 21
226.2485865750748
 31
0.0
  0
LINE
  5
153
330
1F
100
AcDbEntity
  8
0
  6
CONTINUOUS
 62
     7
100
AcDbLine
 10
791.7211035974713
 20
227.9777136963801
 30
0.0
 11
791.4131752154054
 21
226.2589591983742
 31
0.0
  0
LINE
  5
154
330
1F
100
AcDbEntity
  8
0
  6
CONTINUOUS
 62
     7
100
AcDbLine
 10
871.7216373898307
 20
227.9813412350007
 30
0.0
 11
871.413030764654
 21
226.2588533180167
 31
0.0
  0
LINE
  5
155
330
1F
100
AcDbEntity
  8
0
  6
CONTINUOUS
 62
     7
100
AcDbLine
 10
726.2641008319251
 20
130.0895776941243
 30
0.0
 11
726.7208487070931
 21
127.5408616700429
 31
0.0
  0
LINE
  5
156
330
1F
100
AcDbEntity
  8
0
  6
CONTINUOUS
 62
     7
100
AcDbLine
 10
886.2662955799315
 20
130.0773720231754
 30
0.0
 11
886.7233856713381
 21
127.5267317956857
 31
0.0
  0
LINE
  5
157
330
1F
100
AcDbEntity
  8
0
  6
CONTINUOUS
 62
     7
100
AcDbLine
 10
806.2652814721549
 20
130.0838470046992
 30
0.0
 11
806.7210734846705
 21
127.5404802304602
 31
0.0
  0
LINE
  5
158
330
1F
100
AcDbEntity
  8
0
  6
CONTINUOUS
 62
     7
100
AcDbLine
 10
756.2648484541288
 20
130.085712868586
 30
0.0
 11
756.721266286694
 21
127.5387501172267
 31
0.0
  0
LINE
  5
159
330
1F
100
AcDbEntity
  8
0
  6
CONTINUOUS
 62
     7
100
AcDbLine
 10
746.2646594174142
 20
130.0866129619564
 30
0.0
 11
746.7211011168191
 21
127.5395275050013
 31
0.0
  0
LINE
  5
15A
330
1F
100
AcDbEntity
  8
0
  6
CONTINUOUS
 62
     7
100
AcDbLine
 10
821.7209141097777
 20
227.9765806278706
 30
0.0
 11
821.4131598944175
 21
226.2588534654506
 31
0.0
  0
LINE
  5
15B
330
1F
100
AcDbEntity
  8
0
  6
CONTINUOUS
 62
     7
100
AcDbLine
 10
900.4999999552434
 20
129.2589618586484
 30
0.0
 11
901.4999999552434
 21
129.2589618586484
 31
0.0
  0
LINE
  5
15C
330
1F
100
AcDbEntity
  8
0
  6
CONTINUOUS
 62
     7
100
AcDbLine
 10
851.7207984152941
 20
227.9763249487082
 30
0.0
 11
851.4130864621583
 21
226.258853868732
 31
0.0
  0
LINE
  5
15D
330
1F
100
AcDbEntity
  8
0
  6
CONTINUOUS
 62
     7
100
AcDbLine
 10
851.9169259626386
 20
228.6889040027228
 30
0.0
 11
852.0002511252973
 21
228.7586424755227
 31
0.0
  0
ARC
  5
15E
330
1F
100
AcDbEntity
  8
0
  6
CONTINUOUS
 62
     7
100
AcDbCircle
 10
847.8244703563396
 20
127.4948504080229
 30
0.0
 40
1.104698783242789
100
AcDbArc
 50
177.5623053411896
 51
221.7534839208787
  0
ARC
  5
15F
330
1F
100
AcDbEntity
  8
0
  6
CONTINUOUS
 62
     7
100
AcDbCircle
 10
1259.926801338122
 20
174.2249460014573
 30
0.0
 40
515.5541789031862
100
AcDbArc
 50
180.8497250433001
 51
184.9123167246283
  0
ARC
  5
160
330
1F
100
AcDbEntity
  8
0
  6
CONTINUOUS
 62
     7
100
AcDbCircle
 10
-1077.461641665906
 20
118.7012245193076
 30
0.0
 40
1832.554254861312
100
AcDbArc
 50
1.367689928044421
 51
3.282059116991584
  0
ARC
  5
161
330
1F
100
AcDbEntity
  8
0
  6
CONTINUOUS
 62
     7
100
AcDbCircle
 10
1372.039937083375
 20
175.5335339674945
 30
0.0
 40
537.6985440132265
100
AcDbArc
 50
180.8735768239851
 51
184.8492921011834
  0
LINE
  5
162
330
1F
100
AcDbEntity
  8
0
  6
CONTINUOUS
 62
     7
100
AcDbLine
 10
891.6642123705153
 20
226.1532671031038
 30
0.0
 11
891.5920220528333
 21
226.2486514843823
 31
0.0
  0
ARC
  5
163
330
1F
100
AcDbEntity
  8
0
  6
CONTINUOUS
 62
     7
100
AcDbCircle
 10
-680.4020264471919
 20
132.838114031799
 30
0.0
 40
1515.198681880558
100
AcDbArc
 50
1.304604740692082
 51
3.445236556316948
  0
ARC
  5
164
330
1F
100
AcDbEntity
  8
0
  6
CONTINUOUS
 62
     7
100
AcDbCircle
 10
1375.53434436527
 20
175.1378107726123
 30
0.0
 40
531.1829122811786
100
AcDbArc
 50
180.8697484413092
 51
184.8659922965073
  0
ARC
  5
165
330
1F
100
AcDbEntity
  8
0
  6
CONTINUOUS
 62
     7
100
AcDbCircle
 10
760.8367216683553
 20
223.2009123645724
 30
0.0
 40
11.23428047993916
100
AcDbArc
 50
4.742584691528505
 51
14.85058448915458
  0
ARC
  5
166
330
1F
100
AcDbEntity
  8
0
  6
CONTINUOUS
 62
     7
100
AcDbCircle
 10
808.3037906475387
 20
222.7819945838749
 30
0.0
 40
13.79858766705428
100
AcDbArc
 50
4.73688584954068
 51
13.57807521156147
  0
ARC
  5
167
330
1F
100
AcDbEntity
  8
0
  6
CONTINUOUS
 62
     7
100
AcDbCircle
 10
-658.6988454982228
 20
135.6915396317065
 30
0.0
 40
1443.444539529246
100
AcDbArc
 50
1.274054160998328
 51
3.511586477703027
  0
ARC
  5
168
330
1F
100
AcDbEntity
  8
0
  6
CONTINUOUS
 62
     7
100
AcDbCircle
 10
832.7078706716877
 20
223.4144920952391
 30
0.0
 40
9.364255141839052
100
AcDbArc
 50
2.752769913337395
 51
17.05521319223519
  0
ARC
  5
169
330
1F
100
AcDbEntity
  8
0
  6
CONTINUOUS
 62
     7
100
AcDbCircle
 10
-690.5683909248447
 20
131.564005817836
 30
0.0
 40
1545.390665792597
100
AcDbArc
 50
1.311199169908405
 51
3.422340758453006
  0
ARC
  5
16A
330
1F
100
AcDbEntity
  8
0
  6
CONTINUOUS
 62
     7
100
AcDbCircle
 10
881.2099384415974
 20
223.1137493646972
 30
0.0
 40
10.88717187624681
100
AcDbArc
 50
2.787939576904308
 51
16.2114739496758
  0
ARC
  5
16B
330
1F
100
AcDbEntity
  8
0
  6
CONTINUOUS
 62
     7
100
AcDbCircle
 10
842.1856813769235
 20
223.3175553462973
 30
0.0
 40
9.893202567455381
100
AcDbArc
 50
2.89391815727803
 51
16.66626376949597
  0
ARC
  5
16C
330
1F
100
AcDbEntity
  8
0
  6
CONTINUOUS
 62
     7
100
AcDbCircle
 10
1402.042515519773
 20
174.3649760754903
 30
0.0
 40
517.6732322344274
100
AcDbArc
 50
180.8530394818966
 51
184.9087923822342
  0
ARC
  5
16D
330
1F
100
AcDbEntity
  8
0
  6
CONTINUOUS
 62
     7
100
AcDbCircle
 10
770.2003831590587
 20
223.0996350301029
 30
0.0
 40
11.87760821290619
100
AcDbArc
 50
4.84619882149516
 51
14.44174385607346
  0
ARC
  5
16E
330
1F
100
AcDbEntity
  8
0
  6
CONTINUOUS
 62
     7
100
AcDbCircle
 10
1350.951803903112
 20
176.0513514793322
 30
0.0
 40
546.6222007710089
100
AcDbArc
 50
180.885129288612
 51
184.8245120805099
  0
ARC
  5
16F
330
1F
100
AcDbEntity
  8
0
  6
CONTINUOUS
 62
     7
100
AcDbCircle
 10
-688.4928483667792
 20
131.2235026173381
 30
0.0
 40
1553.321802028879
100
AcDbArc
 50
1.313712131658389
 51
3.417053981112328
  0
ARC
  5
170
330
1F
100
AcDbEntity
  8
0
  6
CONTINUOUS
 62
     7
100
AcDbCircle
 10
1328.063270054344
 20
177.0644151716332
 30
0.0
 40
563.757972051093
100
AcDbArc
 50
180.9011061128067
 51
184.7813853402891
  0
LINE
  5
171
330
1F
100
AcDbEntity
  8
0
  6
CONTINUOUS
 62
     7
100
AcDbLine
 10
741.6676652807595
 20
226.1462709961017
 30
0.0
 11
741.5920352470752
 21
226.2486514843821
 31
0.0
  0
ARC
  5
172
330
1F
100
AcDbEntity
  8
0
  6
CONTINUOUS
 62
     7
100
AcDbCircle
 10
-638.7018744711486
 20
137.3722579548909
 30
0.0
 40
1403.41548339797
100
AcDbArc
 50
1.258608266507143
 51
3.546719181236413
  0
ARC
  5
173
330
1F
100
AcDbEntity
  8
0
  6
CONTINUOUS
 62
     7
100
AcDbCircle
 10
1389.52132442762
 20
174.7731527685415
 30
0.0
 40
525.1606450266979
100
AcDbArc
 50
180.8660008550983
 51
184.8820749787071
  0
ARC
  5
174
330
1F
100
AcDbEntity
  8
0
  6
CONTINUOUS
 62
     7
100
AcDbCircle
 10
740.0357127956709
 20
222.9513045057588
 30
0.0
 40
12.06953387794378
100
AcDbArc
 50
3.164371160041569
 51
15.14917453847245
  0
ARC
  5
175
330
1F
100
AcDbEntity
  8
0
  6
CONTINUOUS
 62
     7
100
AcDbCircle
 10
851.995901738009
 20
223.2874824291523
 30
0.0
 40
10.0848353798146
100
AcDbArc
 50
2.952377982290159
 51
16.48121562760268
  0
ARC
  5
176
330
1F
100
AcDbEntity
  8
0
  6
CONTINUOUS
 62
     7
100
AcDbCircle
 10
1188.501175272168
 20
168.9520776135138
 30
0.0
 40
433.9794811981395
100
AcDbArc
 50
180.859597818344
 51
185.1392922050691
  0
ARC
  5
177
330
1F
100
AcDbEntity
  8
0
  6
CONTINUOUS
 62
     7
100
AcDbCircle
 10
751.4363091542434
 20
223.3040595278094
 30
0.0
 40
10.62639222687736
100
AcDbArc
 50
4.787324534388337
 51
15.24335357663791
  0
ARC
  5
178
330
1F
100
AcDbEntity
  8
0
  6
CONTINUOUS
 62
     7
100
AcDbCircle
 10
863.1540604607824
 20
223.6086081777607
 30
0.0
 40
8.884985693400377
100
AcDbArc
 50
4.630546267916548
 51
16.54156774396088
  0
ARC
  5
179
330
1F
100
AcDbEntity
  8
0
  6
CONTINUOUS
 62
     7
100
AcDbCircle
 10
-675.1144218312661
 20
136.4916893701941
 30
0.0
 40
1409.864402153984
100
AcDbArc
 50
1.224127139830813
 51
3.570896890242819
  0
ARC
  5
17A
330
1F
100
AcDbEntity
  8
0
  6
CONTINUOUS
 62
     7
100
AcDbCircle
 10
1362.333445951105
 20
175.5645427133157
 30
0.0
 40
537.9930464106031
100
AcDbArc
 50
180.8729872672695
 51
184.8505729527741
  0
ARC
  5
17B
330
1F
100
AcDbEntity
  8
0
  6
CONTINUOUS
 62
     7
100
AcDbCircle
 10
789.2513095220598
 20
222.9371635109857
 30
0.0
 40
12.83921418475856
100
AcDbArc
 50
4.806158338588552
 51
14.00835793231517
  0
ARC
  5
17C
330
1F
100
AcDbEntity
  8
0
  6
CONTINUOUS
 62
     7
100
AcDbCircle
 10
1188.309247039462
 20
171.0407338641691
 30
0.0
 40
463.8554361306788
100
AcDbArc
 50
180.8085733200114
 51
185.0661677141295
  0
ARC
  5
17D
330
1F
100
AcDbEntity
  8
0
  6
CONTINUOUS
 62
     7
100
AcDbCircle
 10
779.9260878696967
 20
223.0547635466372
 30
0.0
 40
12.15537147257316
100
AcDbArc
 50
4.81886437223775
 51
14.28348002102635
  0
ARC
  5
17E
330
1F
100
AcDbEntity
  8
0
  6
CONTINUOUS
 62
     7
100
AcDbCircle
 10
1381.253126186452
 20
174.8946430365333
 30
0.0
 40
526.8957525048695
100
AcDbArc
 50
180.8664748962961
 51
184.8800581593027
  0
ARC
  5
17F
330
1F
100
AcDbEntity
  8
0
  6
CONTINUOUS
 62
     7
100
AcDbCircle
 10
894.0679200507475
 20
227.5788264106673
 30
0.0
 40
2.380602327049906
100
AcDbArc
 50
150.3078074482841
 51
170.3233839715431
  0
ARC
  5
180
330
1F
100
AcDbEntity
  8
0
  6
CONTINUOUS
 62
     7
100
AcDbCircle
 10
-522.7451032896657
 20
137.0207587125619
 30
0.0
 40
1397.484923620853
100
AcDbArc
 50
1.218837962134947
 51
3.581774215792
  0
ARC
  5
181
330
1F
100
AcDbEntity
  8
0
  6
CONTINUOUS
 62
     7
100
AcDbCircle
 10
872.6529990211527
 20
223.528776979337
 30
0.0
 40
9.39132888026484
100
AcDbArc
 50
4.799287454835496
 51
16.00935276312766
  0
ARC
  5
182
330
1F
100
AcDbEntity
  8
0
  6
CONTINUOUS
 62
     7
100
AcDbCircle
 10
887.7950054800706
 20
127.4805038278414
 30
0.0
 40
1.072718925787882
100
AcDbArc
 50
177.505626142033
 51
222.2067667916656
  0
ARC
  5
183
330
1F
100
AcDbEntity
  8
0
  6
CONTINUOUS
 62
     7
100
AcDbCircle
 10
721.9518127449475
 20
223.4325767639141
 30
0.0
 40
10.09849594857288
100
AcDbArc
 50
4.945081913833175
 51
15.12861886362182
  0
ARC
  5
184
330
1F
100
AcDbEntity
  8
0
  6
CONTINUOUS
 62
     7
100
AcDbCircle
 10
877.82531927643
 20
127.4949666920106
 30
0.0
 40
1.105425430505047
100
AcDbArc
 50
177.6177850591691
 51
221.6925275322752
  0
ARC
  5
185
330
1F
100
AcDbEntity
  8
0
  6
CONTINUOUS
 62
     7
100
AcDbCircle
 10
1337.260250225774
 20
176.4138428274524
 30
0.0
 40
552.9387212037121
100
AcDbArc
 50
180.8940614516557
 51
184.8070805037218
  0
ARC
  5
186
330
1F
100
AcDbEntity
  8
0
  6
CONTINUOUS
 62
     7
100
AcDbCircle
 10
-653.6708694874542
 20
136.3453453136805
 30
0.0
 40
1428.403412737435
100
AcDbArc
 50
1.269512274287838
 51
3.523407710750288
  0
ARC
  5
187
330
1F
100
AcDbEntity
  8
0
  6
CONTINUOUS
 62
     7
100
AcDbCircle
 10
1344.050180747807
 20
176.2363165287015
 30
0.0
 40
549.7246637059909
100
AcDbArc
 50
180.8901021155093
 51
184.8171200966325
  0
ARC
  5
188
330
1F
100
AcDbEntity
  8
0
  6
CONTINUOUS
 62
     7
100
AcDbCircle
 10
898.9145907589906
 20
127.8830347751517
 30
0.0
 40
2.220266425042392
100
AcDbArc
 50
188.8635135314014
 51
210.3873754456701
  0
ARC
  5
189
330
1F
100
AcDbEntity
  8
0
  6
CONTINUOUS
 62
     7
100
AcDbCircle
 10
872.8227392148411
 20
228.0254615924115
 30
0.0
 40
1.102053869499667
100
AcDbArc
 50
138.3203432479956
 51
182.3106532951046
  0
ARC
  5
18A
330
1F
100
AcDbEntity
  8
0
  6
CONTINUOUS
 62
     7
100
AcDbCircle
 10
-664.6060511848852
 20
134.6711098681127
 30
0.0
 40
1469.370059974955
100
AcDbArc
 50
1.284400190773308
 51
3.485892889305462
  0
ARC
  5
18B
330
1F
100
AcDbEntity
  8
0
  6
CONTINUOUS
 62
     7
100
AcDbCircle
 10
1359.383674052123
 20
175.9486876256284
 30
0.0
 40
545.0510477172699
100
AcDbArc
 50
180.8864672721479
 51
184.8275668361476
  0
ARC
  5
18C
330
1F
100
AcDbEntity
  8
0
  6
CONTINUOUS
 62
     7
100
AcDbCircle
 10
-658.9099474029025
 20
135.2723137445657
 30
0.0
 40
1453.663458947753
100
AcDbArc
 50
1.278099918746814
 51
3.502351218907852
  0
ARC
  5
18D
330
1F
100
AcDbEntity
  8
0
  6
CONTINUOUS
 62
     7
100
AcDbCircle
 10
1394.980363946019
 20
174.5218348130111
 30
0.0
 40
520.6147931753337
100
AcDbArc
 50
180.8557012616214
 51
184.8970652305243
  0
ARC
  5
18E
330
1F
100
AcDbEntity
  8
0
  6
CONTINUOUS
 62
     7
100
AcDbCircle
 10
867.8312265052599
 20
127.4966811438085
 30
0.0
 40
1.11130306064089
100
AcDbArc
 50
177.7023362916216
 51
221.5522973045651
  0
ARC
  5
18F
330
1F
100
AcDbEntity
  8
0
  6
CONTINUOUS
 62
     7
100
AcDbCircle
 10
799.0451828320508
 20
222.9064754664874
 30
0.0
 40
13.04745615758679
100
AcDbArc
 50
4.819214662736121
 51
13.87852810602892
  0
ARC
  5
190
330
1F
100
AcDbEntity
  8
0
  6
CONTINUOUS
 62
     7
100
AcDbCircle
 10
-685.3725130930072
 20
132.1789191867846
 30
0.0
 40
1530.183096818063
100
AcDbArc
 50
1.30674476869583
 51
3.435098308205067
  0
ARC
  5
191
330
1F
100
AcDbEntity
  8
0
  6
CONTINUOUS
 62
     7
100
AcDbCircle
 10
1331.334506940524
 20
176.6704263446
 30
0.0
 40
557.0201870295543
100
AcDbArc
 50
180.8926961512248
 51
184.7982498380581
  0
ARC
  5
192
330
1F
100
AcDbEntity
  8
0
  6
CONTINUOUS
 62
     7
100
AcDbCircle
 10
-518.1739420655842
 20
136.7813219950098
 30
0.0
 40
1402.918762174
100
AcDbArc
 50
1.220266510475266
 51
3.577214842913249
  0
ARC
  5
193
330
1F
100
AcDbEntity
  8
0
  6
CONTINUOUS
 62
     7
100
AcDbCircle
 10
-661.8729797690817
 20
134.3559833707857
 30
0.0
 40
1476.64321687682
100
AcDbArc
 50
1.28676681986793
 51
3.480552512596614
  0
ARC
  5
194
330
1F
100
AcDbEntity
  8
0
  6
CONTINUOUS
 62
     7
100
AcDbCircle
 10
822.9280922213168
 20
223.4551970355782
 30
0.0
 40
9.1406344060535
100
AcDbArc
 50
2.746622341372357
 51
17.2547548236832
  0
ARC
  5
195
330
1F
100
AcDbEntity
  8
0
  6
CONTINUOUS
 62
     7
100
AcDbCircle
 10
732.9408182424623
 20
223.5540217503965
 30
0.0
 40
9.103714372809193
100
AcDbArc
 50
4.558122561612373
 51
16.5436860379326
  0
ARC
  5
196
330
1F
100
AcDbEntity
  8
0
  6
CONTINUOUS
 62
     7
100
AcDbCircle
 10
1250.559504460637
 20
174.2688986709955
 30
0.0
 40
516.1880931695362
100
AcDbArc
 50
180.8500172185743
 51
184.9114634617589
  0
ARC
  5
197
330
1F
100
AcDbEntity
  8
0
  6
CONTINUOUS
 62
     7
100
AcDbCircle
 10
882.8150063191079
 20
228.0255786660295
 30
0.0
 40
1.095351176705861
100
AcDbArc
 50
138.0262264741025
 51
182.5667681803549
  0
ARC
  5
198
330
1F
100
AcDbEntity
  8
0
  6
CONTINUOUS
 62
     7
100
AcDbCircle
 10
-671.7884577286142
 20
136.2369536346436
 30
0.0
 40
1416.542779393921
100
AcDbArc
 50
1.227369473295485
 51
3.563326773877133
  0
ARC
  5
199
330
1F
100
AcDbEntity
  8
0
  6
CONTINUOUS
 62
     7
100
AcDbCircle
 10
-677.0160646636775
 20
133.3680655571526
 30
0.0
 40
1501.803822991979
100
AcDbArc
 50
1.297242394975668
 51
3.456828097338519
  0
ARC
  5
19A
330
1F
100
AcDbEntity
  8
0
  6
CONTINUOUS
 62
     7
100
AcDbCircle
 10
862.8303627729147
 20
228.0212490439932
 30
0.0
 40
1.110562484400827
100
AcDbArc
 50
138.4079971337972
 51
182.3318453498844
  0
ARC
  5
19B
330
1F
100
AcDbEntity
  8
0
  6
CONTINUOUS
 62
     7
100
AcDbCircle
 10
857.8102280753596
 20
127.4861863467888
 30
0.0
 40
1.088424971320181
100
AcDbArc
 50
177.6496269670402
 51
221.8952386122729
  0
LINE
  5
19C
330
1F
100
AcDbEntity
  8
0
  6
CONTINUOUS
 62
     7
100
AcDbLine
 10
851.7207226442741
 20
227.9759017645233
 30
0.0
 11
851.9169259626385
 21
228.6889040027228
 31
0.0
  0
ARC
  5
19D
330
1F
100
AcDbEntity
  8
0
  6
CONTINUOUS
 62
     7
100
AcDbCircle
 10
782.7728196425585
 20
228.0426583676768
 30
0.0
 40
1.05325530886614
100
AcDbArc
 50
137.201761539001
 51
183.4242559517069
  0
LINE
  5
19E
330
1F
100
AcDbEntity
  8
0
  6
CONTINUOUS
 62
     7
100
AcDbLine
 10
896.9993331255043
 20
126.7599269791656
 30
0.0
 11
900.4993331254947
 21
126.7599189187432
 31
0.0
  0
LINE
  5
19F
330
1F
100
AcDbEntity
  8
0
  6
CONTINUOUS
 62
     7
100
AcDbLine
 10
735.5000585722121
 20
228.7580773376672
 30
0.0
 11
732.0000585722214
 21
228.7580692772334
 31
0.0
  0
LINE
  5
1A0
330
1F
100
AcDbEntity
  8
0
  6
CONTINUOUS
 62
     7
100
AcDbLine
 10
902.4999999552434
 20
170.2589618586484
 30
0.0
 11
901.4999999552434
 21
170.2589618586484
 31
0.0
  0
LINE
  5
1A1
330
1F
100
AcDbEntity
  8
0
  6
CONTINUOUS
 62
     7
100
AcDbLine
 10
736.9999817122113
 20
126.7598986893242
 30
0.0
 11
740.4999817122019
 21
126.7598906288973
 31
0.0
  0
LINE
  5
1A2
330
1F
100
AcDbEntity
  8
0
  6
CONTINUOUS
 62
     7
100
AcDbLine
 10
745.4998914783304
 20
228.758002587476
 30
0.0
 11
741.9998914783397
 21
228.757994527054
 31
0.0
  0
ARC
  5
1A3
330
1F
100
AcDbEntity
  8
0
  6
CONTINUOUS
 62
     7
100
AcDbCircle
 10
768.1285843082271
 20
127.6015036498784
 30
0.0
 40
1.407876023083812
100
AcDbArc
 50
182.8037707685885
 51
216.7132065136605
  0
LINE
  5
1A4
330
1F
100
AcDbEntity
  8
0
  6
CONTINUOUS
 62
     7
100
AcDbLine
 10
795.499261343896
 20
228.758439701657
 30
0.0
 11
791.9992613439052
 21
228.7584316411659
 31
0.0
  0
LINE
  5
1A5
330
1F
100
AcDbEntity
  8
0
  6
CONTINUOUS
 62
     7
100
AcDbLine
 10
887.0004154856384
 20
126.7598425905764
 30
0.0
 11
890.5004154856299
 21
126.7598345301407
 31
0.0
  0
LINE
  5
1A6
330
1F
100
AcDbEntity
  8
0
  6
CONTINUOUS
 62
     7
100
AcDbLine
 10
726.0884981591129
 20
226.2486514843823
 30
0.0
 11
731.5920128700102
 21
226.2486514843823
 31
0.0
  0
ARC
  5
1A7
330
1F
100
AcDbEntity
  8
0
  6
CONTINUOUS
 62
     7
100
AcDbCircle
 10
787.6686612277668
 20
127.4379402864917
 30
0.0
 40
0.9528371197468671
100
AcDbArc
 50
173.8881697273287
 51
225.3928333415421
  0
ARC
  5
1A8
330
1F
100
AcDbEntity
  8
0
  6
CONTINUOUS
 62
     7
100
AcDbCircle
 10
753.5509072966825
 20
227.7640243134774
 30
0.0
 40
1.842159190504007
100
AcDbArc
 50
147.3463831284766
 51
173.2402809302703
  0
ARC
  5
1A9
330
1F
100
AcDbEntity
  8
0
  6
CONTINUOUS
 62
     7
100
AcDbCircle
 10
743.8691915456253
 20
227.6496230116376
 30
0.0
 40
2.173193547330729
100
AcDbArc
 50
149.3348582148613
 51
171.3795514158524
  0
LINE
  5
1AA
330
1F
100
AcDbEntity
  8
0
  6
CONTINUOUS
 62
     7
100
AcDbLine
 10
857.0000403992253
 20
126.7593680423733
 30
0.0
 11
860.5000403992161
 21
126.7593599818625
 31
0.0
  0
LINE
  5
1AB
330
1F
100
AcDbEntity
  8
0
  6
CONTINUOUS
 62
     7
100
AcDbLine
 10
765.5000158127004
 20
228.7580278677949
 30
0.0
 11
762.0000158127098
 21
228.7580198073688
 31
0.0
  0
LINE
  5
1AC
330
1F
100
AcDbEntity
  8
0
  6
CONTINUOUS
 62
     7
100
AcDbLine
 10
785.4999927662041
 20
228.7582678289593
 30
0.0
 11
781.9999927662134
 21
228.7582597684953
 31
0.0
  0
LINE
  5
1AD
330
1F
100
AcDbEntity
  8
0
  6
CONTINUOUS
 62
     7
100
AcDbLine
 10
901.4999999552433
 20
170.2589618586484
 30
0.0
 11
901.4999999552433
 21
185.2589618586484
 31
0.0
  0
LINE
  5
1AE
330
1F
100
AcDbEntity
  8
0
  6
CONTINUOUS
 62
     7
100
AcDbLine
 10
866.9995821978191
 20
126.7595500574397
 30
0.0
 11
870.4995821978098
 21
126.7595419969578
 31
0.0
  0
LINE
  5
1AF
330
1F
100
AcDbEntity
  8
0
  6
CONTINUOUS
 62
     7
100
AcDbLine
 10
746.9998521342442
 20
126.7599450767775
 30
0.0
 11
750.499852134235
 21
126.759937016358
 31
0.0
  0
LINE
  5
1B0
330
1F
100
AcDbEntity
  8
0
  6
CONTINUOUS
 62
     7
100
AcDbLine
 10
791.9140388754273
 20
228.6846974805031
 30
0.0
 11
791.9992613439052
 21
228.7584316411659
 31
0.0
  0
ARC
  5
1B1
330
1F
100
AcDbEntity
  8
0
  6
CONTINUOUS
 62
     7
100
AcDbCircle
 10
758.4084519060326
 20
127.7032482276972
 30
0.0
 40
1.695211525329303
100
AcDbArc
 50
185.5578150857776
 51
213.8112823637385
  0
LINE
  5
1B2
330
1F
100
AcDbEntity
  8
0
  6
CONTINUOUS
 62
     7
100
AcDbLine
 10
725.4999828722681
 20
228.758201970166
 30
0.0
 11
724.4999999301593
 21
228.7581996672185
 31
0.0
  0
LINE
  5
1B3
330
1F
100
AcDbEntity
  8
0
  6
CONTINUOUS
 62
     7
100
AcDbLine
 10
805.500272061573
 20
228.7586140087222
 30
0.0
 11
802.0002720615823
 21
228.7586059482035
 31
0.0
  0
ARC
  5
1B4
330
1F
100
AcDbEntity
  8
0
  6
CONTINUOUS
 62
     7
100
AcDbCircle
 10
777.8846423460517
 20
127.5164595173533
 30
0.0
 40
1.163765026077659
100
AcDbArc
 50
178.8437416905913
 51
220.5588656833554
  0
LINE
  5
1B5
330
1F
100
AcDbEntity
  8
0
  6
CONTINUOUS
 62
     7
100
AcDbLine
 10
876.9998705439953
 20
126.7597117889129
 30
0.0
 11
880.4998705439862
 21
126.7597037284565
 31
0.0
  0
LINE
  5
1B6
330
1F
100
AcDbEntity
  8
0
  6
CONTINUOUS
 62
     7
100
AcDbLine
 10
901.4999999552433
 20
185.2589618586484
 30
0.0
 11
902.4999999552433
 21
185.2589618586484
 31
0.0
  0
LINE
  5
1B7
330
1F
100
AcDbEntity
  8
0
  6
CONTINUOUS
 62
     7
100
AcDbLine
 10
815.4999356912766
 20
228.758774564397
 30
0.0
 11
811.9999356912858
 21
228.758766503853
 31
0.0
  0
LINE
  5
1B8
330
1F
100
AcDbEntity
  8
0
  6
CONTINUOUS
 62
     7
100
AcDbLine
 10
825.4994202324865
 20
228.7588762274362
 30
0.0
 11
821.9994202324958
 21
228.758868166876
 31
0.0
  0
LINE
  5
1B9
330
1F
100
AcDbEntity
  8
0
  6
CONTINUOUS
 62
     7
100
AcDbLine
 10
835.4995819259518
 20
228.7588861209955
 30
0.0
 11
831.9995819259613
 21
228.7588780604339
 31
0.0
  0
LINE
  5
1BA
330
1F
100
AcDbEntity
  8
0
  6
CONTINUOUS
 62
     7
100
AcDbLine
 10
766.9999775592149
 20
126.7598613716206
 30
0.0
 11
770.4999775592055
 21
126.7598533111879
 31
0.0
  0
LINE
  5
1BB
330
1F
100
AcDbEntity
  8
0
  6
CONTINUOUS
 62
     7
100
AcDbLine
 10
775.4998552798575
 20
228.7581261343211
 30
0.0
 11
771.9998552798667
 21
228.7581180738795
 31
0.0
  0
LINE
  5
1BC
330
1F
100
AcDbEntity
  8
0
  6
CONTINUOUS
 62
     7
100
AcDbLine
 10
816.9996234268822
 20
126.7590963008484
 30
0.0
 11
820.4996234268729
 21
126.7590882402947
 31
0.0
  0
LINE
  5
1BD
330
1F
100
AcDbEntity
  8
0
  6
CONTINUOUS
 62
     7
100
AcDbLine
 10
901.4999999552433
 20
129.2589618586485
 30
0.0
 11
901.4999999552433
 21
129.8423676558047
 31
0.0
  0
LINE
  5
1BE
330
1F
100
AcDbEntity
  8
0
  6
CONTINUOUS
 62
     7
100
AcDbLine
 10
886.088508144696
 20
226.2486514843822
 30
0.0
 11
891.5920220528333
 21
226.2486514843822
 31
0.0
  0
LINE
  5
1BF
330
1F
100
AcDbEntity
  8
0
  6
CONTINUOUS
 62
     7
100
AcDbLine
 10
722.4999999552434
 20
129.2589618586485
 30
0.0
 11
722.4999999552434
 21
226.2486514843822
 31
0.0
  0
LINE
  5
1C0
330
1F
100
AcDbEntity
  8
0
  6
CONTINUOUS
 62
     7
100
AcDbLine
 10
797.0000725223783
 20
126.7594037258276
 30
0.0
 11
800.5000725223691
 21
126.7593956653225
 31
0.0
  0
LINE
  5
1C1
330
1F
100
AcDbEntity
  8
0
  6
CONTINUOUS
 62
     7
100
AcDbLine
 10
841.9224031768537
 20
228.6979331983395
 30
0.0
 11
842.000272243055
 21
228.758791382515
 31
0.0
  0
LINE
  5
1C2
330
1F
100
AcDbEntity
  8
0
  6
CONTINUOUS
 62
     7
100
AcDbLine
 10
755.4999053340598
 20
228.7579857756542
 30
0.0
 11
751.9999053340691
 21
228.7579777152348
 31
0.0
  0
LINE
  5
1C3
330
1F
100
AcDbEntity
  8
0
  6
CONTINUOUS
 62
     7
100
AcDbLine
 10
791.7210367463625
 20
227.9773401001043
 30
0.0
 11
791.9140388754273
 21
228.6846974805031
 31
0.0
  0
LINE
  5
1C4
330
1F
100
AcDbEntity
  8
0
  6
CONTINUOUS
 62
     7
100
AcDbLine
 10
777.000485448798
 20
126.7597458102935
 30
0.0
 11
780.5004854487889
 21
126.7597377498424
 31
0.0
  0
LINE
  5
1C5
330
1F
100
AcDbEntity
  8
0
  6
CONTINUOUS
 62
     7
100
AcDbLine
 10
837.0000013688383
 20
126.7590781083136
 30
0.0
 11
840.5000013688292
 21
126.759070047757
 31
0.0
  0
ARC
  5
1C6
330
1F
100
AcDbEntity
  8
0
  6
CONTINUOUS
 62
     7
100
AcDbCircle
 10
837.8285631390397
 20
127.4957211998073
 30
0.0
 40
1.108673818187006
100
AcDbArc
 50
177.6278490025804
 51
221.6390917502452
  0
ARC
  5
1C7
330
1F
100
AcDbEntity
  8
0
  6
CONTINUOUS
 62
     7
100
AcDbCircle
 10
773.0101781702215
 20
227.9575611167529
 30
0.0
 40
1.289047619220887
100
AcDbArc
 50
141.607492409318
 51
179.0396053593225
  0
LINE
  5
1C8
330
1F
100
AcDbEntity
  8
0
  6
CONTINUOUS
 62
     7
100
AcDbLine
 10
841.7211620080991
 20
227.9781876781304
 30
0.0
 11
841.9224031768537
 21
228.6979331983395
 31
0.0
  0
ARC
  5
1C9
330
1F
100
AcDbEntity
  8
0
  6
CONTINUOUS
 62
     7
100
AcDbCircle
 10
732.8189380889703
 20
228.0252499233335
 30
0.0
 40
1.098903036837156
100
AcDbArc
 50
138.1744806993297
 51
182.455385242783
  0
LINE
  5
1CA
330
1F
100
AcDbEntity
  8
0
  6
CONTINUOUS
 62
     7
100
AcDbLine
 10
896.0885379206156
 20
226.2486514843822
 30
0.0
 11
901.4999999552434
 21
226.2486514843823
 31
0.0
  0
LINE
  5
1CB
330
1F
100
AcDbEntity
  8
0
  6
CONTINUOUS
 62
     7
100
AcDbLine
 10
902.4999999552434
 20
185.2589618586484
 30
0.0
 11
902.4999999552434
 21
225.6755560614921
 31
0.0
  0
ARC
  5
1CC
330
1F
100
AcDbEntity
  8
0
  6
CONTINUOUS
 62
     7
100
AcDbCircle
 10
727.8220593541022
 20
127.4941864147617
 30
0.0
 40
1.102269969028898
100
AcDbArc
 50
177.5565072502068
 51
221.7783961676829
  0
LINE
  5
1CD
330
1F
100
AcDbEntity
  8
0
  6
CONTINUOUS
 62
     7
100
AcDbLine
 10
901.4999999552434
 20
129.8423676558047
 30
0.0
 11
902.4999999552434
 21
129.8423676558047
 31
0.0
  0
LINE
  5
1CE
330
1F
100
AcDbEntity
  8
0
  6
CONTINUOUS
 62
     7
100
AcDbLine
 10
736.0885263847879
 20
226.2486514843823
 30
0.0
 11
741.592035247075
 21
226.2486514843821
 31
0.0
  0
LINE
  5
1CF
330
1F
100
AcDbEntity
  8
0
  6
CONTINUOUS
 62
     7
100
AcDbLine
 10
847.000346412135
 20
126.7592016288581
 30
0.0
 11
850.5003464121254
 21
126.759193568321
 31
0.0
  0
LINE
  5
1D0
330
1F
100
AcDbEntity
  8
0
  6
CONTINUOUS
 62
     7
100
AcDbLine
 10
901.4999999552434
 20
225.6755560614922
 30
0.0
 11
902.4999999552434
 21
225.6755560614922
 31
0.0
  0
LINE
  5
1D1
330
1F
100
AcDbEntity
  8
0
  6
CONTINUOUS
 62
     7
100
AcDbLine
 10
902.4999999552434
 20
129.8423676558047
 30
0.0
 11
902.4999999552434
 21
170.2589618586485
 31
0.0
  0
ARC
  5
1D2
330
1F
100
AcDbEntity
  8
0
  6
CONTINUOUS
 62
     7
100
AcDbCircle
 10
763.2696212836458
 20
227.8641280389837
 30
0.0
 40
1.552720369357348
100
AcDbArc
 50
144.8517535032804
 51
175.7905913038037
  0
LINE
  5
1D3
330
1F
100
AcDbEntity
  8
0
  6
CONTINUOUS
 62
     7
100
AcDbLine
 10
722.4999999552434
 20
226.2486514843823
 30
0.0
 11
724.4999999552434
 21
226.2486514843823
 31
0.0
  0
LINE
  5
1D4
330
1F
100
AcDbEntity
  8
0
  6
CONTINUOUS
 62
     7
100
AcDbLine
 10
807.0002034369302
 20
126.7592336307783
 30
0.0
 11
810.500203436921
 21
126.7592255702463
 31
0.0
  0
LINE
  5
1D5
330
1F
100
AcDbEntity
  8
0
  6
CONTINUOUS
 62
     7
100
AcDbLine
 10
826.9993898679627
 20
126.7590377710961
 30
0.0
 11
830.4993898679537
 21
126.7590297105332
 31
0.0
  0
ARC
  5
1D6
330
1F
100
AcDbEntity
  8
0
  6
CONTINUOUS
 62
     7
100
AcDbCircle
 10
739.0142074481159
 20
127.919932889347
 30
0.0
 40
2.324389094020925
100
AcDbArc
 50
189.5677988045483
 51
209.9385287165319
  0
LINE
  5
1D7
330
1F
100
AcDbEntity
  8
0
  6
CONTINUOUS
 62
     7
100
AcDbLine
 10
786.999538869519
 20
126.7595791293671
 30
0.0
 11
790.4995388695098
 21
126.7595710688897
 31
0.0
  0
ARC
  5
1D8
330
1F
100
AcDbEntity
  8
0
  6
CONTINUOUS
 62
     7
100
AcDbCircle
 10
832.8332390805618
 20
228.021107443082
 30
0.0
 40
1.113233906857173
100
AcDbArc
 50
138.4917866500176
 51
182.2928350806029
  0
ARC
  5
1D9
330
1F
100
AcDbEntity
  8
0
  6
CONTINUOUS
 62
     7
100
AcDbCircle
 10
748.7071120174031
 20
127.8100518188385
 30
0.0
 40
2.004360358093636
100
AcDbArc
 50
187.7503544624707
 51
211.5949713541737
  0
LINE
  5
1DA
330
1F
100
AcDbEntity
  8
0
  6
CONTINUOUS
 62
     7
100
AcDbLine
 10
901.4999999552434
 20
225.6755560614922
 30
0.0
 11
901.4999999552434
 21
226.2486514843822
 31
0.0
  0
LINE
  5
1DB
330
1F
100
AcDbEntity
  8
0
  6
CONTINUOUS
 62
     7
100
AcDbLine
 10
727.0000665911546
 20
126.7597975761604
 30
0.0
 11
730.5000665911452
 21
126.7597895157175
 31
0.0
  0
LINE
  5
1DC
330
1F
100
AcDbEntity
  8
0
  6
CONTINUOUS
 62
     7
100
AcDbLine
 10
756.9999431718122
 20
126.7599321148552
 30
0.0
 11
760.4999431718029
 21
126.7599240544336
 31
0.0
  0
LINE
  5
1DD
330
1F
100
AcDbEntity
  8
0
  6
CONTINUOUS
 62
     7
100
AcDbLine
 10
766.2346711962763
 20
225.4339136924326
 30
0.0
 11
765.7788300700074
 21
227.9775583166362
 31
0.0
  0
LINE
  5
1DE
330
1F
100
AcDbEntity
  8
0
  6
CONTINUOUS
 62
     7
100
AcDbLine
 10
760.7784733129604
 20
127.538408128228
 30
0.0
 11
761.0867467406455
 21
129.2590703737026
 31
0.0
  0
LINE
  5
1DF
330
1F
100
AcDbEntity
  8
0
  6
CONTINUOUS
 62
     7
100
AcDbLine
 10
890.7785272432911
 20
127.5391069259806
 30
0.0
 11
891.0866738953738
 21
129.259070744209
 31
0.0
  0
LINE
  5
1E0
330
1F
100
AcDbEntity
  8
0
  6
CONTINUOUS
 62
     7
100
AcDbLine
 10
726.2351002958492
 20
225.4309317975161
 30
0.0
 11
725.7780314386919
 21
227.9814358688655
 31
0.0
  0
LINE
  5
1E1
330
1F
100
AcDbEntity
  8
0
  6
CONTINUOUS
 62
     7
100
AcDbLine
 10
840.7760648965011
 20
127.5258646333969
 30
0.0
 11
841.0866025785994
 21
129.2590726032762
 31
0.0
  0
LINE
  5
1E2
330
1F
100
AcDbEntity
  8
0
  6
CONTINUOUS
 62
     7
100
AcDbLine
 10
776.2337226418583
 20
225.4392464786504
 30
0.0
 11
775.7785216261909
 21
227.9792772940204
 31
0.0
  0
LINE
  5
1E3
330
1F
100
AcDbEntity
  8
0
  6
CONTINUOUS
 62
     7
100
AcDbLine
 10
786.2343260109902
 20
225.4358282958448
 30
0.0
 11
785.7788974742975
 21
227.9770816897915
 31
0.0
  0
LINE
  5
1E4
330
1F
100
AcDbEntity
  8
0
  6
CONTINUOUS
 62
     7
100
AcDbLine
 10
806.2345595510287
 20
225.4342413355152
 30
0.0
 11
805.7788257840898
 21
227.9771520969267
 31
0.0
  0
LINE
  5
1E5
330
1F
100
AcDbEntity
  8
0
  6
CONTINUOUS
 62
     7
100
AcDbLine
 10
730.7784861277573
 20
127.5389423542096
 30
0.0
 11
731.0866630261605
 21
129.2590707779166
 31
0.0
  0
LINE
  5
1E6
330
1F
100
AcDbEntity
  8
0
  6
CONTINUOUS
 62
     7
100
AcDbLine
 10
860.7785990740787
 20
127.5399158221288
 30
0.0
 11
861.0866094785889
 21
129.2590706712036
 31
0.0
  0
LINE
  5
1E7
330
1F
100
AcDbEntity
  8
0
  6
CONTINUOUS
 62
     7
100
AcDbLine
 10
845.5002722430418
 20
228.758799443063
 30
0.0
 11
842.0002722430511
 21
228.758791382515
 31
0.0
  0
LINE
  5
1E8
330
1F
100
AcDbEntity
  8
0
  6
CONTINUOUS
 62
     7
100
AcDbLine
 10
820.7788449731968
 20
127.5411248136788
 30
0.0
 11
821.0866495781155
 21
129.2590701139848
 31
0.0
  0
LINE
  5
1E9
330
1F
100
AcDbEntity
  8
0
  6
CONTINUOUS
 62
     7
100
AcDbLine
 10
816.2351263169987
 20
225.4309139325121
 30
0.0
 11
815.7789740094385
 21
227.9761542064181
 31
0.0
  0
LINE
  5
1EA
330
1F
100
AcDbEntity
  8
0
  6
CONTINUOUS
 62
     7
100
AcDbLine
 10
830.7788374743578
 20
127.5412048309059
 30
0.0
 11
831.0866261231051
 21
129.2590702155586
 31
0.0
  0
LINE
  5
1EB
330
1F
100
AcDbEntity
  8
0
  6
CONTINUOUS
 62
     7
100
AcDbLine
 10
770.7786734431803
 20
127.5394782559959
 30
0.0
 11
771.086759713772
 21
129.2590699166678
 31
0.0
  0
LINE
  5
1EC
330
1F
100
AcDbEntity
  8
0
  6
CONTINUOUS
 62
     7
100
AcDbLine
 10
810.7756774405718
 20
127.5233842207366
 30
0.0
 11
811.0866650804614
 21
129.2590725650819
 31
0.0
  0
LINE
  5
1ED
330
1F
100
AcDbEntity
  8
0
  6
CONTINUOUS
 62
     7
100
AcDbLine
 10
855.5002511252877
 20
228.7586505360472
 30
0.0
 11
852.0002511252968
 21
228.7586424755228
 31
0.0
  0
LINE
  5
1EE
330
1F
100
AcDbEntity
  8
0
  6
CONTINUOUS
 62
     7
100
AcDbLine
 10
740.7783096122704
 20
127.5377815854407
 30
0.0
 11
741.0866930376238
 21
129.2590708896645
 31
0.0
  0
LINE
  5
1EF
330
1F
100
AcDbEntity
  8
0
  6
CONTINUOUS
 62
     7
100
AcDbLine
 10
796.2337312533881
 20
225.4390199995324
 30
0.0
 11
795.7788651846245
 21
227.9771082665717
 31
0.0
  0
LINE
  5
1F0
330
1F
100
AcDbEntity
  8
0
  6
CONTINUOUS
 62
     7
100
AcDbLine
 10
826.2350577258736
 20
225.4311462211108
 30
0.0
 11
825.7788038406215
 21
227.9769620484486
 31
0.0
  0
LINE
  5
1F1
330
1F
100
AcDbEntity
  8
0
  6
CONTINUOUS
 62
     7
100
AcDbLine
 10
850.7786463159929
 20
127.540223688904
 30
0.0
 11
851.0866050627492
 21
129.259070560669
 31
0.0
  0
LINE
  5
1F2
330
1F
100
AcDbEntity
  8
0
  6
CONTINUOUS
 62
     7
100
AcDbLine
 10
836.2355028118369
 20
225.42854996611
 30
0.0
 11
835.7787731521855
 21
227.9770353015992
 31
0.0
  0
LINE
  5
1F3
330
1F
100
AcDbEntity
  8
0
  6
CONTINUOUS
 62
     7
100
AcDbLine
 10
870.7760691186371
 20
127.5257462225448
 30
0.0
 11
871.0866175573057
 21
129.2590727914423
 31
0.0
  0
LINE
  5
1F4
330
1F
100
AcDbEntity
  8
0
  6
CONTINUOUS
 62
     7
100
AcDbLine
 10
800.7789620037034
 20
127.5414431650604
 30
0.0
 11
801.0867089918341
 21
129.2590698040356
 31
0.0
  0
LINE
  5
1F5
330
1F
100
AcDbEntity
  8
0
  6
CONTINUOUS
 62
     7
100
AcDbLine
 10
746.2349240003354
 20
225.4322336652704
 30
0.0
 11
745.7784811788636
 21
227.9792692087906
 31
0.0
  0
LINE
  5
1F6
330
1F
100
AcDbEntity
  8
0
  6
CONTINUOUS
 62
     7
100
AcDbLine
 10
885.5006663635659
 20
228.7581470455557
 30
0.0
 11
882.0006663635746
 21
228.7581389851109
 31
0.0
  0
LINE
  5
1F7
330
1F
100
AcDbEntity
  8
0
  6
CONTINUOUS
 62
     7
100
AcDbLine
 10
750.7751579283957
 20
127.5201223449575
 30
0.0
 11
751.0867092315171
 21
129.2590731870628
 31
0.0
  0
LINE
  5
1F8
330
1F
100
AcDbEntity
  8
0
  6
CONTINUOUS
 62
     7
100
AcDbLine
 10
880.7784212443013
 20
127.5386833569059
 30
0.0
 11
881.0866460381211
 21
129.2590708632305
 31
0.0
  0
LINE
  5
1F9
330
1F
100
AcDbEntity
  8
0
  6
CONTINUOUS
 62
     7
100
AcDbLine
 10
736.2345328868125
 20
225.434247886796
 30
0.0
 11
735.7785141627897
 21
227.9789118432087
 31
0.0
  0
LINE
  5
1FA
330
1F
100
AcDbEntity
  8
0
  6
CONTINUOUS
 62
     7
100
AcDbLine
 10
756.2345015936236
 20
225.4347441992089
 30
0.0
 11
755.7784314099714
 21
227.9796951058276
 31
0.0
  0
LINE
  5
1FB
330
1F
100
AcDbEntity
  8
0
  6
CONTINUOUS
 62
     7
100
AcDbLine
 10
895.4998931413029
 20
228.7580427399813
 30
0.0
 11
891.9998931413123
 21
228.7580346795529
 31
0.0
  0
LINE
  5
1FC
330
1F
100
AcDbEntity
  8
0
  6
CONTINUOUS
 62
     7
100
AcDbLine
 10
790.7786847188055
 20
127.539726575823
 30
0.0
 11
791.0867368301562
 21
129.2590699342043
 31
0.0
  0
LINE
  5
1FD
330
1F
100
AcDbEntity
  8
0
  6
CONTINUOUS
 62
     7
100
AcDbLine
 10
865.4997833715123
 20
228.758472726718
 30
0.0
 11
861.9997833715221
 21
228.7584646662216
 31
0.0
  0
LINE
  5
1FE
330
1F
100
AcDbEntity
  8
0
  6
CONTINUOUS
 62
     7
100
AcDbLine
 10
875.4996434795238
 20
228.7582971400108
 30
0.0
 11
871.9996434795331
 21
228.7582890795422
 31
0.0
  0
LINE
  5
1FF
330
1F
100
AcDbEntity
  8
0
  6
CONTINUOUS
 62
     7
100
AcDbLine
 10
780.7751831828135
 20
127.5201749334728
 30
0.0
 11
781.0867389064067
 21
129.259072555599
 31
0.0
  0
LINE
  5
200
330
1F
100
AcDbEntity
  8
0
  6
CONTINUOUS
 62
     7
100
AcDbLine
 10
851.5591210216772
 20
226.2589618586484
 30
0.0
 11
846.0866065487576
 21
226.2589618586484
 31
0.0
  0
LINE
  5
201
330
1F
100
AcDbEntity
  8
0
  6
CONTINUOUS
 62
     7
100
AcDbLine
 10
1004.160914073056
 20
226.2387276752307
 30
0.0
 11
1001.177444323045
 21
226.2331326171503
 31
0.0
  0
ARC
  5
202
330
1F
100
AcDbEntity
  8
0
  6
CONTINUOUS
 62
     7
100
AcDbCircle
 10
542.5000028703695
 20
186.2319396351023
 30
0.0
 40
48.97866377433768
100
AcDbArc
 50
333.6530078227247
 51
350.0337162574439
  0
LINE
  5
203
330
1F
100
AcDbEntity
  8
0
  6
CENTER
 62
     1
100
AcDbLine
 10
632.5
 20
177.5
 30
0.0
 11
912.5
 21
177.5
 31
0.0
  0
LINE
  5
205
330
1F
100
AcDbEntity
  8
0
  6
CONTINUOUS
 62
     7
100
AcDbLine
 10
995.2600906118934
 20
133.5003491949823
 30
0.0
 11
995.2600906118934
 21
129.8423676558047
 31
0.0
  0
LINE
  5
206
330
1F
100
AcDbEntity
  8
0
  6
CONTINUOUS
 62
     7
100
AcDbLine
 10
1010.260090611893
 20
133.5003491949827
 30
0.0
 11
1010.260090611893
 21
129.8423676558047
 31
0.0
  0
LINE
  5
207
330
1F
100
AcDbEntity
  8
0
  6
CONTINUOUS
 62
     7
100
AcDbLine
 10
995.2600906118934
 20
222.0175745223146
 30
0.0
 11
995.2600906118934
 21
225.6755560614922
 31
0.0
  0
ARC
  5
208
330
1F
100
AcDbEntity
  8
0
  6
CONTINUOUS
 62
     7
100
AcDbCircle
 10
1011.197063855057
 20
174.8895882675984
 30
0.0
 40
48.86291052686628
100
AcDbArc
 50
243.645673167233
 51
260.0616392366402
  0
CIRCLE
  5
209
330
1F
100
AcDbEntity
  8
0
  6
CONTINUOUS
 62
     7
100
AcDbCircle
 10
539.7399093881066
 20
177.7589618586484
 30
0.0
 40
44.89999999999999
  0
CIRCLE
  5
20A
330
1F
100
AcDbEntity
  8
0
  6
CONTINUOUS
 62
     7
100
AcDbCircle
 10
1002.760090611893
 20
177.7589618586484
 30
0.0
 40
44.1
  0
LINE
  5
20B
330
1F
100
AcDbEntity
  8
0
  6
CONTINUOUS
 62
     7
100
AcDbLine
 10
538.7399093881066
 20
225.9589618586485
 30
0.0
 11
538.7399093881066
 21
226.2486514843823
 31
0.0
  0
LINE
  5
20C
330
1F
100
AcDbEntity
  8
0
  6
CENTER
 62
     1
100
AcDbLine
 10
539.7399093881066
 20
123.7588473374905
 30
0.0
 11
539.7399093881066
 21
231.759479752964
 31
0.0
  0
LINE
  5
20D
330
1F
100
AcDbEntity
  8
0
  6
CONTINUOUS
 62
     7
100
AcDbLine
 10
1003.760090611893
 20
225.9589618586485
 30
0.0
 11
1003.760090611893
 21
226.2486514843823
 31
0.0
  0
LINE
  5
20E
330
1F
100
AcDbEntity
  8
0
  6
CONTINUOUS
 62
     7
100
AcDbLine
 10
831.559130259588
 20
226.2589618586484
 30
0.0
 11
826.0866250731408
 21
226.2589618586484
 31
0.0
  0
ARC
  5
20F
330
1F
100
AcDbEntity
  8
0
  6
CONTINUOUS
 62
     7
100
AcDbCircle
 10
1009.976739107729
 20
172.5313257379793
 30
0.0
 40
48.97264707036826
100
AcDbArc
 50
45.96526203925984
 51
62.34672810580251
  0
LINE
  5
210
330
1F
100
AcDbEntity
  8
0
  6
CONTINUOUS
 62
     7
100
AcDbLine
 10
958.5014779482271
 20
170.2589618586484
 30
0.0
 11
954.8434964090495
 21
170.2589618586484
 31
0.0
  0
LINE
  5
211
330
1F
100
AcDbEntity
  8
0
  6
CONTINUOUS
 62
     7
100
AcDbLine
 10
1010.260090611893
 20
222.0175745223146
 30
0.0
 11
1010.260090611893
 21
225.6755560614922
 31
0.0
  0
LINE
  5
212
330
1F
100
AcDbEntity
  8
0
  6
CONTINUOUS
 62
     7
100
AcDbLine
 10
540.7399093881066
 20
225.9589618586485
 30
0.0
 11
540.7399093881066
 21
226.2486514843823
 31
0.0
  0
LINE
  5
213
330
1F
100
AcDbEntity
  8
0
  6
CONTINUOUS
 62
     7
100
AcDbLine
 10
861.5591622685533
 20
226.2589618586484
 30
0.0
 11
856.0866100779822
 21
226.2589618586484
 31
0.0
  0
CIRCLE
  5
214
330
1F
100
AcDbEntity
  8
0
  6
CONTINUOUS
 62
     4
100
AcDbCircle
 10
539.7399093881066
 20
177.7589618586484
 30
0.0
 40
38.5
  0
LINE
  5
215
330
1F
100
AcDbEntity
  8
0
  6
CONTINUOUS
 62
     7
100
AcDbLine
 10
640.4999999552434
 20
133.0
 30
0.0
 11
722.4999999552434
 21
133.0
 31
0.0
  0
LINE
  5
216
330
1F
100
AcDbEntity
  8
0
  6
CENTER
 62
     1
100
AcDbLine
 10
485.7404595439119
 20
177.7589618586484
 30
0.0
 11
593.7406142588349
 21
177.7589618586484
 31
0.0
  0
LINE
  5
217
330
1F
100
AcDbEntity
  8
0
  6
CONTINUOUS
 62
     7
100
AcDbLine
 10
1050.676684814737
 20
170.2589618586485
 30
0.0
 11
1047.018703275559
 21
170.2589618586485
 31
0.0
  0
LINE
  5
218
330
1F
100
AcDbEntity
  8
0
  6
CONTINUOUS
 62
     7
100
AcDbLine
 10
640.4999999552434
 20
133.0
 30
0.0
 11
640.4999999552434
 21
222.0
 31
0.0
  0
LINE
  5
219
330
1F
100
AcDbEntity
  8
0
  6
CONTINUOUS
 62
     7
100
AcDbLine
 10
722.4999999552434
 20
129.2589618586484
 30
0.0
 11
726.4130148765165
 21
129.2589618586484
 31
0.0
  0
LINE
  5
21A
330
1F
100
AcDbEntity
  8
0
  6
CENTER
 62
     1
100
AcDbLine
 10
948.7602464632989
 20
177.7589618586484
 30
0.0
 11
1056.759363378264
 21
177.7589618586484
 31
0.0
  0
LINE
  5
21B
330
1F
100
AcDbEntity
  8
0
  6
CONTINUOUS
 62
     7
100
AcDbLine
 10
958.5014779482271
 20
185.2589618586485
 30
0.0
 11
954.8434964090495
 21
185.2589618586484
 31
0.0
  0
LINE
  5
21C
330
1F
100
AcDbEntity
  8
0
  6
CONTINUOUS
 62
     7
100
AcDbLine
 10
724.4999999552434
 20
164.4948995282844
 30
0.0
 11
724.4999999552434
 21
228.7581996699753
 31
0.0
  0
CIRCLE
  5
21D
330
1F
100
AcDbEntity
  8
0
  6
CONTINUOUS
 62
     7
100
AcDbCircle
 10
1002.760090611893
 20
177.7589618586484
 30
0.0
 40
48.50000000000002
  0
LINE
  5
21E
330
1F
100
AcDbEntity
  8
0
  6
CONTINUOUS
 62
     7
100
AcDbLine
 10
841.559117123706
 20
226.2589618586484
 30
0.0
 11
836.0866173296527
 21
226.2589618586484
 31
0.0
  0
LINE
  5
21F
330
1F
100
AcDbEntity
  8
0
  6
CONTINUOUS
 62
     7
100
AcDbLine
 10
1044.391076636087
 20
207.2174147699033
 30
0.0
 11
1043.980637944811
 21
207.7888339749395
 31
0.0
  0
LINE
  5
220
330
1F
100
AcDbEntity
  8
0
  6
CONTINUOUS
 62
     7
100
AcDbLine
 10
540.7399093881066
 20
225.9589618586485
 30
0.0
 11
538.7399093881066
 21
225.9589618586485
 31
0.0
  0
LINE
  5
221
330
1F
100
AcDbEntity
  8
0
  6
CONTINUOUS
 62
     7
100
AcDbLine
 10
640.4999999552434
 20
222.0
 30
0.0
 11
722.4999999552434
 21
222.0
 31
0.0
  0
CIRCLE
  5
222
330
1F
100
AcDbEntity
  8
0
  6
CONTINUOUS
 62
     7
100
AcDbCircle
 10
1002.760090611893
 20
177.7589618586484
 30
0.0
 40
44.88947368421053
  0
CIRCLE
  5
223
330
1F
100
AcDbEntity
  8
0
  6
CONTINUOUS
 62
     7
100
AcDbCircle
 10
1002.760090611893
 20
177.7589618586484
 30
0.0
 40
38.59999999999999
  0
LINE
  5
224
330
1F
100
AcDbEntity
  8
0
  6
CONTINUOUS
 62
     7
100
AcDbLine
 10
811.5591137320139
 20
226.2589618586484
 30
0.0
 11
806.0866938271907
 21
226.2589618586484
 31
0.0
  0
ARC
  5
225
330
1F
100
AcDbEntity
  8
0
  6
CONTINUOUS
 62
     7
100
AcDbCircle
 10
539.7399093881066
 20
177.7589618586484
 30
0.0
 40
48.49999999999999
100
AcDbArc
 50
91.18143999862852
 51
88.81856000137145
  0
LINE
  5
226
330
1F
100
AcDbEntity
  8
0
  6
CONTINUOUS
 62
     7
100
AcDbLine
 10
871.5591791955738
 20
226.2589618586484
 30
0.0
 11
866.0866154680587
 21
226.2589618586484
 31
0.0
  0
LINE
  5
227
330
1F
100
AcDbEntity
  8
0
  6
CONTINUOUS
 62
     7
100
AcDbLine
 10
590.7321939195881
 20
178.635226062751
 30
0.0
 11
590.7389604667483
 21
177.5176807108217
 31
0.0
  0
LINE
  5
228
330
1F
100
AcDbEntity
  8
0
  6
CONTINUOUS
 62
     7
100
AcDbLine
 10
1001.760090611893
 20
225.9589618586485
 30
0.0
 11
1001.760090611893
 21
226.2486514843823
 31
0.0
  0
ARC
  5
229
330
1F
100
AcDbEntity
  8
0
  6
CONTINUOUS
 62
     7
100
AcDbCircle
 10
544.8977654571028
 20
185.0260300588932
 30
0.0
 40
48.88572815345013
100
AcDbArc
 50
135.9423974127371
 51
152.3502872950512
  0
LINE
  5
22A
330
1F
100
AcDbEntity
  8
0
  6
CONTINUOUS
 62
     7
100
AcDbLine
 10
821.559095150999
 20
226.2589618586484
 30
0.0
 11
816.0866634349544
 21
226.2589618586484
 31
0.0
  0
LINE
  5
22B
330
1F
100
AcDbEntity
  8
0
  6
CONTINUOUS
 62
     7
100
AcDbLine
 10
1001.760090611893
 20
225.9589618586485
 30
0.0
 11
1003.760090611893
 21
225.9589618586485
 31
0.0
  0
CIRCLE
  5
22C
330
1F
100
AcDbEntity
  8
0
  6
CONTINUOUS
 62
     7
100
AcDbCircle
 10
539.7400785507606
 20
177.7585105591067
 30
0.0
 40
50.99948877056672
  0
LINE
  5
22D
330
1F
100
AcDbEntity
  8
0
  6
CONTINUOUS
 62
     7
100
AcDbLine
 10
881.559186082081
 20
226.2589618586484
 30
0.0
 11
876.0866337455374
 21
226.2589618586484
 31
0.0
  0
ARC
  5
22E
330
1F
100
AcDbEntity
  8
0
  6
CONTINUOUS
 62
     7
100
AcDbCircle
 10
539.7408440826562
 20
177.7597095767854
 30
0.0
 40
50.99977017617864
100
AcDbArc
 50
143.9971594726902
 51
126.0070339451087
  0
CIRCLE
  5
22F
330
1F
100
AcDbEntity
  8
0
  6
CONTINUOUS
 62
     4
100
AcDbCircle
 10
539.7399093881066
 20
177.7589618586484
 30
0.0
 40
44.5
  0
LINE
  5
230
330
1F
100
AcDbEntity
  8
0
  6
CONTINUOUS
 62
     7
100
AcDbLine
 10
1050.676684814737
 20
185.2589618586484
 30
0.0
 11
1047.01870327556
 21
185.2589618586484
 31
0.0
  0
LINE
  5
231
330
1F
100
AcDbEntity
  8
0
  6
CONTINUOUS
 62
     7
100
AcDbLine
 10
730.9405748784093
 20
129.2589618586484
 30
0.0
 11
736.4130187570308
 21
129.2589618586484
 31
0.0
  0
LINE
  5
232
330
1F
100
AcDbEntity
  8
0
  6
CENTER
 62
     1
100
AcDbLine
 10
1002.760090611893
 20
123.7599146397841
 30
0.0
 11
1002.760090611893
 21
231.7587422051175
 31
0.0
  0
CIRCLE
  5
233
330
1F
100
AcDbEntity
  8
0
  6
CONTINUOUS
 62
     7
100
AcDbCircle
 10
1002.760028738976
 20
177.7592493082435
 30
0.0
 40
50.99933463928771
  0
ENDSEC
  0
SECTION
  2
OBJECTS
  0
DICTIONARY
  5
C
330
0
100
AcDbDictionary
  3
ACAD_GROUP
350
D
  3
ACAD_LAYOUT
350
1A
  3
ACAD_MATERIAL
350
43
  3
ACAD_MLEADERSTYLE
350
6B
  3
ACAD_MLINESTYLE
350
17
  3
ACAD_PLOTSETTINGS
350
19
  3
ACAD_SCALELIST
350
47
  3
ACAD_VISUALSTYLE
350
2A
  3
ACDBHEADERROUNDTRIPXREC
350
234
  3
ACDBVARIABLEDICTIONARY
350
255
  0
DICTIONARY
  5
25C
330
8
100
AcDbDictionary
280
     1
  3
ACAD_XREC_ROUNDTRIP
360
25D
  0
DICTIONARY
  5
D
102
{ACAD_REACTORS
330
C
102
}
330
C
100
AcDbDictionary
  0
DICTIONARY
  5
1A
102
{ACAD_REACTORS
330
C
102
}
330
C
100
AcDbDictionary
  0
DICTIONARY
  5
43
102
{ACAD_REACTORS
330
C
102
}
330
C
100
AcDbDictionary
  3
BYBLOCK
350
45
  3
BYLAYER
350
44
  3
GLOBAL
350
46
  0
DICTIONARY
  5
6B
102
{ACAD_REACTORS
330
C
102
}
330
C
100
AcDbDictionary
  3
STANDARD
350
6C
  0
DICTIONARY
  5
17
102
{ACAD_REACTORS
330
C
102
}
330
C
100
AcDbDictionary
  3
STANDARD
350
18
  0
DICTIONARY
  5
19
102
{ACAD_REACTORS
330
C
102
}
330
C
100
AcDbDictionary
  0
DICTIONARY
  5
47
102
{ACAD_REACTORS
330
C
102
}
330
C
100
AcDbDictionary
  3
A0
350
48
  3
A1
350
49
  3
A2
350
4A
  3
A3
350
4B
  3
A4
350
4C
  3
A5
350
4D
  3
A6
350
4E
  3
A7
350
4F
  3
A8
350
50
  3
A9
350
51
  3
B0
350
52
  3
B1
350
53
  3
B2
350
54
  3
B3
350
55
  3
B4
350
56
  3
B5
350
57
  3
B6
350
58
  3
B7
350
59
  3
B8
350
5A
  3
B9
350
5B
  3
C0
350
5C
  3
C1
350
5D
  3
C2
350
5E
  3
C3
350
5F
  3
C4
350
60
  3
C5
350
61
  3
C6
350
62
  3
C7
350
63
  3
C8
350
64
  3
C9
350
65
  3
D0
350
66
  3
D1
350
67
  3
D2
350
68
  0
DICTIONARY
  5
2A
102
{ACAD_REACTORS
330
C
102
}
330
C
100
AcDbDictionary
  3
2DWIREFRAME
350
2F
  3
BASIC
350
32
  3
BRIGHTEN
350
36
  3
COLORCHANGE
350
3A
  3
CONCEPTUAL
350
34
  3
DIM
350
35
  3
EDGECOLOROFF
350
3D
  3
FACEPATTERN
350
39
  3
FLAT
350
2B
  3
FLATWITHEDGES
350
2C
  3
GOURAUD
350
2D
  3
GOURAUDWITHEDGES
350
2E
  3
HIDDEN
350
31
  3
JITTEROFF
350
3B
  3
LINEPATTERN
350
38
  3
OVERHANGOFF
350
3C
  3
REALISTIC
350
33
  3
SHADED
350
42
  3
SHADED_WITH_EDGES
350
41
  3
SHADES_OF_GRAY
350
3E
  3
SKETCHY
350
3F
  3
THICKEN
350
37
  3
WIREFRAME
350
30
  3
X-RAY
350
40
  0
DICTIONARY
  5
234
102
{ACAD_REACTORS
330
C
102
}
330
C
100
AcDbDictionary
  3
CEPSNID
350
23E
  3
CEPSNTYPE
350
23D
  3
DIMSTYLEDATA
350
254
  3
FINGERPRINTGUID
350
23F
  3
HYPERLINKBASE
350
237
  3
INSUNITS
350
23C
  3
LAYOUTDICT
350
239
  3
LWETCUNION
350
23B
  3
PLOTSETDICT
350
23A
  3
PSVPSCALE
350
241
  3
PUCSBASE
350
244
  3
PUCSORGBACK
350
24A
  3
PUCSORGBOTTOM
350
246
  3
PUCSORGFRONT
350
249
  3
PUCSORGLEFT
350
247
  3
PUCSORGRIGHT
350
248
  3
PUCSORGTOP
350
245
  3
PUCSORTHOREF
350
242
  3
PUCSORTHOVIEW
350
243
  3
STYLESHEET
350
238
  3
TSTACKALIGN
350
235
  3
TSTACKSIZE
350
236
  3
UCSBASE
350
24D
  3
UCSORGBACK
350
253
  3
UCSORGBOTTOM
350
24F
  3
UCSORGFRONT
350
252
  3
UCSORGLEFT
350
250
  3
UCSORGRIGHT
350
251
  3
UCSORGTOP
350
24E
  3
UCSORTHOREF
350
24B
  3
UCSORTHOVIEW
350
24C
  3
VERSIONGUID
350
240
  0
DICTIONARY
  5
255
102
{ACAD_REACTORS
330
C
102
}
330
C
100
AcDbDictionary
  3
CANNOSCALE
350
25E
  3
CMLEADERSTYLE
350
257
  3
CTABLESTYLE
350
256
  3
DIMASSOC
350
25A
  3
HIDETEXT
350
25B
  3
MSLTSCALE
350
25F
  0
XRECORD
  5
25D
102
{ACAD_REACTORS
330
25C
102
}
330
25C
100
AcDbXrecord
102
VTR_0.000_0.000_1.000_1.000_VISUALSTYLE
340
2F
102
VTR_0.000_0.000_1.000_1.000_GRIDDISPLAY
 70
     3
102
VTR_0.000_0.000_1.000_1.000_GRIDMAJOR
 70
     5
102
VTR_0.000_0.000_1.000_1.000_DEFAULTLIGHTING
280
     1
102
VTR_0.000_0.000_1.000_1.000_DEFAULTLIGHTINGTYPE
 70
     1
102
VTR_0.000_0.000_1.000_1.000_BRIGHTNESS
141
0.0
102
VTR_0.000_0.000_1.000_1.000_CONTRAST
142
0.0
  0
MATERIAL
  5
45
102
{ACAD_REACTORS
330
43
102
}
102
{ACAD_XDICTIONARY
360
262
102
}
330
43
100
AcDbMaterial
  1
BYBLOCK
  0
MATERIAL
  5
44
102
{ACAD_REACTORS
330
43
102
}
102
{ACAD_XDICTIONARY
360
260
102
}
330
43
100
AcDbMaterial
  1
BYLAYER
  0
MATERIAL
  5
46
102
{ACAD_REACTORS
330
43
102
}
102
{ACAD_XDICTIONARY
360
264
102
}
330
43
100
AcDbMaterial
  1
GLOBAL
  0
ACAD_PROXY_OBJECT
  5
6C
102
{ACAD_REACTORS
330
6B
102
}
330
6B
100
AcDbProxyObject
 90
      499
 91
      505
 93
      610
310
40901902A4063FBFFFFFE056BD1B81E855B9FC0AD7A3703D0AD73F4214DD185B99185C9900AD7A3703D0AC73F90141901A02B5E8DC0F42B1CFC02B5E8DC0F42B1CFE5764000000000000300FC0
340
14
340
0
340
11
340
0
 94
        0
1001
ACAD_MLEADERVER
1070
     2
  0
MLINESTYLE
  5
18
102
{ACAD_REACTORS
330
17
102
}
330
17
100
AcDbMlineStyle
  2
Standard
 70
     0
  3

 62
   256
 51
90.0
 52
90.0
 71
     2
 49
0.5
 62
   256
  6
BYLAYER
 49
-0.5
 62
   256
  6
BYLAYER
  0
ACAD_PROXY_OBJECT
  5
48
102
{ACAD_REACTORS
330
47
102
}
330
47
100
AcDbProxyObject
 90
      499
 91
      503
 93
       41
310
903313A31580
  0
ACAD_PROXY_OBJECT
  5
49
102
{ACAD_REACTORS
330
47
102
}
330
47
100
AcDbProxyObject
 90
      499
 91
      503
 93
      105
310
903313A324000000000000004000
  0
ACAD_PROXY_OBJECT
  5
4A
102
{ACAD_REACTORS
330
47
102
}
330
47
100
AcDbProxyObject
 90
      499
 91
      503
 93
      105
310
903313A344000000000000104000
  0
ACAD_PROXY_OBJECT
  5
4B
102
{ACAD_REACTORS
330
47
102
}
330
47
100
AcDbProxyObject
 90
      499
 91
      503
 93
      105
310
903313A354000000000000144000
  0
ACAD_PROXY_OBJECT
  5
4C
102
{ACAD_REACTORS
330
47
102
}
330
47
100
AcDbProxyObject
 90
      499
 91
      503
 93
      105
310
903313A384000000000000204000
  0
ACAD_PROXY_OBJECT
  5
4D
102
{ACAD_REACTORS
330
47
102
}
330
47
100
AcDbProxyObject
 90
      499
 91
      503
 93
      113
310
904313A31304000000000000244000
  0
ACAD_PROXY_OBJECT
  5
4E
102
{ACAD_REACTORS
330
47
102
}
330
47
100
AcDbProxyObject
 90
      499
 91
      503
 93
      113
310
904313A31364000000000000304000
  0
ACAD_PROXY_OBJECT
  5
4F
102
{ACAD_REACTORS
330
47
102
}
330
47
100
AcDbProxyObject
 90
      499
 91
      503
 93
      113
310
904313A32304000000000000344000
  0
ACAD_PROXY_OBJECT
  5
50
102
{ACAD_REACTORS
330
47
102
}
330
47
100
AcDbProxyObject
 90
      499
 91
      503
 93
      113
310
904313A333040000000000003E4000
  0
ACAD_PROXY_OBJECT
  5
51
102
{ACAD_REACTORS
330
47
102
}
330
47
100
AcDbProxyObject
 90
      499
 91
      503
 93
      113
310
904313A34304000000000000444000
  0
ACAD_PROXY_OBJECT
  5
52
102
{ACAD_REACTORS
330
47
102
}
330
47
100
AcDbProxyObject
 90
      499
 91
      503
 93
      113
310
904313A35304000000000000494000
  0
ACAD_PROXY_OBJECT
  5
53
102
{ACAD_REACTORS
330
47
102
}
330
47
100
AcDbProxyObject
 90
      499
 91
      503
 93
      121
310
905313A3130304000000000000594000
  0
ACAD_PROXY_OBJECT
  5
54
102
{ACAD_REACTORS
330
47
102
}
330
47
100
AcDbProxyObject
 90
      499
 91
      503
 93
      105
310
903323A310000000000000010100
  0
ACAD_PROXY_OBJECT
  5
55
102
{ACAD_REACTORS
330
47
102
}
330
47
100
AcDbProxyObject
 90
      499
 91
      503
 93
      105
310
903343A310000000000000410100
  0
ACAD_PROXY_OBJECT
  5
56
102
{ACAD_REACTORS
330
47
102
}
330
47
100
AcDbProxyObject
 90
      499
 91
      503
 93
      105
310
903383A310000000000000810100
  0
ACAD_PROXY_OBJECT
  5
57
102
{ACAD_REACTORS
330
47
102
}
330
47
100
AcDbProxyObject
 90
      499
 91
      503
 93
      113
310
90431303A310000000000000910100
  0
ACAD_PROXY_OBJECT
  5
58
102
{ACAD_REACTORS
330
47
102
}
330
47
100
AcDbProxyObject
 90
      499
 91
      503
 93
      121
310
9053130303A310000000000001650100
  0
ACAD_PROXY_OBJECT
  5
59
102
{ACAD_REACTORS
330
47
102
}
330
47
100
AcDbProxyObject
 90
      499
 91
      503
 93
      257
310
90E312F31323822203D2031272D3022000000000000200FC000000000000284000
  0
ACAD_PROXY_OBJECT
  5
5A
102
{ACAD_REACTORS
330
47
102
}
330
47
100
AcDbProxyObject
 90
      499
 91
      503
 93
      249
310
90D312F363422203D2031272D3022000000000000240FC000000000000284000
  0
ACAD_PROXY_OBJECT
  5
5B
102
{ACAD_REACTORS
330
47
102
}
330
47
100
AcDbProxyObject
 90
      499
 91
      503
 93
      249
310
90D312F333222203D2031272D3022000000000000280FC000000000000284000
  0
ACAD_PROXY_OBJECT
  5
5C
102
{ACAD_REACTORS
330
47
102
}
330
47
100
AcDbProxyObject
 90
      499
 91
      503
 93
      249
310
90D312F313622203D2031272D30220000000000002C0FC000000000000284000
  0
ACAD_PROXY_OBJECT
  5
5D
102
{ACAD_REACTORS
330
47
102
}
330
47
100
AcDbProxyObject
 90
      499
 91
      503
 93
      249
310
90D332F333222203D2031272D30220000000000002E0FC000000000000284000
  0
ACAD_PROXY_OBJECT
  5
5E
102
{ACAD_REACTORS
330
47
102
}
330
47
100
AcDbProxyObject
 90
      499
 91
      503
 93
      241
310
90C312F3822203D2031272D3022000000000000300FC000000000000284000
  0
ACAD_PROXY_OBJECT
  5
5F
102
{ACAD_REACTORS
330
47
102
}
330
47
100
AcDbProxyObject
 90
      499
 91
      503
 93
      249
310
90D332F313622203D2031272D3022000000000000320FC000000000000284000
  0
ACAD_PROXY_OBJECT
  5
60
102
{ACAD_REACTORS
330
47
102
}
330
47
100
AcDbProxyObject
 90
      499
 91
      503
 93
      241
310
90C312F3422203D2031272D3022000000000000340FC000000000000284000
  0
ACAD_PROXY_OBJECT
  5
61
102
{ACAD_REACTORS
330
47
102
}
330
47
100
AcDbProxyObject
 90
      499
 91
      503
 93
      241
310
90C332F3822203D2031272D3022000000000000360FC000000000000284000
  0
ACAD_PROXY_OBJECT
  5
62
102
{ACAD_REACTORS
330
47
102
}
330
47
100
AcDbProxyObject
 90
      499
 91
      503
 93
      241
310
90C312F3222203D2031272D3022000000000000380FC000000000000284000
  0
ACAD_PROXY_OBJECT
  5
63
102
{ACAD_REACTORS
330
47
102
}
330
47
100
AcDbProxyObject
 90
      499
 91
      503
 93
      241
310
90C332F3422203D2031272D30220000000000003A0FC000000000000284000
  0
ACAD_PROXY_OBJECT
  5
64
102
{ACAD_REACTORS
330
47
102
}
330
47
100
AcDbProxyObject
 90
      499
 91
      503
 93
      161
310
90A3122203D2031272D30224000000000000284000
  0
ACAD_PROXY_OBJECT
  5
65
102
{ACAD_REACTORS
330
47
102
}
330
47
100
AcDbProxyObject
 90
      499
 91
      503
 93
      257
310
90E312D312F3222203D2031272D30220000000000003E0FC000000000000284000
  0
ACAD_PROXY_OBJECT
  5
66
102
{ACAD_REACTORS
330
47
102
}
330
47
100
AcDbProxyObject
 90
      499
 91
      503
 93
      225
310
90A3322203D2031272D302200000000000002100000000000000284000
  0
ACAD_PROXY_OBJECT
  5
67
102
{ACAD_REACTORS
330
47
102
}
330
47
100
AcDbProxyObject
 90
      499
 91
      503
 93
      225
310
90A3622203D2031272D302200000000000006100000000000000284000
  0
ACAD_PROXY_OBJECT
  5
68
102
{ACAD_REACTORS
330
47
102
}
330
47
100
AcDbProxyObject
 90
      499
 91
      503
 93
      249
310
90D31272D3022203D2031272D30220000000000000A100000000000000284000
  0
ACAD_PROXY_OBJECT
  5
2F
102
{ACAD_REACTORS
330
2A
102
}
330
2A
100
AcDbProxyObject
 90
      499
 91
      501
 93
      436
310
42CC9915DA5C99599C985B595049028333333333333E33F0000000000000F90107901411070040501600405405064090741402480A0340
1001
ACAD
1000
AcDbSavedByObjectVersion
1070
     0
  0
ACAD_PROXY_OBJECT
  5
32
102
{ACAD_REACTORS
330
2A
102
}
330
2A
100
AcDbProxyObject
 90
      499
 91
      501
 93
      388
310
4150985CDA58D07406404333333333333E33F0000000000000F90107A41107004050150841D405064090741402480A0350
1001
ACAD
1000
AcDbSavedByObjectVersion
1070
     0
  0
ACAD_PROXY_OBJECT
  5
36
102
{ACAD_REACTORS
330
2A
102
}
330
2A
100
AcDbProxyObject
 90
      499
 91
      501
 93
      428
310
42109C9A59DA1D195B90C409028333333333333E33F0000000000000F9010790141107004050150841D405064090741402480A029950
1001
ACAD
1000
AcDbSavedByObjectVersion
1070
     0
  0
ACAD_PROXY_OBJECT
  5
3A
102
{ACAD_REACTORS
330
2A
102
}
330
2A
100
AcDbProxyObject
 90
      499
 91
      501
 93
      452
310
42D0DBDB1BDC90DA185B99D95104090240C333333333333E33F0000000000000F90108901411070040501508421405064090741402480A0350
1001
ACAD
1000
AcDbSavedByObjectVersion
1070
     0
  0
ACAD_PROXY_OBJECT
  5
34
102
{ACAD_REACTORS
330
2A
102
}
330
2A
100
AcDbProxyObject
 90
      499
 91
      501
 93
      500
310
4290DBDB98D95C1D1D585B10940D028333333333333E33F0000000000000F90107902409070040501000000000018199010841D405064090740C02480A0340
1001
ACAD
1000
AcDbSavedByObjectVersion
1070
     0
  0
ACAD_PROXY_OBJECT
  5
35
102
{ACAD_REACTORS
330
2A
102
}
330
2A
100
AcDbProxyObject
 90
      499
 91
      501
 93
      412
310
40D11A5B50B409028333333333333E33F0000000000000F9010790141107004050150841D405064090741402480A02677FFFFFD0
1001
ACAD
1000
AcDbSavedByObjectVersion
1070
     0
  0
ACAD_PROXY_OBJECT
  5
3D
102
{ACAD_REACTORS
330
2A
102
}
330
2A
100
AcDbProxyObject
 90
      499
 91
      501
 93
      452
310
43115919D950DBDB1BDC93D999916409028333333333333E33F0000000000000F9010790141107004050150841D405064090741402480A0350
1001
ACAD
1000
AcDbSavedByObjectVersion
1070
     0
  0
ACAD_PROXY_OBJECT
  5
39
102
{ACAD_REACTORS
330
2A
102
}
330
2A
100
AcDbProxyObject
 90
      499
 91
      501
 93
      444
310
42D19858D95C185D1D195C9B90F409028333333333333E33F0000000000000F9010790141107004050150841D405064090741402480A0350
1001
ACAD
1000
AcDbSavedByObjectVersion
1070
     0
  0
ACAD_PROXY_OBJECT
  5
2B
102
{ACAD_REACTORS
330
2A
102
}
330
2A
100
AcDbProxyObject
 90
      499
 91
      501
 93
      380
310
41119B185D240901404333333333333E33F0000000000000F9010740A907004050150841D405064090741402480A1B50
1001
ACAD
1000
AcDbSavedByObjectVersion
1070
     0
  0
ACAD_PROXY_OBJECT
  5
2C
102
{ACAD_REACTORS
330
2A
102
}
330
2A
100
AcDbProxyObject
 90
      499
 91
      501
 93
      468
310
43519B185D15DA5D1A115919D95CD0140901404333333333333E33F0000000000000F90107409019070040501600405405064090741402480A1B50
1001
ACAD
1000
AcDbSavedByObjectVersion
1070
     0
  0
ACAD_PROXY_OBJECT
  5
2D
102
{ACAD_REACTORS
330
2A
102
}
330
2A
100
AcDbProxyObject
 90
      499
 91
      501
 93
      404
310
41D1DBDD5C985D5910240902404333333333333E33F0000000000000F9010740A9070040501641D405064090741402480A1B50
1001
ACAD
1000
AcDbSavedByObjectVersion
1070
     0
  0
ACAD_PROXY_OBJECT
  5
2E
102
{ACAD_REACTORS
330
2A
102
}
330
2A
100
AcDbProxyObject
 90
      499
 91
      501
 93
      492
310
4411DBDD5C985D5915DA5D1A115919D95CD0340902404333333333333E33F0000000000000F90107409019070040501600405405064090741402480A1B50
1001
ACAD
1000
AcDbSavedByObjectVersion
1070
     0
  0
ACAD_PROXY_OBJECT
  5
31
102
{ACAD_REACTORS
330
2A
102
}
330
2A
100
AcDbProxyObject
 90
      499
 91
      501
 93
      476
310
41921A5919195B90640502408333333333333E33F0000000000000F901079024090700405020000000000001110200405405064090740C02480A0340
1001
ACAD
1000
AcDbSavedByObjectVersion
1070
     0
  0
ACAD_PROXY_OBJECT
  5
3B
102
{ACAD_REACTORS
330
2A
102
}
330
2A
100
AcDbProxyObject
 90
      499
 91
      501
 93
      428
310
42529A5D1D195C93D999914409028333333333333E33F0000000000000F9010790141107004050150A41D405064090741402480A0350
1001
ACAD
1000
AcDbSavedByObjectVersion
1070
     0
  0
ACAD_PROXY_OBJECT
  5
38
102
{ACAD_REACTORS
330
2A
102
}
330
2A
100
AcDbProxyObject
 90
      499
 91
      501
 93
      444
310
42D31A5B995C185D1D195C9B90E409028333333333333E33F0000000000000F9010790141107004050750841D405064090741402483A0350
1001
ACAD
1000
AcDbSavedByObjectVersion
1070
     0
  0
ACAD_PROXY_OBJECT
  5
3C
102
{ACAD_REACTORS
330
2A
102
}
330
2A
100
AcDbProxyObject
 90
      499
 91
      501
 93
      444
310
42D3DD995C9A185B99D3D999915409028333333333333E33F0000000000000F9010790141107004050150941D405064090741402480A0350
1001
ACAD
1000
AcDbSavedByObjectVersion
1070
     0
  0
ACAD_PROXY_OBJECT
  5
33
102
{ACAD_REACTORS
330
2A
102
}
330
2A
100
AcDbProxyObject
 90
      499
 91
      501
 93
      428
310
425499585B1A5CDD1A58D08409038333333333333E33F0000000000000F9010740A907004050150800405405064090740C02480A1B40
1001
ACAD
1000
AcDbSavedByObjectVersion
1070
     0
  0
ACAD_PROXY_OBJECT
  5
42
102
{ACAD_REACTORS
330
2A
102
}
330
2A
100
AcDbProxyObject
 90
      499
 91
      501
 93
      420
310
4194DA1859195911B40902404333333333333E33F0000000000000F9010740A41107004050150800405405064090840C02480A0B40
1001
ACAD
1000
AcDbSavedByObjectVersion
1070
     0
  0
ACAD_PROXY_OBJECT
  5
41
102
{ACAD_REACTORS
330
2A
102
}
330
2A
100
AcDbProxyObject
 90
      499
 91
      501
 93
      516
310
4454DA18591959081DDA5D1A08195919D95CD1A40902404333333333333E33F0000000000000F901074090142907004050250800405405064090740C02480A0B40
1001
ACAD
1000
AcDbSavedByObjectVersion
1070
     0
  0
ACAD_PROXY_OBJECT
  5
3E
102
{ACAD_REACTORS
330
2A
102
}
330
2A
100
AcDbProxyObject
 90
      499
 91
      501
 93
      532
310
4394DA1859195CC81BD98811DC985E5174090240C333333333333E33F0000000000000F901079024090741D01000000000000111010841D405064090740C02480A0340
1001
ACAD
1000
AcDbSavedByObjectVersion
1070
     0
  0
ACAD_PROXY_OBJECT
  5
3F
102
{ACAD_REACTORS
330
2A
102
}
330
2A
100
AcDbProxyObject
 90
      499
 91
      501
 93
      476
310
41D4DAD95D18DA1E51840502408333333333333E33F0000000000000F901079024090741D01000000000000111010B41D405064090741802480A0340
1001
ACAD
1000
AcDbSavedByObjectVersion
1070
     0
  0
ACAD_PROXY_OBJECT
  5
37
102
{ACAD_REACTORS
330
2A
102
}
330
2A
100
AcDbProxyObject
 90
      499
 91
      501
 93
      412
310
41D51A1A58DAD95B90D409028333333333333E33F0000000000000F9010790141107004050150C41D405064090741402480A0350
1001
ACAD
1000
AcDbSavedByObjectVersion
1070
     0
  0
ACAD_PROXY_OBJECT
  5
30
102
{ACAD_REACTORS
330
2A
102
}
330
2A
100
AcDbProxyObject
 90
      499
 91
      501
 93
      420
310
4255DA5C99599C985B595059028333333333333E33F0000000000000F90107901411070040501600405405064090740C02480A0340
1001
ACAD
1000
AcDbSavedByObjectVersion
1070
     0
  0
ACAD_PROXY_OBJECT
  5
40
102
{ACAD_REACTORS
330
2A
102
}
330
2A
100
AcDbProxyObject
 90
      499
 91
      501
 93
      404
310
41560B54985E51940902404000000000000E03F0000000000000F9010740501907004050150841D405064090740C02480A1B40
1001
ACAD
1000
AcDbSavedByObjectVersion
1070
     0
  0
XRECORD
  5
23E
102
{ACAD_REACTORS
330
234
102
}
330
234
100
AcDbXrecord
340
0
  0
XRECORD
  5
23D
102
{ACAD_REACTORS
330
234
102
}
330
234
100
AcDbXrecord
 90
        0
  0
XRECORD
  5
254
102
{ACAD_REACTORS
330
234
102
}
330
234
100
AcDbXrecord
1000
DSTYLE
1002
{
1070
   179
 70
     2
1070
   171
 70
     2
1070
   143
 40
25.4
1070
   274
 70
     2
1070
    41
 40
3.0
1070
   141
 40
0.09
1070
    43
 40
0.38
1070
   278
 70
    46
1070
    44
 40
1.5
1070
    42
 40
0.0625
1070
   147
 40
1.5
1070
   272
 70
     4
1070
    73
 70
     1
1070
   172
 70
     0
1070
    74
 70
     1
1070
   283
 70
     1
1070
   340
340
6E
1070
   140
 40
3.0
1070
   284
 70
     0
1070
    78
 70
     0
1002
}
  0
XRECORD
  5
23F
102
{ACAD_REACTORS
330
234
102
}
330
234
100
AcDbXrecord
  1
{10F2433D-EF0D-4956-A606-B310393F9B9B}
  0
XRECORD
  5
237
102
{ACAD_REACTORS
330
234
102
}
330
234
100
AcDbXrecord
  1

  0
XRECORD
  5
23C
102
{ACAD_REACTORS
330
234
102
}
330
234
100
AcDbXrecord
 90
        4
  0
XRECORD
  5
239
102
{ACAD_REACTORS
330
234
102
}
330
234
100
AcDbXrecord
340
1A
  0
XRECORD
  5
23B
102
{ACAD_REACTORS
330
234
102
}
330
234
100
AcDbXrecord
 90
    10269
  0
XRECORD
  5
23A
102
{ACAD_REACTORS
330
234
102
}
330
234
100
AcDbXrecord
340
19
  0
XRECORD
  5
241
102
{ACAD_REACTORS
330
234
102
}
330
234
100
AcDbXrecord
 40
0.0
  0
XRECORD
  5
244
102
{ACAD_REACTORS
330
234
102
}
330
234
100
AcDbXrecord
340
0
  0
XRECORD
  5
24A
102
{ACAD_REACTORS
330
234
102
}
330
234
100
AcDbXrecord
 10
0.0
 20
0.0
 30
0.0
  0
XRECORD
  5
246
102
{ACAD_REACTORS
330
234
102
}
330
234
100
AcDbXrecord
 10
0.0
 20
0.0
 30
0.0
  0
XRECORD
  5
249
102
{ACAD_REACTORS
330
234
102
}
330
234
100
AcDbXrecord
 10
0.0
 20
0.0
 30
0.0
  0
XRECORD
  5
247
102
{ACAD_REACTORS
330
234
102
}
330
234
100
AcDbXrecord
 10
0.0
 20
0.0
 30
0.0
  0
XRECORD
  5
248
102
{ACAD_REACTORS
330
234
102
}
330
234
100
AcDbXrecord
 10
0.0
 20
0.0
 30
0.0
  0
XRECORD
  5
245
102
{ACAD_REACTORS
330
234
102
}
330
234
100
AcDbXrecord
 10
0.0
 20
0.0
 30
0.0
  0
XRECORD
  5
242
102
{ACAD_REACTORS
330
234
102
}
330
234
100
AcDbXrecord
340
0
  0
XRECORD
  5
243
102
{ACAD_REACTORS
330
234
102
}
330
234
100
AcDbXrecord
 70
     0
  0
XRECORD
  5
238
102
{ACAD_REACTORS
330
234
102
}
330
234
100
AcDbXrecord
  1

  0
XRECORD
  5
235
102
{ACAD_REACTORS
330
234
102
}
330
234
100
AcDbXrecord
 90
        1
  0
XRECORD
  5
236
102
{ACAD_REACTORS
330
234
102
}
330
234
100
AcDbXrecord
 90
       70
  0
XRECORD
  5
24D
102
{ACAD_REACTORS
330
234
102
}
330
234
100
AcDbXrecord
340
0
  0
XRECORD
  5
253
102
{ACAD_REACTORS
330
234
102
}
330
234
100
AcDbXrecord
 10
0.0
 20
0.0
 30
0.0
  0
XRECORD
  5
24F
102
{ACAD_REACTORS
330
234
102
}
330
234
100
AcDbXrecord
 10
0.0
 20
0.0
 30
0.0
  0
XRECORD
  5
252
102
{ACAD_REACTORS
330
234
102
}
330
234
100
AcDbXrecord
 10
0.0
 20
0.0
 30
0.0
  0
XRECORD
  5
250
102
{ACAD_REACTORS
330
234
102
}
330
234
100
AcDbXrecord
 10
0.0
 20
0.0
 30
0.0
  0
XRECORD
  5
251
102
{ACAD_REACTORS
330
234
102
}
330
234
100
AcDbXrecord
 10
0.0
 20
0.0
 30
0.0
  0
XRECORD
  5
24E
102
{ACAD_REACTORS
330
234
102
}
330
234
100
AcDbXrecord
 10
0.0
 20
0.0
 30
0.0
  0
XRECORD
  5
24B
102
{ACAD_REACTORS
330
234
102
}
330
234
100
AcDbXrecord
340
0
  0
XRECORD
  5
24C
102
{ACAD_REACTORS
330
234
102
}
330
234
100
AcDbXrecord
 70
     0
  0
XRECORD
  5
240
102
{ACAD_REACTORS
330
234
102
}
330
234
100
AcDbXrecord
  1
{FAEB1C32-E019-11D5-929B-00C0DF256EC4}
  0
DICTIONARYVAR
  5
25E
102
{ACAD_REACTORS
330
255
102
}
330
255
100
DictionaryVariables
280
     0
  1
1:1
  0
DICTIONARYVAR
  5
257
102
{ACAD_REACTORS
330
255
102
}
330
255
100
DictionaryVariables
280
     0
  1
Standard
  0
DICTIONARYVAR
  5
256
102
{ACAD_REACTORS
330
255
102
}
330
255
100
DictionaryVariables
280
     0
  1
Standard
  0
DICTIONARYVAR
  5
25A
102
{ACAD_REACTORS
330
255
102
}
330
255
100
DictionaryVariables
280
     0
  1
2
  0
DICTIONARYVAR
  5
25B
102
{ACAD_REACTORS
330
255
102
}
330
255
100
DictionaryVariables
280
     0
  1
1
  0
DICTIONARYVAR
  5
25F
102
{ACAD_REACTORS
330
255
102
}
330
255
100
DictionaryVariables
280
     0
  1
1
  0
DICTIONARY
  5
262
330
45
100
AcDbDictionary
280
     1
  3
ACAD_XREC_ROUNDTRIP
360
263
  0
DICTIONARY
  5
260
330
44
100
AcDbDictionary
280
     1
  3
ACAD_XREC_ROUNDTRIP
360
261
  0
DICTIONARY
  5
264
330
46
100
AcDbDictionary
280
     1
  3
ACAD_XREC_ROUNDTRIP
360
265
  0
XRECORD
  5
263
102
{ACAD_REACTORS
330
262
102
}
330
262
100
AcDbXrecord
102
MATERIAL
148
0.0
149
0.0
149
0.0
 93
        0
 94
      127
282
     0
 72
     1
 77
     1
171
     1
175
     1
179
     1
273
     0
  0
XRECORD
  5
261
102
{ACAD_REACTORS
330
260
102
}
330
260
100
AcDbXrecord
102
MATERIAL
148
0.0
149
0.0
149
0.0
 93
        0
 94
      127
282
     0
 72
     1
 77
     1
171
     1
175
     1
179
     1
273
     0
  0
XRECORD
  5
265
102
{ACAD_REACTORS
330
264
102
}
330
264
100
AcDbXrecord
102
MATERIAL
148
0.0
149
0.0
149
0.0
 93
        0
 94
      127
282
     0
 72
     1
 77
     1
171
     1
175
     1
179
     1
273
     0
  0
ENDSEC
  0
EOF
