  0
SECTION
  2
HEADER
  9
$ACADVER
  1
AC1006
  9
$DWGCODEPAGE
  3
ansi_932
  9
$INSBASE
 10
0.0
 20
0.0
 30
0.0
  9
$EXTMIN
 10
831.5000000000001
 20
33.67045454545455
  9
$EXTMAX
 10
2124.599999999999
 20
215.1
  9
$LIMMIN
 10
0.0
 20
0.0
  9
$LIMMAX
 10
12.0
 20
9.0
  9
$ORTHOMODE
 70
     0
  9
$REGENMODE
 70
     1
  9
$FILLMODE
 70
     1
  9
$QTEXTMODE
 70
     0
  9
$MIRRTEXT
 70
     1
  9
$DRAGMODE
 70
     2
  9
$LTSCALE
 40
1.0
  9
$OSMODE
 70
    37
  9
$ATTMODE
 70
     1
  9
$TEXTSIZE
 40
0.2
  9
$TRACEWID
 40
0.05
  9
$TEXTSTYLE
  7
STANDARD
  9
$CLAYER
  8
0
  9
$CELTYPE
  6
BYLAYER
  9
$CECOLOR
 62
   256
  9
$DIMSCALE
 40
1.0
  9
$DIMASZ
 40
3.0
  9
$DIMEXO
 40
0.0625
  9
$DIMDLI
 40
0.38
  9
$DIMRND
 40
0.0
  9
$DIMDLE
 40
0.0
  9
$DIMEXE
 40
1.5
  9
$DIMTP
 40
0.0
  9
$DIMTM
 40
0.0
  9
$DIMTXT
 40
3.0
  9
$DIMCEN
 40
0.09
  9
$DIMTSZ
 40
0.0
  9
$DIMTOL
 70
     0
  9
$DIMLIM
 70
     0
  9
$DIMTIH
 70
     1
  9
$DIMTOH
 70
     1
  9
$DIMSE1
 70
     0
  9
$DIMSE2
 70
     0
  9
$DIMTAD
 70
     1
  9
$DIMZIN
 70
     0
  9
$DIMBLK
  1

  9
$DIMASO
 70
     1
  9
$DIMSHO
 70
     1
  9
$DIMPOST
  1

  9
$DIMAPOST
  1

  9
$DIMALT
 70
     0
  9
$DIMALTD
 70
     2
  9
$DIMALTF
 40
25.4
  9
$DIMLFAC
 40
1.0
  9
$DIMTOFL
 70
     0
  9
$DIMTVP
 40
0.0
  9
$DIMTIX
 70
     0
  9
$DIMSOXD
 70
     0
  9
$DIMSAH
 70
     0
  9
$DIMBLK1
  1

  9
$DIMBLK2
  1

  9
$LUNITS
 70
     2
  9
$LUPREC
 70
     4
  9
$SKETCHINC
 40
0.1
  9
$FILLETRAD
 40
0.5
  9
$AUNITS
 70
     0
  9
$AUPREC
 70
     0
  9
$MENU
  1
.
  9
$ELEVATION
 40
0.0
  9
$THICKNESS
 40
0.0
  9
$LIMCHECK
 70
     0
  9
$CHAMFERA
 40
0.0
  9
$CHAMFERB
 40
0.0
  9
$SKPOLY
 70
     0
  9
$TDCREATE
 40
2459989.719696528
  9
$TDUPDATE
 40
2459989.719696667
  9
$TDINDWG
 40
0.0000000116
  9
$TDUSRTIMER
 40
0.0000000116
  9
$USRTIMER
 70
     1
  9
$ANGBASE
 50
0.0
  9
$ANGDIR
 70
     0
  9
$PDMODE
 70
     0
  9
$PDSIZE
 40
0.0
  9
$PLINEWID
 40
0.0
  9
$COORDS
 70
     1
  9
$SPLFRAME
 70
     0
  9
$SPLINETYPE
 70
     6
  9
$SPLINESEGS
 70
     8
  9
$ATTDIA
 70
     0
  9
$ATTREQ
 70
     1
  9
$HANDLING
 70
     1
  9
$HANDSEED
  5
286
  9
$SURFTAB1
 70
     6
  9
$SURFTAB2
 70
     6
  9
$SURFTYPE
 70
     6
  9
$SURFU
 70
     6
  9
$SURFV
 70
     6
  9
$UCSNAME
  2

  9
$UCSORG
 10
0.0
 20
0.0
 30
0.0
  9
$UCSXDIR
 10
1.0
 20
0.0
 30
0.0
  9
$UCSYDIR
 10
0.0
 20
1.0
 30
0.0
  9
$USERI1
 70
     0
  9
$USERI2
 70
     0
  9
$USERI3
 70
     0
  9
$USERI4
 70
     0
  9
$USERI5
 70
     0
  9
$USERR1
 40
0.0
  9
$USERR2
 40
0.0
  9
$USERR3
 40
0.0
  9
$USERR4
 40
0.0
  9
$USERR5
 40
0.0
  9
$WORLDVIEW
 70
     1
  0
ENDSEC
  0
SECTION
  2
TABLES
  0
TABLE
  2
VPORT
 70
     1
  0
VPORT
  2
*ACTIVE
 70
     0
 10
0.0
 20
0.0
 11
1.0
 21
1.0
 12
1478.05
 22
124.3852272727273
 13
0.0
 23
0.0
 14
0.5
 24
0.5
 15
0.5
 25
0.5
 16
0.0
 26
0.0
 36
1.0
 17
0.0
 27
0.0
 37
0.0
 40
181.4295454545455
 41
1.6
 42
50.0
 43
0.0
 44
0.0
 50
0.0
 51
0.0
 71
     0
 72
   100
 73
     1
 74
     3
 75
     0
 76
     0
 77
     0
 78
     0
  0
ENDTAB
  0
TABLE
  2
LTYPE
 70
     2
  0
LTYPE
  2
CONTINUOUS
 70
     0
  3
Solid line
 72
    65
 73
     0
 40
0.0
  0
LTYPE
  2
CENTER
 70
     0
  3

 72
    65
 73
     0
 40
0.0
  0
ENDTAB
  0
TABLE
  2
LAYER
 70
     1
  0
LAYER
  2
0
 70
     0
 62
     7
  6
CONTINUOUS
  0
ENDTAB
  0
TABLE
  2
STYLE
 70
     2
  0
STYLE
  2
STANDARD
 70
     0
 40
0.0
 41
1.0
 50
0.0
 71
     0
 42
0.2
  3
txt
  4

  0
STYLE
  2
ＭＳ_ゴシック
 70
     0
 40
0.0
 41
1.0
 50
0.0
 71
     0
 42
0.2
  3
ＭＳ ゴシック.shx
  4

  0
ENDTAB
  0
TABLE
  2
VIEW
 70
     0
  0
ENDTAB
  0
TABLE
  2
UCS
 70
     0
  0
ENDTAB
  0
ENDSEC
  0
SECTION
  2
BLOCKS
  0
ENDSEC
  0
SECTION
  2
ENTITIES
  0
LINE
  5
6F
  8
0
  6
CONTINUOUS
 62
     7
 10
1973.5
 20
92.0
 30
0.0
 11
1919.582943322398
 21
92.0
 31
0.0
  0
LINE
  5
70
  8
0
  6
CONTINUOUS
 62
     7
 10
2021.0
 20
58.50000000000004
 30
0.0
 11
2021.5
 21
58.99999999999998
 31
0.0
  0
ARC
  5
71
  8
0
  6
CONTINUOUS
 62
     7
 10
1917.508688789405
 20
53.5
 30
0.0
 40
1.000000000000001
 50
270.0
 51
359.4999999999999
  0
ARC
  5
72
  8
0
  6
CONTINUOUS
 62
     7
 10
1917.508688789405
 20
101.5
 30
0.0
 40
0.999999999999892
 50
0.499999999999739
 51
89.99999999999966
  0
LINE
  5
73
  8
0
  6
CONTINUOUS
 62
     7
 10
1901.5
 20
52.50000000000001
 30
0.0
 11
1917.508688789405
 21
52.5
 31
0.0
  0
ARC
  5
74
  8
0
  6
CONTINUOUS
 62
     7
 10
1919.582943322398
 20
93.0
 30
0.0
 40
1.000000000000001
 50
180.5000000000001
 51
270.0
  0
ARC
  5
75
  8
0
  6
CONTINUOUS
 62
     7
 10
1919.582943322398
 20
62.0
 30
0.0
 40
0.999999999999892
 50
90.0
 51
179.4999999999999
  0
LINE
  5
76
  8
0
  6
CONTINUOUS
 62
     7
 10
2021.5
 20
96.0
 30
0.0
 11
2021.0
 21
96.49999999999994
 31
0.0
  0
LINE
  5
77
  8
0
  6
CONTINUOUS
 62
     7
 10
1917.508688789405
 20
102.5
 30
0.0
 11
1901.5
 21
102.5
 31
0.0
  0
LINE
  5
78
  8
0
  6
CONTINUOUS
 62
     7
 10
1918.582981399333
 20
92.99127346450805
 30
0.0
 11
1918.508650712469
 21
101.508726535498
 31
0.0
  0
LINE
  5
79
  8
0
  6
CONTINUOUS
 62
     7
 10
1918.508650712469
 20
53.49127346450134
 30
0.0
 11
1918.582981399333
 21
62.00872653549125
 31
0.0
  0
LINE
  5
7A
  8
0
  6
CONTINUOUS
 62
     7
 10
1978.0
 20
96.49999999999997
 30
0.0
 11
1973.5
 21
92.0
 31
0.0
  0
LINE
  5
7B
  8
0
  6
CONTINUOUS
 62
     7
 10
1973.5
 20
63.0
 30
0.0
 11
1978.0
 21
58.50000000000001
 31
0.0
  0
LINE
  5
7C
  8
0
  6
CONTINUOUS
 62
     7
 10
1919.582943322398
 20
63.0
 30
0.0
 11
1973.5
 21
63.0
 31
0.0
  0
LINE
  5
7D
  8
0
  6
CONTINUOUS
 62
     7
 10
2021.0
 20
171.1
 30
0.0
 11
2021.0
 21
209.1
 31
0.0
  0
LINE
  5
7E
  8
0
  6
CONTINUOUS
 62
     7
 10
2021.5
 20
208.6
 30
0.0
 11
2021.5
 21
171.6
 31
0.0
  0
LINE
  5
7F
  8
0
  6
CONTINUOUS
 62
     7
 10
1978.0
 20
209.1
 30
0.0
 11
1973.5
 21
204.6
 31
0.0
  0
LINE
  5
80
  8
0
  6
CONTINUOUS
 62
     7
 10
1973.5
 20
175.6
 30
0.0
 11
1978.0
 21
171.1
 31
0.0
  0
ARC
  5
81
  8
0
  6
CONTINUOUS
 62
     7
 10
1917.508688789405
 20
166.1
 30
0.0
 40
1.000000000000001
 50
270.0
 51
359.4999999999999
  0
ARC
  5
82
  8
0
  6
CONTINUOUS
 62
     7
 10
1919.582943322398
 20
174.6
 30
0.0
 40
0.999999999999892
 50
89.99999999999955
 51
179.4999999999994
  0
LINE
  5
83
  8
0
  6
CONTINUOUS
 62
     7
 10
1978.0
 20
209.1
 30
0.0
 11
1978.0
 21
171.1
 31
0.0
  0
LINE
  5
84
  8
0
  6
CONTINUOUS
 62
     7
 10
1943.991348631558
 20
208.1
 30
0.0
 11
1953.008651368442
 21
208.1
 31
0.0
  0
LINE
  5
85
  8
0
  6
CONTINUOUS
 62
     7
 10
1973.5
 20
204.6
 30
0.0
 11
1973.5
 21
175.6
 31
0.0
  0
LINE
  5
86
  8
0
  6
CONTINUOUS
 62
     7
 10
2021.0
 20
171.1
 30
0.0
 11
2021.5
 21
171.6
 31
0.0
  0
ARC
  5
87
  8
0
  6
CONTINUOUS
 62
     7
 10
1917.508688789405
 20
214.1
 30
0.0
 40
0.999999999999892
 50
0.5000000000005341
 51
90.00000000000045
  0
ARC
  5
88
  8
0
  6
CONTINUOUS
 62
     7
 10
1919.582943322398
 20
205.6
 30
0.0
 40
1.000000000000001
 50
180.5000000000001
 51
270.0
  0
LINE
  5
89
  8
0
  6
CONTINUOUS
 62
     7
 10
1917.508688789405
 20
215.1
 30
0.0
 11
1901.5
 21
215.1
 31
0.0
  0
ARC
  5
8A
  8
0
  6
CONTINUOUS
 62
     7
 10
1948.5
 20
218.0945661659796
 30
0.0
 40
14.41242434852001
 50
249.4416081716363
 51
290.5583918283638
  0
LINE
  5
8B
  8
0
  6
CONTINUOUS
 62
     7
 10
2021.5
 20
208.6
 30
0.0
 11
2021.0
 21
209.0999999999999
 31
0.0
  0
ARC
  5
8C
  8
0
  6
CONTINUOUS
 62
     7
 10
1948.5
 20
162.1038931258834
 30
0.0
 40
14.41386694649938
 50
69.44375882170493
 51
110.5562411782885
  0
LINE
  5
8D
  8
0
  6
CONTINUOUS
 62
     7
 10
1918.508650712469
 20
166.0912734645017
 30
0.0
 11
1918.582981399333
 21
174.6087265354916
 31
0.0
  0
LINE
  5
8E
  8
0
  6
CONTINUOUS
 62
     7
 10
1918.582981399333
 20
205.5912734645084
 30
0.0
 11
1918.508650712469
 21
214.1087265354983
 31
0.0
  0
CIRCLE
  5
8F
  8
0
  6
CONTINUOUS
 62
     7
 10
2097.6
 20
77.5
 30
0.0
 40
12.5
  0
CIRCLE
  5
90
  8
0
  6
CONTINUOUS
 62
     7
 10
2097.6
 20
77.5
 30
0.0
 40
25.0
  0
LINE
  5
91
  8
0
  6
CONTINUOUS
 62
     7
 10
2116.6
 20
111.2921182410083
 30
0.0
 11
2116.6
 21
127.0
 31
0.0
  0
ARC
  5
92
  8
0
  6
CONTINUOUS
 62
     7
 10
1943.991348631558
 20
207.6
 30
0.0
 40
0.5000000000000004
 50
90.0
 51
179.0000000000069
  0
LINE
  5
93
  8
0
  6
CONTINUOUS
 62
     7
 10
2116.6
 20
127.0
 30
0.0
 11
2116.1
 21
127.5
 31
0.0
  0
CIRCLE
  5
94
  8
0
  6
CONTINUOUS
 62
     7
 10
2097.6
 20
77.5
 30
0.0
 40
18.50000000000002
  0
LINE
  5
95
  8
0
  6
CONTINUOUS
 62
     7
 10
2079.257979856674
 20
110.3524256202224
 30
0.0
 11
2080.942020143325
 21
109.7394850825762
 31
0.0
  0
ARC
  5
96
  8
0
  6
CONTINUOUS
 62
     7
 10
1943.991348631558
 20
172.6
 30
0.0
 40
0.5000000000000466
 50
180.9999999999946
 51
270.0000000000015
  0
LINE
  5
97
  8
0
  6
CONTINUOUS
 62
     7
 10
2079.1
 20
127.5
 30
0.0
 11
2078.6
 21
127.0
 31
0.0
  0
CIRCLE
  5
98
  8
0
  6
CONTINUOUS
 62
     7
 10
2097.6
 20
77.5
 30
0.0
 40
8.05
  0
ARC
  5
99
  8
0
  6
CONTINUOUS
 62
     7
 10
1953.008651368442
 20
172.6
 30
0.0
 40
0.5000000000000004
 50
270.0
 51
359.0000000000068
  0
ARC
  5
9A
  8
0
  6
CONTINUOUS
 62
     7
 10
2079.6
 20
111.2921182410083
 30
0.0
 40
1.000000000000334
 50
180.0
 51
250.0
  0
LINE
  5
9B
  8
0
  6
CONTINUOUS
 62
     7
 10
2081.6
 20
108.7997924617903
 30
0.0
 11
2081.6
 21
96.70937271229852
 31
0.0
  0
CIRCLE
  5
9C
  8
0
  6
CONTINUOUS
 62
     7
 10
2097.6
 20
77.5
 30
0.0
 40
19.00000000000002
  0
ARC
  5
9D
  8
0
  6
CONTINUOUS
 62
     7
 10
2080.6
 20
108.7997924617903
 30
0.0
 40
0.9999999999999015
 50
0.000000000007276
 51
70.00000000000722
  0
LINE
  5
9E
  8
0
  6
CENTER
 62
     1
 10
2070.6
 20
77.5
 30
0.0
 11
2124.599999999999
 21
77.5
 31
0.0
  0
LINE
  5
A0
  8
0
  6
CONTINUOUS
 62
     7
 10
2079.1
 20
127.5
 30
0.0
 11
2116.1
 21
127.5
 31
0.0
  0
LINE
  5
A1
  8
0
  6
CONTINUOUS
 62
     7
 10
2116.6
 20
127.0
 30
0.0
 11
2078.6
 21
127.0
 31
0.0
  0
LINE
  5
A2
  8
0
  6
CONTINUOUS
 62
     7
 10
2113.6
 20
96.70937271229853
 30
0.0
 11
2113.6
 21
108.7997924617903
 31
0.0
  0
ARC
  5
A3
  8
0
  6
CONTINUOUS
 62
     7
 10
2114.6
 20
108.7997924617903
 30
0.0
 40
0.9999999999998899
 50
110.0000000000001
 51
180.0
  0
ARC
  5
A4
  8
0
  6
CONTINUOUS
 62
     7
 10
2115.599999999999
 20
111.2921182410083
 30
0.0
 40
1.000000000000132
 50
290.000000000015
 51
0.0000000000149498
  0
ARC
  5
A5
  8
0
  6
CONTINUOUS
 62
     7
 10
1953.008651368442
 20
207.6
 30
0.0
 40
0.5000000000000466
 50
0.9999999999945822
 51
90.00000000000148
  0
LINE
  5
A6
  8
0
  6
CONTINUOUS
 62
     7
 10
2078.6
 20
127.0
 30
0.0
 11
2078.6
 21
111.2921182410083
 31
0.0
  0
LINE
  5
A7
  8
0
  6
CONTINUOUS
 62
     7
 10
2114.257979856674
 20
109.7394850825762
 30
0.0
 11
2115.942020143325
 21
110.3524256202224
 31
0.0
  0
LINE
  5
A8
  8
0
  6
CONTINUOUS
 62
     7
 10
1901.5
 20
213.6
 30
0.0
 11
931.5
 21
213.6
 31
0.0
  0
LINE
  5
A9
  8
0
  6
CONTINUOUS
 62
     7
 10
1901.5
 20
101.0000000000001
 30
0.0
 11
931.5
 21
101.0
 31
0.0
  0
LINE
  5
AA
  8
0
  6
CONTINUOUS
 62
     7
 10
931.5
 20
53.99999999999999
 30
0.0
 11
1901.5
 21
54.00000000000005
 31
0.0
  0
LINE
  5
AB
  8
0
  6
CONTINUOUS
 62
     7
 10
931.5
 20
166.6
 30
0.0
 11
1901.5
 21
166.6
 31
0.0
  0
LINE
  5
AC
  8
0
  6
CONTINUOUS
 62
     7
 10
880.4999999999999
 20
77.43877801742158
 30
0.0
 11
880.4999999999999
 21
77.56122198257837
 31
0.0
  0
LINE
  5
AD
  8
0
  6
CONTINUOUS
 62
     7
 10
889.4999999999999
 20
81.23673333098603
 30
0.0
 11
880.9956367322508
 21
81.1824978568381
 31
0.0
  0
LINE
  5
AE
  8
0
  6
CONTINUOUS
 62
     7
 10
889.4999999999999
 20
73.76326666901396
 30
0.0
 11
898.0043632677491
 21
73.81750214316187
 31
0.0
  0
LINE
  5
AF
  8
0
  6
CONTINUOUS
 62
     7
 10
880.9956367322508
 20
73.81750214316187
 30
0.0
 11
889.4999999999999
 21
73.76326666901396
 31
0.0
  0
LINE
  5
B0
  8
0
  6
CONTINUOUS
 62
     7
 10
880.4999999999999
 20
80.29967582455164
 30
0.0
 11
880.4999999999999
 21
80.42120711095971
 31
0.0
  0
LINE
  5
B1
  8
0
  6
CONTINUOUS
 62
     7
 10
898.0043632677491
 20
81.1824978568381
 30
0.0
 11
889.4999999999999
 21
81.23673333098603
 31
0.0
  0
LINE
  5
B2
  8
0
  6
CONTINUOUS
 62
     7
 10
898.5
 20
80.42120711095971
 30
0.0
 11
898.5
 21
80.29967582455164
 31
0.0
  0
LINE
  5
B3
  8
0
  6
CONTINUOUS
 62
     7
 10
898.5
 20
77.56122198257837
 30
0.0
 11
898.5
 21
77.43877801742158
 31
0.0
  0
LINE
  5
B4
  8
0
  6
CONTINUOUS
 62
     7
 10
900.1468258748303
 20
88.89352886510582
 30
0.0
 11
900.1999999999999
 21
88.72767302349004
 31
0.0
  0
LINE
  5
B5
  8
0
  6
CONTINUOUS
 62
     7
 10
898.5
 20
71.88116308641762
 30
0.0
 11
898.5
 21
71.7623562303177
 31
0.0
  0
LINE
  5
B6
  8
0
  6
CONTINUOUS
 62
     7
 10
898.5
 20
83.23764376968228
 30
0.0
 11
898.5
 21
83.11883691358236
 31
0.0
  0
LINE
  5
B7
  8
0
  6
CONTINUOUS
 62
     7
 10
880.4999999999999
 20
71.7623562303177
 30
0.0
 11
880.4999999999999
 21
71.88116308641762
 31
0.0
  0
LINE
  5
B8
  8
0
  6
CONTINUOUS
 62
     7
 10
889.4999999999999
 20
84.04254385831125
 30
0.0
 11
880.9956367322508
 21
83.98060924544082
 31
0.0
  0
LINE
  5
B9
  8
0
  6
CONTINUOUS
 62
     7
 10
880.4999999999999
 20
74.57879288904026
 30
0.0
 11
880.4999999999999
 21
74.70032417544833
 31
0.0
  0
LINE
  5
BA
  8
0
  6
CONTINUOUS
 62
     7
 10
898.0043632677491
 20
83.98060924544082
 30
0.0
 11
889.4999999999999
 21
84.04254385831125
 31
0.0
  0
LINE
  5
BB
  8
0
  6
CONTINUOUS
 62
     7
 10
880.9956367322508
 20
71.01939075455917
 30
0.0
 11
889.4999999999999
 21
70.95745614168874
 31
0.0
  0
LINE
  5
BC
  8
0
  6
CONTINUOUS
 62
     7
 10
900.1999999999999
 20
88.72767302349004
 30
0.0
 11
900.1999999999999
 21
55.03468869595609
 31
0.0
  0
LINE
  5
BD
  8
0
  6
CONTINUOUS
 62
     7
 10
878.8
 20
88.72767302349004
 30
0.0
 11
878.8531741251696
 21
88.89352886510582
 31
0.0
  0
LINE
  5
BE
  8
0
  6
CONTINUOUS
 62
     7
 10
898.5
 20
74.70032417544833
 30
0.0
 11
898.5
 21
74.57879288904026
 31
0.0
  0
LINE
  5
BF
  8
0
  6
CONTINUOUS
 62
     7
 10
878.8
 20
55.03468869595609
 30
0.0
 11
878.8
 21
88.72767302349006
 31
0.0
  0
LINE
  5
C0
  8
0
  6
CONTINUOUS
 62
     7
 10
889.4999999999999
 20
70.95745614168874
 30
0.0
 11
898.0043632677491
 21
71.01939075455917
 31
0.0
  0
LINE
  5
C1
  8
0
  6
CONTINUOUS
 62
     7
 10
880.4999999999999
 20
83.11883691358236
 30
0.0
 11
880.4999999999999
 21
83.23764376968228
 31
0.0
  0
LINE
  5
C2
  8
0
  6
CONTINUOUS
 62
     7
 10
884.4999999999999
 20
98.98189058722645
 30
0.0
 11
884.4999999999999
 21
98.98254626441849
 31
0.0
  0
LINE
  5
C3
  8
0
  6
CONTINUOUS
 62
     7
 10
884.4999999999999
 20
95.48097433078995
 30
0.0
 11
884.4999999999999
 21
96.01732224194521
 31
0.0
  0
LINE
  5
C4
  8
0
  6
CONTINUOUS
 62
     7
 10
896.9133272277029
 20
90.49953099666683
 30
0.0
 11
896.9131308497022
 21
92.3130196136365
 31
0.0
  0
LINE
  5
C5
  8
0
  6
CONTINUOUS
 62
     7
 10
896.9595646041075
 20
98.30429440183127
 30
0.0
 11
896.9596073958986
 21
98.303982565966
 31
0.0
  0
LINE
  5
C6
  8
0
  6
CONTINUOUS
 62
     7
 10
898.5
 20
89.23746235101255
 30
0.0
 11
898.5
 21
95.00063272485481
 31
0.0
  0
LINE
  5
C7
  8
0
  6
CONTINUOUS
 62
     7
 10
896.913088061063
 20
97.27788806661725
 30
0.0
 11
896.9135954165366
 21
97.92630771404768
 31
0.0
  0
LINE
  5
C8
  8
0
  6
CONTINUOUS
 62
     7
 10
896.9138117185472
 20
98.37288638500229
 30
0.0
 11
896.9134394876124
 21
98.39166232145531
 31
0.0
  0
LINE
  5
C9
  8
0
  6
CONTINUOUS
 62
     7
 10
884.4999999999999
 20
98.06443663644362
 30
0.0
 11
884.4999999999999
 21
98.3355211764185
 31
0.0
  0
LINE
  5
CA
  8
0
  6
CONTINUOUS
 62
     7
 10
884.6580377169453
 20
97.95458595990371
 30
0.0
 11
884.9912737967812
 21
97.98194981022492
 31
0.0
  0
LINE
  5
CB
  8
0
  6
CONTINUOUS
 62
     7
 10
884.9912737967813
 20
98.44757370054633
 30
0.0
 11
884.4999999999999
 21
98.33552117641845
 31
0.0
  0
LINE
  5
CC
  8
0
  6
CONTINUOUS
 62
     7
 10
896.9132241383486
 20
94.58059363827479
 30
0.0
 11
896.913065354672
 21
95.86351614436236
 31
0.0
  0
LINE
  5
CD
  8
0
  6
CONTINUOUS
 62
     7
 10
884.4999999999999
 20
91.44080042182757
 30
0.0
 11
884.4999999999999
 21
92.19895998618537
 31
0.0
  0
CIRCLE
  5
CE
  8
0
  6
CONTINUOUS
 62
     7
 10
856.6005050633884
 20
81.60050506338835
 30
0.0
 40
3.500000000000003
  0
LINE
  5
CF
  8
0
  6
CONTINUOUS
 62
     7
 10
900.4
 20
60.85810518664257
 30
0.0
 11
900.1999999999999
 21
60.85810518664257
 31
0.0
  0
CIRCLE
  5
D0
  8
0
  6
CONTINUOUS
 62
     7
 10
856.5964385900941
 20
81.59644377720578
 30
0.0
 40
5.079068068930456
  0
LINE
  5
D1
  8
0
  6
CONTINUOUS
 62
     7
 10
884.5432618108855
 20
95.36861063020869
 30
0.0
 11
884.4999999999999
 21
95.61178299192464
 31
0.0
  0
LINE
  5
D2
  8
0
  6
CONTINUOUS
 62
     7
 10
900.4
 20
58.13989228090494
 30
0.0
 11
900.4250000000001
 21
58.13989228090494
 31
0.0
  0
LINE
  5
D3
  8
0
  6
CONTINUOUS
 62
     7
 10
900.4250000000001
 20
60.45859609050257
 30
0.0
 11
900.4
 21
60.45859609050257
 31
0.0
  0
LINE
  5
D4
  8
0
  6
CONTINUOUS
 62
     7
 10
898.5
 20
95.00063514363248
 30
0.0
 11
896.9493243164075
 21
98.32603448034536
 31
0.0
  0
LINE
  5
D5
  8
0
  6
CONTINUOUS
 62
     7
 10
871.4999999999999
 20
111.2921182410083
 30
0.0
 11
871.4999999999999
 21
127.0
 31
0.0
  0
LINE
  5
D6
  8
0
  6
CONTINUOUS
 62
     7
 10
833.5
 20
127.0
 30
0.0
 11
833.5
 21
111.2921182410083
 31
0.0
  0
LINE
  5
D7
  8
0
  6
CONTINUOUS
 62
     7
 10
834.0
 20
127.5
 30
0.0
 11
833.5
 21
127.0
 31
0.0
  0
LINE
  5
D8
  8
0
  6
CONTINUOUS
 62
     7
 10
900.1999999999999
 20
56.93702707599773
 30
0.0
 11
900.4
 21
56.93702707599773
 31
0.0
  0
LINE
  5
D9
  8
0
  6
CONTINUOUS
 62
     7
 10
834.1579798566743
 20
110.3524256202224
 30
0.0
 11
835.8420201433256
 21
109.7394850825762
 31
0.0
  0
ARC
  5
DA
  8
0
  6
CONTINUOUS
 62
     7
 10
871.8380735924076
 20
60.49999999999999
 30
0.0
 40
1.000000000000058
 50
200.0
 51
269.9999999999999
  0
ARC
  5
DB
  8
0
  6
CONTINUOUS
 62
     7
 10
869.4999999999999
 20
108.7997924617903
 30
0.0
 40
1.000000000000001
 50
110.0000000000001
 51
180.0
  0
LINE
  5
DC
  8
0
  6
CONTINUOUS
 62
     7
 10
836.5
 20
108.7997924617903
 30
0.0
 11
836.5
 21
96.11013312387554
 31
0.0
  0
LINE
  5
DD
  8
0
  6
CONTINUOUS
 62
     7
 10
900.1999999999999
 20
57.53322343971523
 30
0.0
 11
900.4
 21
57.53322343971523
 31
0.0
  0
LINE
  5
DE
  8
0
  6
CONTINUOUS
 62
     7
 10
889.4999999999999
 20
53.95
 30
0.0
 11
899.2087265354987
 21
54.03472677289193
 31
0.0
  0
LINE
  5
DF
  8
0
  6
CONTINUOUS
 62
     7
 10
900.1999999999999
 20
57.95530576995986
 30
0.0
 11
900.4
 21
57.95530576995986
 31
0.0
  0
ARC
  5
E0
  8
0
  6
CONTINUOUS
 62
     7
 10
882.2002075382097
 20
97.99999999999999
 30
0.0
 40
1.000000000000001
 50
90.00000000000001
 51
159.9999999999998
  0
LINE
  5
E1
  8
0
  6
CONTINUOUS
 62
     7
 10
881.2605149174237
 20
98.34202014332566
 30
0.0
 11
880.4655892626445
 21
96.15797985667429
 31
0.0
  0
LINE
  5
E2
  8
0
  6
CONTINUOUS
 62
     7
 10
871.4999999999999
 20
127.0
 30
0.0
 11
871.0
 21
127.5
 31
0.0
  0
ARC
  5
E3
  8
0
  6
CONTINUOUS
 62
     7
 10
879.5258966418585
 20
96.49999999999999
 30
0.0
 40
1.000000000000058
 50
270.0
 51
340.0000000000001
  0
LINE
  5
E4
  8
0
  6
CONTINUOUS
 62
     7
 10
870.8983809716216
 20
94.84202014332564
 30
0.0
 11
869.7394850825762
 21
91.65797985667432
 31
0.0
  0
LINE
  5
E5
  8
0
  6
CONTINUOUS
 62
     7
 10
869.7394850825762
 20
63.34202014332564
 30
0.0
 11
870.8983809716216
 21
60.15797985667432
 31
0.0
  0
ARC
  5
E6
  8
0
  6
CONTINUOUS
 62
     7
 10
899.1999999999999
 20
55.03468869595609
 30
0.0
 40
1.000000000000006
 50
270.5000000000258
 51
0.0
  0
ARC
  5
E7
  8
0
  6
CONTINUOUS
 62
     7
 10
871.8380735924076
 20
94.49999999999999
 30
0.0
 40
1.000000000000001
 50
90.00000000000001
 51
160.0
  0
LINE
  5
E8
  8
0
  6
CONTINUOUS
 62
     7
 10
869.1579798566743
 20
109.7394850825762
 30
0.0
 11
870.8420201433256
 21
110.3524256202224
 31
0.0
  0
LINE
  5
E9
  8
0
  6
CONTINUOUS
 62
     7
 10
871.8380735924076
 20
59.49999999999998
 30
0.0
 11
878.8
 21
59.49999999999998
 31
0.0
  0
LINE
  5
EA
  8
0
  6
CONTINUOUS
 62
     7
 10
931.5
 20
52.49999999999999
 30
0.0
 11
931.5
 21
102.5
 31
0.0
  0
LINE
  5
EB
  8
0
  6
CONTINUOUS
 62
     7
 10
879.7912734645014
 20
54.03472677289192
 30
0.0
 11
889.4999999999999
 21
53.95
 31
0.0
  0
LINE
  5
EC
  8
0
  6
CONTINUOUS
 62
     7
 10
900.4250000000001
 20
60.15429030057823
 30
0.0
 11
900.4
 21
60.15429030057823
 31
0.0
  0
ARC
  5
ED
  8
0
  6
CONTINUOUS
 62
     7
 10
834.5
 20
111.2921182410083
 30
0.0
 40
1.000000000000001
 50
180.0
 51
250.0
  0
LINE
  5
EE
  8
0
  6
CONTINUOUS
 62
     7
 10
879.5258966418585
 20
95.49999999999999
 30
0.0
 11
871.8380735924076
 21
95.49999999999999
 31
0.0
  0
LINE
  5
EF
  8
0
  6
CONTINUOUS
 62
     7
 10
900.1999999999999
 20
57.26757285832628
 30
0.0
 11
900.4
 21
57.26757285832628
 31
0.0
  0
ARC
  5
F0
  8
0
  6
CONTINUOUS
 62
     7
 10
870.4999999999999
 20
111.2921182410083
 30
0.0
 40
1.000000000000017
 50
290.0000000000001
 51
0.0
  0
ARC
  5
F1
  8
0
  6
CONTINUOUS
 62
     7
 10
835.5
 20
108.7997924617903
 30
0.0
 40
0.9999999999999788
 50
0.0
 51
69.99999999999996
  0
ARC
  5
F2
  8
0
  6
CONTINUOUS
 62
     7
 10
879.8
 20
55.03468869595609
 30
0.0
 40
1.000000000000001
 50
180.0
 51
269.4999999999883
  0
ARC
  5
F3
  8
0
  6
CONTINUOUS
 62
     7
 10
913.508688789405
 20
61.49999999999999
 30
0.0
 40
1.000000000000001
 50
0.4999999999998863
 51
90.0
  0
LINE
  5
F4
  8
0
  6
CONTINUOUS
 62
     7
 10
931.5
 20
102.5
 30
0.0
 11
915.5785798885025
 21
102.5
 31
0.0
  0
ARC
  5
F5
  8
0
  6
CONTINUOUS
 62
     7
 10
866.4999999999999
 20
91.49999999999999
 30
0.0
 40
27.49999999999997
 50
179.9999999999986
 51
270.0
  0
LINE
  5
F6
  8
0
  6
CONTINUOUS
 62
     7
 10
898.5
 20
213.3889651675275
 30
0.0
 11
898.2891645243964
 21
213.2989025442905
 31
0.0
  0
LINE
  5
F7
  8
0
  6
CONTINUOUS
 62
     7
 10
914.508650712469
 20
61.50872653551729
 30
0.0
 11
914.5786179654384
 21
53.49127346450161
 31
0.0
  0
LINE
  5
F8
  8
0
  6
CONTINUOUS
 62
     7
 10
898.5
 20
213.5713783453014
 30
0.0
 11
898.4722679742671
 21
213.5680065651497
 31
0.0
  0
LINE
  5
F9
  8
0
  6
CONTINUOUS
 62
     7
 10
868.7997924617903
 20
90.99999999999999
 30
0.0
 11
866.4999999999999
 21
90.99999999999999
 31
0.0
  0
LINE
  5
FA
  8
0
  6
CONTINUOUS
 62
     7
 10
866.0
 20
91.5
 30
0.0
 11
866.0
 21
93.79979246179096
 31
0.0
  0
ARC
  5
FB
  8
0
  6
CONTINUOUS
 62
     7
 10
915.5785798885025
 20
101.5
 30
0.0
 40
1.000000000000001
 50
90.00000000000001
 51
179.5000000000001
  0
LINE
  5
FC
  8
0
  6
CONTINUOUS
 62
     7
 10
889.5000000000009
 20
210.4948982591235
 30
0.0
 11
899.2087265354966
 21
210.4215227214185
 31
0.0
  0
LINE
  5
FD
  8
0
  6
CONTINUOUS
 62
     7
 10
900.1999999999999
 20
62.49999999999999
 30
0.0
 11
913.508688789405
 21
62.49999999999999
 31
0.0
  0
LINE
  5
FE
  8
0
  6
CONTINUOUS
 62
     7
 10
900.1468258748303
 20
170.3658291281341
 30
0.0
 11
900.1999999999999
 21
170.6415938354346
 31
0.0
  0
LINE
  5
FF
  8
0
  6
CONTINUOUS
 62
     7
 10
914.5786179654384
 20
101.5087265354984
 30
0.0
 11
914.508650712469
 21
93.49127346448269
 31
0.0
  0
LINE
  5
100
  8
0
  6
CONTINUOUS
 62
     7
 10
866.6579798566745
 20
94.73948508257656
 30
0.0
 11
867.8420201433256
 21
95.17044050308964
 31
0.0
  0
ARC
  5
101
  8
0
  6
CONTINUOUS
 62
     7
 10
867.4999999999999
 20
96.11013312387553
 30
0.0
 40
1.000000000000017
 50
290.0000000000001
 51
0.0
  0
ARC
  5
102
  8
0
  6
CONTINUOUS
 62
     7
 10
867.0
 20
93.79979246179096
 30
0.0
 40
1.000000000000001
 50
110.0000000000001
 51
180.0
  0
LINE
  5
103
  8
0
  6
CONTINUOUS
 62
     7
 10
879.7912734645014
 20
169.7784772785816
 30
0.0
 11
889.5000000000003
 21
169.7051017408765
 31
0.0
  0
ARC
  5
104
  8
0
  6
CONTINUOUS
 62
     7
 10
868.7997924617903
 20
91.99999999999999
 30
0.0
 40
0.9999999999999538
 50
270.0
 51
340.0000000000001
  0
LINE
  5
105
  8
0
  6
CONTINUOUS
 62
     7
 10
880.4999999999999
 20
166.6286216546986
 30
0.0
 11
880.5277331958897
 21
166.6319935105968
 31
0.0
  0
ARC
  5
106
  8
0
  6
CONTINUOUS
 62
     7
 10
837.5
 20
96.11013312387553
 30
0.0
 40
1.000000000000001
 50
180.0
 51
250.0
  0
ARC
  5
107
  8
0
  6
CONTINUOUS
 62
     7
 10
838.0
 20
93.79979246179096
 30
0.0
 40
0.9999999999999918
 50
0.0
 51
69.99999999999996
  0
LINE
  5
108
  8
0
  6
CONTINUOUS
 62
     7
 10
880.9956367322508
 20
212.6635572752188
 30
0.0
 11
889.4999999999999
 21
212.722944544468
 31
0.0
  0
LINE
  5
109
  8
0
  6
CONTINUOUS
 62
     7
 10
898.2891684069263
 20
166.9010970007698
 30
0.0
 11
898.5
 21
166.8110348324724
 31
0.0
  0
ARC
  5
10A
  8
0
  6
CONTINUOUS
 62
     7
 10
868.7997924617903
 20
62.99999999999999
 30
0.0
 40
1.000000000000001
 50
19.99999999999994
 51
90.0
  0
LINE
  5
10B
  8
0
  6
CONTINUOUS
 62
     7
 10
839.0
 20
93.79979246179096
 30
0.0
 11
839.0
 21
91.5
 31
0.0
  0
LINE
  5
10C
  8
0
  6
CONTINUOUS
 62
     7
 10
889.4999999999999
 20
167.477055455532
 30
0.0
 11
880.9956367322508
 21
167.5364427247812
 31
0.0
  0
LINE
  5
10D
  8
0
  6
CONTINUOUS
 62
     7
 10
889.4999999999999
 20
212.722944544468
 30
0.0
 11
898.0043632677491
 21
212.6635572752188
 31
0.0
  0
LINE
  5
10E
  8
0
  6
CONTINUOUS
 62
     7
 10
898.0043632677491
 20
167.5364427247812
 30
0.0
 11
889.4999999999999
 21
167.4770554555321
 31
0.0
  0
LINE
  5
10F
  8
0
  6
CONTINUOUS
 62
     7
 10
900.1999999999999
 20
209.5584061645654
 30
0.0
 11
900.1468258748303
 21
209.8341708718659
 31
0.0
  0
LINE
  5
110
  8
0
  6
CONTINUOUS
 62
     7
 10
878.8531741251696
 20
209.8341708718659
 30
0.0
 11
878.8
 21
209.5584061645654
 31
0.0
  0
LINE
  5
111
  8
0
  6
CONTINUOUS
 62
     7
 10
878.8
 20
170.6415938354346
 30
0.0
 11
878.8531741251696
 21
170.3658291281341
 31
0.0
  0
LINE
  5
112
  8
0
  6
CONTINUOUS
 62
     7
 10
879.7912734645031
 20
210.4215227214185
 30
0.0
 11
889.5000000000009
 21
210.4948982591235
 31
0.0
  0
ARC
  5
113
  8
0
  6
CONTINUOUS
 62
     7
 10
913.508688789405
 20
93.49999999999999
 30
0.0
 40
0.999999999999892
 50
270.0
 51
359.5000000000001
  0
LINE
  5
114
  8
0
  6
CONTINUOUS
 62
     7
 10
880.710810344182
 20
213.2989054892697
 30
0.0
 11
880.4999999999999
 21
213.3889651675275
 31
0.0
  0
LINE
  5
115
  8
0
  6
CONTINUOUS
 62
     7
 10
868.4999999999999
 20
96.11013312387553
 30
0.0
 11
868.4999999999999
 21
108.7997924617903
 31
0.0
  0
LINE
  5
116
  8
0
  6
CONTINUOUS
 62
     7
 10
898.4723493712597
 20
166.6319881622072
 30
0.0
 11
898.5
 21
166.6286216546986
 31
0.0
  0
LINE
  5
117
  8
0
  6
CONTINUOUS
 62
     7
 10
866.4999999999999
 20
63.99999999999999
 30
0.0
 11
868.7997924617903
 21
63.99999999999999
 31
0.0
  0
LINE
  5
118
  8
0
  6
CONTINUOUS
 62
     7
 10
837.1579798566743
 20
95.17044050308964
 30
0.0
 11
838.3420201433256
 21
94.73948508257656
 31
0.0
  0
LINE
  5
119
  8
0
  6
CONTINUOUS
 62
     7
 10
880.4999999999999
 20
166.8110348324724
 30
0.0
 11
880.7108385281856
 21
166.9010978133921
 31
0.0
  0
LINE
  5
11A
  8
0
  6
CONTINUOUS
 62
     7
 10
915.5785798885025
 20
52.49999999999999
 30
0.0
 11
931.5
 21
52.49999999999999
 31
0.0
  0
LINE
  5
11B
  8
0
  6
CONTINUOUS
 62
     7
 10
898.6528300051374
 20
171.8968555197206
 30
0.0
 11
898.5311881442715
 21
171.4325001807279
 31
0.0
  0
ARC
  5
11C
  8
0
  6
CONTINUOUS
 62
     7
 10
866.4999999999999
 20
91.49999999999999
 30
0.0
 40
0.5000000000000004
 50
179.9999999999986
 51
270.0
  0
ARC
  5
11D
  8
0
  6
CONTINUOUS
 62
     7
 10
915.5785798885025
 20
53.49999999999999
 30
0.0
 40
1.000000000000003
 50
180.4999999999999
 51
270.0
  0
LINE
  5
11E
  8
0
  6
CONTINUOUS
 62
     7
 10
889.5000000000003
 20
169.7051017408765
 30
0.0
 11
899.2087265354983
 21
169.7784772785816
 31
0.0
  0
LINE
  5
11F
  8
0
  6
CONTINUOUS
 62
     7
 10
913.508688789405
 20
92.49999999999999
 30
0.0
 11
898.5135266450757
 21
92.49999999999999
 31
0.0
  0
LINE
  5
120
  8
0
  6
CONTINUOUS
 62
     7
 10
898.5
 20
167.3406328398247
 30
0.0
 11
898.5
 21
167.3110109636693
 31
0.0
  0
LINE
  5
121
  8
0
  6
CONTINUOUS
 62
     7
 10
880.3208333295267
 20
208.308937489742
 30
0.0
 11
880.302453411751
 21
207.2898658135519
 31
0.0
  0
LINE
  5
122
  8
0
  6
CONTINUOUS
 62
     7
 10
880.3024534164595
 20
172.9101341864503
 30
0.0
 11
880.3208333295267
 21
171.891062510258
 31
0.0
  0
LINE
  5
123
  8
0
  6
CONTINUOUS
 62
     7
 10
880.4999999999999
 20
167.3110109636692
 30
0.0
 11
880.4999999999999
 21
167.3406328398247
 31
0.0
  0
LINE
  5
124
  8
0
  6
CONTINUOUS
 62
     7
 10
880.3208333295267
 20
208.308937489742
 30
0.0
 11
880.4430137618863
 21
208.7681565014677
 31
0.0
  0
LINE
  5
125
  8
0
  6
CONTINUOUS
 62
     7
 10
880.4430066724823
 20
171.431857874264
 30
0.0
 11
880.3208333295267
 21
171.891062510258
 31
0.0
  0
LINE
  5
126
  8
0
  6
CONTINUOUS
 62
     7
 10
898.5311891657386
 20
208.7674977490958
 30
0.0
 11
898.6528300051374
 21
208.3031444802794
 31
0.0
  0
LINE
  5
127
  8
0
  6
CONTINUOUS
 62
     7
 10
880.4999999999999
 20
212.8593671601753
 30
0.0
 11
880.4999999999999
 21
212.8889890363307
 31
0.0
  0
LINE
  5
128
  8
0
  6
CONTINUOUS
 62
     7
 10
898.5
 20
212.8889890363307
 30
0.0
 11
898.5
 21
212.8593671601753
 31
0.0
  0
TEXT
  5
129
  8
0
  6
CONTINUOUS
 62
     7
 10
2088.814986870077
 20
33.32842003251219
 30
0.0
 40
3.0
  1
BWMH-10A25
  0
LINE
  5
12A
  8
0
  6
CONTINUOUS
 62
     7
 10
1978.0
 20
96.49999999999999
 30
0.0
 11
1978.0
 21
58.49999999999999
 31
0.0
  0
CIRCLE
  5
12B
  8
0
  6
CONTINUOUS
 62
     7
 10
1948.490747473779
 20
77.4964016003276
 30
0.0
 40
5.074967010615287
  0
LINE
  5
12C
  8
0
  6
CENTER
 62
     1
 10
831.5000000000001
 20
190.1
 30
0.0
 11
2032.5
 21
190.1
 31
0.0
  0
LINE
  5
12D
  8
0
  6
CONTINUOUS
 62
     7
 10
2021.0
 20
58.49999999999998
 30
0.0
 11
2021.0
 21
96.5
 31
0.0
  0
LINE
  5
12E
  8
0
  6
CENTER
 62
     1
 10
852.5
 20
129.0
 30
0.0
 11
852.5
 21
77.49999999999999
 31
0.0
  0
LINE
  5
12F
  8
0
  6
CONTINUOUS
 62
     7
 10
1901.5
 20
165.1
 30
0.0
 11
1917.508688789405
 21
165.1
 31
0.0
  0
LINE
  5
130
  8
0
  6
CENTER
 62
     1
 10
2097.6
 20
50.49999999999999
 30
0.0
 11
2097.6
 21
135.0
 31
0.0
  0
LINE
  5
131
  8
0
  6
CONTINUOUS
 62
     7
 10
1901.5
 20
102.5
 30
0.0
 11
1901.5
 21
52.50000000000001
 31
0.0
  0
LINE
  5
132
  8
0
  6
CONTINUOUS
 62
     7
 10
2021.5
 20
96.0
 30
0.0
 11
2021.5
 21
58.99999999999998
 31
0.0
  0
LINE
  5
133
  8
0
  6
CENTER
 62
     1
 10
852.5
 20
77.49999999999999
 30
0.0
 11
2032.499999999999
 21
77.50000000000006
 31
0.0
  0
LINE
  5
134
  8
0
  6
CONTINUOUS
 62
     7
 10
1973.5
 20
92.0
 30
0.0
 11
1973.5
 21
63.0
 31
0.0
  0
LINE
  5
135
  8
0
  6
CENTER
 62
     1
 10
852.5
 20
169.1000000000001
 30
0.0
 11
852.5
 21
211.0999999999999
 31
0.0
  0
LINE
  5
136
  8
0
  6
CONTINUOUS
 62
     7
 10
884.4999999999999
 20
189.932158404106
 30
0.0
 11
884.4999999999999
 21
190.9493330907285
 31
0.0
  0
LINE
  5
137
  8
0
  6
CONTINUOUS
 62
     7
 10
884.4999999999999
 20
201.5727895520679
 30
0.0
 11
884.4999999999999
 21
202.4197651438353
 31
0.0
  0
LINE
  5
138
  8
0
  6
CONTINUOUS
 62
     7
 10
884.4999999999999
 20
183.8868092071323
 30
0.0
 11
884.4999999999999
 21
184.8673284729599
 31
0.0
  0
LINE
  5
139
  8
0
  6
CONTINUOUS
 62
     7
 10
884.4999999999999
 20
173.7551574617051
 30
0.0
 11
884.4999999999999
 21
174.4334633908
 31
0.0
  0
LINE
  5
13A
  8
0
  6
CONTINUOUS
 62
     7
 10
884.4999999999999
 20
178.3448157769283
 30
0.0
 11
884.4999999999999
 21
179.2092437824161
 31
0.0
  0
LINE
  5
13B
  8
0
  6
CONTINUOUS
 62
     7
 10
884.4999999999999
 20
195.9911051289866
 30
0.0
 11
884.4999999999999
 21
196.9625297926646
 31
0.0
  0
LINE
  5
13C
  8
0
  6
CONTINUOUS
 62
     7
 10
896.9138117185473
 20
189.2143730950406
 30
0.0
 11
896.9130582805564
 21
191.6474215475029
 31
0.0
  0
LINE
  5
13D
  8
0
  6
CONTINUOUS
 62
     7
 10
896.913088061063
 20
183.3696858502188
 30
0.0
 11
896.9135954165366
 21
185.715053808712
 31
0.0
  0
LINE
  5
13E
  8
0
  6
CONTINUOUS
 62
     7
 10
896.9135954165366
 20
185.715053808712
 30
0.0
 11
896.0621198375585
 21
185.569721384745
 31
0.0
  0
LINE
  5
13F
  8
0
  6
CONTINUOUS
 62
     7
 10
896.913065354672
 20
180.1379084512471
 30
0.0
 11
896.8233588292338
 21
180.0692656710779
 31
0.0
  0
ARC
  5
140
  8
0
  6
CONTINUOUS
 62
     7
 10
896.0750714594607
 20
181.3451017216726
 30
0.0
 40
1.479084722306004
 50
269.4782782053312
 51
300.3919413139798
  0
LINE
  5
141
  8
0
  6
CONTINUOUS
 62
     7
 10
896.9134117371375
 20
200.6397055704506
 30
0.0
 11
896.9130713608412
 21
202.6656394966843
 31
0.0
  0
LINE
  5
142
  8
0
  6
CONTINUOUS
 62
     7
 10
896.9134095742083
 20
195.1308267256477
 30
0.0
 11
896.913059785141
 21
197.4544368498108
 31
0.0
  0
LINE
  5
143
  8
0
  6
CONTINUOUS
 62
     7
 10
896.9133272277029
 20
173.7453648286515
 30
0.0
 11
896.9131308497022
 21
175.3678440391757
 31
0.0
  0
LINE
  5
144
  8
0
  6
CONTINUOUS
 62
     7
 10
896.0616278850895
 20
183.2530035387274
 30
0.0
 11
896.913088061063
 21
183.3696858502188
 31
0.0
  0
LINE
  5
145
  8
0
  6
CONTINUOUS
 62
     7
 10
896.0623384204739
 20
189.2370339735711
 30
0.0
 11
896.9138117185473
 21
189.2143730950406
 31
0.0
  0
LINE
  5
146
  8
0
  6
CONTINUOUS
 62
     7
 10
896.9141354020067
 20
205.2947066643154
 30
0.0
 11
896.9133990129218
 21
206.8588498293852
 31
0.0
  0
LINE
  5
147
  8
0
  6
CONTINUOUS
 62
     7
 10
884.5004491844237
 20
170.9168596384562
 30
0.0
 11
884.4999999999999
 21
170.9254899029192
 31
0.0
  0
LINE
  5
148
  8
0
  6
CONTINUOUS
 62
     7
 10
884.4999999999999
 20
206.2250167969474
 30
0.0
 11
884.4999999999999
 21
206.878926391517
 31
0.0
  0
CIRCLE
  5
149
  8
0
  6
CONTINUOUS
 62
     7
 10
852.5
 20
190.1
 30
0.0
 40
18.49999999999996
  0
CIRCLE
  5
14A
  8
0
  6
CONTINUOUS
 62
     7
 10
852.5
 20
190.1
 30
0.0
 40
18.9999999999999
  0
LINE
  5
14B
  8
0
  6
CONTINUOUS
 62
     7
 10
896.0619464095244
 20
195.2909945623643
 30
0.0
 11
896.9134095742083
 21
195.1308267256477
 31
0.0
  0
CIRCLE
  5
14C
  8
0
  6
CONTINUOUS
 62
     7
 10
852.5
 20
190.1
 30
0.0
 40
12.79999999999992
  0
CIRCLE
  5
14D
  8
0
  6
CONTINUOUS
 62
     7
 10
852.5
 20
190.1
 30
0.0
 40
10.58290524401217
  0
LINE
  5
14E
  8
0
  6
CONTINUOUS
 62
     7
 10
861.1091564318305
 20
172.1
 30
0.0
 11
858.5827625302982
 21
172.1
 31
0.0
  0
LINE
  5
14F
  8
0
  6
CONTINUOUS
 62
     7
 10
896.9132241383486
 20
178.0702345710482
 30
0.0
 11
896.913065354672
 21
180.1379084512471
 31
0.0
  0
CIRCLE
  5
150
  8
0
  6
CONTINUOUS
 62
     7
 10
852.5
 20
190.1
 30
0.0
 40
15.79999999999992
  0
LINE
  5
151
  8
0
  6
CONTINUOUS
 62
     7
 10
896.913059785141
 20
197.4544368498108
 30
0.0
 11
896.0616005387285
 21
197.5862205639508
 31
0.0
  0
LINE
  5
152
  8
0
  6
CONTINUOUS
 62
     7
 10
898.5
 20
166.6285418101168
 30
0.0
 11
899.2087265354987
 21
166.6347267728919
 31
0.0
  0
LINE
  5
153
  8
0
  6
CONTINUOUS
 62
     7
 10
880.3024572194972
 20
172.9101341864549
 30
0.0
 11
878.8
 21
172.9101341864549
 31
0.0
  0
ARC
  5
154
  8
0
  6
CONTINUOUS
 62
     7
 10
898.0
 20
166.6241974154143
 30
0.0
 40
0.5000000000000008
 50
270.5000000000001
 51
0.0
  0
LINE
  5
155
  8
0
  6
CONTINUOUS
 62
     7
 10
879.7912734645014
 20
166.6347267728919
 30
0.0
 11
880.4999999999999
 21
166.6285418101168
 31
0.0
  0
ARC
  5
156
  8
0
  6
CONTINUOUS
 62
     7
 10
881.0
 20
212.8911190752474
 30
0.0
 40
0.5000000000000018
 50
90.4999999999989
 51
180.0
  0
ARC
  5
157
  8
0
  6
CONTINUOUS
 62
     7
 10
898.0
 20
212.8911190752474
 30
0.0
 40
0.4999999999999449
 50
0.0
 51
89.49999999999991
  0
ARC
  5
158
  8
0
  6
CONTINUOUS
 62
     7
 10
899.1999999999999
 20
212.5653113040439
 30
0.0
 40
1.000000000000001
 50
0.0
 51
89.4999999999743
  0
LINE
  5
159
  8
0
  6
CONTINUOUS
 62
     7
 10
880.9956367322508
 20
166.8088999632205
 30
0.0
 11
889.4999999999999
 21
166.7346835093383
 31
0.0
  0
LINE
  5
15A
  8
0
  6
CONTINUOUS
 62
     7
 10
898.0043632677491
 20
213.3911000367795
 30
0.0
 11
889.4999999999999
 21
213.4653164906617
 31
0.0
  0
LINE
  5
15B
  8
0
  6
CONTINUOUS
 62
     7
 10
880.4999999999999
 20
213.5714581898831
 30
0.0
 11
879.7912734645014
 21
213.565273227108
 31
0.0
  0
LINE
  5
15C
  8
0
  6
CONTINUOUS
 62
     7
 10
889.4999999999999
 20
166.7346835093383
 30
0.0
 11
898.0043632677491
 21
166.8088999632205
 31
0.0
  0
ARC
  5
15D
  8
0
  6
CONTINUOUS
 62
     7
 10
881.0
 20
166.6241974154143
 30
0.0
 40
0.500000000000056
 50
180.0
 51
269.5000000000011
  0
ARC
  5
15E
  8
0
  6
CONTINUOUS
 62
     7
 10
898.0
 20
166.7960086200818
 30
0.0
 40
0.5000000000000008
 50
270.5000000000001
 51
0.0
  0
LINE
  5
15F
  8
0
  6
CONTINUOUS
 62
     7
 10
898.6986338958128
 20
205.3341708718659
 30
0.0
 11
900.1999999999999
 21
205.3341708718659
 31
0.0
  0
LINE
  5
160
  8
0
  6
CONTINUOUS
 62
     7
 10
931.5
 20
165.1
 30
0.0
 11
931.5
 21
215.1
 31
0.0
  0
ARC
  5
161
  8
0
  6
CONTINUOUS
 62
     7
 10
898.0
 20
213.4039913799181
 30
0.0
 40
0.4999999999999449
 50
0.0000000000003976
 51
89.49999999999991
  0
LINE
  5
162
  8
0
  6
CONTINUOUS
 62
     7
 10
861.1091564318305
 20
208.1
 30
0.0
 11
858.5827625302982
 21
208.1
 31
0.0
  0
LINE
  5
163
  8
0
  6
CONTINUOUS
 62
     7
 10
898.0043632677491
 20
213.9039723414502
 30
0.0
 11
889.4999999999999
 21
213.9781887953325
 31
0.0
  0
LINE
  5
164
  8
0
  6
CONTINUOUS
 62
     7
 10
889.4999999999999
 20
213.9781887953325
 30
0.0
 11
880.9956367322508
 21
213.9039723414502
 31
0.0
  0
LINE
  5
165
  8
0
  6
CONTINUOUS
 62
     7
 10
889.4999999999999
 20
166.05
 30
0.0
 11
898.0043632677491
 21
166.1242164538822
 31
0.0
  0
LINE
  5
166
  8
0
  6
CONTINUOUS
 62
     7
 10
880.9956367322508
 20
166.1242164538822
 30
0.0
 11
889.4999999999999
 21
166.05
 31
0.0
  0
LINE
  5
167
  8
0
  6
CONTINUOUS
 62
     7
 10
881.3218231502038
 20
209.283135890508
 30
0.0
 11
897.6519965457431
 21
209.283135890508
 31
0.0
  0
LINE
  5
168
  8
0
  6
CONTINUOUS
 62
     7
 10
900.1999999999999
 20
174.8658291281341
 30
0.0
 11
898.6986475812377
 21
174.8658291281341
 31
0.0
  0
LINE
  5
169
  8
0
  6
CONTINUOUS
 62
     7
 10
880.9956367322508
 20
166.2960276585497
 30
0.0
 11
889.4999999999999
 21
166.2218112046675
 31
0.0
  0
LINE
  5
16A
  8
0
  6
CONTINUOUS
 62
     7
 10
889.4999999999999
 20
213.4653164906617
 30
0.0
 11
880.9956367322508
 21
213.3911000367795
 31
0.0
  0
LINE
  5
16B
  8
0
  6
CONTINUOUS
 62
     7
 10
878.8
 20
207.2898658135451
 30
0.0
 11
880.3024596728037
 21
207.2898658135451
 31
0.0
  0
LINE
  5
16C
  8
0
  6
CONTINUOUS
 62
     7
 10
897.6519963498308
 20
170.9168641094919
 30
0.0
 11
881.3218228508846
 21
170.9168641094919
 31
0.0
  0
LINE
  5
16D
  8
0
  6
CONTINUOUS
 62
     7
 10
899.2087265354987
 20
213.565273227108
 30
0.0
 11
898.5
 21
213.5714581898831
 31
0.0
  0
ARC
  5
16E
  8
0
  6
CONTINUOUS
 62
     7
 10
898.0
 20
167.3088809247526
 30
0.0
 40
0.5000000000000008
 50
270.5000000000001
 51
0.0
  0
ARC
  5
16F
  8
0
  6
CONTINUOUS
 62
     7
 10
881.0
 20
213.5758025845857
 30
0.0
 40
0.5000000000000018
 50
90.4999999999989
 51
180.0
  0
LINE
  5
170
  8
0
  6
CONTINUOUS
 62
     7
 10
898.0043632677491
 20
214.0757835461177
 30
0.0
 11
889.4999999999999
 21
214.15
 31
0.0
  0
ARC
  5
171
  8
0
  6
CONTINUOUS
 62
     7
 10
899.1999999999999
 20
167.6346886959561
 30
0.0
 40
1.000000000000006
 50
270.5000000000258
 51
0.0
  0
ARC
  5
172
  8
0
  6
CONTINUOUS
 62
     7
 10
881.0
 20
166.7960086200818
 30
0.0
 40
0.500000000000056
 50
180.0000000000004
 51
269.5000000000011
  0
ARC
  5
173
  8
0
  6
CONTINUOUS
 62
     7
 10
879.8
 20
167.6346886959561
 30
0.0
 40
1.000000000000001
 50
180.0
 51
269.4999999999883
  0
ARC
  5
174
  8
0
  6
CONTINUOUS
 62
     7
 10
879.8
 20
212.5653113040439
 30
0.0
 40
1.000000000000005
 50
90.50000000001162
 51
180.0
  0
LINE
  5
175
  8
0
  6
CONTINUOUS
 62
     7
 10
889.4999999999999
 20
166.2218112046675
 30
0.0
 11
898.0043632677491
 21
166.2960276585497
 31
0.0
  0
ARC
  5
176
  8
0
  6
CONTINUOUS
 62
     7
 10
881.0
 20
213.4039913799181
 30
0.0
 40
0.5000000000000018
 50
90.4999999999989
 51
180.0
  0
ARC
  5
177
  8
0
  6
CONTINUOUS
 62
     7
 10
881.0
 20
167.3088809247526
 30
0.0
 40
0.500000000000056
 50
180.0
 51
269.5000000000027
  0
ARC
  5
178
  8
0
  6
CONTINUOUS
 62
     7
 10
898.0
 20
213.5758025845857
 30
0.0
 40
0.4999999999999449
 50
0.0
 51
89.49999999999989
  0
LINE
  5
179
  8
0
  6
CONTINUOUS
 62
     7
 10
889.4999999999999
 20
214.15
 30
0.0
 11
880.9956367322508
 21
214.0757835461177
 31
0.0
  0
LINE
  5
17A
  8
0
  6
CONTINUOUS
 62
     7
 10
898.5
 20
207.6004182672286
 30
0.0
 11
897.7164165290922
 21
209.2808125589374
 31
0.0
  0
LINE
  5
17B
  8
0
  6
CONTINUOUS
 62
     7
 10
861.6090802794087
 20
172.5912737967813
 30
0.0
 11
861.6237896452891
 21
173.4339728036788
 31
0.0
  0
ARC
  5
17C
  8
0
  6
CONTINUOUS
 62
     7
 10
915.5785798885025
 20
166.1
 30
0.0
 40
1.000000000000003
 50
180.4999999999999
 51
270.0
  0
LINE
  5
17D
  8
0
  6
CONTINUOUS
 62
     7
 10
914.5786179654384
 20
214.1087265354984
 30
0.0
 11
914.508650712469
 21
206.0912734644827
 31
0.0
  0
LINE
  5
17E
  8
0
  6
CONTINUOUS
 62
     7
 10
861.6237896452891
 20
206.7660271963211
 30
0.0
 11
861.6090802794087
 21
207.6087262032186
 31
0.0
  0
ARC
  5
17F
  8
0
  6
CONTINUOUS
 62
     7
 10
915.5785798885025
 20
214.1
 30
0.0
 40
1.000000000000001
 50
90.0
 51
179.5000000000001
  0
ARC
  5
180
  8
0
  6
CONTINUOUS
 62
     7
 10
861.1091564318305
 20
172.6
 30
0.0
 40
0.5000000000000004
 50
270.0
 51
359.0000000000002
  0
LINE
  5
181
  8
0
  6
CONTINUOUS
 62
     7
 10
870.8983809716216
 20
207.4420201433257
 30
0.0
 11
869.7394850825762
 21
204.2579798566743
 31
0.0
  0
LINE
  5
182
  8
0
  6
CONTINUOUS
 62
     7
 10
898.5135266450757
 20
175.1
 30
0.0
 11
913.508688789405
 21
175.1
 31
0.0
  0
LINE
  5
183
  8
0
  6
CONTINUOUS
 62
     7
 10
931.5
 20
215.1
 30
0.0
 11
915.5785798885025
 21
215.1
 31
0.0
  0
LINE
  5
184
  8
0
  6
CONTINUOUS
 62
     7
 10
915.5785798885025
 20
165.1
 30
0.0
 11
931.5
 21
165.1
 31
0.0
  0
LINE
  5
185
  8
0
  6
CONTINUOUS
 62
     7
 10
914.508650712469
 20
174.1087265355173
 30
0.0
 11
914.5786179654384
 21
166.0912734645016
 31
0.0
  0
LINE
  5
186
  8
0
  6
CONTINUOUS
 62
     7
 10
871.8380735924076
 20
172.1
 30
0.0
 11
878.8
 21
172.1
 31
0.0
  0
ARC
  5
187
  8
0
  6
CONTINUOUS
 62
     7
 10
871.8380735924076
 20
207.1
 30
0.0
 40
1.000000000000001
 50
90.0
 51
159.9999999999999
  0
ARC
  5
188
  8
0
  6
CONTINUOUS
 62
     7
 10
861.1091564318305
 20
207.6
 30
0.0
 40
0.4999999999999361
 50
0.999999999999847
 51
90.0
  0
LINE
  5
189
  8
0
  6
CONTINUOUS
 62
     7
 10
897.7164165291053
 20
170.9191874414126
 30
0.0
 11
898.500000000012
 21
172.5995817330899
 31
0.0
  0
ARC
  5
18A
  8
0
  6
CONTINUOUS
 62
     7
 10
868.7997924617903
 20
175.6
 30
0.0
 40
1.000000000000001
 50
19.99999999999994
 51
90.0
  0
LINE
  5
18B
  8
0
  6
CONTINUOUS
 62
     7
 10
869.7394850825762
 20
175.9420201433257
 30
0.0
 11
870.8983809716216
 21
172.7579798566743
 31
0.0
  0
ARC
  5
18C
  8
0
  6
CONTINUOUS
 62
     7
 10
868.7997924617903
 20
204.6
 30
0.0
 40
0.9999999999999586
 50
270.0
 51
340.0000000000001
  0
ARC
  5
18D
  8
0
  6
CONTINUOUS
 62
     7
 10
913.508688789405
 20
174.1
 30
0.0
 40
1.000000000000001
 50
0.4999999999998863
 51
90.0
  0
ARC
  5
18E
  8
0
  6
CONTINUOUS
 62
     7
 10
871.8380735924076
 20
173.1
 30
0.0
 40
1.000000000000058
 50
200.0
 51
269.9999999999999
  0
ARC
  5
18F
  8
0
  6
CONTINUOUS
 62
     7
 10
913.508688789405
 20
206.1
 30
0.0
 40
1.000000000000003
 50
270.0
 51
359.5000000000001
  0
LINE
  5
190
  8
0
  6
CONTINUOUS
 62
     7
 10
913.508688789405
 20
205.1
 30
0.0
 11
898.5135266450757
 21
205.1
 31
0.0
  0
LINE
  5
191
  8
0
  6
CONTINUOUS
 62
     7
 10
878.8
 20
208.1
 30
0.0
 11
871.8380735924076
 21
208.1
 31
0.0
  0
ARC
  5
192
  8
0
  6
CONTINUOUS
 62
     7
 10
896.0903350031646
 20
95.24384448926767
 30
0.0
 40
1.029989413255901
 50
36.98666623311811
 51
91.59847300661599
  0
ARC
  5
193
  8
0
  6
CONTINUOUS
 62
     7
 10
897.9398151195279
 20
72.04812715594072
 30
0.0
 40
0.5845375101917424
 50
343.4032215901715
 51
83.660125923701
  0
ARC
  5
194
  8
0
  6
CONTINUOUS
 62
     7
 10
897.933701748748
 20
74.87555199981804
 30
0.0
 40
0.5927887480412156
 50
342.8065341006043
 51
83.15395832577259
  0
ARC
  5
195
  8
0
  6
CONTINUOUS
 62
     7
 10
897.8979277627644
 20
82.97963079308089
 30
0.0
 40
0.6179557612279771
 50
279.9179704905315
 51
13.01868199559306
  0
ARC
  5
196
  8
0
  6
CONTINUOUS
 62
     7
 10
881.0571395619666
 20
71.59722352043418
 30
0.0
 40
0.581096638591047
 50
163.4905032638775
 51
263.9244787801678
  0
ARC
  5
197
  8
0
  6
CONTINUOUS
 62
     7
 10
881.068826984827
 20
77.26173880556344
 30
0.0
 40
0.5957407332076491
 50
162.711998257437
 51
262.9430475907424
  0
ARC
  5
198
  8
0
  6
CONTINUOUS
 62
     7
 10
897.9311730151728
 20
77.73826119443652
 30
0.0
 40
0.5957407332076491
 50
342.7119982574383
 51
82.94304759074237
  0
ARC
  5
199
  8
0
  6
CONTINUOUS
 62
     7
 10
881.1125918682338
 20
80.56436746575625
 30
0.0
 40
0.6290975156617694
 50
100.7141564815241
 51
193.1537346792384
  0
ARC
  5
19A
  8
0
  6
CONTINUOUS
 62
     7
 10
897.887408131766
 20
74.43563253424372
 30
0.0
 40
0.6290975156617694
 50
280.7141564815241
 51
13.15373467923831
  0
ARC
  5
19B
  8
0
  6
CONTINUOUS
 62
     7
 10
881.0648086011082
 20
74.40452333910032
 30
0.0
 40
0.5910825931477172
 50
162.8525884238211
 51
263.2795204154185
  0
ARC
  5
19C
  8
0
  6
CONTINUOUS
 62
     7
 10
881.0973625610852
 20
83.37594347521363
 30
0.0
 40
0.6131629782826914
 50
99.54971938956083
 51
193.0352985663949
  0
ARC
  5
19D
  8
0
  6
CONTINUOUS
 62
     7
 10
897.9351913988917
 20
80.59547666089966
 30
0.0
 40
0.5910825931477033
 50
342.8525884238198
 51
83.27952041541835
  0
ARC
  5
19E
  8
0
  6
CONTINUOUS
 62
     7
 10
881.1185949903263
 20
77.70615405714939
 30
0.0
 40
0.6353464159781798
 50
101.1588323831235
 51
193.1861217686939
  0
ARC
  5
19F
  8
0
  6
CONTINUOUS
 62
     7
 10
897.8849829806976
 20
80.15606246305025
 30
0.0
 40
0.6315621360034638
 50
280.8958208953262
 51
13.143686678297
  0
ARC
  5
1A0
  8
0
  6
CONTINUOUS
 62
     7
 10
881.1150170193023
 20
74.84393753694974
 30
0.0
 40
0.6315621360034638
 50
100.8958208953264
 51
193.1436866782969
  0
ARC
  5
1A1
  8
0
  6
CONTINUOUS
 62
     7
 10
897.8814050096736
 20
77.29384594285058
 30
0.0
 40
0.6353464159781798
 50
281.1588323831234
 51
13.18612176869402
  0
ARC
  5
1A2
  8
0
  6
CONTINUOUS
 62
     7
 10
897.9428604380333
 20
83.40277647956579
 30
0.0
 40
0.5810966385910609
 50
343.4905032638787
 51
83.92447878016795
  0
ARC
  5
1A3
  8
0
  6
CONTINUOUS
 62
     7
 10
897.9026374389147
 20
71.62405652478634
 30
0.0
 40
0.6131629782826945
 50
279.5497193895611
 51
13.03529856639619
  0
ARC
  5
1A4
  8
0
  6
CONTINUOUS
 62
     7
 10
881.1020722372355
 20
72.0203692069191
 30
0.0
 40
0.6179557612279801
 50
99.91797049053152
 51
193.0186819955943
  0
ARC
  5
1A5
  8
0
  6
CONTINUOUS
 62
     7
 10
879.0692833322585
 20
88.73265565202193
 30
0.0
 40
0.2692833322585075
 50
127.9731574778252
 51
143.3357438189893
  0
ARC
  5
1A6
  8
0
  6
CONTINUOUS
 62
     7
 10
882.2662226176927
 20
84.63680619274646
 30
0.0
 40
5.465089678515026
 50
125.4965960933227
 51
127.9731574778338
  0
ARC
  5
1A7
  8
0
  6
CONTINUOUS
 62
     7
 10
879.5049172892667
 20
88.50850000492855
 30
0.0
 40
0.7095854894638969
 50
95.65354096964438
 51
125.4965960933222
  0
ARC
  5
1A8
  8
0
  6
CONTINUOUS
 62
     7
 10
879.8
 20
85.52769777583661
 30
0.0
 40
3.704957876185313
 50
90.13495303191888
 51
95.65354096964359
  0
ARC
  5
1A9
  8
0
  6
CONTINUOUS
 62
     7
 10
881.060184880472
 20
82.95187284405925
 30
0.0
 40
0.5845375101917424
 50
163.4032215901716
 51
263.660125923701
  0
ARC
  5
1AA
  8
0
  6
CONTINUOUS
 62
     7
 10
881.0662982512519
 20
80.12444800018193
 30
0.0
 40
0.5927887480412017
 50
162.8065341006032
 51
263.1539583257725
  0
ARC
  5
1AB
  8
0
  6
CONTINUOUS
 62
     7
 10
899.1999999999999
 20
85.52769777583661
 30
0.0
 40
3.704957876185313
 50
84.34645903035636
 51
89.86504696808629
  0
ARC
  5
1AC
  8
0
  6
CONTINUOUS
 62
     7
 10
899.4950827107333
 20
88.50850000492855
 30
0.0
 40
0.7095854894638969
 50
54.50340390667793
 51
84.34645903035573
  0
ARC
  5
1AD
  8
0
  6
CONTINUOUS
 62
     7
 10
896.733777382266
 20
84.63680619268858
 30
0.0
 40
5.465089678586134
 50
52.02684252219739
 51
54.50340390667714
  0
ARC
  5
1AE
  8
0
  6
CONTINUOUS
 62
     7
 10
899.9307166677413
 20
88.73265565202192
 30
0.0
 40
0.2692833322587296
 50
36.66425618100374
 51
52.02684252212079
  0
ARC
  5
1AF
  8
0
  6
CONTINUOUS
 62
     7
 10
896.0609089760493
 20
93.93993381057115
 30
0.0
 40
1.066248634568244
 50
36.9310901540739
 51
89.9539025656959
  0
ARC
  5
1B0
  8
0
  6
CONTINUOUS
 62
     7
 10
-1064.686162682537
 20
-150560.387649517
 30
0.0
 40
150670.9403012223
 50
89.25436336577877
 51
89.25857350782236
  0
LINE
  5
1B1
  8
0
  6
CONTINUOUS
 62
     7
 10
1953.5610974601
 20
204.5997288551418
 30
0.0
 11
1953.50857521602
 21
207.6087262032186
 31
0.0
  0
LINE
  5
1B2
  8
0
  6
CONTINUOUS
 62
     7
 10
880.4999999999999
 20
166.6241974154143
 30
0.0
 11
880.4999999999999
 21
166.8110348324723
 31
0.0
  0
LINE
  5
1B3
  8
0
  6
CONTINUOUS
 62
     7
 10
1978.0
 20
171.1
 30
0.0
 11
2021.0
 21
171.1
 31
0.0
  0
LINE
  5
1B4
  8
0
  6
CONTINUOUS
 62
     7
 10
898.5
 20
213.5758025845857
 30
0.0
 11
898.5
 21
213.3889651675276
 31
0.0
  0
LINE
  5
1B5
  8
0
  6
CONTINUOUS
 62
     7
 10
898.6999999999999
 20
205.1
 30
0.0
 11
898.6999999999999
 21
208.3031444802795
 31
0.0
  0
LINE
  5
1B6
  8
0
  6
CONTINUOUS
 62
     7
 10
880.4999999999999
 20
213.3889651675276
 30
0.0
 11
880.4999999999999
 21
213.5758025845857
 31
0.0
  0
LINE
  5
1B7
  8
0
  6
CONTINUOUS
 62
     7
 10
2021.0
 20
209.1
 30
0.0
 11
1978.0
 21
209.1
 31
0.0
  0
LINE
  5
1B8
  8
0
  6
CONTINUOUS
 62
     7
 10
900.1999999999999
 20
167.6346886959561
 30
0.0
 11
900.1999999999999
 21
175.1
 31
0.0
  0
LINE
  5
1B9
  8
0
  6
CONTINUOUS
 62
     7
 10
868.7997924617903
 20
203.6
 30
0.0
 11
865.8697419571209
 21
203.6
 31
0.0
  0
LINE
  5
1BA
  8
0
  6
CONTINUOUS
 62
     7
 10
1953.508575212981
 20
172.5912737968345
 30
0.0
 11
1953.561094842449
 21
175.6001211797334
 31
0.0
  0
LINE
  5
1BB
  8
0
  6
CONTINUOUS
 62
     7
 10
1973.5
 20
204.6
 30
0.0
 11
1953.560279742035
 21
204.6
 31
0.0
  0
LINE
  5
1BC
  8
0
  6
CONTINUOUS
 62
     7
 10
1943.439908059775
 20
204.6
 30
0.0
 11
1919.582943322398
 21
204.6
 31
0.0
  0
ARC
  5
1BD
  8
0
  6
CONTINUOUS
 62
     7
 10
336.992290883889
 20
-150571.4683128
 30
0.0
 40
150670.9403012225
 50
89.78740145054081
 51
89.79161141581282
  0
LINE
  5
1BE
  8
0
  6
CONTINUOUS
 62
     7
 10
1953.008651368442
 20
172.1
 30
0.0
 11
1943.991348631558
 21
172.1
 31
0.0
  0
ARC
  5
1BF
  8
0
  6
CONTINUOUS
 62
     7
 10
896.0525579360202
 20
97.86381192680935
 30
0.0
 40
1.000457336392099
 50
30.58670980715328
 51
89.439866762174
  0
LINE
  5
1C0
  8
0
  6
CONTINUOUS
 62
     7
 10
2018.5
 20
209.1
 30
0.0
 11
2018.5
 21
171.1
 31
0.0
  0
LINE
  5
1C1
  8
0
  6
CONTINUOUS
 62
     7
 10
898.5
 20
172.5996849255368
 30
0.0
 11
898.5
 21
207.6003150744633
 31
0.0
  0
ARC
  5
1C2
  8
0
  6
CONTINUOUS
 62
     7
 10
896.0652226877572
 20
97.39541940624106
 30
0.0
 40
1.000789029867089
 50
32.03719952786891
 51
90.17764034212942
  0
LINE
  5
1C3
  8
0
  6
CONTINUOUS
 62
     7
 10
900.1999999999999
 20
205.1
 30
0.0
 11
900.1999999999999
 21
212.5653113040439
 31
0.0
  0
LINE
  5
1C4
  8
0
  6
CONTINUOUS
 62
     7
 10
898.6999999999999
 20
171.8968555197206
 30
0.0
 11
898.6999999999999
 21
175.1
 31
0.0
  0
ARC
  5
1C5
  8
0
  6
CONTINUOUS
 62
     7
 10
-323.6013563114664
 20
-145129.7514118884
 30
0.0
 40
145233.7769543852
 50
89.51882802865669
 51
89.52319583427186
  0
LINE
  5
1C6
  8
0
  6
CONTINUOUS
 62
     7
 10
1919.582943322398
 20
175.6
 30
0.0
 11
1943.439723605445
 21
175.6
 31
0.0
  0
LINE
  5
1C7
  8
0
  6
CONTINUOUS
 62
     7
 10
1953.56072932364
 20
175.6
 30
0.0
 11
1973.5
 21
175.6
 31
0.0
  0
LINE
  5
1C8
  8
0
  6
CONTINUOUS
 62
     7
 10
882.4999999999999
 20
170.9168641094919
 30
0.0
 11
882.4999999999999
 21
209.283135890508
 31
0.0
  0
ARC
  5
1C9
  8
0
  6
CONTINUOUS
 62
     7
 10
896.0512521088204
 20
96.7396640313182
 30
0.0
 40
1.01609365747041
 50
31.98513575104039
 51
89.41491759439886
  0
POLYLINE
  5
1CA
  8
0
  6
CONTINUOUS
 62
     7
 66
     1
 10
0.0
 20
0.0
 30
0.0
  0
VERTEX
  5
240
  8
0
  6
CONTINUOUS
 62
     7
 10
884.4999999999999
 20
98.06443663644359
 30
0.0
  0
VERTEX
  5
241
  8
0
  6
CONTINUOUS
 62
     7
 10
884.6736778781631
 20
97.95015468074322
 30
0.0
  0
VERTEX
  5
242
  8
0
  6
CONTINUOUS
 62
     7
 10
884.876931924787
 20
97.91578568571094
 30
0.0
  0
VERTEX
  5
243
  8
0
  6
CONTINUOUS
 62
     7
 10
884.9912737967813
 20
97.91005593213393
 30
0.0
  0
SEQEND
  5
278
  8
0
  6
CONTINUOUS
 62
     7
  0
LINE
  5
1CB
  8
0
  6
CONTINUOUS
 62
     7
 10
865.8697419571209
 20
176.6
 30
0.0
 11
868.7997924617903
 21
176.6
 31
0.0
  0
LINE
  5
1CC
  8
0
  6
CONTINUOUS
 62
     7
 10
1943.491424783463
 20
207.6087262032276
 30
0.0
 11
1943.438901441829
 21
204.5996659467009
 31
0.0
  0
LINE
  5
1CD
  8
0
  6
CONTINUOUS
 62
     7
 10
1943.438902517735
 20
175.6002724146842
 30
0.0
 11
1943.491424783979
 21
172.5912737967814
 31
0.0
  0
LINE
  5
1CE
  8
0
  6
CONTINUOUS
 62
     7
 10
898.5
 20
166.8110348324723
 30
0.0
 11
898.5
 21
166.6241974154143
 31
0.0
  0
POLYLINE
  5
1CF
  8
0
  6
CONTINUOUS
 62
     7
 66
     1
 10
0.0
 20
0.0
 30
0.0
  0
VERTEX
  5
244
  8
0
  6
CONTINUOUS
 62
     7
 10
898.0043632677491
 20
167.5364427247812
 30
0.0
  0
VERTEX
  5
245
  8
0
  6
CONTINUOUS
 62
     7
 10
898.2202810471993
 20
167.5224543050676
 30
0.0
  0
VERTEX
  5
246
  8
0
  6
CONTINUOUS
 62
     7
 10
898.4163323129715
 20
167.4687814174305
 30
0.0
  0
VERTEX
  5
247
  8
0
  6
CONTINUOUS
 62
     7
 10
898.5
 20
167.3406328398248
 30
0.0
  0
SEQEND
  5
279
  8
0
  6
CONTINUOUS
 62
     7
  0
LINE
  5
1D0
  8
0
  6
CONTINUOUS
 62
     7
 10
834.0
 20
127.5
 30
0.0
 11
871.0
 21
127.5
 31
0.0
  0
ARC
  5
1D1
  8
0
  6
CONTINUOUS
 62
     7
 10
1209.111969031211
 20
-170835.0516204647
 30
0.0
 40
170931.6457812843
 50
90.10493363146416
 51
90.1086443742412
  0
ARC
  5
1D2
  8
0
  6
CONTINUOUS
 62
     7
 10
879.8
 20
209.187606166532
 30
0.0
 40
1.233949530480116
 50
90.4052018882942
 51
107.8282679398803
  0
ARC
  5
1D3
  8
0
  6
CONTINUOUS
 62
     7
 10
879.6879642516648
 20
209.5359660780637
 30
0.0
 40
0.8680169726673364
 50
107.8282679398659
 51
133.2790579786834
  0
ARC
  5
1D4
  8
0
  6
CONTINUOUS
 62
     7
 10
879.8142483762851
 20
209.4018584465982
 30
0.0
 40
1.052224836094621
 50
133.2790579786827
 51
152.2375793370865
  0
ARC
  5
1D5
  8
0
  6
CONTINUOUS
 62
     7
 10
879.522319836104
 20
209.5555302932277
 30
0.0
 40
0.7223198361039351
 50
152.2375793370478
 51
157.3925489642625
  0
ARC
  5
1D6
  8
0
  6
CONTINUOUS
 62
     7
 10
884.9765428755662
 20
201.6234015681102
 30
0.0
 40
0.4792230048952913
 50
186.0624656333608
 51
271.7615026417722
  0
LINE
  5
1D7
  8
0
  6
CONTINUOUS
 62
     7
 10
896.9597346553569
 20
98.30438374183916
 30
0.0
 11
896.9144317978336
 21
98.38998488432092
 31
0.0
  0
CIRCLE
  5
1D8
  8
0
  6
CONTINUOUS
 62
     7
 10
1948.5
 20
77.5
 30
0.0
 40
3.500000000000003
  0
ARC
  5
1D9
  8
0
  6
CONTINUOUS
 62
     7
 10
1200.728696823215
 20
-167083.2862344214
 30
0.0
 40
167179.4612521706
 50
90.10412383539506
 51
90.1082096754659
  0
ARC
  5
1DA
  8
0
  6
CONTINUOUS
 62
     7
 10
884.965978497105
 20
91.52674661714785
 30
0.0
 40
0.4738382722557602
 50
190.4503245322864
 51
273.0601225479293
  0
LINE
  5
1DB
  8
0
  6
CONTINUOUS
 62
     7
 10
882.4999999999999
 20
89.2444559627323
 30
0.0
 11
882.4999999999999
 21
98.99999999999997
 31
0.0
  0
ARC
  5
1DC
  8
0
  6
CONTINUOUS
 62
     7
 10
-4175.474462689437
 20
-262042.4305376152
 30
0.0
 40
262292.4117137324
 50
88.89209236586822
 51
88.89451114779824
  0
LINE
  5
1DD
  8
0
  6
CONTINUOUS
 62
     7
 10
900.4
 20
56.93702707640622
 30
0.0
 11
900.4
 21
60.85810518279857
 31
0.0
  0
ARC
  5
1DE
  8
0
  6
CONTINUOUS
 62
     7
 10
7792.010604676887
 20
-489151.8108225906
 30
0.0
 40
489397.9956410023
 50
90.80736305130871
 51
90.80865922218248
  0
ARC
  5
1DF
  8
0
  6
CONTINUOUS
 62
     7
 10
884.982825017542
 20
196.9504871290754
 30
0.0
 40
0.4829751787730386
 50
88.9976626002111
 51
178.5712199190352
  0
ARC
  5
1E0
  8
0
  6
CONTINUOUS
 62
     7
 10
884.9943750863258
 20
196.0016855012623
 30
0.0
 40
0.4944882913246949
 50
181.22602891235
 51
269.6406548547662
  0
ARC
  5
1E1
  8
0
  6
CONTINUOUS
 62
     7
 10
-8520.241104430199
 20
-489112.096850968
 30
0.0
 40
489397.9956410014
 50
88.89752770778625
 51
88.89882404280792
  0
ARC
  5
1E2
  8
0
  6
CONTINUOUS
 62
     7
 10
884.9996955597197
 20
190.9492210282273
 30
0.0
 40
0.4996955722854086
 50
90.96569660803138
 51
179.9871507598551
  0
ARC
  5
1E3
  8
0
  6
CONTINUOUS
 62
     7
 10
899.4776801638953
 20
209.5555302932277
 30
0.0
 40
0.7223198361046013
 50
22.6074510357193
 51
27.76242066292351
  0
ARC
  5
1E4
  8
0
  6
CONTINUOUS
 62
     7
 10
899.1857516237137
 20
209.401858446597
 30
0.0
 40
1.052224836096251
 50
27.76242066294002
 51
46.72094202131782
  0
ARC
  5
1E5
  8
0
  6
CONTINUOUS
 62
     7
 10
899.3120357483349
 20
209.5359660780633
 30
0.0
 40
0.8680169726678476
 50
46.72094202131817
 51
72.171732060121
  0
ARC
  5
1E6
  8
0
  6
CONTINUOUS
 62
     7
 10
899.1999999999999
 20
209.1876061665313
 30
0.0
 40
1.23394953048081
 50
72.17173206012956
 51
89.59479811172152
  0
LINE
  5
1E7
  8
0
  6
CONTINUOUS
 62
     7
 10
1978.0
 20
58.49999999999999
 30
0.0
 11
2021.0
 21
58.49999999999999
 31
0.0
  0
ARC
  5
1E8
  8
0
  6
CONTINUOUS
 62
     7
 10
884.9440167120689
 20
202.3805946813086
 30
0.0
 40
0.4457411420668528
 50
83.91411426977129
 51
174.958507032595
  0
ARC
  5
1E9
  8
0
  6
CONTINUOUS
 62
     7
 10
-9537.31030834703
 20
545407.8320507981
 30
0.0
 40
545322.0903074737
 50
271.0951147455394
 51
271.0962781533996
  0
POLYLINE
  5
1EA
  8
0
  6
CONTINUOUS
 62
     7
 66
     1
 10
0.0
 20
0.0
 30
0.0
  0
VERTEX
  5
248
  8
0
  6
CONTINUOUS
 62
     7
 10
884.4999999999999
 20
95.48097433078992
 30
0.0
  0
VERTEX
  5
249
  8
0
  6
CONTINUOUS
 62
     7
 10
884.6149952242321
 20
95.3034946254494
 30
0.0
  0
VERTEX
  5
24A
  8
0
  6
CONTINUOUS
 62
     7
 10
884.8180245114692
 20
95.21941396422233
 30
0.0
  0
VERTEX
  5
24B
  8
0
  6
CONTINUOUS
 62
     7
 10
884.9912737967813
 20
95.19874343672313
 30
0.0
  0
SEQEND
  5
27A
  8
0
  6
CONTINUOUS
 62
     7
  0
ARC
  5
1EB
  8
0
  6
CONTINUOUS
 62
     7
 10
879.522319836104
 20
170.6444697067723
 30
0.0
 40
0.7223198361039351
 50
202.6074510357335
 51
207.7624206629522
  0
ARC
  5
1EC
  8
0
  6
CONTINUOUS
 62
     7
 10
879.8142483762851
 20
170.7981415534018
 30
0.0
 40
1.052224836094621
 50
207.7624206629135
 51
226.7209420213172
  0
ARC
  5
1ED
  8
0
  6
CONTINUOUS
 62
     7
 10
879.6879642516648
 20
170.6640339219363
 30
0.0
 40
0.8680169726673364
 50
226.7209420213165
 51
252.1717320601341
  0
ARC
  5
1EE
  8
0
  6
CONTINUOUS
 62
     7
 10
879.8
 20
171.0123938334679
 30
0.0
 40
1.233949530480116
 50
252.1717320601197
 51
269.5947981116233
  0
POLYLINE
  5
1EF
  8
0
  6
CONTINUOUS
 62
     7
 66
     1
 10
0.0
 20
0.0
 30
0.0
  0
VERTEX
  5
24C
  8
0
  6
CONTINUOUS
 62
     7
 10
884.4999999999999
 20
95.60717278217675
 30
0.0
  0
VERTEX
  5
24D
  8
0
  6
CONTINUOUS
 62
     7
 10
884.6229057724867
 20
95.77042014200178
 30
0.0
  0
VERTEX
  5
24E
  8
0
  6
CONTINUOUS
 62
     7
 10
884.8288414626377
 20
95.83827402167569
 30
0.0
  0
VERTEX
  5
24F
  8
0
  6
CONTINUOUS
 62
     7
 10
884.9912737967812
 20
95.8517414402184
 30
0.0
  0
SEQEND
  5
27B
  8
0
  6
CONTINUOUS
 62
     7
  0
LINE
  5
1F0
  8
0
  6
CONTINUOUS
 62
     7
 10
880.996128473263
 20
76.57905811820831
 30
0.0
 11
898.0043632677491
 21
76.67051109297665
 31
0.0
  0
POLYLINE
  5
1F1
  8
0
  6
CONTINUOUS
 62
     7
 66
     1
 10
0.0
 20
0.0
 30
0.0
  0
VERTEX
  5
250
  8
0
  6
CONTINUOUS
 62
     7
 10
880.9956367322508
 20
212.6635572752188
 30
0.0
  0
VERTEX
  5
251
  8
0
  6
CONTINUOUS
 62
     7
 10
880.7797189528007
 20
212.6775456949324
 30
0.0
  0
VERTEX
  5
252
  8
0
  6
CONTINUOUS
 62
     7
 10
880.5836676870284
 20
212.7312185825695
 30
0.0
  0
VERTEX
  5
253
  8
0
  6
CONTINUOUS
 62
     7
 10
880.4999999999999
 20
212.8593671601752
 30
0.0
  0
SEQEND
  5
27C
  8
0
  6
CONTINUOUS
 62
     7
  0
ARC
  5
1F2
  8
0
  6
CONTINUOUS
 62
     7
 10
884.9946255113249
 20
184.8603642157716
 30
0.0
 40
0.4946745367731153
 50
90.38821599377228
 51
179.1933368364593
  0
ARC
  5
1F3
  8
0
  6
CONTINUOUS
 62
     7
 10
884.9878090073646
 20
183.898755741553
 30
0.0
 40
0.4879552718751697
 50
181.4029039981638
 51
270.4068394997147
  0
ARC
  5
1F4
  8
0
  6
CONTINUOUS
 62
     7
 10
2470.112201776363
 20
-217779.8283133107
 30
0.0
 40
217878.1707112941
 50
90.41393429467095
 51
90.41684556170992
  0
ARC
  5
1F5
  8
0
  6
CONTINUOUS
 62
     7
 10
885.0002259783564
 20
189.9320949681613
 30
0.0
 40
0.5002259823788289
 50
179.9927340601287
 51
268.9745642505415
  0
ARC
  5
1F6
  8
0
  6
CONTINUOUS
 62
     7
 10
884.9218516372299
 20
92.13606825798925
 30
0.0
 40
0.4265139778589984
 50
80.63249337589073
 51
171.520516351958
  0
ARC
  5
1F7
  8
0
  6
CONTINUOUS
 62
     7
 10
347.753244128919
 20
-147264.516427726
 30
0.0
 40
147363.5061008073
 50
89.78648274168853
 51
89.79111825830103
  0
ARC
  5
1F8
  8
0
  6
CONTINUOUS
 62
     7
 10
-41265.83693743671
 20
-2390727.686056348
 30
0.0
 40
2391288.652729336
 50
88.98973966474432
 51
88.99000497089294
  0
ARC
  5
1F9
  8
0
  6
CONTINUOUS
 62
     7
 10
8809.068860577772
 20
545447.9179675033
 30
0.0
 40
545322.0903074727
 50
269.1674054730992
 51
269.1685687287402
  0
ARC
  5
1FA
  8
0
  6
CONTINUOUS
 62
     7
 10
-4451.040984100482
 20
275706.6333953412
 30
0.0
 40
275578.6685609797
 50
271.1094880957668
 51
271.1117901929683
  0
LINE
  5
1FB
  8
0
  6
CONTINUOUS
 62
     7
 10
878.8
 20
207.2898658135451
 30
0.0
 11
878.8
 21
212.5653113040439
 31
0.0
  0
POLYLINE
  5
1FC
  8
0
  6
CONTINUOUS
 62
     7
 66
     1
 10
0.0
 20
0.0
 30
0.0
  0
VERTEX
  5
254
  8
0
  6
CONTINUOUS
 62
     7
 10
884.9912737967813
 20
96.26223651649651
 30
0.0
  0
VERTEX
  5
255
  8
0
  6
CONTINUOUS
 62
     7
 10
884.7763062258423
 20
96.2380711011648
 30
0.0
  0
VERTEX
  5
256
  8
0
  6
CONTINUOUS
 62
     7
 10
884.586985514283
 20
96.15801214987398
 30
0.0
  0
VERTEX
  5
257
  8
0
  6
CONTINUOUS
 62
     7
 10
884.4999999999999
 20
96.01732224194518
 30
0.0
  0
SEQEND
  5
27D
  8
0
  6
CONTINUOUS
 62
     7
  0
LINE
  5
1FD
  8
0
  6
CONTINUOUS
 62
     7
 10
898.0041943032303
 20
72.68269807145558
 30
0.0
 11
880.9956367322508
 21
72.62908983751534
 31
0.0
  0
LINE
  5
1FE
  8
0
  6
CONTINUOUS
 62
     7
 10
878.8
 20
167.6346886959561
 30
0.0
 11
878.8
 21
172.9101341864549
 31
0.0
  0
LINE
  5
1FF
  8
0
  6
CONTINUOUS
 62
     7
 10
2021.0
 20
96.49999999999999
 30
0.0
 11
1978.0
 21
96.49999999999999
 31
0.0
  0
LINE
  5
200
  8
0
  6
CONTINUOUS
 62
     7
 10
898.0043632677491
 20
78.32948890702332
 30
0.0
 11
880.996128473263
 21
78.42094188179166
 31
0.0
  0
ARC
  5
201
  8
0
  6
CONTINUOUS
 62
     7
 10
884.9567139267357
 20
91.76602445676949
 30
0.0
 40
0.4700319214456264
 50
85.78342849751033
 51
166.3282473803733
  0
LINE
  5
202
  8
0
  6
CONTINUOUS
 62
     7
 10
880.9956367322508
 20
82.37091016248462
 30
0.0
 11
898.0041943032303
 21
82.31730192854438
 31
0.0
  0
ARC
  5
203
  8
0
  6
CONTINUOUS
 62
     7
 10
-3198.11522462953
 20
-217748.8353007521
 30
0.0
 40
217878.1707112937
 50
88.92328403819658
 51
88.92619584087142
  0
ARC
  5
204
  8
0
  6
CONTINUOUS
 62
     7
 10
2434.048241519891
 20
-212997.5605646376
 30
0.0
 40
213095.4454433424
 50
90.4132989772872
 51
90.41650452078619
  0
POLYLINE
  5
205
  8
0
  6
CONTINUOUS
 62
     7
 66
     1
 10
0.0
 20
0.0
 30
0.0
  0
VERTEX
  5
258
  8
0
  6
CONTINUOUS
 62
     7
 10
896.9131308497022
 20
92.3130196136365
 30
0.0
  0
VERTEX
  5
259
  8
0
  6
CONTINUOUS
 62
     7
 10
896.7151164882882
 20
92.47045166215523
 30
0.0
  0
VERTEX
  5
25A
  8
0
  6
CONTINUOUS
 62
     7
 10
896.3450168891917
 20
92.60442023251328
 30
0.0
  0
VERTEX
  5
25B
  8
0
  6
CONTINUOUS
 62
     7
 10
896.0616856479289
 20
92.62974875605708
 30
0.0
  0
SEQEND
  5
27E
  8
0
  6
CONTINUOUS
 62
     7
  0
LINE
  5
206
  8
0
  6
CONTINUOUS
 62
     7
 10
871.4999999999999
 20
127.0
 30
0.0
 11
833.5
 21
127.0
 31
0.0
  0
LINE
  5
207
  8
0
  6
CONTINUOUS
 62
     7
 10
879.7912734645014
 20
89.232636613554
 30
0.0
 11
899.2083568428643
 21
89.31736177331655
 31
0.0
  0
LINE
  5
208
  8
0
  6
CONTINUOUS
 62
     7
 10
898.0040493033699
 20
75.53718973600174
 30
0.0
 11
880.9956367322508
 21
75.46411418815222
 31
0.0
  0
LINE
  5
209
  8
0
  6
CONTINUOUS
 62
     7
 10
884.9912737967813
 20
98.99999999999999
 30
0.0
 11
882.2002075382097
 21
98.99999999999999
 31
0.0
  0
LINE
  5
20A
  8
0
  6
CONTINUOUS
 62
     7
 10
880.99595069663
 20
79.46281026399826
 30
0.0
 11
898.0043632677491
 21
79.53588581184773
 31
0.0
  0
LINE
  5
20B
  8
0
  6
CONTINUOUS
 62
     7
 10
2018.5
 20
96.5
 30
0.0
 11
2018.5
 21
58.49999999999998
 31
0.0
  0
ARC
  5
20C
  8
0
  6
CONTINUOUS
 62
     7
 10
-1936.937919776753
 20
-170813.127326476
 30
0.0
 40
170931.6457812841
 50
89.05034325873494
 51
89.05405461569632
  0
ARC
  5
20D
  8
0
  6
CONTINUOUS
 62
     7
 10
896.1178189288398
 20
89.73988147431201
 30
0.0
 40
1.099954931064938
 50
43.67910991072306
 51
92.91552262152635
  0
ARC
  5
20E
  8
0
  6
CONTINUOUS
 62
     7
 10
899.1999999999999
 20
171.0123938334686
 30
0.0
 40
1.23394953048081
 50
270.4052018883609
 51
287.8282679398705
  0
ARC
  5
20F
  8
0
  6
CONTINUOUS
 62
     7
 10
899.3120357483349
 20
170.6640339219367
 30
0.0
 40
0.8680169726678476
 50
287.828267939879
 51
313.2790579786818
  0
ARC
  5
210
  8
0
  6
CONTINUOUS
 62
     7
 10
899.1857516237137
 20
170.798141553403
 30
0.0
 40
1.052224836096251
 50
313.2790579786821
 51
332.23757933706
  0
ARC
  5
211
  8
0
  6
CONTINUOUS
 62
     7
 10
899.4776801638953
 20
170.6444697067723
 30
0.0
 40
0.7223198361046013
 50
332.2375793370765
 51
337.3925489642847
  0
POLYLINE
  5
212
  8
0
  6
CONTINUOUS
 62
     7
 66
     1
 10
0.0
 20
0.0
 30
0.0
  0
VERTEX
  5
25C
  8
0
  6
CONTINUOUS
 62
     7
 10
880.4999999999999
 20
167.3406328398248
 30
0.0
  0
VERTEX
  5
25D
  8
0
  6
CONTINUOUS
 62
     7
 10
880.6396774321386
 20
167.4911870064417
 30
0.0
  0
VERTEX
  5
25E
  8
0
  6
CONTINUOUS
 62
     7
 10
880.8399418303509
 20
167.5296924284102
 30
0.0
  0
VERTEX
  5
25F
  8
0
  6
CONTINUOUS
 62
     7
 10
880.9956367322508
 20
167.5364427247812
 30
0.0
  0
SEQEND
  5
27F
  8
0
  6
CONTINUOUS
 62
     7
  0
POLYLINE
  5
213
  8
0
  6
CONTINUOUS
 62
     7
 66
     1
 10
0.0
 20
0.0
 30
0.0
  0
VERTEX
  5
260
  8
0
  6
CONTINUOUS
 62
     7
 10
898.5
 20
212.8593671601752
 30
0.0
  0
VERTEX
  5
261
  8
0
  6
CONTINUOUS
 62
     7
 10
898.3603225678614
 20
212.7088129935583
 30
0.0
  0
VERTEX
  5
262
  8
0
  6
CONTINUOUS
 62
     7
 10
898.160058169649
 20
212.6703075715898
 30
0.0
  0
VERTEX
  5
263
  8
0
  6
CONTINUOUS
 62
     7
 10
898.0043632677491
 20
212.6635572752188
 30
0.0
  0
SEQEND
  5
280
  8
0
  6
CONTINUOUS
 62
     7
  0
ARC
  5
214
  8
0
  6
CONTINUOUS
 62
     7
 10
884.9655100850139
 20
178.3996098468022
 30
0.0
 40
0.4687238305687324
 50
186.7132575745268
 51
273.1508879265575
  0
ARC
  5
215
  8
0
  6
CONTINUOUS
 62
     7
 10
3722.931624374978
 20
275741.9717647353
 30
0.0
 40
275578.6685611029
 50
269.4099511089668
 51
269.4122528931712
  0
ARC
  5
216
  8
0
  6
CONTINUOUS
 62
     7
 10
884.9694745987329
 20
179.1754331873011
 30
0.0
 40
0.4706905089307711
 50
87.34549783060794
 51
175.8807875139748
  0
ARC
  5
217
  8
0
  6
CONTINUOUS
 62
     7
 10
896.1031252968597
 20
206.1503585837981
 30
0.0
 40
1.076337930212647
 50
41.16596439665376
 51
92.1918225731521
  0
ARC
  5
218
  8
0
  6
CONTINUOUS
 62
     7
 10
896.1062696564013
 20
174.4779140865354
 30
0.0
 40
1.089940520680533
 50
267.6654330197207
 51
317.77063195243
  0
ARC
  5
219
  8
0
  6
CONTINUOUS
 62
     7
 10
41283.13914661684
 20
-2338256.200861305
 30
0.0
 40
2338796.580554182
 50
90.98942992707542
 51
90.98972203035123
  0
POLYLINE
  5
21A
  8
0
  6
CONTINUOUS
 62
     7
 66
     1
 10
0.0
 20
0.0
 30
0.0
  0
VERTEX
  5
264
  8
0
  6
CONTINUOUS
 62
     7
 10
884.9912737967813
 20
207.1834504076958
 30
0.0
  0
VERTEX
  5
265
  8
0
  6
CONTINUOUS
 62
     7
 10
884.7763062258423
 20
207.1528294297484
 30
0.0
  0
VERTEX
  5
266
  8
0
  6
CONTINUOUS
 62
     7
 10
884.586985514283
 20
207.0529602694624
 30
0.0
  0
VERTEX
  5
267
  8
0
  6
CONTINUOUS
 62
     7
 10
884.4999999999999
 20
206.8789263915168
 30
0.0
  0
SEQEND
  5
281
  8
0
  6
CONTINUOUS
 62
     7
  0
ARC
  5
21B
  8
0
  6
CONTINUOUS
 62
     7
 10
3447.383522660559
 20
-262077.055240792
 30
0.0
 40
262292.4117137328
 50
90.55732567526618
 51
90.55974400752854
  0
ARC
  5
21C
  8
0
  6
CONTINUOUS
 62
     7
 10
884.9636237530369
 20
206.3726166640953
 30
0.0
 40
0.4865518524907536
 50
197.6594626146136
 51
273.257792056258
  0
ARC
  5
21D
  8
0
  6
CONTINUOUS
 62
     7
 10
1880.796964462168
 20
190806.7716044866
 30
0.0
 40
190635.5963045065
 50
269.7007078926001
 51
269.704291116139
  0
ARC
  5
21E
  8
0
  6
CONTINUOUS
 62
     7
 10
884.9853785824282
 20
184.0249806894546
 30
0.0
 40
0.4854724966608545
 50
181.1270106584793
 51
270.6957741289464
  0
ARC
  5
21F
  8
0
  6
CONTINUOUS
 62
     7
 10
7639.123660813506
 20
-478410.0833978679
 30
0.0
 40
478655.0370774404
 50
90.80708018804758
 51
90.80850738083842
  0
ARC
  5
220
  8
0
  6
CONTINUOUS
 62
     7
 10
1763.510577412801
 20
-189413.3275277694
 30
0.0
 40
189622.5682903086
 50
90.26210659703294
 51
90.26545170620997
  0
ARC
  5
221
  8
0
  6
CONTINUOUS
 62
     7
 10
-2632.376008761414
 20
195057.2540645266
 30
0.0
 40
194914.2315494517
 50
271.0339997256995
 51
271.0372544913068
  0
ARC
  5
222
  8
0
  6
CONTINUOUS
 62
     7
 10
884.9636998375687
 20
202.089033684354
 30
0.0
 40
0.4680089464630109
 50
86.6223146799913
 51
172.2189523433201
  0
ARC
  5
223
  8
0
  6
CONTINUOUS
 62
     7
 10
897.6475460124755
 20
208.2682109204351
 30
0.0
 40
1.014934753935473
 50
29.46824358044222
 51
89.74868944056766
  0
ARC
  5
224
  8
0
  6
CONTINUOUS
 62
     7
 10
881.3262627601466
 20
171.9317571200297
 30
0.0
 40
1.014902748163008
 50
209.5042571779549
 51
269.749281293422
  0
POLYLINE
  5
225
  8
0
  6
CONTINUOUS
 62
     7
 66
     1
 10
0.0
 20
0.0
 30
0.0
  0
VERTEX
  5
268
  8
0
  6
CONTINUOUS
 62
     7
 10
896.9130713608412
 20
202.6656394966843
 30
0.0
  0
VERTEX
  5
269
  8
0
  6
CONTINUOUS
 62
     7
 10
896.7150440632338
 20
202.7956915616463
 30
0.0
  0
VERTEX
  5
26A
  8
0
  6
CONTINUOUS
 62
     7
 10
896.3954846977625
 20
202.8966504888394
 30
0.0
  0
VERTEX
  5
26B
  8
0
  6
CONTINUOUS
 62
     7
 10
896.0616084408473
 20
202.9255907395036
 30
0.0
  0
SEQEND
  5
282
  8
0
  6
CONTINUOUS
 62
     7
  0
ARC
  5
226
  8
0
  6
CONTINUOUS
 62
     7
 10
884.9858149432009
 20
196.8039239728993
 30
0.0
 40
0.4860553963485746
 50
89.35650164779554
 51
178.1976966729511
  0
ARC
  5
227
  8
0
  6
CONTINUOUS
 62
     7
 10
896.0774543821951
 20
176.1072700418722
 30
0.0
 40
1.115843166313639
 50
269.1902876468449
 51
318.4968496433738
  0
POLYLINE
  5
228
  8
0
  6
CONTINUOUS
 62
     7
 66
     1
 10
0.0
 20
0.0
 30
0.0
  0
VERTEX
  5
26C
  8
0
  6
CONTINUOUS
 62
     7
 10
896.0619489625657
 20
200.9244046907044
 30
0.0
  0
VERTEX
  5
26D
  8
0
  6
CONTINUOUS
 62
     7
 10
896.4139061809653
 20
200.8819780904111
 30
0.0
  0
VERTEX
  5
26E
  8
0
  6
CONTINUOUS
 62
     7
 10
896.7464518078433
 20
200.7591476949852
 30
0.0
  0
VERTEX
  5
26F
  8
0
  6
CONTINUOUS
 62
     7
 10
896.9134117371375
 20
200.6397055704506
 30
0.0
  0
SEQEND
  5
283
  8
0
  6
CONTINUOUS
 62
     7
  0
ARC
  5
229
  8
0
  6
CONTINUOUS
 62
     7
 10
8633.856090298163
 20
533478.7595381507
 30
0.0
 40
533351.521011931
 50
269.1675417436044
 51
269.1688225854664
  0
ARC
  5
22A
  8
0
  6
CONTINUOUS
 62
     7
 10
3659.366556093996
 20
269693.2294999952
 30
0.0
 40
269529.3380698569
 50
269.4102207499467
 51
269.4127552041106
  0
ARC
  5
22B
  8
0
  6
CONTINUOUS
 62
     7
 10
884.9501412034613
 20
178.6360550897516
 30
0.0
 40
0.4516393259912524
 50
184.6680504894414
 51
275.2253956767247
  0
POLYLINE
  5
22C
  8
0
  6
CONTINUOUS
 62
     7
 66
     1
 10
0.0
 20
0.0
 30
0.0
  0
VERTEX
  5
270
  8
0
  6
CONTINUOUS
 62
     7
 10
884.4999999999999
 20
206.5091684633323
 30
0.0
  0
VERTEX
  5
271
  8
0
  6
CONTINUOUS
 62
     7
 10
884.5966512299632
 20
206.6913735598546
 30
0.0
  0
VERTEX
  5
272
  8
0
  6
CONTINUOUS
 62
     7
 10
884.7898521046866
 20
206.7866766650904
 30
0.0
  0
VERTEX
  5
273
  8
0
  6
CONTINUOUS
 62
     7
 10
884.9912737967812
 20
206.8133808993262
 30
0.0
  0
SEQEND
  5
284
  8
0
  6
CONTINUOUS
 62
     7
  0
ARC
  5
22D
  8
0
  6
CONTINUOUS
 62
     7
 10
881.3262619661875
 20
208.2682452683877
 30
0.0
 40
1.014900356294514
 50
90.25067447440729
 51
150.4930447079539
  0
ARC
  5
22E
  8
0
  6
CONTINUOUS
 62
     7
 10
884.9529212915786
 20
173.9179450976763
 30
0.0
 40
0.4812873474239667
 50
199.7693025300204
 51
274.5705938687033
  0
ARC
  5
22F
  8
0
  6
CONTINUOUS
 62
     7
 10
884.9071745528007
 20
174.2071607273328
 30
0.0
 40
0.417499567008487
 50
192.7689169006928
 51
281.6209171198348
  0
POLYLINE
  5
230
  8
0
  6
CONTINUOUS
 62
     7
 66
     1
 10
0.0
 20
0.0
 30
0.0
  0
VERTEX
  5
274
  8
0
  6
CONTINUOUS
 62
     7
 10
896.0617668284339
 20
177.8236621774797
 30
0.0
  0
VERTEX
  5
275
  8
0
  6
CONTINUOUS
 62
     7
 10
896.4118474470662
 20
177.8535551635473
 30
0.0
  0
VERTEX
  5
276
  8
0
  6
CONTINUOUS
 62
     7
 10
896.7462633142088
 20
177.961332981122
 30
0.0
  0
VERTEX
  5
277
  8
0
  6
CONTINUOUS
 62
     7
 10
896.9132241383486
 20
178.0702345710482
 30
0.0
  0
SEQEND
  5
285
  8
0
  6
CONTINUOUS
 62
     7
  0
ARC
  5
231
  8
0
  6
CONTINUOUS
 62
     7
 10
1904.443724262587
 20
195084.9821024795
 30
0.0
 40
194914.2315494515
 50
269.700326676246
 51
269.703580952296
  0
ARC
  5
232
  8
0
  6
CONTINUOUS
 62
     7
 10
896.0759920770685
 20
204.5784558281337
 30
0.0
 40
1.102496935809539
 50
40.51615522528147
 51
90.6919417108482
  0
ARC
  5
233
  8
0
  6
CONTINUOUS
 62
     7
 10
-2491.422818999098
 20
-189386.5969404762
 30
0.0
 40
189622.5682904257
 50
88.97639305309337
 51
88.97973893333335
  0
ARC
  5
234
  8
0
  6
CONTINUOUS
 62
     7
 10
1742.957493864154
 20
-185251.2717295054
 30
0.0
 40
185460.0923260024
 50
90.26137662177081
 51
90.26505985253914
  0
ARC
  5
235
  8
0
  6
CONTINUOUS
 62
     7
 10
897.6475461045471
 20
171.9317888025915
 30
0.0
 40
1.014934476560869
 50
270.2513054303702
 51
330.5314450303406
  0
ARC
  5
236
  8
0
  6
CONTINUOUS
 62
     7
 10
3389.867113886011
 20
-256319.9307603555
 30
0.0
 40
256534.7328190061
 50
90.55679792239044
 51
90.55946070955156
  0
ARC
  5
237
  8
0
  6
CONTINUOUS
 62
     7
 10
884.9245895901765
 20
174.3569107495802
 30
0.0
 40
0.4314355420732799
 50
81.1085158496325
 51
169.7794904977427
  0
LINE
  5
238
  8
0
  6
CONTINUOUS
 62
     7
 10
1901.5
 20
215.1
 30
0.0
 11
1901.5
 21
165.1
 31
0.0
  0
ENDSEC
  0
EOF
