  0
SECTION
  2
HEADER
  9
$ACADVER
  1
AC1006
  9
$DWGCODEPAGE
  3
ansi_932
  9
$INSBASE
 10
0.0
 20
0.0
 30
0.0
  9
$EXTMIN
 10
852.9999999999999
 20
-616.3295454545454
  9
$EXTMAX
 10
2164.599999999999
 20
-419.8999999999999
  9
$LIMMIN
 10
0.0
 20
0.0
  9
$LIMMAX
 10
12.0
 20
9.0
  9
$ORTHOMODE
 70
     0
  9
$REGENMODE
 70
     1
  9
$FILLMODE
 70
     1
  9
$QTEXTMODE
 70
     0
  9
$MIRRTEXT
 70
     1
  9
$DRAGMODE
 70
     2
  9
$LTSCALE
 40
1.0
  9
$OSMODE
 70
    37
  9
$ATTMODE
 70
     1
  9
$TEXTSIZE
 40
0.2
  9
$TRACEWID
 40
0.05
  9
$TEXTSTYLE
  7
STANDARD
  9
$CLAYER
  8
0
  9
$CELTYPE
  6
BYLAYER
  9
$CECOLOR
 62
   256
  9
$DIMSCALE
 40
1.0
  9
$DIMASZ
 40
3.0
  9
$DIMEXO
 40
0.0625
  9
$DIMDLI
 40
0.38
  9
$DIMRND
 40
0.0
  9
$DIMDLE
 40
0.0
  9
$DIMEXE
 40
1.5
  9
$DIMTP
 40
0.0
  9
$DIMTM
 40
0.0
  9
$DIMTXT
 40
3.0
  9
$DIMCEN
 40
0.09
  9
$DIMTSZ
 40
0.0
  9
$DIMTOL
 70
     0
  9
$DIMLIM
 70
     0
  9
$DIMTIH
 70
     1
  9
$DIMTOH
 70
     1
  9
$DIMSE1
 70
     0
  9
$DIMSE2
 70
     0
  9
$DIMTAD
 70
     1
  9
$DIMZIN
 70
     0
  9
$DIMBLK
  1

  9
$DIMASO
 70
     1
  9
$DIMSHO
 70
     1
  9
$DIMPOST
  1

  9
$DIMAPOST
  1

  9
$DIMALT
 70
     0
  9
$DIMALTD
 70
     2
  9
$DIMALTF
 40
25.4
  9
$DIMLFAC
 40
1.0
  9
$DIMTOFL
 70
     0
  9
$DIMTVP
 40
0.0
  9
$DIMTIX
 70
     0
  9
$DIMSOXD
 70
     0
  9
$DIMSAH
 70
     0
  9
$DIMBLK1
  1

  9
$DIMBLK2
  1

  9
$LUNITS
 70
     2
  9
$LUPREC
 70
     4
  9
$SKETCHINC
 40
0.1
  9
$FILLETRAD
 40
0.5
  9
$AUNITS
 70
     0
  9
$AUPREC
 70
     0
  9
$MENU
  1
.
  9
$ELEVATION
 40
0.0
  9
$THICKNESS
 40
0.0
  9
$LIMCHECK
 70
     0
  9
$CHAMFERA
 40
0.0
  9
$CHAMFERB
 40
0.0
  9
$SKPOLY
 70
     0
  9
$TDCREATE
 40
2459989.724237234
  9
$TDUPDATE
 40
2459989.724237315
  9
$TDINDWG
 40
0.0000000116
  9
$TDUSRTIMER
 40
0.0000000116
  9
$USRTIMER
 70
     1
  9
$ANGBASE
 50
0.0
  9
$ANGDIR
 70
     0
  9
$PDMODE
 70
     0
  9
$PDSIZE
 40
0.0
  9
$PLINEWID
 40
0.0
  9
$COORDS
 70
     1
  9
$SPLFRAME
 70
     0
  9
$SPLINETYPE
 70
     6
  9
$SPLINESEGS
 70
     8
  9
$ATTDIA
 70
     0
  9
$ATTREQ
 70
     1
  9
$HANDLING
 70
     1
  9
$HANDSEED
  5
294
  9
$SURFTAB1
 70
     6
  9
$SURFTAB2
 70
     6
  9
$SURFTYPE
 70
     6
  9
$SURFU
 70
     6
  9
$SURFV
 70
     6
  9
$UCSNAME
  2

  9
$UCSORG
 10
0.0
 20
0.0
 30
0.0
  9
$UCSXDIR
 10
1.0
 20
0.0
 30
0.0
  9
$UCSYDIR
 10
0.0
 20
1.0
 30
0.0
  9
$USERI1
 70
     0
  9
$USERI2
 70
     0
  9
$USERI3
 70
     0
  9
$USERI4
 70
     0
  9
$USERI5
 70
     0
  9
$USERR1
 40
0.0
  9
$USERR2
 40
0.0
  9
$USERR3
 40
0.0
  9
$USERR4
 40
0.0
  9
$USERR5
 40
0.0
  9
$WORLDVIEW
 70
     1
  0
ENDSEC
  0
SECTION
  2
TABLES
  0
TABLE
  2
VPORT
 70
     1
  0
VPORT
  2
*ACTIVE
 70
     0
 10
0.0
 20
0.0
 11
1.0
 21
1.0
 12
1508.8
 22
-518.1147727272727
 13
0.0
 23
0.0
 14
0.5
 24
0.5
 15
0.5
 25
0.5
 16
0.0
 26
0.0
 36
1.0
 17
0.0
 27
0.0
 37
0.0
 40
196.4295454545455
 41
1.6
 42
50.0
 43
0.0
 44
0.0
 50
0.0
 51
0.0
 71
     0
 72
   100
 73
     1
 74
     3
 75
     0
 76
     0
 77
     0
 78
     0
  0
ENDTAB
  0
TABLE
  2
LTYPE
 70
     2
  0
LTYPE
  2
CONTINUOUS
 70
     0
  3
Solid line
 72
    65
 73
     0
 40
0.0
  0
LTYPE
  2
CENTER
 70
     0
  3

 72
    65
 73
     0
 40
0.0
  0
ENDTAB
  0
TABLE
  2
LAYER
 70
     1
  0
LAYER
  2
0
 70
     0
 62
     7
  6
CONTINUOUS
  0
ENDTAB
  0
TABLE
  2
STYLE
 70
     2
  0
STYLE
  2
STANDARD
 70
     0
 40
0.0
 41
1.0
 50
0.0
 71
     0
 42
0.2
  3
txt
  4

  0
STYLE
  2
ＭＳ_ゴシック
 70
     0
 40
0.0
 41
1.0
 50
0.0
 71
     0
 42
0.2
  3
ＭＳ ゴシック.shx
  4

  0
ENDTAB
  0
TABLE
  2
VIEW
 70
     0
  0
ENDTAB
  0
TABLE
  2
UCS
 70
     0
  0
ENDTAB
  0
ENDSEC
  0
SECTION
  2
BLOCKS
  0
ENDSEC
  0
SECTION
  2
ENTITIES
  0
LINE
  5
6F
  8
0
  6
CONTINUOUS
 62
     7
 10
936.0086507124689
 20
-460.8912734644828
 30
0.0
 11
936.0786179654383
 21
-468.9087265354984
 31
0.0
  0
ARC
  5
70
  8
0
  6
CONTINUOUS
 62
     7
 10
935.008688789405
 20
-428.9
 30
0.0
 40
1.000000000000003
 50
270.0
 51
359.5000000000001
  0
LINE
  5
71
  8
0
  6
CONTINUOUS
 62
     7
 10
901.9999999999999
 20
-468.3758025845858
 30
0.0
 11
901.9999999999999
 21
-468.1889651675277
 31
0.0
  0
LINE
  5
72
  8
0
  6
CONTINUOUS
 62
     7
 10
919.9999999999999
 20
-421.4241974154144
 30
0.0
 11
919.9999999999999
 21
-421.6110348324724
 31
0.0
  0
ARC
  5
73
  8
0
  6
CONTINUOUS
 62
     7
 10
937.0785798885025
 20
-420.9
 30
0.0
 40
1.000000000000001
 50
90.0
 51
179.5000000000001
  0
LINE
  5
74
  8
0
  6
CONTINUOUS
 62
     7
 10
900.3
 20
-426.9
 30
0.0
 11
893.3380735924076
 21
-426.9
 31
0.0
  0
LINE
  5
75
  8
0
  6
CONTINUOUS
 62
     7
 10
921.6999999999999
 20
-429.9
 30
0.0
 11
921.6999999999999
 21
-422.4346886959562
 31
0.0
  0
LINE
  5
76
  8
0
  6
CONTINUOUS
 62
     7
 10
920.1999999999999
 20
-429.9
 30
0.0
 11
920.1999999999999
 21
-426.6968555197205
 31
0.0
  0
LINE
  5
77
  8
0
  6
CONTINUOUS
 62
     7
 10
1995.0
 20
-430.4
 30
0.0
 11
1975.060240149
 21
-430.4
 31
0.0
  0
LINE
  5
78
  8
0
  6
CONTINUOUS
 62
     7
 10
887.3697419571209
 20
-458.4000000000001
 30
0.0
 11
890.2997924617903
 21
-458.4000000000001
 31
0.0
  0
LINE
  5
79
  8
0
  6
CONTINUOUS
 62
     7
 10
935.008688789405
 20
-429.9
 30
0.0
 11
920.0135266450756
 21
-429.9
 31
0.0
  0
LINE
  5
7A
  8
0
  6
CONTINUOUS
 62
     7
 10
1975.060677970027
 20
-459.4000000000001
 30
0.0
 11
1995.0
 21
-459.4000000000001
 31
0.0
  0
LINE
  5
7B
  8
0
  6
CONTINUOUS
 62
     7
 10
900.3
 20
-427.710134186455
 30
0.0
 11
900.3
 21
-422.4346886959561
 31
0.0
  0
ARC
  5
7C
  8
0
  6
CONTINUOUS
 62
     7
 10
919.4281054245961
 20
-572.2637178190041
 30
0.0
 40
0.5980881861786369
 50
342.9803509819686
 51
82.67469486621798
  0
LINE
  5
7D
  8
0
  6
CONTINUOUS
 62
     7
 10
900.3
 20
-467.3653113040439
 30
0.0
 11
900.3
 21
-462.0898658135451
 31
0.0
  0
LINE
  5
7E
  8
0
  6
CONTINUOUS
 62
     7
 10
892.3983809716216
 20
-427.5579798566744
 30
0.0
 11
891.239485082576
 21
-430.7420201433258
 31
0.0
  0
ARC
  5
7F
  8
0
  6
CONTINUOUS
 62
     7
 10
890.2997924617903
 20
-459.4000000000001
 30
0.0
 40
1.000000000000001
 50
19.99999999999994
 51
90.0
  0
LINE
  5
80
  8
0
  6
CONTINUOUS
 62
     7
 10
920.1999999999999
 20
-463.1031444802795
 30
0.0
 11
920.1999999999999
 21
-459.9000000000001
 31
0.0
  0
LINE
  5
81
  8
0
  6
CONTINUOUS
 62
     7
 10
906.4912737967812
 20
-551.0
 30
0.0
 11
903.7002075382096
 21
-551.0
 31
0.0
  0
LINE
  5
82
  8
0
  6
CONTINUOUS
 62
     7
 10
919.2164165291053
 20
-464.0808125585875
 30
0.0
 11
920.000000000012
 21
-462.4004182669102
 31
0.0
  0
ARC
  5
83
  8
0
  6
CONTINUOUS
 62
     7
 10
890.2997924617903
 20
-430.4
 30
0.0
 40
0.9999999999999586
 50
270.0
 51
340.0000000000001
  0
LINE
  5
84
  8
0
  6
CONTINUOUS
 62
     7
 10
883.1090802794085
 20
-462.4087262032187
 30
0.0
 11
883.123789645289
 21
-461.5660271963212
 31
0.0
  0
LINE
  5
85
  8
0
  6
CONTINUOUS
 62
     7
 10
937.0785798885025
 20
-469.9000000000001
 30
0.0
 11
952.9999999999999
 21
-469.9000000000001
 31
0.0
  0
ARC
  5
86
  8
0
  6
CONTINUOUS
 62
     7
 10
893.3380735924076
 20
-427.9
 30
0.0
 40
1.000000000000001
 50
90.0
 51
159.9999999999999
  0
ARC
  5
87
  8
0
  6
CONTINUOUS
 62
     7
 10
937.0785798885025
 20
-468.9000000000001
 30
0.0
 40
1.000000000000003
 50
180.4999999999999
 51
270.0
  0
ARC
  5
88
  8
0
  6
CONTINUOUS
 62
     7
 10
919.3814050096736
 20
-572.7061540571494
 30
0.0
 40
0.6353464159781734
 50
281.1588323831225
 51
13.18612176869152
  0
ARC
  5
89
  8
0
  6
CONTINUOUS
 62
     7
 10
882.6091564318305
 20
-462.4000000000001
 30
0.0
 40
0.5000000000000004
 50
270.0
 51
359.0000000000002
  0
LINE
  5
8A
  8
0
  6
CONTINUOUS
 62
     7
 10
1975.061097693455
 20
-430.400284513795
 30
0.0
 11
1975.008575216021
 21
-427.3912737967814
 31
0.0
  0
LINE
  5
8B
  8
0
  6
CONTINUOUS
 62
     7
 10
919.9999999999999
 20
-427.3995817327714
 30
0.0
 11
919.2164165290922
 21
-425.7191874410627
 31
0.0
  0
LINE
  5
8C
  8
0
  6
CONTINUOUS
 62
     7
 10
890.2997924617903
 20
-431.4
 30
0.0
 11
887.3697419571209
 21
-431.4
 31
0.0
  0
LINE
  5
8D
  8
0
  6
CONTINUOUS
 62
     7
 10
952.9999999999999
 20
-419.9
 30
0.0
 11
937.0785798885025
 21
-419.9
 31
0.0
  0
ARC
  5
8E
  8
0
  6
CONTINUOUS
 62
     7
 10
935.008688789405
 20
-460.9000000000001
 30
0.0
 40
1.000000000000001
 50
0.4999999999998863
 51
90.0
  0
LINE
  5
8F
  8
0
  6
CONTINUOUS
 62
     7
 10
1975.008575216314
 20
-462.4087262032238
 30
0.0
 11
1975.061095142435
 21
-459.399861634045
 31
0.0
  0
LINE
  5
90
  8
0
  6
CONTINUOUS
 62
     7
 10
1964.939908928203
 20
-430.4
 30
0.0
 11
1941.082943322398
 21
-430.4
 31
0.0
  0
LINE
  5
91
  8
0
  6
CONTINUOUS
 62
     7
 10
903.9999999999999
 20
-464.0831358905081
 30
0.0
 11
903.9999999999999
 21
-425.716864109492
 31
0.0
  0
LINE
  5
92
  8
0
  6
CONTINUOUS
 62
     7
 10
1964.938902265618
 20
-459.3997131415515
 30
0.0
 11
1964.991424783979
 21
-462.4087262032187
 31
0.0
  0
LINE
  5
93
  8
0
  6
CONTINUOUS
 62
     7
 10
921.6999999999999
 20
-467.3653113040439
 30
0.0
 11
921.6999999999999
 21
-459.9000000000001
 31
0.0
  0
LINE
  5
94
  8
0
  6
CONTINUOUS
 62
     7
 10
891.239485082576
 20
-459.0579798566744
 30
0.0
 11
892.3983809716216
 21
-462.2420201433257
 31
0.0
  0
LINE
  5
95
  8
0
  6
CONTINUOUS
 62
     7
 10
1964.991424783566
 20
-427.3912737967742
 30
0.0
 11
1964.938901436637
 21
-430.4003343507646
 31
0.0
  0
LINE
  5
96
  8
0
  6
CONTINUOUS
 62
     7
 10
919.9999999999999
 20
-462.4003150744633
 30
0.0
 11
919.9999999999999
 21
-427.3996849255368
 31
0.0
  0
LINE
  5
97
  8
0
  6
CONTINUOUS
 62
     7
 10
1974.508651368442
 20
-462.9000000000001
 30
0.0
 11
1965.491348631558
 21
-462.9000000000001
 31
0.0
  0
ARC
  5
98
  8
0
  6
CONTINUOUS
 62
     7
 10
902.6185949903262
 20
-572.2938459428507
 30
0.0
 40
0.6353464159781734
 50
101.1588323831225
 51
193.1861217686915
  0
ARC
  5
99
  8
0
  6
CONTINUOUS
 62
     7
 10
893.3380735924076
 20
-461.9000000000001
 30
0.0
 40
1.000000000000044
 50
200.0
 51
269.9999999999999
  0
ARC
  5
9A
  8
0
  6
CONTINUOUS
 62
     7
 10
882.6091564318305
 20
-427.4
 30
0.0
 40
0.4999999999999361
 50
0.999999999999847
 51
90.0
  0
LINE
  5
9B
  8
0
  6
CONTINUOUS
 62
     7
 10
883.123789645289
 20
-428.2339728036789
 30
0.0
 11
883.1090802794085
 21
-427.3912737967814
 31
0.0
  0
LINE
  5
9C
  8
0
  6
CONTINUOUS
 62
     7
 10
936.0786179654383
 20
-420.8912734645017
 30
0.0
 11
936.0086507124689
 21
-428.9087265355174
 31
0.0
  0
LINE
  5
9D
  8
0
  6
CONTINUOUS
 62
     7
 10
920.0135266450756
 20
-459.9000000000001
 30
0.0
 11
935.008688789405
 21
-459.9000000000001
 31
0.0
  0
LINE
  5
9E
  8
0
  6
CONTINUOUS
 62
     7
 10
901.9999999999999
 20
-421.6110348324724
 30
0.0
 11
901.9999999999999
 21
-421.4241974154144
 31
0.0
  0
ARC
  5
9F
  8
0
  6
CONTINUOUS
 62
     7
 10
902.5718945754038
 20
-572.736282180996
 30
0.0
 40
0.5980881861786369
 50
162.9803509819687
 51
262.674694866218
  0
LINE
  5
A0
  8
0
  6
CONTINUOUS
 62
     7
 10
919.9999999999999
 20
-468.1889651675277
 30
0.0
 11
919.9999999999999
 21
-468.3758025845858
 31
0.0
  0
LINE
  5
A1
  8
0
  6
CONTINUOUS
 62
     7
 10
1941.082943322398
 20
-459.4000000000001
 30
0.0
 11
1964.939766860393
 21
-459.4000000000001
 31
0.0
  0
LINE
  5
A2
  8
0
  6
CONTINUOUS
 62
     7
 10
893.3380735924076
 20
-462.9000000000001
 30
0.0
 11
900.3
 21
-462.9000000000001
 31
0.0
  0
LINE
  5
A3
  8
0
  6
CONTINUOUS
 62
     7
 10
902.496128473263
 20
-573.4209418817917
 30
0.0
 11
919.5043632677491
 21
-573.3294889070233
 31
0.0
  0
ARC
  5
A4
  8
0
  6
CONTINUOUS
 62
     7
 10
902.6150170193022
 20
-575.1560624630503
 30
0.0
 40
0.6315621360034576
 50
100.8958208953262
 51
193.1436866782946
  0
LINE
  5
A5
  8
0
  6
CONTINUOUS
 62
     7
 10
855.4999999999999
 20
-522.5000000000001
 30
0.0
 11
892.4999999999999
 21
-522.5000000000001
 31
0.0
  0
ARC
  5
A6
  8
0
  6
CONTINUOUS
 62
     7
 10
902.567728342357
 20
-575.5935757695263
 30
0.0
 40
0.593318148358435
 50
163.111124727966
 51
263.0209841112699
  0
LINE
  5
A7
  8
0
  6
CONTINUOUS
 62
     7
 10
892.9999999999999
 20
-523.0
 30
0.0
 11
854.9999999999999
 21
-523.0
 31
0.0
  0
ARC
  5
A8
  8
0
  6
CONTINUOUS
 62
     7
 10
919.4103752070134
 20
-578.3811053867972
 30
0.0
 40
0.6068266903240257
 50
278.9100988632358
 51
13.67491909272456
  0
ARC
  5
A9
  8
0
  6
CONTINUOUS
 62
     7
 10
919.4398151195279
 20
-577.9518728440593
 30
0.0
 40
0.5845375101917147
 50
343.4032215901613
 51
83.66012592370072
  0
LINE
  5
AA
  8
0
  6
CONTINUOUS
 62
     7
 10
2050.0
 20
-557.0
 30
0.0
 11
2050.0
 21
-588.0
 31
0.0
  0
LINE
  5
AB
  8
0
  6
CONTINUOUS
 62
     7
 10
902.4956367322508
 20
-567.6290898375154
 30
0.0
 11
919.5041943032303
 21
-567.6826980714557
 31
0.0
  0
LINE
  5
AC
  8
0
  6
CONTINUOUS
 62
     7
 10
919.5043632677491
 20
-574.5358858118477
 30
0.0
 11
902.4959506966298
 21
-574.4628102639982
 31
0.0
  0
ARC
  5
AD
  8
0
  6
CONTINUOUS
 62
     7
 10
919.405909011972
 20
-567.025658227897
 30
0.0
 40
0.611410621405278
 50
279.2665725332268
 51
13.6700799528893
  0
ARC
  5
AE
  8
0
  6
CONTINUOUS
 62
     7
 10
919.4428604380333
 20
-566.5972235204341
 30
0.0
 40
0.5810966385910056
 50
343.4905032638736
 51
83.92447878016736
  0
ARC
  5
AF
  8
0
  6
CONTINUOUS
 62
     7
 10
902.5896247929865
 20
-566.6188946132029
 30
0.0
 40
0.6068266903240257
 50
98.91009886323577
 51
193.6749190927246
  0
LINE
  5
B0
  8
0
  6
CONTINUOUS
 62
     7
 10
902.4959506966298
 20
-570.5371897360019
 30
0.0
 11
919.5043632677491
 21
-570.4641141881524
 31
0.0
  0
LINE
  5
B1
  8
0
  6
CONTINUOUS
 62
     7
 10
921.9
 20
-593.0629729235937
 30
0.0
 11
921.9
 21
-589.1418948172014
 31
0.0
  0
ARC
  5
B2
  8
0
  6
CONTINUOUS
 62
     7
 10
919.4322716576428
 20
-569.4064242304738
 30
0.0
 40
0.593318148358435
 50
343.1111247279659
 51
83.02098411126985
  0
ARC
  5
B3
  8
0
  6
CONTINUOUS
 62
     7
 10
919.3874081317659
 20
-575.5643674657563
 30
0.0
 40
0.6290975156617663
 50
280.7141564815244
 51
13.15373467923712
  0
LINE
  5
B4
  8
0
  6
CONTINUOUS
 62
     7
 10
918.4597346553568
 20
-551.6956162581608
 30
0.0
 11
918.4144317978336
 21
-551.6100151156791
 31
0.0
  0
LINE
  5
B5
  8
0
  6
CONTINUOUS
 62
     7
 10
903.9999999999999
 20
-560.7555440372678
 30
0.0
 11
903.9999999999999
 21
-551.0
 31
0.0
  0
LINE
  5
B6
  8
0
  6
CONTINUOUS
 62
     7
 10
2049.5
 20
-588.5
 30
0.0
 11
2049.5
 21
-556.5
 31
0.0
  0
LINE
  5
B7
  8
0
  6
CONTINUOUS
 62
     7
 10
901.2912734645013
 20
-560.767363386446
 30
0.0
 11
920.7083568428643
 21
-560.6826382266835
 31
0.0
  0
LINE
  5
B8
  8
0
  6
CONTINUOUS
 62
     7
 10
919.5043632677491
 20
-571.6705110929768
 30
0.0
 11
902.496128473263
 21
-571.5790581182084
 31
0.0
  0
ARC
  5
B9
  8
0
  6
CONTINUOUS
 62
     7
 10
919.3849829806976
 20
-569.8439375369499
 30
0.0
 40
0.6315621360034827
 50
280.895820895326
 51
13.14368667830433
  0
ARC
  5
BA
  8
0
  6
CONTINUOUS
 62
     7
 10
902.6125918682338
 20
-569.4356325342437
 30
0.0
 40
0.6290975156617663
 50
100.7141564815244
 51
193.1537346792371
  0
ARC
  5
BB
  8
0
  6
CONTINUOUS
 62
     7
 10
902.569294718605
 20
-569.8736075396098
 30
0.0
 40
0.5950828521531388
 50
163.0706673712198
 51
262.8898250551464
  0
ARC
  5
BC
  8
0
  6
CONTINUOUS
 62
     7
 10
919.4307052813949
 20
-575.1263924603903
 30
0.0
 40
0.5950828521531252
 50
343.0706673712269
 51
82.88982505515702
  0
LINE
  5
BD
  8
0
  6
CONTINUOUS
 62
     7
 10
919.5041943032303
 20
-577.3173019285445
 30
0.0
 11
902.4956367322508
 21
-577.3709101624847
 31
0.0
  0
POLYLINE
  5
BE
  8
0
  6
CONTINUOUS
 62
     7
 66
     1
 10
0.0
 20
0.0
 30
0.0
  0
VERTEX
  5
253
  8
0
  6
CONTINUOUS
 62
     7
 10
919.5043632677491
 20
-467.4635572752189
 30
0.0
  0
VERTEX
  5
254
  8
0
  6
CONTINUOUS
 62
     7
 10
919.7202810471993
 20
-467.4775456949325
 30
0.0
  0
VERTEX
  5
255
  8
0
  6
CONTINUOUS
 62
     7
 10
919.9163323129715
 20
-467.5312185825696
 30
0.0
  0
VERTEX
  5
256
  8
0
  6
CONTINUOUS
 62
     7
 10
919.9999999999999
 20
-467.6593671601752
 30
0.0
  0
SEQEND
  5
287
  8
0
  6
CONTINUOUS
 62
     7
  0
ARC
  5
BF
  8
0
  6
CONTINUOUS
 62
     7
 10
-4153.974462687378
 20
-262677.4305375032
 30
0.0
 40
262292.4117136202
 50
88.89209236586822
 51
88.8945111477982
  0
ARC
  5
C0
  8
0
  6
CONTINUOUS
 62
     7
 10
917.5645504140209
 20
-552.6057987883721
 30
0.0
 40
1.002005362367927
 50
32.07585667201475
 51
90.13898319797775
  0
ARC
  5
C1
  8
0
  6
CONTINUOUS
 62
     7
 10
906.4878090073646
 20
-451.101244258447
 30
0.0
 40
0.4879552718751691
 50
181.4029039981605
 51
270.4068394997147
  0
ARC
  5
C2
  8
0
  6
CONTINUOUS
 62
     7
 10
901.0223198361044
 20
-464.3555302932278
 30
0.0
 40
0.7223198361044902
 50
202.6074510357207
 51
207.7624206629276
  0
ARC
  5
C3
  8
0
  6
CONTINUOUS
 62
     7
 10
901.3142483762862
 20
-464.2018584465972
 30
0.0
 40
1.052224836096074
 50
207.7624206629361
 51
226.720942021317
  0
ARC
  5
C4
  8
0
  6
CONTINUOUS
 62
     7
 10
901.1879642516651
 20
-464.3359660780632
 30
0.0
 40
0.8680169726680651
 50
226.7209420213216
 51
252.1717320601185
  0
ARC
  5
C5
  8
0
  6
CONTINUOUS
 62
     7
 10
901.3
 20
-463.9876061665308
 30
0.0
 40
1.233949530481393
 50
252.1717320601382
 51
269.5947981116237
  0
ARC
  5
C6
  8
0
  6
CONTINUOUS
 62
     7
 10
901.3
 20
-425.8123938334693
 30
0.0
 40
1.233949530481393
 50
90.40520188829376
 51
107.8282679398618
  0
ARC
  5
C7
  8
0
  6
CONTINUOUS
 62
     7
 10
901.1879642516651
 20
-425.4640339219369
 30
0.0
 40
0.8680169726680651
 50
107.8282679398815
 51
133.2790579786784
  0
ARC
  5
C8
  8
0
  6
CONTINUOUS
 62
     7
 10
901.3142483762862
 20
-425.5981415534029
 30
0.0
 40
1.052224836096074
 50
133.279057978683
 51
152.2375793370639
  0
ARC
  5
C9
  8
0
  6
CONTINUOUS
 62
     7
 10
901.0223198361044
 20
-425.4444697067723
 30
0.0
 40
0.7223198361044902
 50
152.2375793370724
 51
157.3925489642794
  0
ARC
  5
CA
  8
0
  6
CONTINUOUS
 62
     7
 10
906.5002259783563
 20
-445.0679050318388
 30
0.0
 40
0.5002259823787178
 50
179.9927340601192
 51
268.9745642505541
  0
ARC
  5
CB
  8
0
  6
CONTINUOUS
 62
     7
 10
906.494625511325
 20
-450.1396357842285
 30
0.0
 40
0.494674536773227
 50
90.38821599378507
 51
179.1933368364466
  0
ARC
  5
CC
  8
0
  6
CONTINUOUS
 62
     7
 10
917.5640074243516
 20
-556.053867251503
 30
0.0
 40
1.060051719487935
 50
36.76388845389226
 51
90.12110426587058
  0
ARC
  5
CD
  8
0
  6
CONTINUOUS
 62
     7
 10
-4429.540984102795
 20
275071.6333954647
 30
0.0
 40
275578.6685611032
 50
271.1094880957666
 51
271.1117901929682
  0
ARC
  5
CE
  8
0
  6
CONTINUOUS
 62
     7
 10
902.5571395619667
 20
-578.4027764795658
 30
0.0
 40
0.5810966385911395
 50
163.4905032638903
 51
263.9244787801467
  0
ARC
  5
CF
  8
0
  6
CONTINUOUS
 62
     7
 10
920.6999999999998
 20
-564.4723022241468
 30
0.0
 40
3.704957876168757
 50
84.34645903033106
 51
89.86504696808397
  0
ARC
  5
D0
  8
0
  6
CONTINUOUS
 62
     7
 10
920.9950827107333
 20
-561.4914999950713
 30
0.0
 40
0.7095854894637081
 50
54.50340390667798
 51
84.34645903036306
  0
ARC
  5
D1
  8
0
  6
CONTINUOUS
 62
     7
 10
918.2337773822469
 20
-565.3631938073386
 30
0.0
 40
5.465089678619258
 50
52.02684252221599
 51
54.50340390668038
  0
ARC
  5
D2
  8
0
  6
CONTINUOUS
 62
     7
 10
921.4307166677409
 20
-561.2673443479781
 30
0.0
 40
0.2692833322589516
 50
36.66425618097071
 51
52.02684252209076
  0
ARC
  5
D3
  8
0
  6
CONTINUOUS
 62
     7
 10
1222.228696823207
 20
-167733.2862344214
 30
0.0
 40
167179.4612521706
 50
90.10412383539506
 51
90.1082096754659
  0
POLYLINE
  5
D4
  8
0
  6
CONTINUOUS
 62
     7
 66
     1
 10
0.0
 20
0.0
 30
0.0
  0
VERTEX
  5
257
  8
0
  6
CONTINUOUS
 62
     7
 10
919.9999999999999
 20
-422.1406328398249
 30
0.0
  0
VERTEX
  5
258
  8
0
  6
CONTINUOUS
 62
     7
 10
919.8603225678614
 20
-422.2911870064418
 30
0.0
  0
VERTEX
  5
259
  8
0
  6
CONTINUOUS
 62
     7
 10
919.660058169649
 20
-422.3296924284103
 30
0.0
  0
VERTEX
  5
25A
  8
0
  6
CONTINUOUS
 62
     7
 10
919.5043632677491
 20
-422.3364427247813
 30
0.0
  0
SEQEND
  5
288
  8
0
  6
CONTINUOUS
 62
     7
  0
ARC
  5
D5
  8
0
  6
CONTINUOUS
 62
     7
 10
920.9776801638961
 20
-425.4444697067723
 30
0.0
 40
0.7223198361038241
 50
22.60745103574089
 51
27.76242066295631
  0
ARC
  5
D6
  8
0
  6
CONTINUOUS
 62
     7
 10
920.6857516237149
 20
-425.5981415534017
 30
0.0
 40
1.052224836094464
 50
27.76242066291094
 51
46.72094202131751
  0
ARC
  5
D7
  8
0
  6
CONTINUOUS
 62
     7
 10
920.812035748335
 20
-425.4640339219366
 30
0.0
 40
0.86801697266763
 50
46.7209420213147
 51
72.17173206012461
  0
ARC
  5
D8
  8
0
  6
CONTINUOUS
 62
     7
 10
920.6999999999999
 20
-425.8123938334685
 30
0.0
 40
1.233949530480671
 50
72.17173206012794
 51
89.59479811172147
  0
ARC
  5
D9
  8
0
  6
CONTINUOUS
 62
     7
 10
-2610.876008761395
 20
194422.2540645268
 30
0.0
 40
194914.2315494518
 50
271.0339997256995
 51
271.0372544913068
  0
ARC
  5
DA
  8
0
  6
CONTINUOUS
 62
     7
 10
-3176.61522462953
 20
-218398.8353007521
 30
0.0
 40
217878.1707112937
 50
88.92328403819658
 51
88.92619584087142
  0
ARC
  5
DB
  8
0
  6
CONTINUOUS
 62
     7
 10
42212.63412502532
 20
-2391375.411340802
 30
0.0
 40
2391288.652729337
 50
90.98948782058265
 51
90.98975310768198
  0
ARC
  5
DC
  8
0
  6
CONTINUOUS
 62
     7
 10
906.4529212915785
 20
-461.0820549023238
 30
0.0
 40
0.4812873474238246
 50
199.7693025300125
 51
274.5705938687175
  0
ARC
  5
DD
  8
0
  6
CONTINUOUS
 62
     7
 10
2491.612201775725
 20
-218429.8283132333
 30
0.0
 40
217878.1707112167
 50
90.41393429467094
 51
90.41684556170986
  0
ARC
  5
DE
  8
0
  6
CONTINUOUS
 62
     7
 10
906.4223119787941
 20
-557.8645635719434
 30
0.0
 40
0.4270628172417605
 50
80.7072276915283
 51
171.4457820363292
  0
ARC
  5
DF
  8
0
  6
CONTINUOUS
 62
     7
 10
-1043.186162682103
 20
-151210.38764948
 30
0.0
 40
150670.9403011853
 50
89.25436336577873
 51
89.25857350782229
  0
ARC
  5
E0
  8
0
  6
CONTINUOUS
 62
     7
 10
906.494375086326
 20
-438.9983144987376
 30
0.0
 40
0.4944882913249211
 50
181.226028912372
 51
269.6406548547405
  0
ARC
  5
E1
  8
0
  6
CONTINUOUS
 62
     7
 10
902.560184880472
 20
-567.0481271559407
 30
0.0
 40
0.5845375101917147
 50
163.4032215901716
 51
263.6601259237007
  0
ARC
  5
E2
  8
0
  6
CONTINUOUS
 62
     7
 10
920.6999999999999
 20
-463.9876061665316
 30
0.0
 40
1.233949530480671
 50
270.405201888361
 51
287.828267939872
  0
ARC
  5
E3
  8
0
  6
CONTINUOUS
 62
     7
 10
920.812035748335
 20
-464.3359660780636
 30
0.0
 40
0.86801697266763
 50
287.8282679398754
 51
313.2790579786853
  0
ARC
  5
E4
  8
0
  6
CONTINUOUS
 62
     7
 10
920.6857516237149
 20
-464.2018584465984
 30
0.0
 40
1.052224836094464
 50
313.2790579786825
 51
332.2375793370891
  0
ARC
  5
E5
  8
0
  6
CONTINUOUS
 62
     7
 10
920.9776801638961
 20
-464.3555302932278
 30
0.0
 40
0.7223198361038241
 50
332.2375793370437
 51
337.3925489642592
  0
POLYLINE
  5
E6
  8
0
  6
CONTINUOUS
 62
     7
 66
     1
 10
0.0
 20
0.0
 30
0.0
  0
VERTEX
  5
25B
  8
0
  6
CONTINUOUS
 62
     7
 10
901.9999999999999
 20
-467.6593671601752
 30
0.0
  0
VERTEX
  5
25C
  8
0
  6
CONTINUOUS
 62
     7
 10
902.1396774321385
 20
-467.5088129935584
 30
0.0
  0
VERTEX
  5
25D
  8
0
  6
CONTINUOUS
 62
     7
 10
902.3399418303508
 20
-467.4703075715898
 30
0.0
  0
VERTEX
  5
25E
  8
0
  6
CONTINUOUS
 62
     7
 10
902.4956367322508
 20
-467.4635572752189
 30
0.0
  0
SEQEND
  5
289
  8
0
  6
CONTINUOUS
 62
     7
  0
ARC
  5
E7
  8
0
  6
CONTINUOUS
 62
     7
 10
906.4765428755661
 20
-433.3765984318899
 30
0.0
 40
0.4792230048951808
 50
186.0624656333622
 51
271.7615026417855
  0
ARC
  5
E8
  8
0
  6
CONTINUOUS
 62
     7
 10
917.6203060325324
 20
-558.5154761281192
 30
0.0
 40
1.146724197367212
 50
46.26036997925931
 51
92.93022961457197
  0
ARC
  5
E9
  8
0
  6
CONTINUOUS
 62
     7
 10
7813.510604676836
 20
-489786.8108225906
 30
0.0
 40
489397.9956410022
 50
90.80736305130871
 51
90.80865922218248
  0
ARC
  5
EA
  8
0
  6
CONTINUOUS
 62
     7
 10
369.2532441289188
 20
-147914.516427726
 30
0.0
 40
147363.5061008073
 50
89.78648274168853
 51
89.79111825830103
  0
ARC
  5
EB
  8
0
  6
CONTINUOUS
 62
     7
 10
-8498.741104437515
 20
-489747.0968513588
 30
0.0
 40
489397.9956413923
 50
88.89752770778625
 51
88.89882404280792
  0
ARC
  5
EC
  8
0
  6
CONTINUOUS
 62
     7
 10
-41244.33693736134
 20
-2391362.686052071
 30
0.0
 40
2391288.65272506
 50
88.98973966474438
 51
88.99000497089294
  0
ARC
  5
ED
  8
0
  6
CONTINUOUS
 62
     7
 10
-9515.81030834704
 20
544772.8320507987
 30
0.0
 40
545322.0903074741
 50
271.0951147455394
 51
271.0962781533996
  0
ARC
  5
EE
  8
0
  6
CONTINUOUS
 62
     7
 10
8830.568860577821
 20
544812.9179675028
 30
0.0
 40
545322.0903074722
 50
269.1674054730992
 51
269.1685687287402
  0
ARC
  5
EF
  8
0
  6
CONTINUOUS
 62
     7
 10
1785.010577413437
 20
-190048.3275278868
 30
0.0
 40
189622.568290426
 50
90.26210659703298
 51
90.26545170621002
  0
POLYLINE
  5
F0
  8
0
  6
CONTINUOUS
 62
     7
 66
     1
 10
0.0
 20
0.0
 30
0.0
  0
VERTEX
  5
25F
  8
0
  6
CONTINUOUS
 62
     7
 10
906.4912737967812
 20
-427.8165495923042
 30
0.0
  0
VERTEX
  5
260
  8
0
  6
CONTINUOUS
 62
     7
 10
906.2763062258423
 20
-427.8471705702516
 30
0.0
  0
VERTEX
  5
261
  8
0
  6
CONTINUOUS
 62
     7
 10
906.086985514283
 20
-427.9470397305376
 30
0.0
  0
VERTEX
  5
262
  8
0
  6
CONTINUOUS
 62
     7
 10
905.9999999999999
 20
-428.1210736084832
 30
0.0
  0
SEQEND
  5
28A
  8
0
  6
CONTINUOUS
 62
     7
  0
ARC
  5
F1
  8
0
  6
CONTINUOUS
 62
     7
 10
906.4674755843027
 20
-558.4713539806503
 30
0.0
 40
0.4756577245491697
 50
190.642614646746
 51
272.8678324334757
  0
ARC
  5
F2
  8
0
  6
CONTINUOUS
 62
     7
 10
906.4636237530368
 20
-428.6273833359049
 30
0.0
 40
0.4865518524905972
 50
197.6594626145989
 51
273.257792056272
  0
ARC
  5
F3
  8
0
  6
CONTINUOUS
 62
     7
 10
-2469.9228189991
 20
-190021.5969404763
 30
0.0
 40
189622.5682904258
 50
88.97639305309337
 51
88.97973893333335
  0
ARC
  5
F4
  8
0
  6
CONTINUOUS
 62
     7
 10
900.5692833322589
 20
-561.2673443479781
 30
0.0
 40
0.2692833322589516
 50
127.9731574779092
 51
143.3357438190292
  0
ARC
  5
F5
  8
0
  6
CONTINUOUS
 62
     7
 10
903.7662226177595
 20
-565.3631938073473
 30
0.0
 40
5.465089678630202
 50
125.4965960933222
 51
127.9731574777816
  0
ARC
  5
F6
  8
0
  6
CONTINUOUS
 62
     7
 10
901.004917289266
 20
-561.4914999950705
 30
0.0
 40
0.7095854894627531
 50
95.65354096959936
 51
125.496596093322
  0
ARC
  5
F7
  8
0
  6
CONTINUOUS
 62
     7
 10
901.3
 20
-564.4723022241467
 30
0.0
 40
3.704957876168535
 50
90.1349530319195
 51
95.65354096966928
  0
POLYLINE
  5
F8
  8
0
  6
CONTINUOUS
 62
     7
 66
     1
 10
0.0
 20
0.0
 30
0.0
  0
VERTEX
  5
263
  8
0
  6
CONTINUOUS
 62
     7
 10
905.9999999999999
 20
-551.9355633635564
 30
0.0
  0
VERTEX
  5
264
  8
0
  6
CONTINUOUS
 62
     7
 10
906.1761576894045
 20
-552.0505121512412
 30
0.0
  0
VERTEX
  5
265
  8
0
  6
CONTINUOUS
 62
     7
 10
906.3898711275156
 20
-552.0852725067577
 30
0.0
  0
VERTEX
  5
266
  8
0
  6
CONTINUOUS
 62
     7
 10
906.4912737967812
 20
-552.0899440678661
 30
0.0
  0
SEQEND
  5
28B
  8
0
  6
CONTINUOUS
 62
     7
  0
ARC
  5
F9
  8
0
  6
CONTINUOUS
 62
     7
 10
917.5821405946083
 20
-560.349761997971
 30
0.0
 40
1.188347512210094
 50
45.61731064139042
 51
90.97732189086105
  0
ARC
  5
FA
  8
0
  6
CONTINUOUS
 62
     7
 10
917.5883764524465
 20
-554.760223728298
 30
0.0
 40
1.034003488485413
 50
37.10143876056073
 51
91.4837004791767
  0
POLYLINE
  5
FB
  8
0
  6
CONTINUOUS
 62
     7
 66
     1
 10
0.0
 20
0.0
 30
0.0
  0
VERTEX
  5
267
  8
0
  6
CONTINUOUS
 62
     7
 10
905.9999999999999
 20
-554.51902566921
 30
0.0
  0
VERTEX
  5
268
  8
0
  6
CONTINUOUS
 62
     7
 10
906.1192369037321
 20
-554.6993398213313
 30
0.0
  0
VERTEX
  5
269
  8
0
  6
CONTINUOUS
 62
     7
 10
906.313061302329
 20
-554.7794159258945
 30
0.0
  0
VERTEX
  5
26A
  8
0
  6
CONTINUOUS
 62
     7
 10
906.4912737967812
 20
-554.801256563277
 30
0.0
  0
SEQEND
  5
28C
  8
0
  6
CONTINUOUS
 62
     7
  0
ARC
  5
FC
  8
0
  6
CONTINUOUS
 62
     7
 10
917.5516853685763
 20
-553.2595639080349
 30
0.0
 40
1.015317301970553
 50
31.96113246596349
 51
89.43892087947837
  0
POLYLINE
  5
FD
  8
0
  6
CONTINUOUS
 62
     7
 66
     1
 10
0.0
 20
0.0
 30
0.0
  0
VERTEX
  5
26B
  8
0
  6
CONTINUOUS
 62
     7
 10
905.9999999999999
 20
-554.3928272178233
 30
0.0
  0
VERTEX
  5
26C
  8
0
  6
CONTINUOUS
 62
     7
 10
906.1250751426604
 20
-554.2283835457997
 30
0.0
  0
VERTEX
  5
26D
  8
0
  6
CONTINUOUS
 62
     7
 10
906.3213570174993
 20
-554.1630580104357
 30
0.0
  0
VERTEX
  5
26E
  8
0
  6
CONTINUOUS
 62
     7
 10
906.4912737967811
 20
-554.1482585597817
 30
0.0
  0
SEQEND
  5
28D
  8
0
  6
CONTINUOUS
 62
     7
  0
ARC
  5
FE
  8
0
  6
CONTINUOUS
 62
     7
 10
1230.611969031562
 20
-171485.05162056
 30
0.0
 40
170931.6457813796
 50
90.10493363146422
 51
90.10864437424128
  0
ARC
  5
FF
  8
0
  6
CONTINUOUS
 62
     7
 10
906.482825017542
 20
-438.0495128709247
 30
0.0
 40
0.4829751787730941
 50
88.99766260021123
 51
178.5712199190318
  0
ARC
  5
100
  8
0
  6
CONTINUOUS
 62
     7
 10
906.469474598733
 20
-455.8245668126991
 30
0.0
 40
0.4706905089308214
 50
87.34549783062175
 51
175.880787513969
  0
ARC
  5
101
  8
0
  6
CONTINUOUS
 62
     7
 10
906.457295566793
 20
-558.2347744636079
 30
0.0
 40
0.4707863467034834
 50
85.86117287807713
 51
166.2505029998081
  0
ARC
  5
102
  8
0
  6
CONTINUOUS
 62
     7
 10
906.4440167120689
 20
-432.6194053186914
 30
0.0
 40
0.4457411420668252
 50
83.9141142697709
 51
174.9585070325986
  0
ARC
  5
103
  8
0
  6
CONTINUOUS
 62
     7
 10
906.4996955597196
 20
-444.0507789717727
 30
0.0
 40
0.4996955722854641
 50
90.96569660803128
 51
179.9871507598519
  0
ARC
  5
104
  8
0
  6
CONTINUOUS
 62
     7
 10
906.4655100850139
 20
-456.6003901531979
 30
0.0
 40
0.4687238305687357
 50
186.7132575745302
 51
273.1508879265575
  0
ARC
  5
105
  8
0
  6
CONTINUOUS
 62
     7
 10
902.5940909880281
 20
-577.9743417721031
 30
0.0
 40
0.6114106214054936
 50
99.26657253324561
 51
193.6700799528843
  0
ARC
  5
106
  8
0
  6
CONTINUOUS
 62
     7
 10
-1915.437919776005
 20
-171463.1273264282
 30
0.0
 40
170931.6457812363
 50
89.05034325873494
 51
89.05405461569627
  0
ARC
  5
107
  8
0
  6
CONTINUOUS
 62
     7
 10
2455.548241519243
 20
-213647.5605645619
 30
0.0
 40
213095.4454432667
 50
90.41329897728714
 51
90.41650452078613
  0
ARC
  5
108
  8
0
  6
CONTINUOUS
 62
     7
 10
3744.431624373653
 20
275106.9717646117
 30
0.0
 40
275578.6685609794
 50
269.4099511089668
 51
269.4122528931712
  0
ARC
  5
109
  8
0
  6
CONTINUOUS
 62
     7
 10
906.4245895901765
 20
-460.6430892504199
 30
0.0
 40
0.4314355420733176
 50
81.1085158496482
 51
169.7794904977381
  0
ARC
  5
10A
  8
0
  6
CONTINUOUS
 62
     7
 10
358.4922908838296
 20
-151221.468312837
 30
0.0
 40
150670.9403012595
 50
89.78740145054086
 51
89.79161141581282
  0
ARC
  5
10B
  8
0
  6
CONTINUOUS
 62
     7
 10
-302.1013563112529
 20
-145779.7514118541
 30
0.0
 40
145233.7769543509
 50
89.51882802865663
 51
89.5231958342718
  0
POLYLINE
  5
10C
  8
0
  6
CONTINUOUS
 62
     7
 66
     1
 10
0.0
 20
0.0
 30
0.0
  0
VERTEX
  5
26F
  8
0
  6
CONTINUOUS
 62
     7
 10
902.4956367322508
 20
-422.3364427247813
 30
0.0
  0
VERTEX
  5
270
  8
0
  6
CONTINUOUS
 62
     7
 10
902.2797189528006
 20
-422.3224543050677
 30
0.0
  0
VERTEX
  5
271
  8
0
  6
CONTINUOUS
 62
     7
 10
902.0836676870284
 20
-422.2687814174305
 30
0.0
  0
VERTEX
  5
272
  8
0
  6
CONTINUOUS
 62
     7
 10
901.9999999999999
 20
-422.1406328398249
 30
0.0
  0
SEQEND
  5
28E
  8
0
  6
CONTINUOUS
 62
     7
  0
ARC
  5
10D
  8
0
  6
CONTINUOUS
 62
     7
 10
917.5521572841442
 20
-552.1368823944291
 30
0.0
 40
1.001155618697057
 50
30.60924941891028
 51
89.4173271504154
  0
ARC
  5
10E
  8
0
  6
CONTINUOUS
 62
     7
 10
1925.943724262167
 20
194449.9821024177
 30
0.0
 40
194914.2315493898
 50
269.700326676246
 51
269.703580952296
  0
POLYLINE
  5
10F
  8
0
  6
CONTINUOUS
 62
     7
 66
     1
 10
0.0
 20
0.0
 30
0.0
  0
VERTEX
  5
273
  8
0
  6
CONTINUOUS
 62
     7
 10
906.4912737967812
 20
-553.7377634835035
 30
0.0
  0
VERTEX
  5
274
  8
0
  6
CONTINUOUS
 62
     7
 10
906.2860926372902
 20
-553.7596966954549
 30
0.0
  0
VERTEX
  5
275
  8
0
  6
CONTINUOUS
 62
     7
 10
906.086985514283
 20
-553.8419878501261
 30
0.0
  0
VERTEX
  5
276
  8
0
  6
CONTINUOUS
 62
     7
 10
905.9999999999999
 20
-553.9826777580548
 30
0.0
  0
SEQEND
  5
28F
  8
0
  6
CONTINUOUS
 62
     7
  0
ARC
  5
110
  8
0
  6
CONTINUOUS
 62
     7
 10
3468.883522661758
 20
-262712.0552409043
 30
0.0
 40
262292.4117138449
 50
90.55732567526618
 51
90.5597440075286
  0
POLYLINE
  5
111
  8
0
  6
CONTINUOUS
 62
     7
 66
     1
 10
0.0
 20
0.0
 30
0.0
  0
VERTEX
  5
277
  8
0
  6
CONTINUOUS
 62
     7
 10
917.5617668284337
 20
-457.1763378225203
 30
0.0
  0
VERTEX
  5
278
  8
0
  6
CONTINUOUS
 62
     7
 10
917.911847447066
 20
-457.1464448364526
 30
0.0
  0
VERTEX
  5
279
  8
0
  6
CONTINUOUS
 62
     7
 10
918.2462633142087
 20
-457.038667018878
 30
0.0
  0
VERTEX
  5
27A
  8
0
  6
CONTINUOUS
 62
     7
 10
918.4132241383486
 20
-456.9297654289518
 30
0.0
  0
SEQEND
  5
290
  8
0
  6
CONTINUOUS
 62
     7
  0
ARC
  5
112
  8
0
  6
CONTINUOUS
 62
     7
 10
917.59935611663
 20
-428.8583844877804
 30
0.0
 40
1.084938202259887
 50
41.38252905278581
 51
91.97525791701555
  0
POLYLINE
  5
113
  8
0
  6
CONTINUOUS
 62
     7
 66
     1
 10
0.0
 20
0.0
 30
0.0
  0
VERTEX
  5
27B
  8
0
  6
CONTINUOUS
 62
     7
 10
917.5619489625657
 20
-434.0755953092956
 30
0.0
  0
VERTEX
  5
27C
  8
0
  6
CONTINUOUS
 62
     7
 10
917.9139061809653
 20
-434.118021909589
 30
0.0
  0
VERTEX
  5
27D
  8
0
  6
CONTINUOUS
 62
     7
 10
918.2464518078432
 20
-434.2408523050149
 30
0.0
  0
VERTEX
  5
27E
  8
0
  6
CONTINUOUS
 62
     7
 10
918.4134117371375
 20
-434.3602944295495
 30
0.0
  0
SEQEND
  5
291
  8
0
  6
CONTINUOUS
 62
     7
  0
ARC
  5
114
  8
0
  6
CONTINUOUS
 62
     7
 10
906.4997163805066
 20
-444.0584641621222
 30
0.0
 40
0.4997163998372786
 50
90.96804393562638
 51
179.9840633136102
  0
ARC
  5
115
  8
0
  6
CONTINUOUS
 62
     7
 10
917.5759920770685
 20
-430.4215441718662
 30
0.0
 40
1.102496935809429
 50
40.51615522528192
 51
90.69194171085407
  0
ARC
  5
116
  8
0
  6
CONTINUOUS
 62
     7
 10
906.4501595969925
 20
-456.3639230310404
 30
0.0
 40
0.4516594395565699
 50
184.6706269020245
 51
275.2228192641459
  0
ARC
  5
117
  8
0
  6
CONTINUOUS
 62
     7
 10
3411.367113887159
 20
-256954.930760465
 30
0.0
 40
256534.7328191157
 50
90.5567979223905
 51
90.55946070955159
  0
ARC
  5
118
  8
0
  6
CONTINUOUS
 62
     7
 10
41304.63914661694
 20
-2338891.200861305
 30
0.0
 40
2338796.580554182
 50
90.98942992707542
 51
90.98972203035123
  0
ARC
  5
119
  8
0
  6
CONTINUOUS
 62
     7
 10
1902.296964462128
 20
190171.7716044868
 30
0.0
 40
190635.5963045066
 50
269.7007078926001
 51
269.704291116139
  0
ARC
  5
11A
  8
0
  6
CONTINUOUS
 62
     7
 10
906.4072092251596
 20
-460.7927854821784
 30
0.0
 40
0.4175452730460804
 50
192.7750639617977
 51
281.6147700587193
  0
POLYLINE
  5
11B
  8
0
  6
CONTINUOUS
 62
     7
 66
     1
 10
0.0
 20
0.0
 30
0.0
  0
VERTEX
  5
27F
  8
0
  6
CONTINUOUS
 62
     7
 10
905.9999999999999
 20
-428.4908315366678
 30
0.0
  0
VERTEX
  5
280
  8
0
  6
CONTINUOUS
 62
     7
 10
906.0966065010584
 20
-428.3086636297338
 30
0.0
  0
VERTEX
  5
281
  8
0
  6
CONTINUOUS
 62
     7
 10
906.2899429439799
 20
-428.2132994951679
 30
0.0
  0
VERTEX
  5
282
  8
0
  6
CONTINUOUS
 62
     7
 10
906.4912737967811
 20
-428.1866191006739
 30
0.0
  0
SEQEND
  5
292
  8
0
  6
CONTINUOUS
 62
     7
  0
ARC
  5
11C
  8
0
  6
CONTINUOUS
 62
     7
 10
917.6062696564012
 20
-460.5220859134644
 30
0.0
 40
1.08994052068081
 50
267.6654330197213
 51
317.7706319524191
  0
ARC
  5
11D
  8
0
  6
CONTINUOUS
 62
     7
 10
1764.457493864495
 20
-185886.2717295627
 30
0.0
 40
185460.0923260598
 50
90.26137662177081
 51
90.2650598525392
  0
ARC
  5
11E
  8
0
  6
CONTINUOUS
 62
     7
 10
874.0908393686426
 20
-444.9009356433561
 30
0.0
 40
10.40969989558621
 50
67.50131684550831
 51
81.55878306217033
  0
ARC
  5
11F
  8
0
  6
CONTINUOUS
 62
     7
 10
874.091220645764
 20
-444.9000150991178
 30
0.0
 40
10.4087035151679
 50
45.00045187709833
 51
67.50131684550861
  0
ARC
  5
120
  8
0
  6
CONTINUOUS
 62
     7
 10
874.0908544420879
 20
-444.9003813085702
 30
0.0
 40
10.40922140945777
 50
22.50131688705153
 51
45.00045187709799
  0
ARC
  5
121
  8
0
  6
CONTINUOUS
 62
     7
 10
874.091774942568
 20
-444.9
 30
0.0
 40
10.40822505743177
 50
0.0000000000458726
 51
22.50131688705057
  0
POLYLINE
  5
122
  8
0
  6
CONTINUOUS
 62
     7
 66
     1
 10
0.0
 20
0.0
 30
0.0
  0
VERTEX
  5
283
  8
0
  6
CONTINUOUS
 62
     7
 10
918.4130713608412
 20
-432.3343605033157
 30
0.0
  0
VERTEX
  5
284
  8
0
  6
CONTINUOUS
 62
     7
 10
918.2150440632337
 20
-432.2043084383538
 30
0.0
  0
VERTEX
  5
285
  8
0
  6
CONTINUOUS
 62
     7
 10
917.8954846977626
 20
-432.1033495111606
 30
0.0
  0
VERTEX
  5
286
  8
0
  6
CONTINUOUS
 62
     7
 10
917.5616084408472
 20
-432.0744092604965
 30
0.0
  0
SEQEND
  5
293
  8
0
  6
CONTINUOUS
 62
     7
  0
ARC
  5
123
  8
0
  6
CONTINUOUS
 62
     7
 10
906.485378582428
 20
-450.9750193105455
 30
0.0
 40
0.4854724966608003
 50
181.1270106584698
 51
270.6957741289596
  0
ARC
  5
124
  8
0
  6
CONTINUOUS
 62
     7
 10
917.5733876170751
 20
-458.8835283242126
 30
0.0
 40
1.124994237781523
 50
269.4040098049066
 51
318.2831274853188
  0
ARC
  5
125
  8
0
  6
CONTINUOUS
 62
     7
 10
906.4858116689072
 20
-438.1960726099659
 30
0.0
 40
0.4860520162139521
 50
89.3561111746751
 51
178.1980871460664
  0
ARC
  5
126
  8
0
  6
CONTINUOUS
 62
     7
 10
3680.866556093999
 20
269058.2294999955
 30
0.0
 40
269529.3380698572
 50
269.4102207499467
 51
269.4127552041106
  0
ARC
  5
127
  8
0
  6
CONTINUOUS
 62
     7
 10
8655.35609029821
 20
532843.7595381502
 30
0.0
 40
533351.5210119304
 50
269.1675417436044
 51
269.1688225854664
  0
ARC
  5
128
  8
0
  6
CONTINUOUS
 62
     7
 10
7660.623660813563
 20
-479045.0833978684
 30
0.0
 40
478655.0370774409
 50
90.80708018804758
 51
90.80850738083842
  0
ARC
  5
129
  8
0
  6
CONTINUOUS
 62
     7
 10
874.0917749425685
 20
-444.9
 30
0.0
 40
10.40822505743133
 50
337.49868311304
 51
359.9999999999997
  0
ARC
  5
12A
  8
0
  6
CONTINUOUS
 62
     7
 10
874.0908544420881
 20
-444.89961869143
 30
0.0
 40
10.40922140945746
 50
314.9995481229937
 51
337.4986831130407
  0
ARC
  5
12B
  8
0
  6
CONTINUOUS
 62
     7
 10
874.0912206457633
 20
-444.8999849008816
 30
0.0
 40
10.40870351516884
 50
292.4986831545853
 51
314.9995481229932
  0
ARC
  5
12C
  8
0
  6
CONTINUOUS
 62
     7
 10
874.0908393686424
 20
-444.8990643566434
 30
0.0
 40
10.40969989558693
 50
278.4412169378309
 51
292.4986831545833
  0
ARC
  5
12D
  8
0
  6
CONTINUOUS
 62
     7
 10
906.4636998375688
 20
-432.9109663156461
 30
0.0
 40
0.4680089464631285
 50
86.62231468000516
 51
172.2189523433152
  0
ARC
  5
12E
  8
0
  6
CONTINUOUS
 62
     7
 10
902.8262619661875
 20
-426.7317547316124
 30
0.0
 40
1.014900356294555
 50
90.25067447440729
 51
150.4930447079498
  0
ARC
  5
12F
  8
0
  6
CONTINUOUS
 62
     7
 10
919.147546104547
 20
-463.0682111974086
 30
0.0
 40
1.014934476560869
 50
270.2513054303702
 51
330.5314450303406
  0
ARC
  5
130
  8
0
  6
CONTINUOUS
 62
     7
 10
902.8262627603858
 20
-463.0682428792505
 30
0.0
 40
1.014902748883917
 50
209.5042563651573
 51
269.7492812800932
  0
ARC
  5
131
  8
0
  6
CONTINUOUS
 62
     7
 10
919.147545899143
 20
-426.7317894204955
 30
0.0
 40
1.014935095359885
 50
29.46786030472066
 51
89.74868312713603
  0
LINE
  5
132
  8
0
  6
CONTINUOUS
 62
     7
 10
855.4999999999999
 20
-522.5000000000001
 30
0.0
 11
855.0
 21
-523.0000000000001
 31
0.0
  0
ARC
  5
133
  8
0
  6
CONTINUOUS
 62
     7
 10
891.9999999999999
 20
-538.7078817589918
 30
0.0
 40
1.000000000000004
 50
290.0000000000001
 51
0.0
  0
LINE
  5
134
  8
0
  6
CONTINUOUS
 62
     7
 10
952.9999999999999
 20
-597.5
 30
0.0
 11
952.9999999999999
 21
-547.5000000000001
 31
0.0
  0
LINE
  5
135
  8
0
  6
CONTINUOUS
 62
     7
 10
855.0
 20
-523.0
 30
0.0
 11
855.0
 21
-538.7078817589917
 31
0.0
  0
ARC
  5
136
  8
0
  6
CONTINUOUS
 62
     7
 10
855.9999999999999
 20
-538.7078817589918
 30
0.0
 40
1.000000000000001
 50
180.0
 51
250.0
  0
ARC
  5
137
  8
0
  6
CONTINUOUS
 62
     7
 10
901.3
 20
-594.9653113040439
 30
0.0
 40
1.000000000000001
 50
180.0
 51
269.4999999999883
  0
ARC
  5
138
  8
0
  6
CONTINUOUS
 62
     7
 10
901.0258966418585
 20
-553.5000000000001
 30
0.0
 40
0.99999999999998
 50
270.0
 51
340.0000000000001
  0
LINE
  5
139
  8
0
  6
CONTINUOUS
 62
     7
 10
921.9249999999998
 20
-589.8457096994218
 30
0.0
 11
921.9
 21
-589.8457096994218
 31
0.0
  0
LINE
  5
13A
  8
0
  6
CONTINUOUS
 62
     7
 10
855.6579798566743
 20
-539.6475743797776
 30
0.0
 11
857.3420201433256
 21
-540.2605149174237
 31
0.0
  0
LINE
  5
13B
  8
0
  6
CONTINUOUS
 62
     7
 10
890.6579798566743
 20
-540.2605149174238
 30
0.0
 11
892.3420201433256
 21
-539.6475743797777
 31
0.0
  0
LINE
  5
13C
  8
0
  6
CONTINUOUS
 62
     7
 10
893.3380735924075
 20
-590.5
 30
0.0
 11
900.2999999999998
 21
-590.5
 31
0.0
  0
LINE
  5
13D
  8
0
  6
CONTINUOUS
 62
     7
 10
901.0258966418585
 20
-554.5000000000001
 30
0.0
 11
893.3380735924076
 21
-554.5000000000001
 31
0.0
  0
ARC
  5
13E
  8
0
  6
CONTINUOUS
 62
     7
 10
893.3380735924075
 20
-555.5000000000001
 30
0.0
 40
1.000000000000001
 50
90.00000000000001
 51
160.0
  0
LINE
  5
13F
  8
0
  6
CONTINUOUS
 62
     7
 10
921.9
 20
-589.1418948133575
 30
0.0
 11
921.6999999999999
 21
-589.1418948133575
 31
0.0
  0
LINE
  5
140
  8
0
  6
CONTINUOUS
 62
     7
 10
921.6999999999999
 20
-592.0446942300401
 30
0.0
 11
921.9
 21
-592.0446942300401
 31
0.0
  0
LINE
  5
141
  8
0
  6
CONTINUOUS
 62
     7
 10
910.9999999999999
 20
-596.0500000000001
 30
0.0
 11
920.7087265354987
 21
-595.9652732271081
 31
0.0
  0
CIRCLE
  5
142
  8
0
  6
CONTINUOUS
 62
     7
 10
878.0940273733705
 20
-568.4057275167291
 30
0.0
 40
5.078811909037617
  0
LINE
  5
143
  8
0
  6
CONTINUOUS
 62
     7
 10
921.9
 20
-591.8601077190951
 30
0.0
 11
921.9249999999998
 21
-591.8601077190951
 31
0.0
  0
LINE
  5
144
  8
0
  6
CONTINUOUS
 62
     7
 10
921.6999999999999
 20
-592.4667765602848
 30
0.0
 11
921.9
 21
-592.4667765602848
 31
0.0
  0
LINE
  5
145
  8
0
  6
CONTINUOUS
 62
     7
 10
921.6999999999999
 20
-593.0629729240023
 30
0.0
 11
921.9
 21
-593.0629729240023
 31
0.0
  0
ARC
  5
146
  8
0
  6
CONTINUOUS
 62
     7
 10
903.7002075382096
 20
-552.0
 30
0.0
 40
1.000000000000001
 50
90.00000000000001
 51
159.9999999999998
  0
LINE
  5
147
  8
0
  6
CONTINUOUS
 62
     7
 10
902.7605149174237
 20
-551.6579798566744
 30
0.0
 11
901.9655892626444
 21
-553.8420201433258
 31
0.0
  0
CIRCLE
  5
148
  8
0
  6
CONTINUOUS
 62
     7
 10
878.1005050633883
 20
-568.3994949366116
 30
0.0
 40
3.5
  0
LINE
  5
149
  8
0
  6
CONTINUOUS
 62
     7
 10
901.2912734645013
 20
-595.9652732271081
 30
0.0
 11
910.9999999999999
 21
-596.0500000000001
 31
0.0
  0
LINE
  5
14A
  8
0
  6
CONTINUOUS
 62
     7
 10
892.9999999999999
 20
-538.7078817589918
 30
0.0
 11
892.9999999999999
 21
-523.0000000000001
 31
0.0
  0
LINE
  5
14B
  8
0
  6
CONTINUOUS
 62
     7
 10
906.1580401906605
 20
-552.0454135360225
 30
0.0
 11
906.4912737967811
 21
-552.0180501897751
 31
0.0
  0
LINE
  5
14C
  8
0
  6
CONTINUOUS
 62
     7
 10
921.9249999999998
 20
-589.5414039094975
 30
0.0
 11
921.9
 21
-589.5414039094975
 31
0.0
  0
LINE
  5
14D
  8
0
  6
CONTINUOUS
 62
     7
 10
921.6999999999999
 20
-592.7324271416737
 30
0.0
 11
921.9
 21
-592.7324271416737
 31
0.0
  0
ARC
  5
14E
  8
0
  6
CONTINUOUS
 62
     7
 10
920.6999999999998
 20
-594.9653113040439
 30
0.0
 40
1.0
 50
270.5000000000258
 51
0.0
  0
LINE
  5
14F
  8
0
  6
CONTINUOUS
 62
     7
 10
906.0432707647694
 20
-554.6314396931476
 30
0.0
 11
905.9999999999999
 21
-554.3882170080753
 31
0.0
  0
LINE
  5
150
  8
0
  6
CONTINUOUS
 62
     7
 10
919.9999999999999
 20
-554.9993648563676
 30
0.0
 11
918.4493243164075
 21
-551.6739655196548
 31
0.0
  0
LINE
  5
151
  8
0
  6
CONTINUOUS
 62
     7
 10
892.9999999999999
 20
-523.0
 30
0.0
 11
892.4999999999999
 21
-522.5
 31
0.0
  0
ARC
  5
152
  8
0
  6
CONTINUOUS
 62
     7
 10
893.3380735924075
 20
-589.5
 30
0.0
 40
0.99999999999998
 50
200.0
 51
269.9999999999999
  0
LINE
  5
153
  8
0
  6
CONTINUOUS
 62
     7
 10
936.0786179654383
 20
-548.4912734645017
 30
0.0
 11
936.0086507124689
 21
-556.5087265355173
 31
0.0
  0
ARC
  5
154
  8
0
  6
CONTINUOUS
 62
     7
 10
937.0785798885025
 20
-596.5
 30
0.0
 40
1.000000000000003
 50
180.4999999999999
 51
270.0
  0
ARC
  5
155
  8
0
  6
CONTINUOUS
 62
     7
 10
935.0086887894049
 20
-588.5
 30
0.0
 40
1.000000000000001
 50
0.4999999999998863
 51
90.0
  0
LINE
  5
156
  8
0
  6
CONTINUOUS
 62
     7
 10
892.3983809716216
 20
-555.1579798566744
 30
0.0
 11
891.239485082576
 21
-558.3420201433256
 31
0.0
  0
ARC
  5
157
  8
0
  6
CONTINUOUS
 62
     7
 10
888.4999999999998
 20
-556.200207538209
 30
0.0
 40
1.000000000000001
 50
110.0000000000001
 51
180.0
  0
LINE
  5
158
  8
0
  6
CONTINUOUS
 62
     7
 10
936.0086507124689
 20
-588.4912734644827
 30
0.0
 11
936.0786179654383
 21
-596.5087265354983
 31
0.0
  0
ARC
  5
159
  8
0
  6
CONTINUOUS
 62
     7
 10
887.9999999999999
 20
-558.5000000000001
 30
0.0
 40
27.49999999999997
 50
179.9999999999986
 51
270.0
  0
LINE
  5
15A
  8
0
  6
CONTINUOUS
 62
     7
 10
910.9999999999999
 20
-467.5229445444681
 30
0.0
 11
902.4956367322508
 21
-467.4635572752189
 31
0.0
  0
LINE
  5
15B
  8
0
  6
CONTINUOUS
 62
     7
 10
887.4999999999999
 20
-558.5
 30
0.0
 11
887.4999999999999
 21
-556.2002075382089
 31
0.0
  0
LINE
  5
15C
  8
0
  6
CONTINUOUS
 62
     7
 10
857.9999999999999
 20
-541.2002075382097
 30
0.0
 11
857.9999999999999
 21
-553.8898668761245
 31
0.0
  0
ARC
  5
15D
  8
0
  6
CONTINUOUS
 62
     7
 10
887.9999999999999
 20
-558.5000000000001
 30
0.0
 40
0.5000000000000004
 50
179.9999999999986
 51
270.0
  0
LINE
  5
15E
  8
0
  6
CONTINUOUS
 62
     7
 10
902.210810344182
 20
-421.7010945107304
 30
0.0
 11
901.9999999999999
 21
-421.6110348324725
 31
0.0
  0
LINE
  5
15F
  8
0
  6
CONTINUOUS
 62
     7
 10
901.2912734645013
 20
-465.2215227214185
 30
0.0
 11
911.0000000000003
 21
-465.2948982591236
 31
0.0
  0
LINE
  5
160
  8
0
  6
CONTINUOUS
 62
     7
 10
919.9999999999999
 20
-421.4286216546987
 30
0.0
 11
919.9721709871335
 21
-421.4319997079779
 31
0.0
  0
ARC
  5
161
  8
0
  6
CONTINUOUS
 62
     7
 10
857.0
 20
-541.2002075382097
 30
0.0
 40
0.9999999999999948
 50
0.0
 51
69.99999999999996
  0
LINE
  5
162
  8
0
  6
CONTINUOUS
 62
     7
 10
919.9999999999999
 20
-421.6110348324725
 30
0.0
 11
919.7891645243964
 21
-421.7010974557095
 31
0.0
  0
LINE
  5
163
  8
0
  6
CONTINUOUS
 62
     7
 10
919.9723592578791
 20
-468.3680124787089
 30
0.0
 11
919.9999999999999
 21
-468.3713783453014
 31
0.0
  0
ARC
  5
164
  8
0
  6
CONTINUOUS
 62
     7
 10
890.2997924617902
 20
-587.0000000000001
 30
0.0
 40
1.000000000000001
 50
19.99999999999994
 51
90.0
  0
LINE
  5
165
  8
0
  6
CONTINUOUS
 62
     7
 10
919.5043632677491
 20
-467.4635572752189
 30
0.0
 11
910.9999999999999
 21
-467.5229445444681
 31
0.0
  0
LINE
  5
166
  8
0
  6
CONTINUOUS
 62
     7
 10
910.9999999999999
 20
-422.277055455532
 30
0.0
 11
919.5043632677491
 21
-422.3364427247813
 31
0.0
  0
ARC
  5
167
  8
0
  6
CONTINUOUS
 62
     7
 10
890.2997924617902
 20
-558.0
 30
0.0
 40
1.000000000000005
 50
270.0
 51
340.0000000000001
  0
ARC
  5
168
  8
0
  6
CONTINUOUS
 62
     7
 10
888.9999999999999
 20
-553.8898668761245
 30
0.0
 40
1.000000000000004
 50
290.0000000000001
 51
0.0
  0
LINE
  5
169
  8
0
  6
CONTINUOUS
 62
     7
 10
860.4999999999999
 20
-556.200207538209
 30
0.0
 11
860.4999999999999
 21
-558.5000000000001
 31
0.0
  0
LINE
  5
16A
  8
0
  6
CONTINUOUS
 62
     7
 10
952.9999999999999
 20
-547.5000000000001
 30
0.0
 11
937.0785798885025
 21
-547.5000000000001
 31
0.0
  0
LINE
  5
16B
  8
0
  6
CONTINUOUS
 62
     7
 10
902.4956367322508
 20
-422.3364427247813
 30
0.0
 11
910.9999999999999
 21
-422.277055455532
 31
0.0
  0
ARC
  5
16C
  8
0
  6
CONTINUOUS
 62
     7
 10
937.0785798885024
 20
-548.5000000000001
 30
0.0
 40
1.000000000000001
 50
90.00000000000001
 51
179.5000000000001
  0
LINE
  5
16D
  8
0
  6
CONTINUOUS
 62
     7
 10
901.2912734645031
 20
-424.5784772785816
 30
0.0
 11
911.0000000000009
 21
-424.5051017408765
 31
0.0
  0
LINE
  5
16E
  8
0
  6
CONTINUOUS
 62
     7
 10
891.239485082576
 20
-586.6579798566744
 30
0.0
 11
892.3983809716216
 21
-589.8420201433257
 31
0.0
  0
LINE
  5
16F
  8
0
  6
CONTINUOUS
 62
     7
 10
911.0000000000003
 20
-465.2948982591236
 30
0.0
 11
920.7087265354983
 21
-465.2215227214185
 31
0.0
  0
LINE
  5
170
  8
0
  6
CONTINUOUS
 62
     7
 10
911.0000000000009
 20
-424.5051017408765
 30
0.0
 11
920.7087265354965
 21
-424.5784772785816
 31
0.0
  0
LINE
  5
171
  8
0
  6
CONTINUOUS
 62
     7
 10
901.9999999999999
 20
-468.1889651675276
 30
0.0
 11
902.2108354756035
 21
-468.0989025442906
 31
0.0
  0
ARC
  5
172
  8
0
  6
CONTINUOUS
 62
     7
 10
890.9999999999999
 20
-541.2002075382097
 30
0.0
 40
1.000000000000001
 50
110.0000000000001
 51
180.0
  0
LINE
  5
173
  8
0
  6
CONTINUOUS
 62
     7
 10
935.0086887894049
 20
-557.5000000000001
 30
0.0
 11
920.0135266450754
 21
-557.5000000000001
 31
0.0
  0
LINE
  5
174
  8
0
  6
CONTINUOUS
 62
     7
 10
890.2997924617902
 20
-559.0
 30
0.0
 11
887.9999999999999
 21
-559.0
 31
0.0
  0
LINE
  5
175
  8
0
  6
CONTINUOUS
 62
     7
 10
858.6579798566743
 20
-554.8295594969104
 30
0.0
 11
859.8420201433254
 21
-555.2605149174234
 31
0.0
  0
LINE
  5
176
  8
0
  6
CONTINUOUS
 62
     7
 10
937.0785798885025
 20
-597.5
 30
0.0
 11
952.9999999999999
 21
-597.5
 31
0.0
  0
LINE
  5
177
  8
0
  6
CONTINUOUS
 62
     7
 10
887.9999999999999
 20
-586.0000000000001
 30
0.0
 11
890.2997924617902
 21
-586.0000000000001
 31
0.0
  0
LINE
  5
178
  8
0
  6
CONTINUOUS
 62
     7
 10
919.7891876850633
 20
-468.0989052583154
 30
0.0
 11
919.9999999999999
 21
-468.1889651675276
 31
0.0
  0
LINE
  5
179
  8
0
  6
CONTINUOUS
 62
     7
 10
889.9999999999999
 20
-553.8898668761245
 30
0.0
 11
889.9999999999999
 21
-541.2002075382097
 31
0.0
  0
ARC
  5
17A
  8
0
  6
CONTINUOUS
 62
     7
 10
859.0
 20
-553.8898668761245
 30
0.0
 40
1.000000000000001
 50
180.0
 51
250.0
  0
ARC
  5
17B
  8
0
  6
CONTINUOUS
 62
     7
 10
935.0086887894049
 20
-556.5000000000001
 30
0.0
 40
1.000000000000003
 50
270.0
 51
359.5000000000001
  0
LINE
  5
17C
  8
0
  6
CONTINUOUS
 62
     7
 10
921.6999999999999
 20
-587.5
 30
0.0
 11
935.008688789405
 21
-587.5
 31
0.0
  0
LINE
  5
17D
  8
0
  6
CONTINUOUS
 62
     7
 10
901.9999999999999
 20
-468.3713783453014
 30
0.0
 11
902.0278290128665
 21
-468.3680002920223
 31
0.0
  0
LINE
  5
17E
  8
0
  6
CONTINUOUS
 62
     7
 10
888.1579798566743
 20
-555.2605149174234
 30
0.0
 11
889.3420201433255
 21
-554.8295594969104
 31
0.0
  0
ARC
  5
17F
  8
0
  6
CONTINUOUS
 62
     7
 10
859.4999999999999
 20
-556.200207538209
 30
0.0
 40
0.9999999999999948
 50
0.0
 51
69.99999999999996
  0
LINE
  5
180
  8
0
  6
CONTINUOUS
 62
     7
 10
920.0311902170912
 20
-426.2325043816571
 30
0.0
 11
920.1528300051374
 21
-426.6968555197207
 31
0.0
  0
LINE
  5
181
  8
0
  6
CONTINUOUS
 62
     7
 10
901.8208333295267
 20
-426.6910625102581
 30
0.0
 11
901.8024534117889
 21
-427.7101341864482
 31
0.0
  0
LINE
  5
182
  8
0
  6
CONTINUOUS
 62
     7
 10
919.9999999999999
 20
-422.1110109636693
 30
0.0
 11
919.9999999999999
 21
-422.1406328398248
 31
0.0
  0
LINE
  5
183
  8
0
  6
CONTINUOUS
 62
     7
 10
921.6999999999999
 20
-425.4415938354347
 30
0.0
 11
921.6468258748303
 21
-425.1658291281341
 31
0.0
  0
LINE
  5
184
  8
0
  6
CONTINUOUS
 62
     7
 10
901.9999999999999
 20
-467.6889890363308
 30
0.0
 11
901.9999999999999
 21
-467.6593671601753
 31
0.0
  0
LINE
  5
185
  8
0
  6
CONTINUOUS
 62
     7
 10
919.9999999999999
 20
-467.6593671601753
 30
0.0
 11
919.9999999999999
 21
-467.6889890363308
 31
0.0
  0
LINE
  5
186
  8
0
  6
CONTINUOUS
 62
     7
 10
901.9999999999999
 20
-422.1406328398248
 30
0.0
 11
901.9999999999999
 21
-422.1110109636693
 31
0.0
  0
LINE
  5
187
  8
0
  6
CONTINUOUS
 62
     7
 10
901.9430066704904
 20
-463.5681421216971
 30
0.0
 11
901.8208333295267
 21
-463.1089374897421
 31
0.0
  0
LINE
  5
188
  8
0
  6
CONTINUOUS
 62
     7
 10
900.3531741251695
 20
-425.1658291281341
 30
0.0
 11
900.3
 21
-425.4415938354347
 31
0.0
  0
LINE
  5
189
  8
0
  6
CONTINUOUS
 62
     7
 10
901.8024534163904
 20
-462.0898658135497
 30
0.0
 11
901.8208333295267
 21
-463.108937489742
 31
0.0
  0
LINE
  5
18A
  8
0
  6
CONTINUOUS
 62
     7
 10
920.1528300051374
 20
-463.1031444802795
 30
0.0
 11
920.0311881442714
 21
-463.5674998192722
 31
0.0
  0
LINE
  5
18B
  8
0
  6
CONTINUOUS
 62
     7
 10
901.8208333295267
 20
-426.6910625102581
 30
0.0
 11
901.9430137618862
 21
-426.2318434985323
 31
0.0
  0
LINE
  5
18C
  8
0
  6
CONTINUOUS
 62
     7
 10
921.6468258748303
 20
-464.634170871866
 30
0.0
 11
921.6999999999999
 21
-464.3584061645654
 31
0.0
  0
LINE
  5
18D
  8
0
  6
CONTINUOUS
 62
     7
 10
900.3
 20
-464.3584061645654
 30
0.0
 11
900.3531741251695
 21
-464.634170871866
 31
0.0
  0
ARC
  5
18E
  8
0
  6
CONTINUOUS
 62
     7
 10
1974.508651368442
 20
-462.4000000000001
 30
0.0
 40
0.5000000000000004
 50
270.0
 51
359.0000000000006
  0
ARC
  5
18F
  8
0
  6
CONTINUOUS
 62
     7
 10
1965.491348631558
 20
-462.4000000000001
 30
0.0
 40
0.5000000000000471
 50
180.9999999999978
 51
269.9999999999983
  0
ARC
  5
190
  8
0
  6
CONTINUOUS
 62
     7
 10
1965.491348631558
 20
-427.4
 30
0.0
 40
0.5000000000000004
 50
90.0
 51
179.0000000000005
  0
ARC
  5
191
  8
0
  6
CONTINUOUS
 62
     7
 10
1974.508651368442
 20
-427.4
 30
0.0
 40
0.5000000000000471
 50
0.9999999999977621
 51
89.9999999999983
  0
CIRCLE
  5
192
  8
0
  6
CONTINUOUS
 62
     7
 10
2137.6
 20
-572.5
 30
0.0
 40
15.49999999999996
  0
CIRCLE
  5
193
  8
0
  6
CONTINUOUS
 62
     7
 10
2137.6
 20
-572.5
 30
0.0
 40
16.00000000000001
  0
CIRCLE
  5
194
  8
0
  6
CONTINUOUS
 62
     7
 10
2137.6
 20
-572.5
 30
0.0
 40
12.49999999999996
  0
LINE
  5
195
  8
0
  6
CONTINUOUS
 62
     7
 10
2119.6
 20
-577.0086513684421
 30
0.0
 11
2119.6
 21
-567.9913486315579
 31
0.0
  0
LINE
  5
196
  8
0
  6
CONTINUOUS
 62
     7
 10
2155.6
 20
-567.9913486315579
 30
0.0
 11
2155.6
 21
-577.0086513684421
 31
0.0
  0
LINE
  5
197
  8
0
  6
CONTINUOUS
 62
     7
 10
2119.1
 20
-522.5
 30
0.0
 11
2156.1
 21
-522.5
 31
0.0
  0
CIRCLE
  5
198
  8
0
  6
CONTINUOUS
 62
     7
 10
2137.6
 20
-572.5
 30
0.0
 40
8.049282040812566
  0
LINE
  5
199
  8
0
  6
CONTINUOUS
 62
     7
 10
1996.5
 20
-460.9000000000001
 30
0.0
 11
2049.5
 21
-460.9000000000001
 31
0.0
  0
LINE
  5
19A
  8
0
  6
CONTINUOUS
 62
     7
 10
2049.5
 20
-428.9
 30
0.0
 11
1996.5
 21
-428.9
 31
0.0
  0
LINE
  5
19B
  8
0
  6
CONTINUOUS
 62
     7
 10
1923.0
 20
-469.9000000000001
 30
0.0
 11
1939.008688789405
 21
-469.9000000000001
 31
0.0
  0
CIRCLE
  5
19C
  8
0
  6
CONTINUOUS
 62
     7
 10
2137.6
 20
-572.5
 30
0.0
 40
25.00000000000002
  0
LINE
  5
19D
  8
0
  6
CONTINUOUS
 62
     7
 10
2156.6
 20
-523.0
 30
0.0
 11
2118.6
 21
-523.0
 31
0.0
  0
ARC
  5
19E
  8
0
  6
CONTINUOUS
 62
     7
 10
2120.1
 20
-567.9913486315579
 30
0.0
 40
0.5000000000000481
 50
91.00000000000414
 51
180.0000000000047
  0
LINE
  5
19F
  8
0
  6
CONTINUOUS
 62
     7
 10
2118.6
 20
-523.0
 30
0.0
 11
2118.6
 21
-538.7078817589917
 31
0.0
  0
LINE
  5
1A0
  8
0
  6
CONTINUOUS
 62
     7
 10
2120.091273796781
 20
-577.5085752160204
 30
0.0
 11
2122.311623892271
 21
-577.5473315711005
 31
0.0
  0
ARC
  5
1A1
  8
0
  6
CONTINUOUS
 62
     7
 10
2155.6
 20
-538.7078817589917
 30
0.0
 40
1.000000000000158
 50
290.0000000000145
 51
0.0000000000144382
  0
LINE
  5
1A2
  8
0
  6
CONTINUOUS
 62
     7
 10
2156.6
 20
-523.0
 30
0.0
 11
2156.1
 21
-522.5
 31
0.0
  0
ARC
  5
1A3
  8
0
  6
CONTINUOUS
 62
     7
 10
2120.1
 20
-577.0086513684421
 30
0.0
 40
0.4999999999997229
 50
180.0
 51
269.0000000000006
  0
LINE
  5
1A4
  8
0
  6
CONTINUOUS
 62
     7
 10
2119.257979856674
 20
-539.6475743797776
 30
0.0
 11
2120.942020143325
 21
-540.2605149174237
 31
0.0
  0
ARC
  5
1A5
  8
0
  6
CONTINUOUS
 62
     7
 10
2154.6
 20
-541.2002075382097
 30
0.0
 40
0.9999999999998899
 50
110.0000000000001
 51
180.0
  0
ARC
  5
1A6
  8
0
  6
CONTINUOUS
 62
     7
 10
2120.6
 20
-541.2002075382097
 30
0.0
 40
0.9999999999999015
 50
0.000000000007276
 51
70.00000000000722
  0
ARC
  5
1A7
  8
0
  6
CONTINUOUS
 62
     7
 10
2119.6
 20
-538.7078817589917
 30
0.0
 40
1.000000000000334
 50
180.0
 51
250.0
  0
ARC
  5
1A8
  8
0
  6
CONTINUOUS
 62
     7
 10
2155.1
 20
-577.0086513684421
 30
0.0
 40
0.5000000000000481
 50
271.0000000000041
 51
0.0000000000046612
  0
LINE
  5
1A9
  8
0
  6
CONTINUOUS
 62
     7
 10
2156.6
 20
-538.7078817589917
 30
0.0
 11
2156.6
 21
-523.0
 31
0.0
  0
LINE
  5
1AA
  8
0
  6
CONTINUOUS
 62
     7
 10
2152.888375809509
 20
-577.5473315763059
 30
0.0
 11
2155.108726203219
 21
-577.5085752160204
 31
0.0
  0
LINE
  5
1AB
  8
0
  6
CONTINUOUS
 62
     7
 10
2154.257979856674
 20
-540.2605149174237
 30
0.0
 11
2155.942020143326
 21
-539.6475743797776
 31
0.0
  0
LINE
  5
1AC
  8
0
  6
CONTINUOUS
 62
     7
 10
2122.31162419049
 20
-567.452668423694
 30
0.0
 11
2120.091273796781
 21
-567.4914247839796
 31
0.0
  0
LINE
  5
1AD
  8
0
  6
CONTINUOUS
 62
     7
 10
2119.1
 20
-522.5
 30
0.0
 11
2118.6
 21
-523.0
 31
0.0
  0
ARC
  5
1AE
  8
0
  6
CONTINUOUS
 62
     7
 10
2155.1
 20
-567.9913486315579
 30
0.0
 40
0.4999999999997229
 50
0.0
 51
89.00000000000054
  0
LINE
  5
1AF
  8
0
  6
CONTINUOUS
 62
     7
 10
2155.108726203219
 20
-567.4914247839796
 30
0.0
 11
2152.888376107729
 21
-567.4526684288995
 31
0.0
  0
LINE
  5
1B0
  8
0
  6
CONTINUOUS
 62
     7
 10
2153.6
 20
-553.2906272877015
 30
0.0
 11
2153.6
 21
-541.2002075382097
 31
0.0
  0
LINE
  5
1B1
  8
0
  6
CONTINUOUS
 62
     7
 10
1923.0
 20
-421.4
 30
0.0
 11
952.9999999999999
 21
-421.4
 31
0.0
  0
LINE
  5
1B2
  8
0
  6
CENTER
 62
     1
 10
2137.6
 20
-599.5
 30
0.0
 11
2137.6
 21
-515.0
 31
0.0
  0
LINE
  5
1B4
  8
0
  6
CONTINUOUS
 62
     7
 10
1923.0
 20
-549.0
 30
0.0
 11
952.9999999999998
 21
-549.0
 31
0.0
  0
LINE
  5
1B5
  8
0
  6
CONTINUOUS
 62
     7
 10
2121.6
 20
-541.2002075382097
 30
0.0
 11
2121.6
 21
-553.2906272877015
 31
0.0
  0
LINE
  5
1B6
  8
0
  6
CENTER
 62
     1
 10
2057.5
 20
-572.5
 30
0.0
 11
873.9999999999999
 21
-572.5000000000001
 31
0.0
  0
LINE
  5
1B7
  8
0
  6
CENTER
 62
     1
 10
873.9999999999999
 20
-521.0
 30
0.0
 11
873.9999999999999
 21
-572.5000000000001
 31
0.0
  0
LINE
  5
1B8
  8
0
  6
CONTINUOUS
 62
     7
 10
952.9999999999999
 20
-468.4000000000001
 30
0.0
 11
1923.0
 21
-468.4000000000001
 31
0.0
  0
LINE
  5
1B9
  8
0
  6
CENTER
 62
     1
 10
852.9999999999999
 20
-444.9000000000001
 30
0.0
 11
2057.5
 21
-444.9000000000001
 31
0.0
  0
LINE
  5
1BA
  8
0
  6
CONTINUOUS
 62
     7
 10
952.9999999999999
 20
-596.0000000000001
 30
0.0
 11
1923.0
 21
-596.0
 31
0.0
  0
LINE
  5
1BB
  8
0
  6
CONTINUOUS
 62
     7
 10
1995.0
 20
-558.0
 30
0.0
 11
1995.0
 21
-587.0000000000001
 31
0.0
  0
LINE
  5
1BC
  8
0
  6
CONTINUOUS
 62
     7
 10
1996.5
 20
-556.5000000000001
 30
0.0
 11
1995.0
 21
-558.0
 31
0.0
  0
LINE
  5
1BD
  8
0
  6
CONTINUOUS
 62
     7
 10
1996.5
 20
-588.5
 30
0.0
 11
2049.5
 21
-588.5
 31
0.0
  0
LINE
  5
1BE
  8
0
  6
CONTINUOUS
 62
     7
 10
2050.0
 20
-557.0
 30
0.0
 11
2049.5
 21
-556.5000000000001
 31
0.0
  0
LINE
  5
1BF
  8
0
  6
CONTINUOUS
 62
     7
 10
1923.0
 20
-547.5000000000001
 30
0.0
 11
1923.0
 21
-597.5000000000001
 31
0.0
  0
CIRCLE
  5
1C0
  8
0
  6
CONTINUOUS
 62
     7
 10
1970.0
 20
-572.5
 30
0.0
 40
3.499999999999948
  0
LINE
  5
1C1
  8
0
  6
CONTINUOUS
 62
     7
 10
2049.5
 20
-588.5
 30
0.0
 11
2050.0
 21
-588.0000000000001
 31
0.0
  0
ARC
  5
1C2
  8
0
  6
CONTINUOUS
 62
     7
 10
1941.082943322398
 20
-588.0000000000001
 30
0.0
 40
1.000000000000114
 50
90.00000000000284
 51
179.5000000000027
  0
LINE
  5
1C3
  8
0
  6
CONTINUOUS
 62
     7
 10
1995.0
 20
-558.0
 30
0.0
 11
1941.082943322398
 21
-558.0
 31
0.0
  0
LINE
  5
1C4
  8
0
  6
CONTINUOUS
 62
     7
 10
1941.082943322398
 20
-587.0000000000001
 30
0.0
 11
1995.0
 21
-587.0000000000001
 31
0.0
  0
LINE
  5
1C5
  8
0
  6
CONTINUOUS
 62
     7
 10
1995.0
 20
-587.0000000000001
 30
0.0
 11
1996.5
 21
-588.5
 31
0.0
  0
LINE
  5
1C6
  8
0
  6
CONTINUOUS
 62
     7
 10
2049.5
 20
-556.5000000000001
 30
0.0
 11
1996.5
 21
-556.5000000000001
 31
0.0
  0
LINE
  5
1C7
  8
0
  6
CONTINUOUS
 62
     7
 10
1996.5
 20
-428.9
 30
0.0
 11
1996.5
 21
-460.9000000000001
 31
0.0
  0
LINE
  5
1C8
  8
0
  6
CONTINUOUS
 62
     7
 10
2049.5
 20
-460.9000000000001
 30
0.0
 11
2049.5
 21
-428.9
 31
0.0
  0
LINE
  5
1C9
  8
0
  6
CONTINUOUS
 62
     7
 10
1995.0
 20
-430.4000000000001
 30
0.0
 11
1995.0
 21
-459.4
 31
0.0
  0
LINE
  5
1CA
  8
0
  6
CONTINUOUS
 62
     7
 10
2050.0
 20
-429.4
 30
0.0
 11
2050.0
 21
-460.4000000000001
 31
0.0
  0
ARC
  5
1CB
  8
0
  6
CONTINUOUS
 62
     7
 10
1970.0
 20
-472.8961387763806
 30
0.0
 40
14.41389681748606
 50
69.44380334902144
 51
110.5561966509728
  0
LINE
  5
1CC
  8
0
  6
CONTINUOUS
 62
     7
 10
1923.0
 20
-597.5
 30
0.0
 11
1939.008688789405
 21
-597.5
 31
0.0
  0
LINE
  5
1CD
  8
0
  6
CONTINUOUS
 62
     7
 10
1996.5
 20
-556.5
 30
0.0
 11
1996.5
 21
-588.5
 31
0.0
  0
LINE
  5
1CE
  8
0
  6
CONTINUOUS
 62
     7
 10
1923.0
 20
-419.9
 30
0.0
 11
1923.0
 21
-469.9000000000001
 31
0.0
  0
ARC
  5
1CF
  8
0
  6
CONTINUOUS
 62
     7
 10
1939.008688789405
 20
-596.5
 30
0.0
 40
1.000000000000001
 50
270.0
 51
359.4999999999999
  0
ARC
  5
1D0
  8
0
  6
CONTINUOUS
 62
     7
 10
1939.008688789405
 20
-548.5000000000001
 30
0.0
 40
0.9999999999998915
 50
0.4999999999973536
 51
89.99999999999726
  0
LINE
  5
1D1
  8
0
  6
CONTINUOUS
 62
     7
 10
1939.008688789405
 20
-547.5000000000001
 30
0.0
 11
1923.0
 21
-547.5000000000001
 31
0.0
  0
LINE
  5
1D2
  8
0
  6
CONTINUOUS
 62
     7
 10
1940.008650712469
 20
-596.5087265354987
 30
0.0
 11
1940.082981399334
 21
-587.9912734645087
 31
0.0
  0
ARC
  5
1D3
  8
0
  6
CONTINUOUS
 62
     7
 10
1941.082943322398
 20
-557.0
 30
0.0
 40
1.000000000000001
 50
180.5000000000001
 51
270.0
  0
LINE
  5
1D4
  8
0
  6
CONTINUOUS
 62
     7
 10
1940.082981399334
 20
-557.008726535492
 30
0.0
 11
1940.008650712469
 21
-548.491273464502
 31
0.0
  0
CIRCLE
  5
1D5
  8
0
  6
CONTINUOUS
 62
     7
 10
1969.987951357943
 20
-572.504596216262
 30
0.0
 40
5.074827539953031
  0
ARC
  5
1D6
  8
0
  6
CONTINUOUS
 62
     7
 10
1941.082943322398
 20
-460.4000000000001
 30
0.0
 40
1.000000000000114
 50
89.99999999999966
 51
179.4999999999995
  0
LINE
  5
1D7
  8
0
  6
CONTINUOUS
 62
     7
 10
1940.008650712469
 20
-468.9087265354984
 30
0.0
 11
1940.082981399334
 21
-460.3912734645085
 31
0.0
  0
ARC
  5
1D8
  8
0
  6
CONTINUOUS
 62
     7
 10
1970.0
 20
-416.9054903988303
 30
0.0
 40
14.41237138606533
 50
249.4415292055211
 51
290.5584707944788
  0
LINE
  5
1D9
  8
0
  6
CONTINUOUS
 62
     7
 10
1939.008688789405
 20
-419.9
 30
0.0
 11
1923.0
 21
-419.9
 31
0.0
  0
LINE
  5
1DA
  8
0
  6
CONTINUOUS
 62
     7
 10
1965.491348631558
 20
-426.9
 30
0.0
 11
1974.508651368442
 21
-426.9
 31
0.0
  0
LINE
  5
1DB
  8
0
  6
CONTINUOUS
 62
     7
 10
1940.082981399334
 20
-429.4087265354917
 30
0.0
 11
1940.008650712469
 21
-420.8912734645018
 31
0.0
  0
LINE
  5
1DC
  8
0
  6
CONTINUOUS
 62
     7
 10
1996.5
 20
-428.9000000000001
 30
0.0
 11
1995.0
 21
-430.4
 31
0.0
  0
ARC
  5
1DD
  8
0
  6
CONTINUOUS
 62
     7
 10
1939.008688789405
 20
-420.9
 30
0.0
 40
1.000000000000114
 50
0.5000000000004231
 51
90.00000000000034
  0
LINE
  5
1DE
  8
0
  6
CONTINUOUS
 62
     7
 10
2049.5
 20
-460.9000000000001
 30
0.0
 11
2050.0
 21
-460.4000000000001
 31
0.0
  0
ARC
  5
1DF
  8
0
  6
CONTINUOUS
 62
     7
 10
1939.008688789405
 20
-468.9000000000001
 30
0.0
 40
1.000000000000001
 50
270.0
 51
359.4999999999999
  0
LINE
  5
1E0
  8
0
  6
CONTINUOUS
 62
     7
 10
2050.0
 20
-429.4
 30
0.0
 11
2049.5
 21
-428.9
 31
0.0
  0
LINE
  5
1E1
  8
0
  6
CONTINUOUS
 62
     7
 10
1995.0
 20
-459.4000000000001
 30
0.0
 11
1996.5
 21
-460.9
 31
0.0
  0
ARC
  5
1E2
  8
0
  6
CONTINUOUS
 62
     7
 10
1941.082943322398
 20
-429.4
 30
0.0
 40
1.000000000000001
 50
180.5000000000001
 51
270.0
  0
TEXT
  5
1E3
  8
0
  6
CONTINUOUS
 62
     7
 10
2128.814986870077
 20
-616.6715799674878
 30
0.0
 40
3.0
  1
BWMH-10V25
  0
LINE
  5
1E4
  8
0
  6
CENTER
 62
     1
 10
2110.6
 20
-572.5
 30
0.0
 11
2164.599999999999
 21
-572.5
 31
0.0
  0
LINE
  5
1E5
  8
0
  6
CENTER
 62
     1
 10
873.9999999999999
 20
-465.9000000000001
 30
0.0
 11
873.9999999999999
 21
-423.9
 31
0.0
  0
LINE
  5
1E6
  8
0
  6
CONTINUOUS
 62
     7
 10
906.4912737967812
 20
-551.5524262994537
 30
0.0
 11
905.9999999999999
 21
-551.6644788235816
 31
0.0
  0
LINE
  5
1E7
  8
0
  6
CONTINUOUS
 62
     7
 10
905.9999999999999
 20
-551.9355633635564
 30
0.0
 11
905.9999999999999
 21
-551.6644788235815
 31
0.0
  0
LINE
  5
1E8
  8
0
  6
CONTINUOUS
 62
     7
 10
919.9999999999999
 20
-560.7625376489875
 30
0.0
 11
919.9999999999999
 21
-554.9993672751453
 31
0.0
  0
LINE
  5
1E9
  8
0
  6
CONTINUOUS
 62
     7
 10
905.9999999999999
 20
-551.0181094127736
 30
0.0
 11
905.9999999999999
 21
-551.0174537355816
 31
0.0
  0
LINE
  5
1EA
  8
0
  6
CONTINUOUS
 62
     7
 10
905.9999999999999
 20
-554.51902566921
 30
0.0
 11
905.9999999999999
 21
-553.9826777580547
 31
0.0
  0
LINE
  5
1EB
  8
0
  6
CONTINUOUS
 62
     7
 10
905.9999999999999
 20
-558.5591995781724
 30
0.0
 11
905.9999999999999
 21
-557.8010400138147
 31
0.0
  0
LINE
  5
1EC
  8
0
  6
CONTINUOUS
 62
     7
 10
918.4138117185472
 20
-551.6271136149977
 30
0.0
 11
918.4134394876124
 21
-551.6083376785447
 31
0.0
  0
LINE
  5
1ED
  8
0
  6
CONTINUOUS
 62
     7
 10
918.4133272277029
 20
-559.5004690033331
 30
0.0
 11
918.413130849702
 21
-557.6869803863635
 31
0.0
  0
LINE
  5
1EE
  8
0
  6
CONTINUOUS
 62
     7
 10
918.4132241383486
 20
-555.4194063617252
 30
0.0
 11
918.4130653546719
 21
-554.1364838556377
 31
0.0
  0
LINE
  5
1EF
  8
0
  6
CONTINUOUS
 62
     7
 10
918.413088061063
 20
-552.7221119333828
 30
0.0
 11
918.4135954165365
 21
-552.0736922859523
 31
0.0
  0
LINE
  5
1F0
  8
0
  6
CONTINUOUS
 62
     7
 10
918.4595646019009
 20
-551.6957055937004
 30
0.0
 11
918.4596073958802
 21
-551.6960174338042
 31
0.0
  0
LINE
  5
1F1
  8
0
  6
CONTINUOUS
 62
     7
 10
910.9999999999999
 20
-579.0425438583113
 30
0.0
 11
919.5043632677491
 21
-578.9806092454409
 31
0.0
  0
LINE
  5
1F2
  8
0
  6
CONTINUOUS
 62
     7
 10
919.5043632677491
 20
-566.0193907545591
 30
0.0
 11
910.9999999999999
 21
-565.9574561416888
 31
0.0
  0
LINE
  5
1F3
  8
0
  6
CONTINUOUS
 62
     7
 10
910.9999999999999
 20
-568.763266669014
 30
0.0
 11
902.4956367322508
 21
-568.817502143162
 31
0.0
  0
LINE
  5
1F4
  8
0
  6
CONTINUOUS
 62
     7
 10
919.5043632677491
 20
-568.817502143162
 30
0.0
 11
910.9999999999999
 21
-568.763266669014
 31
0.0
  0
LINE
  5
1F5
  8
0
  6
CONTINUOUS
 62
     7
 10
919.9999999999999
 20
-575.2996758245516
 30
0.0
 11
919.9999999999999
 21
-575.4212071109597
 31
0.0
  0
LINE
  5
1F6
  8
0
  6
CONTINUOUS
 62
     7
 10
910.9999999999999
 20
-565.9574561416888
 30
0.0
 11
902.4956367322508
 21
-566.0193907545591
 31
0.0
  0
LINE
  5
1F7
  8
0
  6
CONTINUOUS
 62
     7
 10
902.4956367322508
 20
-576.1824978568382
 30
0.0
 11
910.9999999999999
 21
-576.2367333309861
 31
0.0
  0
LINE
  5
1F8
  8
0
  6
CONTINUOUS
 62
     7
 10
919.9999999999999
 20
-569.5787928890403
 30
0.0
 11
919.9999999999999
 21
-569.7003241754484
 31
0.0
  0
LINE
  5
1F9
  8
0
  6
CONTINUOUS
 62
     7
 10
919.9999999999999
 20
-572.4387780174217
 30
0.0
 11
919.9999999999999
 21
-572.5612219825786
 31
0.0
  0
LINE
  5
1FA
  8
0
  6
CONTINUOUS
 62
     7
 10
901.9999999999999
 20
-569.7003241754484
 30
0.0
 11
901.9999999999999
 21
-569.5787928890403
 31
0.0
  0
LINE
  5
1FB
  8
0
  6
CONTINUOUS
 62
     7
 10
901.9999999999999
 20
-572.5612219825784
 30
0.0
 11
901.9999999999999
 21
-572.4387780174216
 31
0.0
  0
LINE
  5
1FC
  8
0
  6
CONTINUOUS
 62
     7
 10
910.9999999999999
 20
-576.2367333309861
 30
0.0
 11
919.5043632677491
 21
-576.1824978568382
 31
0.0
  0
LINE
  5
1FD
  8
0
  6
CONTINUOUS
 62
     7
 10
901.9999999999999
 20
-575.4212071109598
 30
0.0
 11
901.9999999999999
 21
-575.2996758245517
 31
0.0
  0
LINE
  5
1FE
  8
0
  6
CONTINUOUS
 62
     7
 10
902.4956367322508
 20
-578.9806092454409
 30
0.0
 11
910.9999999999999
 21
-579.0425438583113
 31
0.0
  0
LINE
  5
1FF
  8
0
  6
CONTINUOUS
 62
     7
 10
900.2999999999998
 20
-594.9653113040439
 30
0.0
 11
900.2999999999998
 21
-561.2723269765099
 31
0.0
  0
LINE
  5
200
  8
0
  6
CONTINUOUS
 62
     7
 10
901.9999999999999
 20
-578.2376437696823
 30
0.0
 11
901.9999999999999
 21
-578.1188369135824
 31
0.0
  0
LINE
  5
201
  8
0
  6
CONTINUOUS
 62
     7
 10
901.9999999999999
 20
-566.8811630864177
 30
0.0
 11
901.9999999999999
 21
-566.7623562303178
 31
0.0
  0
LINE
  5
202
  8
0
  6
CONTINUOUS
 62
     7
 10
919.9999999999999
 20
-578.1188369135824
 30
0.0
 11
919.9999999999999
 21
-578.2376437696823
 31
0.0
  0
LINE
  5
203
  8
0
  6
CONTINUOUS
 62
     7
 10
921.6999999999999
 20
-561.2723269765099
 30
0.0
 11
921.6999999999999
 21
-594.9653113040439
 31
0.0
  0
LINE
  5
204
  8
0
  6
CONTINUOUS
 62
     7
 10
921.6468258748303
 20
-561.1064711348942
 30
0.0
 11
921.6999999999999
 21
-561.2723269765099
 31
0.0
  0
LINE
  5
205
  8
0
  6
CONTINUOUS
 62
     7
 10
900.2999999999998
 20
-561.2723269765099
 30
0.0
 11
900.3531741251694
 21
-561.1064711348942
 31
0.0
  0
LINE
  5
206
  8
0
  6
CONTINUOUS
 62
     7
 10
919.9999999999999
 20
-566.7623562303178
 30
0.0
 11
919.9999999999999
 21
-566.8811630864177
 31
0.0
  0
LINE
  5
207
  8
0
  6
CONTINUOUS
 62
     7
 10
905.9999999999999
 20
-445.0678415958941
 30
0.0
 11
905.9999999999999
 21
-444.0506669092716
 31
0.0
  0
LINE
  5
208
  8
0
  6
CONTINUOUS
 62
     7
 10
905.9999999999999
 20
-451.1131907928678
 30
0.0
 11
905.9999999999999
 21
-450.1326715270402
 31
0.0
  0
LINE
  5
209
  8
0
  6
CONTINUOUS
 62
     7
 10
905.9999999999999
 20
-433.4272104479321
 30
0.0
 11
905.9999999999999
 21
-432.5802348561647
 31
0.0
  0
LINE
  5
20A
  8
0
  6
CONTINUOUS
 62
     7
 10
905.9999999999999
 20
-456.6551842230718
 30
0.0
 11
905.9999999999999
 21
-455.7907562175839
 31
0.0
  0
LINE
  5
20B
  8
0
  6
CONTINUOUS
 62
     7
 10
905.9999999999999
 20
-461.244842538295
 30
0.0
 11
905.9999999999999
 21
-460.5665366092
 31
0.0
  0
LINE
  5
20C
  8
0
  6
CONTINUOUS
 62
     7
 10
905.9999999999999
 20
-439.0088948710135
 30
0.0
 11
905.9999999999999
 21
-438.0374702073354
 31
0.0
  0
LINE
  5
20D
  8
0
  6
CONTINUOUS
 62
     7
 10
918.4133272277029
 20
-461.2546351713486
 30
0.0
 11
918.413130849702
 21
-459.6321559608244
 31
0.0
  0
LINE
  5
20E
  8
0
  6
CONTINUOUS
 62
     7
 10
918.4134095742083
 20
-439.8691732743524
 30
0.0
 11
918.4130597851408
 21
-437.5455631501893
 31
0.0
  0
CIRCLE
  5
20F
  8
0
  6
CONTINUOUS
 62
     7
 10
873.9999999999999
 20
-444.9000000000001
 30
0.0
 40
15.80000000000004
  0
ARC
  5
210
  8
0
  6
CONTINUOUS
 62
     7
 10
873.9358244670527
 20
-444.9000000000001
 30
0.0
 40
10.43265706915551
 50
80.71588459118179
 51
279.2841154088182
  0
LINE
  5
211
  8
0
  6
CONTINUOUS
 62
     7
 10
917.5619464095244
 20
-439.7090054376357
 30
0.0
 11
918.4134095742083
 21
-439.8691732743524
 31
0.0
  0
LINE
  5
212
  8
0
  6
CONTINUOUS
 62
     7
 10
905.9999999999999
 20
-428.7749832030526
 30
0.0
 11
905.9999999999999
 21
-428.1210736084831
 31
0.0
  0
LINE
  5
213
  8
0
  6
CONTINUOUS
 62
     7
 10
917.5616278850894
 20
-451.7469964612727
 30
0.0
 11
918.413088061063
 21
-451.6303141497813
 31
0.0
  0
LINE
  5
214
  8
0
  6
CONTINUOUS
 62
     7
 10
918.4132241383486
 20
-456.9297654289518
 30
0.0
 11
918.4130653546719
 21
-454.862091548753
 31
0.0
  0
LINE
  5
215
  8
0
  6
CONTINUOUS
 62
     7
 10
918.4138117185473
 20
-445.7856269049595
 30
0.0
 11
918.4130582805562
 21
-443.3525784524971
 31
0.0
  0
LINE
  5
216
  8
0
  6
CONTINUOUS
 62
     7
 10
918.413088061063
 20
-451.6303141497813
 30
0.0
 11
918.4135954165365
 21
-449.284946191288
 31
0.0
  0
LINE
  5
217
  8
0
  6
CONTINUOUS
 62
     7
 10
918.4130582805562
 20
-443.3525784524971
 30
0.0
 11
917.5616025903645
 21
-443.3596385716574
 31
0.0
  0
CIRCLE
  5
218
  8
0
  6
CONTINUOUS
 62
     7
 10
873.9999999999999
 20
-444.9000000000001
 30
0.0
 40
19.00000000000002
  0
LINE
  5
219
  8
0
  6
CONTINUOUS
 62
     7
 10
918.4135954165365
 20
-449.284946191288
 30
0.0
 11
917.5621198375585
 21
-449.4302786152551
 31
0.0
  0
LINE
  5
21A
  8
0
  6
CONTINUOUS
 62
     7
 10
917.5623384204738
 20
-445.762966026429
 30
0.0
 11
918.4138117185473
 21
-445.7856269049595
 31
0.0
  0
LINE
  5
21B
  8
0
  6
CONTINUOUS
 62
     7
 10
918.4130653546719
 20
-454.862091548753
 30
0.0
 11
918.3233588292337
 21
-454.9307343289221
 31
0.0
  0
ARC
  5
21C
  8
0
  6
CONTINUOUS
 62
     7
 10
917.5750714594608
 20
-453.654898278328
 30
0.0
 40
1.47908472230547
 50
269.4782782053267
 51
300.391941313987
  0
LINE
  5
21D
  8
0
  6
CONTINUOUS
 62
     7
 10
918.4130597851408
 20
-437.5455631501893
 30
0.0
 11
917.5616005387285
 21
-437.4137794360493
 31
0.0
  0
LINE
  5
21E
  8
0
  6
CONTINUOUS
 62
     7
 10
918.4134117371375
 20
-434.3602944295495
 30
0.0
 11
918.4130713608412
 21
-432.3343605033157
 31
0.0
  0
LINE
  5
21F
  8
0
  6
CONTINUOUS
 62
     7
 10
906.0004491834736
 20
-464.0831403524359
 30
0.0
 11
905.9999999999999
 21
-464.0745100970809
 31
0.0
  0
CIRCLE
  5
220
  8
0
  6
CONTINUOUS
 62
     7
 10
873.9999999999999
 20
-444.9000000000001
 30
0.0
 40
18.50000000000007
  0
CIRCLE
  5
221
  8
0
  6
CONTINUOUS
 62
     7
 10
873.9999999999999
 20
-444.9000000000001
 30
0.0
 40
12.80000000000003
  0
LINE
  5
222
  8
0
  6
CONTINUOUS
 62
     7
 10
918.4141354020067
 20
-429.7052933356847
 30
0.0
 11
918.4133990129217
 21
-428.1411501706149
 31
0.0
  0
LINE
  5
223
  8
0
  6
CONTINUOUS
 62
     7
 10
900.3
 20
-427.710134186455
 30
0.0
 11
901.8024596696766
 21
-427.710134186455
 31
0.0
  0
LINE
  5
224
  8
0
  6
CONTINUOUS
 62
     7
 10
910.9999999999999
 20
-468.9500000000001
 30
0.0
 11
919.5043632677491
 21
-468.8757835461179
 31
0.0
  0
LINE
  5
225
  8
0
  6
CONTINUOUS
 62
     7
 10
910.9999999999999
 20
-420.85
 30
0.0
 11
902.4956367322508
 21
-420.9242164538823
 31
0.0
  0
ARC
  5
226
  8
0
  6
CONTINUOUS
 62
     7
 10
902.5
 20
-468.2039913799183
 30
0.0
 40
0.500000000000056
 50
180.0000000000004
 51
269.5000000000011
  0
LINE
  5
227
  8
0
  6
CONTINUOUS
 62
     7
 10
901.8024572253455
 20
-462.0898658135451
 30
0.0
 11
900.3
 21
-462.0898658135451
 31
0.0
  0
LINE
  5
228
  8
0
  6
CONTINUOUS
 62
     7
 10
902.4956367322508
 20
-468.1911000367795
 30
0.0
 11
910.9999999999999
 21
-468.2653164906617
 31
0.0
  0
LINE
  5
229
  8
0
  6
CONTINUOUS
 62
     7
 10
920.7087265354987
 20
-421.434726772892
 30
0.0
 11
919.9999999999999
 21
-421.4285418101169
 31
0.0
  0
LINE
  5
22A
  8
0
  6
CONTINUOUS
 62
     7
 10
920.1986338993431
 20
-429.6658291281341
 30
0.0
 11
921.6999999999999
 21
-429.6658291281341
 31
0.0
  0
LINE
  5
22B
  8
0
  6
CONTINUOUS
 62
     7
 10
919.1519962437706
 20
-464.0831358905081
 30
0.0
 11
902.8218233862539
 21
-464.0831358905081
 31
0.0
  0
LINE
  5
22C
  8
0
  6
CONTINUOUS
 62
     7
 10
921.6999999999999
 20
-460.134170871866
 30
0.0
 11
920.1986473800027
 21
-460.134170871866
 31
0.0
  0
LINE
  5
22D
  8
0
  6
CONTINUOUS
 62
     7
 10
882.6091564318305
 20
-462.9000000000001
 30
0.0
 11
880.0827625302982
 21
-462.9000000000001
 31
0.0
  0
ARC
  5
22E
  8
0
  6
CONTINUOUS
 62
     7
 10
901.3
 20
-422.4346886959562
 30
0.0
 40
1.000000000000005
 50
90.50000000001162
 51
180.0
  0
LINE
  5
22F
  8
0
  6
CONTINUOUS
 62
     7
 10
910.9999999999999
 20
-421.5346835093384
 30
0.0
 11
902.4956367322508
 21
-421.6088999632206
 31
0.0
  0
LINE
  5
230
  8
0
  6
CONTINUOUS
 62
     7
 10
902.4956367322508
 20
-468.7039723414503
 30
0.0
 11
910.9999999999999
 21
-468.7781887953325
 31
0.0
  0
LINE
  5
231
  8
0
  6
CONTINUOUS
 62
     7
 10
910.9999999999999
 20
-468.7781887953325
 30
0.0
 11
919.5043632677491
 21
-468.7039723414503
 31
0.0
  0
LINE
  5
232
  8
0
  6
CONTINUOUS
 62
     7
 10
919.5043632677491
 20
-421.0960276585498
 30
0.0
 11
910.9999999999999
 21
-421.0218112046676
 31
0.0
  0
LINE
  5
233
  8
0
  6
CONTINUOUS
 62
     7
 10
910.9999999999999
 20
-421.0218112046676
 30
0.0
 11
902.4956367322508
 21
-421.0960276585498
 31
0.0
  0
ARC
  5
234
  8
0
  6
CONTINUOUS
 62
     7
 10
902.5
 20
-468.3758025845858
 30
0.0
 40
0.500000000000056
 50
180.0
 51
269.5000000000011
  0
LINE
  5
235
  8
0
  6
CONTINUOUS
 62
     7
 10
902.4956367322508
 20
-468.8757835461179
 30
0.0
 11
910.9999999999999
 21
-468.9500000000001
 31
0.0
  0
LINE
  5
236
  8
0
  6
CONTINUOUS
 62
     7
 10
882.6091564318305
 20
-426.9
 30
0.0
 11
880.0827625302982
 21
-426.9
 31
0.0
  0
ARC
  5
237
  8
0
  6
CONTINUOUS
 62
     7
 10
902.5
 20
-421.4241974154144
 30
0.0
 40
0.5000000000000018
 50
90.4999999999989
 51
180.0
  0
ARC
  5
238
  8
0
  6
CONTINUOUS
 62
     7
 10
919.5
 20
-467.6911190752475
 30
0.0
 40
0.5000000000000008
 50
270.5000000000001
 51
0.0
  0
ARC
  5
239
  8
0
  6
CONTINUOUS
 62
     7
 10
919.5
 20
-468.3758025845858
 30
0.0
 40
0.5000000000000008
 50
270.5000000000001
 51
0.0
  0
ARC
  5
23A
  8
0
  6
CONTINUOUS
 62
     7
 10
920.6999999999999
 20
-467.3653113040439
 30
0.0
 40
1.000000000000006
 50
270.5000000000258
 51
0.0
  0
ARC
  5
23B
  8
0
  6
CONTINUOUS
 62
     7
 10
919.5
 20
-422.1088809247527
 30
0.0
 40
0.4999999999999449
 50
0.0
 51
89.49999999999991
  0
ARC
  5
23C
  8
0
  6
CONTINUOUS
 62
     7
 10
902.5
 20
-467.6911190752475
 30
0.0
 40
0.500000000000056
 50
180.0
 51
269.5000000000027
  0
LINE
  5
23D
  8
0
  6
CONTINUOUS
 62
     7
 10
910.9999999999999
 20
-468.2653164906617
 30
0.0
 11
919.5043632677491
 21
-468.1911000367795
 31
0.0
  0
LINE
  5
23E
  8
0
  6
CONTINUOUS
 62
     7
 10
919.9999999999999
 20
-468.3714581898832
 30
0.0
 11
920.7087265354987
 21
-468.3652732271081
 31
0.0
  0
ARC
  5
23F
  8
0
  6
CONTINUOUS
 62
     7
 10
902.5
 20
-422.1088809247527
 30
0.0
 40
0.5000000000000018
 50
90.4999999999989
 51
180.0
  0
ARC
  5
240
  8
0
  6
CONTINUOUS
 62
     7
 10
920.6999999999999
 20
-422.4346886959562
 30
0.0
 40
1.000000000000001
 50
0.0
 51
89.4999999999743
  0
LINE
  5
241
  8
0
  6
CONTINUOUS
 62
     7
 10
952.9999999999999
 20
-469.9000000000001
 30
0.0
 11
952.9999999999999
 21
-419.9
 31
0.0
  0
LINE
  5
242
  8
0
  6
CONTINUOUS
 62
     7
 10
902.8218231528571
 20
-425.716864109492
 30
0.0
 11
919.1519960103736
 21
-425.716864109492
 31
0.0
  0
LINE
  5
243
  8
0
  6
CONTINUOUS
 62
     7
 10
919.5043632677491
 20
-421.6088999632206
 30
0.0
 11
910.9999999999999
 21
-421.5346835093384
 31
0.0
  0
ARC
  5
244
  8
0
  6
CONTINUOUS
 62
     7
 10
919.5
 20
-468.2039913799183
 30
0.0
 40
0.5000000000000008
 50
270.5000000000001
 51
0.0
  0
ARC
  5
245
  8
0
  6
CONTINUOUS
 62
     7
 10
902.5
 20
-421.5960086200819
 30
0.0
 40
0.5000000000000018
 50
90.4999999999989
 51
180.0
  0
ARC
  5
246
  8
0
  6
CONTINUOUS
 62
     7
 10
919.5
 20
-421.5960086200819
 30
0.0
 40
0.4999999999999449
 50
0.0000000000003976
 51
89.49999999999991
  0
ARC
  5
247
  8
0
  6
CONTINUOUS
 62
     7
 10
919.5
 20
-421.4241974154144
 30
0.0
 40
0.4999999999999449
 50
0.0
 51
89.49999999999989
  0
LINE
  5
248
  8
0
  6
CONTINUOUS
 62
     7
 10
919.5043632677491
 20
-420.9242164538823
 30
0.0
 11
910.9999999999999
 21
-420.85
 31
0.0
  0
LINE
  5
249
  8
0
  6
CONTINUOUS
 62
     7
 10
901.9999999999999
 20
-421.4285418101169
 30
0.0
 11
901.2912734645013
 21
-421.434726772892
 31
0.0
  0
LINE
  5
24A
  8
0
  6
CONTINUOUS
 62
     7
 10
901.2912734645013
 20
-468.3652732271081
 30
0.0
 11
901.9999999999999
 21
-468.3714581898832
 31
0.0
  0
ARC
  5
24B
  8
0
  6
CONTINUOUS
 62
     7
 10
901.3
 20
-467.3653113040439
 30
0.0
 40
1.000000000000001
 50
180.0
 51
269.4999999999883
  0
ENDSEC
  0
EOF
