  0
SECTION
  2
HEADER
  9
$ACADVER
  1
AC1006
  9
$DWGCODEPAGE
  3
ansi_932
  9
$INSBASE
 10
0.0
 20
0.0
 30
0.0
  9
$EXTMIN
 10
-272.1055985226287
 20
25.04819355072027
  9
$EXTMAX
 10
-132.8555985226286
 20
149.7413753689021
  9
$LIMMIN
 10
0.0
 20
0.0
  9
$LIMMAX
 10
12.0
 20
9.0
  9
$ORTHOMODE
 70
     0
  9
$REGENMODE
 70
     1
  9
$FILLMODE
 70
     1
  9
$QTEXTMODE
 70
     0
  9
$MIRRTEXT
 70
     1
  9
$DRAGMODE
 70
     2
  9
$LTSCALE
 40
1.0
  9
$OSMODE
 70
    37
  9
$ATTMODE
 70
     1
  9
$TEXTSIZE
 40
0.2
  9
$TRACEWID
 40
0.05
  9
$TEXTSTYLE
  7
STANDARD
  9
$CLAYER
  8
0
  9
$CELTYPE
  6
BYLAYER
  9
$CECOLOR
 62
   256
  9
$DIMSCALE
 40
1.0
  9
$DIMASZ
 40
3.0
  9
$DIMEXO
 40
0.0625
  9
$DIMDLI
 40
0.38
  9
$DIMRND
 40
0.0
  9
$DIMDLE
 40
0.0
  9
$DIMEXE
 40
1.5
  9
$DIMTP
 40
0.0
  9
$DIMTM
 40
0.0
  9
$DIMTXT
 40
3.0
  9
$DIMCEN
 40
0.09
  9
$DIMTSZ
 40
0.0
  9
$DIMTOL
 70
     0
  9
$DIMLIM
 70
     0
  9
$DIMTIH
 70
     1
  9
$DIMTOH
 70
     1
  9
$DIMSE1
 70
     0
  9
$DIMSE2
 70
     0
  9
$DIMTAD
 70
     1
  9
$DIMZIN
 70
     0
  9
$DIMBLK
  1

  9
$DIMASO
 70
     1
  9
$DIMSHO
 70
     1
  9
$DIMPOST
  1

  9
$DIMAPOST
  1

  9
$DIMALT
 70
     0
  9
$DIMALTD
 70
     2
  9
$DIMALTF
 40
25.4
  9
$DIMLFAC
 40
1.0
  9
$DIMTOFL
 70
     0
  9
$DIMTVP
 40
0.0
  9
$DIMTIX
 70
     0
  9
$DIMSOXD
 70
     0
  9
$DIMSAH
 70
     0
  9
$DIMBLK1
  1

  9
$DIMBLK2
  1

  9
$LUNITS
 70
     2
  9
$LUPREC
 70
     4
  9
$SKETCHINC
 40
0.1
  9
$FILLETRAD
 40
0.5
  9
$AUNITS
 70
     0
  9
$AUPREC
 70
     0
  9
$MENU
  1
.
  9
$ELEVATION
 40
0.0
  9
$THICKNESS
 40
0.0
  9
$LIMCHECK
 70
     0
  9
$CHAMFERA
 40
0.0
  9
$CHAMFERB
 40
0.0
  9
$SKPOLY
 70
     0
  9
$TDCREATE
 40
2459289.377397465
  9
$TDUPDATE
 40
2459289.377397824
  9
$TDINDWG
 40
0.0000000116
  9
$TDUSRTIMER
 40
0.0000000116
  9
$USRTIMER
 70
     1
  9
$ANGBASE
 50
0.0
  9
$ANGDIR
 70
     0
  9
$PDMODE
 70
     0
  9
$PDSIZE
 40
0.0
  9
$PLINEWID
 40
0.0
  9
$COORDS
 70
     1
  9
$SPLFRAME
 70
     0
  9
$SPLINETYPE
 70
     6
  9
$SPLINESEGS
 70
     8
  9
$ATTDIA
 70
     0
  9
$ATTREQ
 70
     1
  9
$HANDLING
 70
     1
  9
$HANDSEED
  5
69A
  9
$SURFTAB1
 70
     6
  9
$SURFTAB2
 70
     6
  9
$SURFTYPE
 70
     6
  9
$SURFU
 70
     6
  9
$SURFV
 70
     6
  9
$UCSNAME
  2

  9
$UCSORG
 10
0.0
 20
0.0
 30
0.0
  9
$UCSXDIR
 10
1.0
 20
0.0
 30
0.0
  9
$UCSYDIR
 10
0.0
 20
1.0
 30
0.0
  9
$USERI1
 70
     0
  9
$USERI2
 70
     0
  9
$USERI3
 70
     0
  9
$USERI4
 70
     0
  9
$USERI5
 70
     0
  9
$USERR1
 40
0.0
  9
$USERR2
 40
0.0
  9
$USERR3
 40
0.0
  9
$USERR4
 40
0.0
  9
$USERR5
 40
0.0
  9
$WORLDVIEW
 70
     1
  0
ENDSEC
  0
SECTION
  2
TABLES
  0
TABLE
  2
VPORT
 70
     1
  0
VPORT
  2
*ACTIVE
 70
     0
 10
0.0
 20
0.0
 11
1.0
 21
1.0
 12
-202.4805985226287
 22
87.39478445981119
 13
0.0
 23
0.0
 14
0.5
 24
0.5
 15
0.5
 25
0.5
 16
0.0
 26
0.0
 36
1.0
 17
0.0
 27
0.0
 37
0.0
 40
124.6931818181818
 41
1.6
 42
50.0
 43
0.0
 44
0.0
 50
0.0
 51
0.0
 71
     0
 72
   100
 73
     1
 74
     3
 75
     0
 76
     0
 77
     0
 78
     0
  0
ENDTAB
  0
TABLE
  2
LTYPE
 70
     2
  0
LTYPE
  2
CONTINUOUS
 70
     0
  3
Solid line
 72
    65
 73
     0
 40
0.0
  0
LTYPE
  2
CENTER
 70
     0
  3

 72
    65
 73
     0
 40
0.0
  0
ENDTAB
  0
TABLE
  2
LAYER
 70
     2
  0
LAYER
  2
0
 70
     0
 62
     7
  6
CONTINUOUS
  0
LAYER
  2
1
 70
     0
 62
     7
  6
CONTINUOUS
  0
ENDTAB
  0
TABLE
  2
STYLE
 70
     2
  0
STYLE
  2
STANDARD
 70
     0
 40
0.0
 41
1.0
 50
0.0
 71
     0
 42
0.2
  3
txt
  4

  0
STYLE
  2
ＭＳ_ゴシック
 70
     0
 40
0.0
 41
1.0
 50
0.0
 71
     0
 42
0.2
  3
ＭＳ ゴシック.shx
  4

  0
ENDTAB
  0
TABLE
  2
VIEW
 70
     0
  0
ENDTAB
  0
TABLE
  2
UCS
 70
     0
  0
ENDTAB
  0
ENDSEC
  0
SECTION
  2
BLOCKS
  0
BLOCK
  8
0
  2
D_FRAME_VIEW_1763
 70
     0
 10
0.0
 20
0.0
 30
0.0
  0
ENDBLK
  8
0
  0
BLOCK
  8
0
  2
D_FRAME_VIEW_2116
 70
     0
 10
0.0
 20
0.0
 30
0.0
  0
ENDBLK
  8
0
  0
BLOCK
  8
0
  2
D_FRAME_VIEW_1473
 70
     0
 10
0.0
 20
0.0
 30
0.0
  0
ENDBLK
  8
0
  0
ENDSEC
  0
SECTION
  2
ENTITIES
  0
ARC
  5
70
  8
1
  6
CONTINUOUS
 62
     7
 10
-217.3058060608383
 20
143.2413753689021
 30
0.0
 40
0.9999999999999752
 50
270.0
 51
340.0000000000001
  0
ARC
  5
71
  8
1
  6
CONTINUOUS
 62
     7
 10
-217.3058060608383
 20
109.2413753689021
 30
0.0
 40
1.000000000000001
 50
20.00000000000006
 51
90.0
  0
LINE
  5
72
  8
1
  6
CONTINUOUS
 62
     7
 10
-199.1055985226286
 20
107.2413753689021
 30
0.0
 11
-198.6055985226286
 21
107.7413753689021
 31
0.0
  0
LINE
  5
73
  8
1
  6
CONTINUOUS
 62
     7
 10
-217.3058060608383
 20
142.2413753689021
 30
0.0
 11
-229.9954653987531
 21
142.2413753689021
 31
0.0
  0
LINE
  5
74
  8
1
  6
CONTINUOUS
 62
     7
 10
-229.9954653987531
 20
110.2413753689021
 30
0.0
 11
-217.3058060608383
 21
110.2413753689021
 31
0.0
  0
LINE
  5
75
  8
1
  6
CONTINUOUS
 62
     7
 10
-251.7163218675373
 20
107.092908561666
 30
0.0
 11
-251.6204102731935
 21
107.0775844676577
 31
0.0
  0
ARC
  5
76
  8
1
  6
CONTINUOUS
 62
     7
 10
-248.6055985226286
 20
126.2413753689021
 30
0.0
 40
19.39999999999999
 50
21.35593448094858
 51
21.98101705646457
  0
POLYLINE
  5
77
  8
1
  6
CONTINUOUS
 62
     7
 66
     1
 10
0.0
 20
0.0
 30
0.0
  0
VERTEX
  5
182
  8
1
  6
CONTINUOUS
 62
     7
 10
-268.0050592901367
 20
126.1789563193275
 30
0.0
  0
VERTEX
  5
183
  8
1
  6
CONTINUOUS
 62
     7
 10
-267.9903909582954
 20
125.4869133959794
 30
0.0
  0
VERTEX
  5
184
  8
1
  6
CONTINUOUS
 62
     7
 10
-267.9511452400604
 20
124.7958240401626
 30
0.0
  0
VERTEX
  5
185
  8
1
  6
CONTINUOUS
 62
     7
 10
-267.8873692407555
 20
124.1065720675342
 30
0.0
  0
VERTEX
  5
186
  8
1
  6
CONTINUOUS
 62
     7
 10
-267.7991100657046
 20
123.4200412937509
 30
0.0
  0
VERTEX
  5
187
  8
1
  6
CONTINUOUS
 62
     7
 10
-267.6864148202314
 20
122.7371155344695
 30
0.0
  0
VERTEX
  5
188
  8
1
  6
CONTINUOUS
 62
     7
 10
-267.5493306910703
 20
122.0586785877404
 30
0.0
  0
VERTEX
  5
189
  8
1
  6
CONTINUOUS
 62
     7
 10
-267.3879691652103
 20
121.3856003454269
 30
0.0
  0
VERTEX
  5
18A
  8
1
  6
CONTINUOUS
 62
     7
 10
-267.2026214077172
 20
120.7187118404958
 30
0.0
  0
VERTEX
  5
18B
  8
1
  6
CONTINUOUS
 62
     7
 10
-266.9936097261883
 20
120.0588373707327
 30
0.0
  0
VERTEX
  5
18C
  8
1
  6
CONTINUOUS
 62
     7
 10
-266.7612564282211
 20
119.4068012339237
 30
0.0
  0
VERTEX
  5
18D
  8
1
  6
CONTINUOUS
 62
     7
 10
-266.5058838214127
 20
118.7634277278542
 30
0.0
  0
VERTEX
  5
18E
  8
1
  6
CONTINUOUS
 62
     7
 10
-266.2278142133606
 20
118.1295411503101
 30
0.0
  0
VERTEX
  5
18F
  8
1
  6
CONTINUOUS
 62
     7
 10
-265.927369911662
 20
117.5059657990771
 30
0.0
  0
VERTEX
  5
190
  8
1
  6
CONTINUOUS
 62
     7
 10
-265.6048732239144
 20
116.8935259719409
 30
0.0
  0
VERTEX
  5
191
  8
1
  6
CONTINUOUS
 62
     7
 10
-265.2606466471564
 20
116.2930458550599
 30
0.0
  0
VERTEX
  5
192
  8
1
  6
CONTINUOUS
 62
     7
 10
-264.8950762333642
 20
115.7053121852134
 30
0.0
  0
VERTEX
  5
193
  8
1
  6
CONTINUOUS
 62
     7
 10
-264.5087035323448
 20
115.1310200729825
 30
0.0
  0
VERTEX
  5
194
  8
1
  6
CONTINUOUS
 62
     7
 10
-264.1020934348986
 20
114.5708508754034
 30
0.0
  0
VERTEX
  5
195
  8
1
  6
CONTINUOUS
 62
     7
 10
-263.6758108318261
 20
114.0254859495121
 30
0.0
  0
VERTEX
  5
196
  8
1
  6
CONTINUOUS
 62
     7
 10
-263.2304206139275
 20
113.4956066523444
 30
0.0
  0
VERTEX
  5
197
  8
1
  6
CONTINUOUS
 62
     7
 10
-262.7664876720032
 20
112.9818943409365
 30
0.0
  0
VERTEX
  5
198
  8
1
  6
CONTINUOUS
 62
     7
 10
-262.2845768968537
 20
112.4850303723244
 30
0.0
  0
VERTEX
  5
199
  8
1
  6
CONTINUOUS
 62
     7
 10
-261.785253179279
 20
112.0056961035441
 30
0.0
  0
VERTEX
  5
19A
  8
1
  6
CONTINUOUS
 62
     7
 10
-261.2690817112156
 20
111.5445725474827
 30
0.0
  0
VERTEX
  5
19B
  8
1
  6
CONTINUOUS
 62
     7
 10
-260.7366817146753
 20
111.1022789694946
 30
0.0
  0
VERTEX
  5
19C
  8
1
  6
CONTINUOUS
 62
     7
 10
-260.1887884650367
 20
110.6793020049321
 30
0.0
  0
VERTEX
  5
19D
  8
1
  6
CONTINUOUS
 62
     7
 10
-259.6261522666524
 20
110.2761111134906
 30
0.0
  0
VERTEX
  5
19E
  8
1
  6
CONTINUOUS
 62
     7
 10
-259.0495234238747
 20
109.8931757548652
 30
0.0
  0
VERTEX
  5
19F
  8
1
  6
CONTINUOUS
 62
     7
 10
-258.4596522410563
 20
109.5309653887512
 30
0.0
  0
VERTEX
  5
1A0
  8
1
  6
CONTINUOUS
 62
     7
 10
-257.8572890225495
 20
109.189949474844
 30
0.0
  0
VERTEX
  5
1A1
  8
1
  6
CONTINUOUS
 62
     7
 10
-257.243184072707
 20
108.8705974728387
 30
0.0
  0
VERTEX
  5
1A2
  8
1
  6
CONTINUOUS
 62
     7
 10
-256.6180876958811
 20
108.5733788424307
 30
0.0
  0
VERTEX
  5
1A3
  8
1
  6
CONTINUOUS
 62
     7
 10
-255.9827505165851
 20
108.2987622846998
 30
0.0
  0
VERTEX
  5
1A4
  8
1
  6
CONTINUOUS
 62
     7
 10
-255.3379583659127
 20
108.0471330793674
 30
0.0
  0
VERTEX
  5
1A5
  8
1
  6
CONTINUOUS
 62
     7
 10
-254.6845636290696
 20
107.818718807383
 30
0.0
  0
VERTEX
  5
1A6
  8
1
  6
CONTINUOUS
 62
     7
 10
-254.0234260895713
 20
107.6137295195345
 30
0.0
  0
VERTEX
  5
1A7
  8
1
  6
CONTINUOUS
 62
     7
 10
-253.3554055309331
 20
107.4323752666099
 30
0.0
  0
VERTEX
  5
1A8
  8
1
  6
CONTINUOUS
 62
     7
 10
-252.6813617366705
 20
107.2748660993971
 30
0.0
  0
VERTEX
  5
1A9
  8
1
  6
CONTINUOUS
 62
     7
 10
-252.0021544902989
 20
107.1414120686842
 30
0.0
  0
VERTEX
  5
1AA
  8
1
  6
CONTINUOUS
 62
     7
 10
-251.3186435753336
 20
107.032223225259
 30
0.0
  0
VERTEX
  5
1AB
  8
1
  6
CONTINUOUS
 62
     7
 10
-250.6316887752902
 20
106.9475096199095
 30
0.0
  0
VERTEX
  5
1AC
  8
1
  6
CONTINUOUS
 62
     7
 10
-249.9421499810828
 20
106.8874799616297
 30
0.0
  0
VERTEX
  5
1AD
  8
1
  6
CONTINUOUS
 62
     7
 10
-249.2508949965396
 20
106.8522440990436
 30
0.0
  0
VERTEX
  5
1AE
  8
1
  6
CONTINUOUS
 62
     7
 10
-248.5588048192406
 20
106.8417470439915
 30
0.0
  0
VERTEX
  5
1AF
  8
1
  6
CONTINUOUS
 62
     7
 10
-247.86676169766
 20
106.8559181802094
 30
0.0
  0
VERTEX
  5
1B0
  8
1
  6
CONTINUOUS
 62
     7
 10
-247.1756478802718
 20
106.8946868914333
 30
0.0
  0
VERTEX
  5
1B1
  8
1
  6
CONTINUOUS
 62
     7
 10
-246.4863456155502
 20
106.9579825613992
 30
0.0
  0
VERTEX
  5
1B2
  8
1
  6
CONTINUOUS
 62
     7
 10
-245.7997371519692
 20
107.0457345738432
 30
0.0
  0
VERTEX
  5
1B3
  8
1
  6
CONTINUOUS
 62
     7
 10
-245.1167047380029
 20
107.1578723125014
 30
0.0
  0
VERTEX
  5
1B4
  8
1
  6
CONTINUOUS
 62
     7
 10
-244.4381306221256
 20
107.2943251611098
 30
0.0
  0
VERTEX
  5
1B5
  8
1
  6
CONTINUOUS
 62
     7
 10
-243.7648965655314
 20
107.4550205088617
 30
0.0
  0
VERTEX
  5
1B6
  8
1
  6
CONTINUOUS
 62
     7
 10
-243.0978587323039
 20
107.6397809703837
 30
0.0
  0
VERTEX
  5
1B7
  8
1
  6
CONTINUOUS
 62
     7
 10
-242.4378355732818
 20
107.8482747917493
 30
0.0
  0
VERTEX
  5
1B8
  8
1
  6
CONTINUOUS
 62
     7
 10
-241.7856425141325
 20
108.0801578363471
 30
0.0
  0
VERTEX
  5
1B9
  8
1
  6
CONTINUOUS
 62
     7
 10
-241.1420949805235
 20
108.3350859675655
 30
0.0
  0
VERTEX
  5
1BA
  8
1
  6
CONTINUOUS
 62
     7
 10
-240.5080083981228
 20
108.612715048793
 30
0.0
  0
VERTEX
  5
1BB
  8
1
  6
CONTINUOUS
 62
     7
 10
-239.8841981925976
 20
108.9127009434181
 30
0.0
  0
VERTEX
  5
1BC
  8
1
  6
CONTINUOUS
 62
     7
 10
-239.2714797896157
 20
109.234699514829
 30
0.0
  0
VERTEX
  5
1BD
  8
1
  6
CONTINUOUS
 62
     7
 10
-238.6706686148447
 20
109.5783666264144
 30
0.0
  0
VERTEX
  5
1BE
  8
1
  6
CONTINUOUS
 62
     7
 10
-238.0825785172059
 20
109.9433556215597
 30
0.0
  0
VERTEX
  5
1BF
  8
1
  6
CONTINUOUS
 62
     7
 10
-237.5079615510093
 20
110.3292210816621
 30
0.0
  0
VERTEX
  5
1C0
  8
1
  6
CONTINUOUS
 62
     7
 10
-236.9474892075351
 20
110.7353888298844
 30
0.0
  0
VERTEX
  5
1C1
  8
1
  6
CONTINUOUS
 62
     7
 10
-236.401827564666
 20
111.1612760375362
 30
0.0
  0
VERTEX
  5
1C2
  8
1
  6
CONTINUOUS
 62
     7
 10
-235.8716427002842
 20
111.6062998759269
 30
0.0
  0
VERTEX
  5
1C3
  8
1
  6
CONTINUOUS
 62
     7
 10
-235.3576006922725
 20
112.0698775163659
 30
0.0
  0
VERTEX
  5
1C4
  8
1
  6
CONTINUOUS
 62
     7
 10
-234.8603676185134
 20
112.5514261301628
 30
0.0
  0
VERTEX
  5
1C5
  8
1
  6
CONTINUOUS
 62
     7
 10
-234.3806095568892
 20
113.050362888627
 30
0.0
  0
VERTEX
  5
1C6
  8
1
  6
CONTINUOUS
 62
     7
 10
-233.9189925852825
 20
113.566104963068
 30
0.0
  0
VERTEX
  5
1C7
  8
1
  6
CONTINUOUS
 62
     7
 10
-233.4761796004325
 20
114.0980668874131
 30
0.0
  0
VERTEX
  5
1C8
  8
1
  6
CONTINUOUS
 62
     7
 10
-233.0527372481811
 20
114.6455833971154
 30
0.0
  0
VERTEX
  5
1C9
  8
1
  6
CONTINUOUS
 62
     7
 10
-232.6491210279568
 20
115.207897079767
 30
0.0
  0
VERTEX
  5
1CA
  8
1
  6
CONTINUOUS
 62
     7
 10
-232.265780259592
 20
115.7842453996591
 30
0.0
  0
VERTEX
  5
1CB
  8
1
  6
CONTINUOUS
 62
     7
 10
-231.9031642629194
 20
116.3738658210832
 30
0.0
  0
VERTEX
  5
1CC
  8
1
  6
CONTINUOUS
 62
     7
 10
-231.5617223577713
 20
116.9759958083303
 30
0.0
  0
VERTEX
  5
1CD
  8
1
  6
CONTINUOUS
 62
     7
 10
-231.2419038639805
 20
117.5898728256918
 30
0.0
  0
VERTEX
  5
1CE
  8
1
  6
CONTINUOUS
 62
     7
 10
-230.9441581013795
 20
118.214734337459
 30
0.0
  0
VERTEX
  5
1CF
  8
1
  6
CONTINUOUS
 62
     7
 10
-230.6689343898008
 20
118.849817807923
 30
0.0
  0
VERTEX
  5
1D0
  8
1
  6
CONTINUOUS
 62
     7
 10
-230.4166768709256
 20
119.494358676672
 30
0.0
  0
VERTEX
  5
1D1
  8
1
  6
CONTINUOUS
 62
     7
 10
-230.1877054894798
 20
120.1475438211832
 30
0.0
  0
VERTEX
  5
1D2
  8
1
  6
CONTINUOUS
 62
     7
 10
-229.9822130923462
 20
120.80851042255
 30
0.0
  0
VERTEX
  5
1D3
  8
1
  6
CONTINUOUS
 62
     7
 10
-229.8003867679815
 20
121.4763934102702
 30
0.0
  0
VERTEX
  5
1D4
  8
1
  6
CONTINUOUS
 62
     7
 10
-229.6424136048422
 20
122.1503277138414
 30
0.0
  0
VERTEX
  5
1D5
  8
1
  6
CONTINUOUS
 62
     7
 10
-229.5084806913852
 20
122.8294482627613
 30
0.0
  0
VERTEX
  5
1D6
  8
1
  6
CONTINUOUS
 62
     7
 10
-229.398775116067
 20
123.5128899865276
 30
0.0
  0
VERTEX
  5
1D7
  8
1
  6
CONTINUOUS
 62
     7
 10
-229.3134839673442
 20
124.199787814638
 30
0.0
  0
VERTEX
  5
1D8
  8
1
  6
CONTINUOUS
 62
     7
 10
-229.2527943336735
 20
124.8892766765902
 30
0.0
  0
VERTEX
  5
1D9
  8
1
  6
CONTINUOUS
 62
     7
 10
-229.21688603032
 20
125.5804911142399
 30
0.0
  0
VERTEX
  5
1DA
  8
1
  6
CONTINUOUS
 62
     7
 10
-229.2057976793208
 20
126.2725581442161
 30
0.0
  0
VERTEX
  5
1DB
  8
1
  6
CONTINUOUS
 62
     7
 10
-229.2194398423201
 20
126.9645979578657
 30
0.0
  0
VERTEX
  5
1DC
  8
1
  6
CONTINUOUS
 62
     7
 10
-229.2577184421878
 20
127.6557304993019
 30
0.0
  0
VERTEX
  5
1DD
  8
1
  6
CONTINUOUS
 62
     7
 10
-229.3205394017938
 20
128.3450757126373
 30
0.0
  0
VERTEX
  5
1DE
  8
1
  6
CONTINUOUS
 62
     7
 10
-229.407808644008
 20
129.0317535419848
 30
0.0
  0
VERTEX
  5
1DF
  8
1
  6
CONTINUOUS
 62
     7
 10
-229.5194320917003
 20
129.7148839314572
 30
0.0
  0
VERTEX
  5
1E0
  8
1
  6
CONTINUOUS
 62
     7
 10
-229.6553156677404
 20
130.3935868251673
 30
0.0
  0
VERTEX
  5
1E1
  8
1
  6
CONTINUOUS
 62
     7
 10
-229.8153652949983
 20
131.066982167228
 30
0.0
  0
VERTEX
  5
1E2
  8
1
  6
CONTINUOUS
 62
     7
 10
-229.9994778941737
 20
131.7341923567261
 30
0.0
  0
VERTEX
  5
1E3
  8
1
  6
CONTINUOUS
 62
     7
 10
-230.2074065728974
 20
132.3943790118838
 30
0.0
  0
VERTEX
  5
1E4
  8
1
  6
CONTINUOUS
 62
     7
 10
-230.4387888765333
 20
133.0467352658077
 30
0.0
  0
VERTEX
  5
1E5
  8
1
  6
CONTINUOUS
 62
     7
 10
-230.6932590832901
 20
133.6904551425876
 30
0.0
  0
VERTEX
  5
1E6
  8
1
  6
CONTINUOUS
 62
     7
 10
-230.9704514713761
 20
134.3247326663129
 30
0.0
  0
VERTEX
  5
1E7
  8
1
  6
CONTINUOUS
 62
     7
 10
-231.2700003189999
 20
134.9487618610734
 30
0.0
  0
VERTEX
  5
1E8
  8
1
  6
CONTINUOUS
 62
     7
 10
-231.5915399043699
 20
135.5617367509587
 30
0.0
  0
VERTEX
  5
1E9
  8
1
  6
CONTINUOUS
 62
     7
 10
-231.9347045056946
 20
136.1628513600585
 30
0.0
  0
VERTEX
  5
1EA
  8
1
  6
CONTINUOUS
 62
     7
 10
-232.2991284011824
 20
136.7512997124624
 30
0.0
  0
VERTEX
  5
1EB
  8
1
  6
CONTINUOUS
 62
     7
 10
-232.6844360942952
 20
137.3262823166587
 30
0.0
  0
VERTEX
  5
1EC
  8
1
  6
CONTINUOUS
 62
     7
 10
-233.0901218553622
 20
137.8870860755517
 30
0.0
  0
VERTEX
  5
1ED
  8
1
  6
CONTINUOUS
 62
     7
 10
-233.5155873131501
 20
138.4330593488624
 30
0.0
  0
VERTEX
  5
1EE
  8
1
  6
CONTINUOUS
 62
     7
 10
-233.9602321144548
 20
138.9635518111168
 30
0.0
  0
VERTEX
  5
1EF
  8
1
  6
CONTINUOUS
 62
     7
 10
-234.4234559060722
 20
139.477913136841
 30
0.0
  0
VERTEX
  5
1F0
  8
1
  6
CONTINUOUS
 62
     7
 10
-234.9046583347983
 20
139.9754930005611
 30
0.0
  0
VERTEX
  5
1F1
  8
1
  6
CONTINUOUS
 62
     7
 10
-235.403239047429
 20
140.4556410768033
 30
0.0
  0
VERTEX
  5
1F2
  8
1
  6
CONTINUOUS
 62
     7
 10
-235.9185976907602
 20
140.9177070400934
 30
0.0
  0
VERTEX
  5
1F3
  8
1
  6
CONTINUOUS
 62
     7
 10
-236.450133911588
 20
141.3610405649577
 30
0.0
  0
VERTEX
  5
1F4
  8
1
  6
CONTINUOUS
 62
     7
 10
-236.9972383972282
 20
141.7850027374107
 30
0.0
  0
VERTEX
  5
1F5
  8
1
  6
CONTINUOUS
 62
     7
 10
-237.5592011986428
 20
142.1890828217291
 30
0.0
  0
VERTEX
  5
1F6
  8
1
  6
CONTINUOUS
 62
     7
 10
-238.1352490722949
 20
142.5728506989713
 30
0.0
  0
VERTEX
  5
1F7
  8
1
  6
CONTINUOUS
 62
     7
 10
-238.7246077907031
 20
142.935877503423
 30
0.0
  0
VERTEX
  5
1F8
  8
1
  6
CONTINUOUS
 62
     7
 10
-239.3265031263861
 20
143.2777343693702
 30
0.0
  0
VERTEX
  5
1F9
  8
1
  6
CONTINUOUS
 62
     7
 10
-239.9401608518624
 20
143.5979924310986
 30
0.0
  0
VERTEX
  5
1FA
  8
1
  6
CONTINUOUS
 62
     7
 10
-240.5648067396509
 20
143.8962228228944
 30
0.0
  0
VERTEX
  5
1FB
  8
1
  6
CONTINUOUS
 62
     7
 10
-241.19966656227
 20
144.1719966790433
 30
0.0
  0
VERTEX
  5
1FC
  8
1
  6
CONTINUOUS
 62
     7
 10
-241.8439660922384
 20
144.4248851338312
 30
0.0
  0
VERTEX
  5
1FD
  8
1
  6
CONTINUOUS
 62
     7
 10
-242.4969250995748
 20
144.6544759681374
 30
0.0
  0
VERTEX
  5
1FE
  8
1
  6
CONTINUOUS
 62
     7
 10
-243.1577060150287
 20
144.8605159804968
 30
0.0
  0
VERTEX
  5
1FF
  8
1
  6
CONTINUOUS
 62
     7
 10
-243.8254394371443
 20
145.0428402489567
 30
0.0
  0
VERTEX
  5
200
  8
1
  6
CONTINUOUS
 62
     7
 10
-244.4992556240862
 20
145.2012847955313
 30
0.0
  0
VERTEX
  5
201
  8
1
  6
CONTINUOUS
 62
     7
 10
-245.178284834019
 20
145.335685642235
 30
0.0
  0
VERTEX
  5
202
  8
1
  6
CONTINUOUS
 62
     7
 10
-245.861657325107
 20
145.4458788110818
 30
0.0
  0
VERTEX
  5
203
  8
1
  6
CONTINUOUS
 62
     7
 10
-246.548503355515
 20
145.531700324086
 30
0.0
  0
VERTEX
  5
204
  8
1
  6
CONTINUOUS
 62
     7
 10
-247.2379531834074
 20
145.5929862032616
 30
0.0
  0
VERTEX
  5
205
  8
1
  6
CONTINUOUS
 62
     7
 10
-247.9291370669488
 20
145.629572470623
 30
0.0
  0
VERTEX
  5
206
  8
1
  6
CONTINUOUS
 62
     7
 10
-248.6211846962149
 20
145.6413164510063
 30
0.0
  0
VERTEX
  5
207
  8
1
  6
CONTINUOUS
 62
     7
 10
-249.3132211136702
 20
145.6282497504812
 30
0.0
  0
VERTEX
  5
208
  8
1
  6
CONTINUOUS
 62
     7
 10
-250.0043690890118
 20
145.5904892018511
 30
0.0
  0
VERTEX
  5
209
  8
1
  6
CONTINUOUS
 62
     7
 10
-250.6937513764617
 20
145.5281522182315
 30
0.0
  0
VERTEX
  5
20A
  8
1
  6
CONTINUOUS
 62
     7
 10
-251.3804907302413
 20
145.4413562127375
 30
0.0
  0
VERTEX
  5
20B
  8
1
  6
CONTINUOUS
 62
     7
 10
-252.0637099045727
 20
145.3302185984845
 30
0.0
  0
VERTEX
  5
20C
  8
1
  6
CONTINUOUS
 62
     7
 10
-252.7425316536776
 20
145.1948567885878
 30
0.0
  0
VERTEX
  5
20D
  8
1
  6
CONTINUOUS
 62
     7
 10
-253.4160787317778
 20
145.0353881961627
 30
0.0
  0
VERTEX
  5
20E
  8
1
  6
CONTINUOUS
 62
     7
 10
-254.083473893095
 20
144.8519302343246
 30
0.0
  0
VERTEX
  5
20F
  8
1
  6
CONTINUOUS
 62
     7
 10
-254.7438472264283
 20
144.6446246603587
 30
0.0
  0
VERTEX
  5
210
  8
1
  6
CONTINUOUS
 62
     7
 10
-255.3963804970574
 20
144.413784750778
 30
0.0
  0
VERTEX
  5
211
  8
1
  6
CONTINUOUS
 62
     7
 10
-256.0402776773498
 20
144.1597974895643
 30
0.0
  0
VERTEX
  5
212
  8
1
  6
CONTINUOUS
 62
     7
 10
-256.6747428255218
 20
143.8830501456386
 30
0.0
  0
VERTEX
  5
213
  8
1
  6
CONTINUOUS
 62
     7
 10
-257.2989799997894
 20
143.5839299879219
 30
0.0
  0
VERTEX
  5
214
  8
1
  6
CONTINUOUS
 62
     7
 10
-257.9121932583687
 20
143.2628242853354
 30
0.0
  0
VERTEX
  5
215
  8
1
  6
CONTINUOUS
 62
     7
 10
-258.5135866594761
 20
142.9201203068002
 30
0.0
  0
VERTEX
  5
216
  8
1
  6
CONTINUOUS
 62
     7
 10
-259.1023642613273
 20
142.5562053212373
 30
0.0
  0
VERTEX
  5
217
  8
1
  6
CONTINUOUS
 62
     7
 10
-259.6777301221387
 20
142.171466597568
 30
0.0
  0
VERTEX
  5
218
  8
1
  6
CONTINUOUS
 62
     7
 10
-260.2389055264708
 20
141.7663158204201
 30
0.0
  0
VERTEX
  5
219
  8
1
  6
CONTINUOUS
 62
     7
 10
-260.7852167303761
 20
141.3413134554479
 30
0.0
  0
VERTEX
  5
21A
  8
1
  6
CONTINUOUS
 62
     7
 10
-261.3160295272894
 20
140.8970760064934
 30
0.0
  0
VERTEX
  5
21B
  8
1
  6
CONTINUOUS
 62
     7
 10
-261.830709782723
 20
140.4342200795587
 30
0.0
  0
VERTEX
  5
21C
  8
1
  6
CONTINUOUS
 62
     7
 10
-262.3286233621894
 20
139.9533622806454
 30
0.0
  0
VERTEX
  5
21D
  8
1
  6
CONTINUOUS
 62
     7
 10
-262.8091361312014
 20
139.4551192157555
 30
0.0
  0
VERTEX
  5
21E
  8
1
  6
CONTINUOUS
 62
     7
 10
-263.2716139552714
 20
138.9401074908908
 30
0.0
  0
VERTEX
  5
21F
  8
1
  6
CONTINUOUS
 62
     7
 10
-263.715422699912
 20
138.4089437120532
 30
0.0
  0
VERTEX
  5
220
  8
1
  6
CONTINUOUS
 62
     7
 10
-264.1399282306357
 20
137.8622444852445
 30
0.0
  0
VERTEX
  5
221
  8
1
  6
CONTINUOUS
 62
     7
 10
-264.5445245697939
 20
137.3006478390952
 30
0.0
  0
VERTEX
  5
222
  8
1
  6
CONTINUOUS
 62
     7
 10
-264.9287546001484
 20
136.7249050600235
 30
0.0
  0
VERTEX
  5
223
  8
1
  6
CONTINUOUS
 62
     7
 10
-265.2922102161938
 20
136.1358047241505
 30
0.0
  0
VERTEX
  5
224
  8
1
  6
CONTINUOUS
 62
     7
 10
-265.6344833422619
 20
135.5341354302982
 30
0.0
  0
VERTEX
  5
225
  8
1
  6
CONTINUOUS
 62
     7
 10
-265.9551659026843
 20
134.9206857772884
 30
0.0
  0
VERTEX
  5
226
  8
1
  6
CONTINUOUS
 62
     7
 10
-266.2538498217926
 20
134.2962443639433
 30
0.0
  0
VERTEX
  5
227
  8
1
  6
CONTINUOUS
 62
     7
 10
-266.5301270239185
 20
133.6615997890846
 30
0.0
  0
VERTEX
  5
228
  8
1
  6
CONTINUOUS
 62
     7
 10
-266.7835894333935
 20
133.0175406515343
 30
0.0
  0
VERTEX
  5
229
  8
1
  6
CONTINUOUS
 62
     7
 10
-267.0138289745493
 20
132.3648555501143
 30
0.0
  0
VERTEX
  5
22A
  8
1
  6
CONTINUOUS
 62
     7
 10
-267.220476216547
 20
131.7043436410095
 30
0.0
  0
VERTEX
  5
22B
  8
1
  6
CONTINUOUS
 62
     7
 10
-267.4033393503541
 20
131.0368526048225
 30
0.0
  0
VERTEX
  5
22C
  8
1
  6
CONTINUOUS
 62
     7
 10
-267.5622775666616
 20
130.3632440547466
 30
0.0
  0
VERTEX
  5
22D
  8
1
  6
CONTINUOUS
 62
     7
 10
-267.6971500605695
 20
129.6843796051795
 30
0.0
  0
VERTEX
  5
22E
  8
1
  6
CONTINUOUS
 62
     7
 10
-267.8078160271783
 20
129.0011208705192
 30
0.0
  0
VERTEX
  5
22F
  8
1
  6
CONTINUOUS
 62
     7
 10
-267.8941346615883
 20
128.3143294651635
 30
0.0
  0
VERTEX
  5
230
  8
1
  6
CONTINUOUS
 62
     7
 10
-267.9559651588997
 20
127.6248670035101
 30
0.0
  0
VERTEX
  5
231
  8
1
  6
CONTINUOUS
 62
     7
 10
-267.9931667142131
 20
126.933595099957
 30
0.0
  0
VERTEX
  5
232
  8
1
  6
CONTINUOUS
 62
     7
 10
-268.0055985226286
 20
126.2413753689021
 30
0.0
  0
SEQEND
  5
68B
  8
1
  6
CONTINUOUS
 62
     7
  0
CIRCLE
  5
78
  8
1
  6
CONTINUOUS
 62
     7
 10
-248.6055985226286
 20
126.2413753689021
 30
0.0
 40
21.50000000000002
  0
LINE
  5
79
  8
1
  6
CONTINUOUS
 62
     7
 10
-199.1055985226286
 20
107.2413753689021
 30
0.0
 11
-199.1055985226286
 21
145.2413753689021
 31
0.0
  0
LINE
  5
7A
  8
1
  6
CONTINUOUS
 62
     7
 10
-198.6055985226286
 20
144.7413753689021
 30
0.0
 11
-198.6055985226286
 21
107.7413753689021
 31
0.0
  0
ARC
  5
7B
  8
1
  6
CONTINUOUS
 62
     7
 10
-248.669750119106
 20
126.2413753689021
 30
0.0
 40
10.43265320750629
 50
80.71601432742682
 51
279.2839856725734
  0
POLYLINE
  5
7C
  8
1
  6
CONTINUOUS
 62
     7
 66
     1
 10
0.0
 20
0.0
 30
0.0
  0
VERTEX
  5
233
  8
1
  6
CONTINUOUS
 62
     7
 10
-238.1055985226286
 20
126.2413753689105
 30
0.0
  0
VERTEX
  5
234
  8
1
  6
CONTINUOUS
 62
     7
 10
-238.3200771766301
 20
128.3434571656845
 30
0.0
  0
VERTEX
  5
235
  8
1
  6
CONTINUOUS
 62
     7
 10
-238.9546745598731
 20
130.3589130201105
 30
0.0
  0
VERTEX
  5
236
  8
1
  6
CONTINUOUS
 62
     7
 10
-239.9832391703472
 20
132.204686809959
 30
0.0
  0
VERTEX
  5
237
  8
1
  6
CONTINUOUS
 62
     7
 10
-241.363384275631
 20
133.8047149423898
 30
0.0
  0
VERTEX
  5
238
  8
1
  6
CONTINUOUS
 62
     7
 10
-243.038234653026
 20
135.0930609039109
 30
0.0
  0
VERTEX
  5
239
  8
1
  6
CONTINUOUS
 62
     7
 10
-244.938770394527
 20
136.016632477484
 30
0.0
  0
VERTEX
  5
23A
  8
1
  6
CONTINUOUS
 62
     7
 10
-246.9866711893708
 20
136.5373696513584
 30
0.0
  0
SEQEND
  5
68C
  8
1
  6
CONTINUOUS
 62
     7
  0
POLYLINE
  5
7D
  8
1
  6
CONTINUOUS
 62
     7
 66
     1
 10
0.0
 20
0.0
 30
0.0
  0
VERTEX
  5
23B
  8
1
  6
CONTINUOUS
 62
     7
 10
-246.9866711893708
 20
115.9453810864457
 30
0.0
  0
VERTEX
  5
23C
  8
1
  6
CONTINUOUS
 62
     7
 10
-244.9387703945248
 20
116.466118260321
 30
0.0
  0
VERTEX
  5
23D
  8
1
  6
CONTINUOUS
 62
     7
 10
-243.038234653022
 20
117.3896898338958
 30
0.0
  0
VERTEX
  5
23E
  8
1
  6
CONTINUOUS
 62
     7
 10
-241.3633842756258
 20
118.6780357954193
 30
0.0
  0
VERTEX
  5
23F
  8
1
  6
CONTINUOUS
 62
     7
 10
-239.9832391703418
 20
120.278063927853
 30
0.0
  0
VERTEX
  5
240
  8
1
  6
CONTINUOUS
 62
     7
 10
-238.9546745598684
 20
122.1238377177046
 30
0.0
  0
VERTEX
  5
241
  8
1
  6
CONTINUOUS
 62
     7
 10
-238.3200771766272
 20
124.1392935721337
 30
0.0
  0
VERTEX
  5
242
  8
1
  6
CONTINUOUS
 62
     7
 10
-238.1055985226286
 20
126.2413753689105
 30
0.0
  0
SEQEND
  5
68D
  8
1
  6
CONTINUOUS
 62
     7
  0
LINE
  5
7E
  8
1
  6
CONTINUOUS
 62
     7
 10
-238.47878299504
 20
123.4808183759212
 30
0.0
 11
-238.4787797375721
 21
129.0012948830949
 31
0.0
  0
LINE
  5
7F
  8
1
  6
CONTINUOUS
 62
     7
 10
-198.6055985226286
 20
144.7413753689021
 30
0.0
 11
-199.1055985226286
 21
145.2413753689021
 31
0.0
  0
LINE
  5
80
  8
1
  6
CONTINUOUS
 62
     7
 10
-199.1055985226286
 20
145.2413753689021
 30
0.0
 11
-214.8134802816203
 21
145.2413753689021
 31
0.0
  0
ARC
  5
81
  8
1
  6
CONTINUOUS
 62
     7
 10
-214.8134802816203
 20
108.2413753689021
 30
0.0
 40
1.000000000000006
 50
200.0
 51
269.9999999999999
  0
ARC
  5
82
  8
1
  6
CONTINUOUS
 62
     7
 10
-214.8134802816203
 20
144.2413753689021
 30
0.0
 40
1.000000000000001
 50
90.0
 51
159.9999999999999
  0
LINE
  5
83
  8
1
  6
CONTINUOUS
 62
     7
 10
-215.7531729024062
 20
144.5833955122278
 30
0.0
 11
-216.3661134400525
 21
142.8993552255764
 31
0.0
  0
LINE
  5
84
  8
1
  6
CONTINUOUS
 62
     7
 10
-214.8134802816203
 20
107.2413753689021
 30
0.0
 11
-199.1055985226286
 21
107.2413753689021
 31
0.0
  0
LINE
  5
85
  8
1
  6
CONTINUOUS
 62
     7
 10
-216.3661134400525
 20
109.5833955122278
 30
0.0
 11
-215.7531729024062
 21
107.8993552255764
 31
0.0
  0
ARC
  5
86
  8
1
  6
CONTINUOUS
 62
     7
 10
-229.9954653987531
 20
141.2413753689021
 30
0.0
 40
1.000000000000001
 50
90.0
 51
159.9999999999999
  0
LINE
  5
87
  8
1
  6
CENTER
 62
     1
 10
-248.6055985226286
 20
102.7413753689021
 30
0.0
 11
-248.6055985226286
 21
149.7413753689021
 31
0.0
  0
ARC
  5
89
  8
1
  6
CONTINUOUS
 62
     7
 10
-229.9954653987531
 20
111.2413753689021
 30
0.0
 40
1.000000000000006
 50
200.0000000000001
 51
270.0
  0
LINE
  5
8A
  8
1
  6
CENTER
 62
     1
 10
-197.1055985226286
 20
51.80177174324239
 30
0.0
 11
-248.6055985226286
 21
51.80177174324239
 31
0.0
  0
ARC
  5
8B
  8
1
  6
CONTINUOUS
 62
     7
 10
-232.3058060608377
 20
140.7413753689021
 30
0.0
 40
1.000000000000001
 50
291.9903475932425
 51
340.0000000000001
  0
ARC
  5
8C
  8
1
  6
CONTINUOUS
 62
     7
 10
-232.3058060608377
 20
111.7413753689021
 30
0.0
 40
0.9999999999999991
 50
20.00000000000006
 51
68.00965240675765
  0
LINE
  5
8D
  8
1
  6
CENTER
 62
     1
 10
-154.3555985226287
 20
30.80177174324238
 30
0.0
 11
-154.3555985226287
 21
72.8017717432424
 31
0.0
  0
LINE
  5
8E
  8
1
  6
CENTER
 62
     1
 10
-175.3555985226287
 20
51.80177174324238
 30
0.0
 11
-133.3555985226286
 21
51.80177174324238
 31
0.0
  0
LINE
  5
8F
  8
1
  6
CENTER
 62
     1
 10
-248.6055985226286
 20
92.5172394274295
 30
0.0
 11
-248.6055985226286
 21
51.80177174324239
 31
0.0
  0
LINE
  5
90
  8
1
  6
CONTINUOUS
 62
     7
 10
-230.935158019539
 20
141.5833955122278
 30
0.0
 11
-231.3661134400521
 21
140.3993552255765
 31
0.0
  0
LINE
  5
91
  8
1
  6
CENTER
 62
     1
 10
-272.1055985226287
 20
126.2413753689021
 30
0.0
 11
-194.3555985226286
 21
126.2413753689021
 31
0.0
  0
LINE
  5
92
  8
1
  6
CONTINUOUS
 62
     7
 10
-231.3661134400521
 20
112.0833955122277
 30
0.0
 11
-230.935158019539
 21
110.8993552255764
 31
0.0
  0
ARC
  5
93
  8
1
  6
CONTINUOUS
 62
     7
 10
-249.333171601761
 20
126.907154007461
 30
0.0
 40
18.6842925557995
 50
182.0420566137864
 51
270.939824219769
  0
LINE
  5
94
  8
1
  6
CONTINUOUS
 62
     7
 10
-268.0055985226285
 20
126.2413753689021
 30
0.0
 11
-266.6055985226286
 21
126.2413753689021
 31
0.0
  0
CIRCLE
  5
95
  8
1
  6
CONTINUOUS
 62
     7
 10
-248.6055985226286
 20
126.2413753689021
 30
0.0
 40
15.79999999999998
  0
LINE
  5
96
  8
1
  6
CONTINUOUS
 62
     7
 10
-234.4476186659543
 20
69.04125682581859
 30
0.0
 11
-231.263578379303
 21
70.2001527148641
 31
0.0
  0
LINE
  5
97
  8
1
  6
CONTINUOUS
 62
     7
 10
-231.3661134400521
 20
37.64379188656795
 30
0.0
 11
-230.935158019539
 21
36.45975159991672
 31
0.0
  0
ARC
  5
98
  8
1
  6
CONTINUOUS
 62
     7
 10
-263.1055985226287
 20
68.10156420503267
 30
0.0
 40
1.000000000000011
 50
0.0
 51
70.00000000000006
  0
LINE
  5
99
  8
1
  6
CONTINUOUS
 62
     7
 10
-262.1055985226287
 20
68.10156420503267
 30
0.0
 11
-262.1055985226287
 21
65.8017717432424
 31
0.0
  0
LINE
  5
9A
  8
1
  6
CONTINUOUS
 62
     7
 10
-234.6055985226286
 20
38.30177174324238
 30
0.0
 11
-232.3058060608377
 21
38.30177174324238
 31
0.0
  0
LINE
  5
9B
  8
1
  6
CONTINUOUS
 62
     7
 10
-232.3058060608377
 20
65.3017717432424
 30
0.0
 11
-234.6055985226286
 21
65.3017717432424
 31
0.0
  0
LINE
  5
9C
  8
1
  6
CONTINUOUS
 62
     7
 10
-248.6036000749533
 20
108.2413754798408
 30
0.0
 11
-249.0267063893431
 21
108.2253749866
 31
0.0
  0
LINE
  5
9D
  8
1
  6
CONTINUOUS
 62
     7
 10
-265.9476186659543
 20
70.2001527148641
 30
0.0
 11
-262.7635783793029
 21
69.04125682581859
 31
0.0
  0
ARC
  5
9E
  8
1
  6
CONTINUOUS
 62
     7
 10
-229.9954653987531
 20
36.80177174324239
 30
0.0
 40
0.9999999999999822
 50
200.0000000000002
 51
270.0
  0
ARC
  5
9F
  8
1
  6
CONTINUOUS
 62
     7
 10
-229.9954653987531
 20
66.8017717432424
 30
0.0
 40
1.000000000000001
 50
90.0
 51
159.9999999999999
  0
ARC
  5
A0
  8
1
  6
CONTINUOUS
 62
     7
 10
-232.3058060608377
 20
66.3017717432424
 30
0.0
 40
1.000000000000011
 50
270.0
 51
340.0000000000001
  0
ARC
  5
A1
  8
1
  6
CONTINUOUS
 62
     7
 10
-232.3058060608377
 20
37.30177174324238
 30
0.0
 40
1.000000000000001
 50
20.00000000000006
 51
90.0
  0
ARC
  5
A2
  8
1
  6
CONTINUOUS
 62
     7
 10
-231.6055985226286
 20
71.13984533565001
 30
0.0
 40
1.000000000000001
 50
290.0000000000001
 51
0.0
  0
LINE
  5
A3
  8
1
  6
CONTINUOUS
 62
     7
 10
-266.6055985226287
 20
78.82766838510096
 30
0.0
 11
-266.6055985226287
 21
71.13984533565001
 31
0.0
  0
LINE
  5
A4
  8
1
  6
CONTINUOUS
 62
     7
 10
-229.9954653987531
 20
35.80177174324238
 30
0.0
 11
-217.3058060608383
 21
35.80177174324238
 31
0.0
  0
LINE
  5
A5
  8
1
  6
CONTINUOUS
 62
     7
 10
-230.935158019539
 20
67.14379188656805
 30
0.0
 11
-231.3661134400521
 21
65.95975159991681
 31
0.0
  0
ARC
  5
A6
  8
1
  6
CONTINUOUS
 62
     7
 10
-234.1055985226286
 20
68.10156420503267
 30
0.0
 40
1.000000000000001
 50
109.9999999999999
 51
180.0
  0
ARC
  5
A7
  8
1
  6
CONTINUOUS
 62
     7
 10
-234.6055985226286
 20
65.8017717432424
 30
0.0
 40
0.5000000000000004
 50
180.0
 51
270.0000000000014
  0
ARC
  5
A8
  8
1
  6
CONTINUOUS
 62
     7
 10
-234.6055985226286
 20
65.8017717432424
 30
0.0
 40
27.50000000000002
 50
180.0
 51
270.0000000000014
  0
LINE
  5
A9
  8
1
  6
CONTINUOUS
 62
     7
 10
-235.1055985226286
 20
65.8017717432424
 30
0.0
 11
-235.1055985226286
 21
68.10156420503267
 31
0.0
  0
LINE
  5
AA
  8
1
  6
CONTINUOUS
 62
     7
 10
-217.3058060608383
 20
67.8017717432424
 30
0.0
 11
-229.9954653987531
 21
67.8017717432424
 31
0.0
  0
LINE
  5
AB
  8
1
  6
CONTINUOUS
 62
     7
 10
-230.6055985226286
 20
71.13984533565001
 30
0.0
 11
-230.6055985226286
 21
78.82766838510096
 31
0.0
  0
ARC
  5
AC
  8
1
  6
CONTINUOUS
 62
     7
 10
-217.3058060608383
 20
34.80177174324238
 30
0.0
 40
1.000000000000001
 50
20.00000000000006
 51
90.0
  0
ARC
  5
AD
  8
1
  6
CONTINUOUS
 62
     7
 10
-265.6055985226287
 20
71.13984533565001
 30
0.0
 40
1.000000000000001
 50
180.0
 51
250.0
  0
ARC
  5
AE
  8
1
  6
CONTINUOUS
 62
     7
 10
-217.3058060608383
 20
68.8017717432424
 30
0.0
 40
0.9999999999999846
 50
270.0
 51
340.0000000000001
  0
INSERT
  5
B0
  8
1
  6
CONTINUOUS
 62
     7
  2
D_FRAME_VIEW_1763
 10
0.0
 20
0.0
 30
0.0
  0
INSERT
  5
B4
  8
1
  6
CONTINUOUS
 62
     7
  2
D_FRAME_VIEW_2116
 10
0.0
 20
0.0
 30
0.0
  0
INSERT
  5
B8
  8
1
  6
CONTINUOUS
 62
     7
  2
D_FRAME_VIEW_1473
 10
0.0
 20
0.0
 30
0.0
  0
ARC
  5
B9
  8
1
  6
CONTINUOUS
 62
     7
 10
-246.1846708476442
 20
-146.0703387051446
 30
0.0
 40
236.0652196301321
 50
90.58712686307082
 51
94.94232712713391
  0
LINE
  5
BA
  8
1
  6
CONTINUOUS
 62
     7
 10
-266.5223853421668
 20
89.11717220511139
 30
0.0
 11
-266.6055985226287
 21
89.06071015867559
 31
0.0
  0
ARC
  5
BB
  8
1
  6
CONTINUOUS
 62
     7
 10
-246.8737658485503
 20
-383.3024954823007
 30
0.0
 40
474.2765874064421
 50
90.20897599166709
 51
92.37643668995362
  0
LINE
  5
BC
  8
1
  6
CONTINUOUS
 62
     7
 10
-229.3562216858475
 20
83.59951371006471
 30
0.0
 11
-230.6056422270014
 21
83.82166511528713
 31
0.0
  0
LINE
  5
BD
  8
1
  6
CONTINUOUS
 62
     7
 10
-266.4335970115064
 20
85.2023006216208
 30
0.0
 11
-267.8538682499035
 21
84.94975106588196
 31
0.0
  0
LINE
  5
BE
  8
1
  6
CONTINUOUS
 62
     7
 10
-266.6055985226287
 20
86.36077845957682
 30
0.0
 11
-266.6055985226287
 21
85.17170602623133
 31
0.0
  0
LINE
  5
BF
  8
1
  6
CONTINUOUS
 62
     7
 10
-266.6055985226287
 20
89.06071015867559
 30
0.0
 11
-266.6055985226287
 21
87.87166202699517
 31
0.0
  0
LINE
  5
C0
  8
1
  6
CONTINUOUS
 62
     7
 10
-248.6036000749533
 20
90.97093729192673
 30
0.0
 11
-248.6036589023357
 21
89.98248677214926
 31
0.0
  0
LINE
  5
C1
  8
1
  6
CONTINUOUS
 62
     7
 10
-266.6055985226026
 20
83.6607781371023
 30
0.0
 11
-266.4525073054766
 21
83.71680206362252
 31
0.0
  0
ARC
  5
C2
  8
1
  6
CONTINUOUS
 62
     7
 10
885.6095022200047
 20
-32666.77378556402
 30
0.0
 40
32770.74733057027
 50
91.95223602423863
 51
92.01465942345489
  0
LINE
  5
C3
  8
1
  6
CONTINUOUS
 62
     7
 10
-230.6055985226286
 20
89.19280734751048
 30
0.0
 11
-230.6055985226286
 21
91.80177174324238
 31
0.0
  0
LINE
  5
C4
  8
1
  6
CONTINUOUS
 62
     7
 10
-266.6055985226271
 20
86.36078067654843
 30
0.0
 11
-266.479463576952
 21
86.41167161202387
 31
0.0
  0
ARC
  5
C5
  8
1
  6
CONTINUOUS
 62
     7
 10
2013.778092963147
 20
-64964.83922775689
 30
0.0
 40
65091.20384581011
 50
91.97612343478535
 51
92.0075811142864
  0
LINE
  5
C6
  8
1
  6
CONTINUOUS
 62
     7
 10
-266.6055985226287
 20
91.80177174324238
 30
0.0
 11
-266.6055985226287
 21
90.54283332780916
 31
0.0
  0
LINE
  5
C7
  8
1
  6
CONTINUOUS
 62
     7
 10
-230.6055985226317
 20
86.49274527148651
 30
0.0
 11
-230.7053791199727
 21
86.44753881068925
 31
0.0
  0
ARC
  5
C8
  8
1
  6
CONTINUOUS
 62
     7
 10
-613.1250347331674
 20
10728.6093406664
 30
0.0
 40
10649.03059484177
 50
271.8667325790092
 51
272.0580037100498
  0
POLYLINE
  5
C9
  8
1
  6
CONTINUOUS
 62
     7
 66
     1
 10
0.0
 20
0.0
 30
0.0
  0
VERTEX
  5
243
  8
1
  6
CONTINUOUS
 62
     7
 10
-266.2342898485741
 20
85.2302052137164
 30
0.0
  0
VERTEX
  5
244
  8
1
  6
CONTINUOUS
 62
     7
 10
-266.3718607298787
 20
85.212132283985
 30
0.0
  0
VERTEX
  5
245
  8
1
  6
CONTINUOUS
 62
     7
 10
-266.442243867812
 20
85.2007620227208
 30
0.0
  0
SEQEND
  5
68E
  8
1
  6
CONTINUOUS
 62
     7
  0
LINE
  5
CA
  8
1
  6
CONTINUOUS
 62
     7
 10
-229.205775740985
 20
82.80175088297574
 30
0.0
 11
-229.2057639015717
 21
83.54608580470834
 31
0.0
  0
LINE
  5
CB
  8
1
  6
CONTINUOUS
 62
     7
 10
-230.7725000037132
 20
87.65219651474959
 30
0.0
 11
-229.3514680885581
 21
87.9048820613127
 31
0.0
  0
LINE
  5
CC
  8
1
  6
CONTINUOUS
 62
     7
 10
-267.8618752816598
 20
83.85529459764511
 30
0.0
 11
-266.6055583770705
 21
83.63190173196067
 31
0.0
  0
ARC
  5
CD
  8
1
  6
CONTINUOUS
 62
     7
 10
-228.1055985226286
 20
81.50197928145208
 30
0.0
 40
0.9999999999999883
 50
290.0000000000002
 51
0.0
  0
LINE
  5
CE
  8
1
  6
CONTINUOUS
 62
     7
 10
-229.9476186659543
 20
79.76736100588685
 30
0.0
 11
-227.763578379303
 21
80.56228666066619
 31
0.0
  0
LINE
  5
CF
  8
1
  6
CONTINUOUS
 62
     7
 10
-214.8134802816203
 20
32.80177174324238
 30
0.0
 11
-199.1055985226286
 21
32.80177174324238
 31
0.0
  0
LINE
  5
D0
  8
1
  6
CONTINUOUS
 62
     7
 10
-216.3661134400525
 20
35.14379188656805
 30
0.0
 11
-215.7531729024062
 21
33.45975159991671
 31
0.0
  0
LINE
  5
D1
  8
1
  6
CONTINUOUS
 62
     7
 10
-248.6055985226286
 20
91.80177174324238
 30
0.0
 11
-266.6055985226287
 21
91.80177174324238
 31
0.0
  0
LINE
  5
D2
  8
1
  6
CONTINUOUS
 62
     7
 10
-230.6055985226286
 20
83.79280431934447
 30
0.0
 11
-230.6055985226286
 21
84.98183878929483
 31
0.0
  0
LINE
  5
D3
  8
1
  6
CONTINUOUS
 62
     7
 10
-230.6055985226287
 20
89.1928072068398
 30
0.0
 11
-230.7073376061962
 21
89.1470958230179
 31
0.0
  0
ARC
  5
D4
  8
1
  6
CONTINUOUS
 62
     7
 10
-826.7795612481849
 20
16670.3389536521
 30
0.0
 40
16591.90240816088
 50
271.9353531831734
 51
272.0588219812206
  0
ARC
  5
D5
  8
1
  6
CONTINUOUS
 62
     7
 10
-214.8134802816203
 20
33.80177174324238
 30
0.0
 40
1.000000000000006
 50
200.0
 51
269.9999999999999
  0
LINE
  5
D6
  8
1
  6
CONTINUOUS
 62
     7
 10
-268.0055985226286
 20
82.80177174324238
 30
0.0
 11
-268.0055985226286
 21
82.30177174324238
 31
0.0
  0
LINE
  5
D7
  8
1
  6
CONTINUOUS
 62
     7
 10
-268.0051727514735
 20
87.59588733117529
 30
0.0
 11
-268.0051727517481
 21
86.60747967863702
 31
0.0
  0
LINE
  5
D8
  8
1
  6
CONTINUOUS
 62
     7
 10
-215.7531729024062
 20
70.14379188656807
 30
0.0
 11
-216.3661134400525
 21
68.45975159991673
 31
0.0
  0
LINE
  5
D9
  8
1
  6
CONTINUOUS
 62
     7
 10
-267.8728801829336
 20
90.3302762546046
 30
0.0
 11
-268.0055985226286
 21
90.2959755548173
 31
0.0
  0
LINE
  5
DA
  8
1
  6
CONTINUOUS
 62
     7
 10
-227.1055985226286
 20
81.50197928145208
 30
0.0
 11
-227.1055985226286
 21
81.80177174324238
 31
0.0
  0
LINE
  5
DB
  8
1
  6
CONTINUOUS
 62
     7
 10
-268.0051727517448
 20
84.89606354666199
 30
0.0
 11
-268.0051727514701
 21
83.90765589412457
 31
0.0
  0
LINE
  5
DC
  8
1
  6
CONTINUOUS
 62
     7
 10
-229.2055985226286
 20
82.30177174324238
 30
0.0
 11
-229.2055985226286
 21
82.80575458654351
 31
0.0
  0
CIRCLE
  5
DD
  8
1
  6
CONTINUOUS
 62
     7
 10
-244.5099119779721
 20
55.89756151087853
 30
0.0
 40
5.079117917430573
  0
CIRCLE
  5
DE
  8
1
  6
CONTINUOUS
 62
     7
 10
-244.5050934592403
 20
55.90227680663074
 30
0.0
 40
3.499999999999975
  0
LINE
  5
DF
  8
1
  6
CONTINUOUS
 62
     7
 10
-230.7792300037351
 20
84.95095279804579
 30
0.0
 11
-229.3587297858066
 21
85.20355470005711
 31
0.0
  0
LINE
  5
E0
  8
1
  6
CONTINUOUS
 62
     7
 10
-267.7123322825313
 20
89.23282214939756
 30
0.0
 11
-266.6055381461428
 21
89.0352116492435
 31
0.0
  0
LINE
  5
E1
  8
1
  6
CONTINUOUS
 62
     7
 10
-266.4312407071321
 20
87.9026780198077
 30
0.0
 11
-267.8512828767981
 21
87.6501517975893
 31
0.0
  0
LINE
  5
E2
  8
1
  6
CONTINUOUS
 62
     7
 10
-199.1055985226286
 20
70.8017717432424
 30
0.0
 11
-214.8134802816203
 21
70.8017717432424
 31
0.0
  0
LINE
  5
E3
  8
1
  6
CONTINUOUS
 62
     7
 10
-270.1055985226287
 20
81.80177174324238
 30
0.0
 11
-270.1055985226287
 21
81.50197928145208
 31
0.0
  0
LINE
  5
E4
  8
1
  6
CONTINUOUS
 62
     7
 10
-229.3492943753917
 20
86.29829220115084
 30
0.0
 11
-230.6056379912647
 21
86.52168156823734
 31
0.0
  0
LINE
  5
E5
  8
1
  6
CONTINUOUS
 62
     7
 10
-199.1055985226286
 20
32.80177174324238
 30
0.0
 11
-198.6055985226286
 21
33.30177174324238
 31
0.0
  0
LINE
  5
E6
  8
1
  6
CONTINUOUS
 62
     7
 10
-198.6055985226286
 20
70.3017717432424
 30
0.0
 11
-199.1055985226286
 21
70.8017717432424
 31
0.0
  0
ARC
  5
E7
  8
1
  6
CONTINUOUS
 62
     7
 10
-269.1055985226287
 20
81.50197928145208
 30
0.0
 40
1.000000000000001
 50
180.0
 51
249.9999999999997
  0
ARC
  5
E8
  8
1
  6
CONTINUOUS
 62
     7
 10
-229.6055985226286
 20
78.82766838510096
 30
0.0
 40
1.000000000000001
 50
110.0000000000001
 51
180.0
  0
ARC
  5
E9
  8
1
  6
CONTINUOUS
 62
     7
 10
-267.6055985226287
 20
78.82766838510096
 30
0.0
 40
0.9999999999999978
 50
0.0
 51
69.99999999999996
  0
LINE
  5
EA
  8
1
  6
CONTINUOUS
 62
     7
 10
-230.6055985226286
 20
91.80177174324238
 30
0.0
 11
-248.6055985226286
 21
91.80177174324238
 31
0.0
  0
LINE
  5
EB
  8
1
  6
CONTINUOUS
 62
     7
 10
-269.4476186659543
 20
80.56228666066619
 30
0.0
 11
-267.263578379303
 21
79.76736100588685
 31
0.0
  0
LINE
  5
EC
  8
1
  6
CONTINUOUS
 62
     7
 10
-230.6055985226286
 20
86.4927466715378
 30
0.0
 11
-230.6055985226286
 21
87.68188374499123
 31
0.0
  0
LINE
  5
ED
  8
1
  6
CONTINUOUS
 62
     7
 10
-267.8551943141852
 20
86.55402803153922
 30
0.0
 11
-266.6055551370986
 21
86.33183720267743
 31
0.0
  0
LINE
  5
EE
  8
1
  6
CONTINUOUS
 62
     7
 10
-229.2057639016843
 20
87.95745999785332
 30
0.0
 11
-229.2057639020248
 21
88.94586765026176
 31
0.0
  0
LINE
  5
EF
  8
1
  6
CONTINUOUS
 62
     7
 10
-229.2061384083622
 20
85.257567905974
 30
0.0
 11
-229.2061384083622
 21
86.24597555855546
 31
0.0
  0
ARC
  5
F0
  8
1
  6
CONTINUOUS
 62
     7
 10
-244.8099674156939
 20
-313.2340267600985
 30
0.0
 40
404.2227660746639
 50
90.5377290680756
 51
93.27078445527896
  0
ARC
  5
F1
  8
1
  6
CONTINUOUS
 62
     7
 10
-214.8134802816203
 20
69.8017717432424
 30
0.0
 40
1.000000000000001
 50
90.0
 51
159.9999999999999
  0
LINE
  5
F2
  8
1
  6
CONTINUOUS
 62
     7
 10
-266.6055985226287
 20
83.66077743797858
 30
0.0
 11
-266.6055985226287
 21
82.80177174324238
 31
0.0
  0
LINE
  5
F3
  8
1
  6
CONTINUOUS
 62
     7
 10
-266.5380260368656
 20
90.56646429454044
 30
0.0
 11
-267.8729625357517
 21
90.33026168863012
 31
0.0
  0
LINE
  5
F4
  8
1
  6
CONTINUOUS
 62
     7
 10
-229.3440595038525
 20
88.9972481982702
 30
0.0
 11
-230.6056365414779
 21
89.22157462591723
 31
0.0
  0
LINE
  5
F5
  8
1
  6
CONTINUOUS
 62
     7
 10
-230.6055985226307
 20
83.79280534091399
 30
0.0
 11
-230.7544146292247
 21
83.73745370545072
 31
0.0
  0
ARC
  5
F6
  8
1
  6
CONTINUOUS
 62
     7
 10
-276.9024552573878
 20
1080.663602454953
 30
0.0
 40
997.9936811996022
 50
270.9313638701276
 51
272.6503485832934
  0
LINE
  5
F7
  8
1
  6
CONTINUOUS
 62
     7
 10
-136.3555985226287
 20
60.4109281750729
 30
0.0
 11
-136.3555985226287
 21
57.88453427354061
 31
0.0
  0
LINE
  5
F8
  8
1
  6
CONTINUOUS
 62
     7
 10
-134.9556515574703
 20
89.62115663317195
 30
0.0
 11
-135.1067953925794
 21
89.67456609809983
 31
0.0
  0
LINE
  5
F9
  8
1
  6
CONTINUOUS
 62
     7
 10
-172.3555985226287
 20
60.4109281750729
 30
0.0
 11
-172.3555985226287
 21
57.88453427354061
 31
0.0
  0
LINE
  5
FA
  8
1
  6
CONTINUOUS
 62
     7
 10
-136.3555985226543
 20
87.1677511690736
 30
0.0
 11
-136.479432882687
 21
87.11739559769241
 31
0.0
  0
ARC
  5
FB
  8
1
  6
CONTINUOUS
 62
     7
 10
-1031.680211171174
 20
25285.33309306315
 30
0.0
 40
25214.11229390087
 50
271.9534250765346
 51
272.0346545469747
  0
LINE
  5
FC
  8
1
  6
CONTINUOUS
 62
     7
 10
-172.3555985225983
 20
87.0357616874833
 30
0.0
 11
-172.1825558044424
 21
87.09540811009173
 31
0.0
  0
ARC
  5
FD
  8
1
  6
CONTINUOUS
 62
     7
 10
-7121.581101736725
 20
201570.2242229199
 30
0.0
 40
201602.9398028596
 50
271.9754181294071
 51
271.9855614136225
  0
POLYLINE
  5
FE
  8
1
  6
CONTINUOUS
 62
     7
 66
     1
 10
0.0
 20
0.0
 30
0.0
  0
VERTEX
  5
246
  8
1
  6
CONTINUOUS
 62
     7
 10
-173.6164556595867
 20
85.62247050348184
 30
0.0
  0
VERTEX
  5
247
  8
1
  6
CONTINUOUS
 62
     7
 10
-173.5409483301751
 20
85.6349562148108
 30
0.0
  0
VERTEX
  5
248
  8
1
  6
CONTINUOUS
 62
     7
 10
-173.44914665929
 20
85.64744192613976
 30
0.0
  0
VERTEX
  5
249
  8
1
  6
CONTINUOUS
 62
     7
 10
-173.3411862110909
 20
85.65992763746873
 30
0.0
  0
VERTEX
  5
24A
  8
1
  6
CONTINUOUS
 62
     7
 10
-173.2172049498666
 20
85.6724133487977
 30
0.0
  0
VERTEX
  5
24B
  8
1
  6
CONTINUOUS
 62
     7
 10
-173.0773408399061
 20
85.68489906012665
 30
0.0
  0
VERTEX
  5
24C
  8
1
  6
CONTINUOUS
 62
     7
 10
-172.9217318454982
 20
85.69738477145563
 30
0.0
  0
VERTEX
  5
24D
  8
1
  6
CONTINUOUS
 62
     7
 10
-172.7505159309318
 20
85.70987048278458
 30
0.0
  0
VERTEX
  5
24E
  8
1
  6
CONTINUOUS
 62
     7
 10
-172.5638310604959
 20
85.72235619411354
 30
0.0
  0
VERTEX
  5
24F
  8
1
  6
CONTINUOUS
 62
     7
 10
-172.3618151984793
 20
85.73484190544251
 30
0.0
  0
VERTEX
  5
250
  8
1
  6
CONTINUOUS
 62
     7
 10
-172.1446063091709
 20
85.74732761677149
 30
0.0
  0
VERTEX
  5
251
  8
1
  6
CONTINUOUS
 62
     7
 10
-171.9123423568597
 20
85.75981332810045
 30
0.0
  0
VERTEX
  5
252
  8
1
  6
CONTINUOUS
 62
     7
 10
-171.6651650390901
 20
85.77229903942941
 30
0.0
  0
VERTEX
  5
253
  8
1
  6
CONTINUOUS
 62
     7
 10
-171.4032855152812
 20
85.78478475075838
 30
0.0
  0
VERTEX
  5
254
  8
1
  6
CONTINUOUS
 62
     7
 10
-171.1269763574436
 20
85.79727046208735
 30
0.0
  0
VERTEX
  5
255
  8
1
  6
CONTINUOUS
 62
     7
 10
-170.8365122533271
 20
85.80975617341633
 30
0.0
  0
VERTEX
  5
256
  8
1
  6
CONTINUOUS
 62
     7
 10
-170.5321678906815
 20
85.82224188474528
 30
0.0
  0
VERTEX
  5
257
  8
1
  6
CONTINUOUS
 62
     7
 10
-170.214217957257
 20
85.83472759607426
 30
0.0
  0
VERTEX
  5
258
  8
1
  6
CONTINUOUS
 62
     7
 10
-169.8829371408033
 20
85.84721330740324
 30
0.0
  0
VERTEX
  5
259
  8
1
  6
CONTINUOUS
 62
     7
 10
-169.5386001290704
 20
85.85969901873221
 30
0.0
  0
VERTEX
  5
25A
  8
1
  6
CONTINUOUS
 62
     7
 10
-169.1814816098082
 20
85.87218473006116
 30
0.0
  0
VERTEX
  5
25B
  8
1
  6
CONTINUOUS
 62
     7
 10
-168.8118562707667
 20
85.88467044139014
 30
0.0
  0
VERTEX
  5
25C
  8
1
  6
CONTINUOUS
 62
     7
 10
-168.4299987996957
 20
85.8971561527191
 30
0.0
  0
VERTEX
  5
25D
  8
1
  6
CONTINUOUS
 62
     7
 10
-168.0361869305223
 20
85.90964186404808
 30
0.0
  0
VERTEX
  5
25E
  8
1
  6
CONTINUOUS
 62
     7
 10
-167.6307540201654
 20
85.92212757537705
 30
0.0
  0
VERTEX
  5
25F
  8
1
  6
CONTINUOUS
 62
     7
 10
-167.2140820430128
 20
85.93461328670601
 30
0.0
  0
VERTEX
  5
260
  8
1
  6
CONTINUOUS
 62
     7
 10
-166.7865546105614
 20
85.94709899803499
 30
0.0
  0
VERTEX
  5
261
  8
1
  6
CONTINUOUS
 62
     7
 10
-166.3485553343081
 20
85.95958470936394
 30
0.0
  0
VERTEX
  5
262
  8
1
  6
CONTINUOUS
 62
     7
 10
-165.9004678257497
 20
85.97207042069292
 30
0.0
  0
VERTEX
  5
263
  8
1
  6
CONTINUOUS
 62
     7
 10
-165.4426756963829
 20
85.98455613202188
 30
0.0
  0
VERTEX
  5
264
  8
1
  6
CONTINUOUS
 62
     7
 10
-164.9755625577046
 20
85.99704184335084
 30
0.0
  0
VERTEX
  5
265
  8
1
  6
CONTINUOUS
 62
     7
 10
-164.4995120212115
 20
86.0095275546798
 30
0.0
  0
VERTEX
  5
266
  8
1
  6
CONTINUOUS
 62
     7
 10
-164.0149076984005
 20
86.02201326600877
 30
0.0
  0
VERTEX
  5
267
  8
1
  6
CONTINUOUS
 62
     7
 10
-163.5221332007684
 20
86.03449897733775
 30
0.0
  0
VERTEX
  5
268
  8
1
  6
CONTINUOUS
 62
     7
 10
-163.0215741473278
 20
86.04698468866671
 30
0.0
  0
VERTEX
  5
269
  8
1
  6
CONTINUOUS
 62
     7
 10
-162.5136521368924
 20
86.05947039999567
 30
0.0
  0
VERTEX
  5
26A
  8
1
  6
CONTINUOUS
 62
     7
 10
-161.9988198583606
 20
86.07195611132464
 30
0.0
  0
VERTEX
  5
26B
  8
1
  6
CONTINUOUS
 62
     7
 10
-161.4775310236576
 20
86.08444182265362
 30
0.0
  0
VERTEX
  5
26C
  8
1
  6
CONTINUOUS
 62
     7
 10
-160.9502393447089
 20
86.09692753398258
 30
0.0
  0
VERTEX
  5
26D
  8
1
  6
CONTINUOUS
 62
     7
 10
-160.4173985334399
 20
86.10941324531154
 30
0.0
  0
VERTEX
  5
26E
  8
1
  6
CONTINUOUS
 62
     7
 10
-159.8794623017759
 20
86.1218989566405
 30
0.0
  0
VERTEX
  5
26F
  8
1
  6
CONTINUOUS
 62
     7
 10
-159.3368843616423
 20
86.13438466796948
 30
0.0
  0
VERTEX
  5
270
  8
1
  6
CONTINUOUS
 62
     7
 10
-158.7901184249644
 20
86.14687037929843
 30
0.0
  0
VERTEX
  5
271
  8
1
  6
CONTINUOUS
 62
     7
 10
-158.2396182036677
 20
86.15935609062743
 30
0.0
  0
VERTEX
  5
272
  8
1
  6
CONTINUOUS
 62
     7
 10
-157.6858374096774
 20
86.17184180195636
 30
0.0
  0
VERTEX
  5
273
  8
1
  6
CONTINUOUS
 62
     7
 10
-157.129230463952
 20
86.18432751328534
 30
0.0
  0
VERTEX
  5
274
  8
1
  6
CONTINUOUS
 62
     7
 10
-156.5702642620217
 20
86.1968132246143
 30
0.0
  0
VERTEX
  5
275
  8
1
  6
CONTINUOUS
 62
     7
 10
-156.0094163558495
 20
86.20929893594327
 30
0.0
  0
VERTEX
  5
276
  8
1
  6
CONTINUOUS
 62
     7
 10
-155.4471646399723
 20
86.22178464727223
 30
0.0
  0
VERTEX
  5
277
  8
1
  6
CONTINUOUS
 62
     7
 10
-154.8839870089272
 20
86.23427035860121
 30
0.0
  0
VERTEX
  5
278
  8
1
  6
CONTINUOUS
 62
     7
 10
-154.3203613572511
 20
86.24675606993017
 30
0.0
  0
VERTEX
  5
279
  8
1
  6
CONTINUOUS
 62
     7
 10
-153.7567655794809
 20
86.25924178125915
 30
0.0
  0
VERTEX
  5
27A
  8
1
  6
CONTINUOUS
 62
     7
 10
-153.1936775701536
 20
86.2717274925881
 30
0.0
  0
VERTEX
  5
27B
  8
1
  6
CONTINUOUS
 62
     7
 10
-152.6315752238062
 20
86.28421320391708
 30
0.0
  0
VERTEX
  5
27C
  8
1
  6
CONTINUOUS
 62
     7
 10
-152.0709364349756
 20
86.29669891524605
 30
0.0
  0
VERTEX
  5
27D
  8
1
  6
CONTINUOUS
 62
     7
 10
-151.5122390981988
 20
86.30918462657502
 30
0.0
  0
VERTEX
  5
27E
  8
1
  6
CONTINUOUS
 62
     7
 10
-150.9559603822221
 20
86.32167033790397
 30
0.0
  0
VERTEX
  5
27F
  8
1
  6
CONTINUOUS
 62
     7
 10
-150.4025649189549
 20
86.33415604923294
 30
0.0
  0
VERTEX
  5
280
  8
1
  6
CONTINUOUS
 62
     7
 10
-149.8525067527699
 20
86.34664176056191
 30
0.0
  0
VERTEX
  5
281
  8
1
  6
CONTINUOUS
 62
     7
 10
-149.3062395956029
 20
86.35912747189087
 30
0.0
  0
VERTEX
  5
282
  8
1
  6
CONTINUOUS
 62
     7
 10
-148.7642171593894
 20
86.37161318321985
 30
0.0
  0
VERTEX
  5
283
  8
1
  6
CONTINUOUS
 62
     7
 10
-148.2268931560652
 20
86.38409889454883
 30
0.0
  0
VERTEX
  5
284
  8
1
  6
CONTINUOUS
 62
     7
 10
-147.6947212975656
 20
86.3965846058778
 30
0.0
  0
VERTEX
  5
285
  8
1
  6
CONTINUOUS
 62
     7
 10
-147.1681552958264
 20
86.40907031720675
 30
0.0
  0
VERTEX
  5
286
  8
1
  6
CONTINUOUS
 62
     7
 10
-146.6476488627831
 20
86.42155602853572
 30
0.0
  0
VERTEX
  5
287
  8
1
  6
CONTINUOUS
 62
     7
 10
-146.1336557103715
 20
86.4340417398647
 30
0.0
  0
VERTEX
  5
288
  8
1
  6
CONTINUOUS
 62
     7
 10
-145.626629550527
 20
86.44652745119366
 30
0.0
  0
VERTEX
  5
289
  8
1
  6
CONTINUOUS
 62
     7
 10
-145.1270219419283
 20
86.45901316252262
 30
0.0
  0
VERTEX
  5
28A
  8
1
  6
CONTINUOUS
 62
     7
 10
-144.6352479219521
 20
86.4714988738516
 30
0.0
  0
VERTEX
  5
28B
  8
1
  6
CONTINUOUS
 62
     7
 10
-144.1516920369833
 20
86.48398458518055
 30
0.0
  0
VERTEX
  5
28C
  8
1
  6
CONTINUOUS
 62
     7
 10
-143.6767378985383
 20
86.49647029650954
 30
0.0
  0
VERTEX
  5
28D
  8
1
  6
CONTINUOUS
 62
     7
 10
-143.2107691181333
 20
86.50895600783849
 30
0.0
  0
VERTEX
  5
28E
  8
1
  6
CONTINUOUS
 62
     7
 10
-142.7541693072845
 20
86.52144171916746
 30
0.0
  0
VERTEX
  5
28F
  8
1
  6
CONTINUOUS
 62
     7
 10
-142.3073220775082
 20
86.53392743049642
 30
0.0
  0
VERTEX
  5
290
  8
1
  6
CONTINUOUS
 62
     7
 10
-141.8706110403206
 20
86.54641314182538
 30
0.0
  0
VERTEX
  5
291
  8
1
  6
CONTINUOUS
 62
     7
 10
-141.4444198072379
 20
86.55889885315435
 30
0.0
  0
VERTEX
  5
292
  8
1
  6
CONTINUOUS
 62
     7
 10
-141.0291319897765
 20
86.57138456448332
 30
0.0
  0
VERTEX
  5
293
  8
1
  6
CONTINUOUS
 62
     7
 10
-140.6251311994525
 20
86.58387027581229
 30
0.0
  0
VERTEX
  5
294
  8
1
  6
CONTINUOUS
 62
     7
 10
-140.2327976241471
 20
86.59635598714127
 30
0.0
  0
VERTEX
  5
295
  8
1
  6
CONTINUOUS
 62
     7
 10
-139.8524544265038
 20
86.60884169847021
 30
0.0
  0
VERTEX
  5
296
  8
1
  6
CONTINUOUS
 62
     7
 10
-139.4843777030737
 20
86.62132740979919
 30
0.0
  0
VERTEX
  5
297
  8
1
  6
CONTINUOUS
 62
     7
 10
-139.1288421416334
 20
86.63381312112814
 30
0.0
  0
VERTEX
  5
298
  8
1
  6
CONTINUOUS
 62
     7
 10
-138.7861224299594
 20
86.64629883245712
 30
0.0
  0
VERTEX
  5
299
  8
1
  6
CONTINUOUS
 62
     7
 10
-138.4564932558284
 20
86.65878454378608
 30
0.0
  0
VERTEX
  5
29A
  8
1
  6
CONTINUOUS
 62
     7
 10
-138.1402293070169
 20
86.67127025511505
 30
0.0
  0
VERTEX
  5
29B
  8
1
  6
CONTINUOUS
 62
     7
 10
-137.8376052713016
 20
86.68375596644402
 30
0.0
  0
VERTEX
  5
29C
  8
1
  6
CONTINUOUS
 62
     7
 10
-137.5488958364591
 20
86.69624167777297
 30
0.0
  0
VERTEX
  5
29D
  8
1
  6
CONTINUOUS
 62
     7
 10
-137.2743756902658
 20
86.70872738910197
 30
0.0
  0
VERTEX
  5
29E
  8
1
  6
CONTINUOUS
 62
     7
 10
-137.0143195204984
 20
86.72121310043092
 30
0.0
  0
VERTEX
  5
29F
  8
1
  6
CONTINUOUS
 62
     7
 10
-136.7689976182864
 20
86.73369881175988
 30
0.0
  0
VERTEX
  5
2A0
  8
1
  6
CONTINUOUS
 62
     7
 10
-136.5386083489402
 20
86.74618452308884
 30
0.0
  0
VERTEX
  5
2A1
  8
1
  6
CONTINUOUS
 62
     7
 10
-136.3232913911847
 20
86.75867023441783
 30
0.0
  0
VERTEX
  5
2A2
  8
1
  6
CONTINUOUS
 62
     7
 10
-136.1231847093401
 20
86.77115594574678
 30
0.0
  0
VERTEX
  5
2A3
  8
1
  6
CONTINUOUS
 62
     7
 10
-135.9384262677265
 20
86.78364165707576
 30
0.0
  0
VERTEX
  5
2A4
  8
1
  6
CONTINUOUS
 62
     7
 10
-135.7691540306639
 20
86.79612736840471
 30
0.0
  0
VERTEX
  5
2A5
  8
1
  6
CONTINUOUS
 62
     7
 10
-135.6155059624726
 20
86.8086130797337
 30
0.0
  0
VERTEX
  5
2A6
  8
1
  6
CONTINUOUS
 62
     7
 10
-135.4776200274724
 20
86.82109879106264
 30
0.0
  0
VERTEX
  5
2A7
  8
1
  6
CONTINUOUS
 62
     7
 10
-135.3556341899837
 20
86.8335845023916
 30
0.0
  0
VERTEX
  5
2A8
  8
1
  6
CONTINUOUS
 62
     7
 10
-135.2496864143265
 20
86.8460702137206
 30
0.0
  0
VERTEX
  5
2A9
  8
1
  6
CONTINUOUS
 62
     7
 10
-135.1599146648208
 20
86.85855592504956
 30
0.0
  0
VERTEX
  5
2AA
  8
1
  6
CONTINUOUS
 62
     7
 10
-135.0864519491102
 20
86.87104163637854
 30
0.0
  0
VERTEX
  5
2AB
  8
1
  6
CONTINUOUS
 62
     7
 10
-135.0293516239576
 20
86.88352734770751
 30
0.0
  0
VERTEX
  5
2AC
  8
1
  6
CONTINUOUS
 62
     7
 10
-134.9886027988577
 20
86.89601305903645
 30
0.0
  0
VERTEX
  5
2AD
  8
1
  6
CONTINUOUS
 62
     7
 10
-134.9641927520248
 20
86.90849877036541
 30
0.0
  0
VERTEX
  5
2AE
  8
1
  6
CONTINUOUS
 62
     7
 10
-134.9561087616737
 20
86.92098448169439
 30
0.0
  0
SEQEND
  5
68F
  8
1
  6
CONTINUOUS
 62
     7
  0
LINE
  5
FF
  8
1
  6
CONTINUOUS
 62
     7
 10
-173.6052219977604
 20
84.52906734872589
 30
0.0
 11
-173.6980355899092
 21
84.54958353826808
 31
0.0
  0
LINE
  5
100
  8
1
  6
CONTINUOUS
 62
     7
 10
-172.35559841169
 20
90.97093729192673
 30
0.0
 11
-172.3555984181251
 21
89.98248677214926
 31
0.0
  0
LINE
  5
101
  8
1
  6
CONTINUOUS
 62
     7
 10
-172.3555984181251
 20
89.98248677214926
 30
0.0
 11
-172.2194181596088
 21
89.90451653469007
 31
0.0
  0
ARC
  5
102
  8
1
  6
CONTINUOUS
 62
     7
 10
-154.3555985226287
 20
51.80177174324238
 30
0.0
 40
15.00000000000001
 50
0.0
 51
90.0
  0
LINE
  5
103
  8
1
  6
CONTINUOUS
 62
     7
 10
-173.6980355899091
 20
84.54958353826807
 30
0.0
 11
-173.7550884500441
 21
84.58262604098246
 31
0.0
  0
LINE
  5
104
  8
1
  6
CONTINUOUS
 62
     7
 10
-173.6020282124473
 20
87.22848466406587
 30
0.0
 11
-173.7552961118859
 21
87.28247202402642
 31
0.0
  0
LINE
  5
105
  8
1
  6
CONTINUOUS
 62
     7
 10
-173.7554753548217
 20
82.80177174324238
 30
0.0
 11
-173.7487475881877
 21
82.8017717432424
 31
0.0
  0
POLYLINE
  5
106
  8
1
  6
CONTINUOUS
 62
     7
 66
     1
 10
0.0
 20
0.0
 30
0.0
  0
VERTEX
  5
2AF
  8
1
  6
CONTINUOUS
 62
     7
 10
-173.6167936849131
 20
82.92234409887725
 30
0.0
  0
VERTEX
  5
2B0
  8
1
  6
CONTINUOUS
 62
     7
 10
-173.5343163895012
 20
82.93587103480583
 30
0.0
  0
VERTEX
  5
2B1
  8
1
  6
CONTINUOUS
 62
     7
 10
-173.4329033962879
 20
82.94939797073441
 30
0.0
  0
VERTEX
  5
2B2
  8
1
  6
CONTINUOUS
 62
     7
 10
-173.3126672948179
 20
82.96292490666299
 30
0.0
  0
VERTEX
  5
2B3
  8
1
  6
CONTINUOUS
 62
     7
 10
-173.173720674636
 20
82.97645184259159
 30
0.0
  0
VERTEX
  5
2B4
  8
1
  6
CONTINUOUS
 62
     7
 10
-173.0161761252868
 20
82.98997877852017
 30
0.0
  0
VERTEX
  5
2B5
  8
1
  6
CONTINUOUS
 62
     7
 10
-172.8401462363153
 20
83.00350571444875
 30
0.0
  0
VERTEX
  5
2B6
  8
1
  6
CONTINUOUS
 62
     7
 10
-172.6457435972661
 20
83.01703265037733
 30
0.0
  0
VERTEX
  5
2B7
  8
1
  6
CONTINUOUS
 62
     7
 10
-172.4330964630634
 20
83.03055958630591
 30
0.0
  0
VERTEX
  5
2B8
  8
1
  6
CONTINUOUS
 62
     7
 10
-172.2024479447385
 20
83.0440865222345
 30
0.0
  0
VERTEX
  5
2B9
  8
1
  6
CONTINUOUS
 62
     7
 10
-171.9540922740383
 20
83.05761345816306
 30
0.0
  0
VERTEX
  5
2BA
  8
1
  6
CONTINUOUS
 62
     7
 10
-171.6883239162694
 20
83.07114039409164
 30
0.0
  0
VERTEX
  5
2BB
  8
1
  6
CONTINUOUS
 62
     7
 10
-171.405437336738
 20
83.08466733002022
 30
0.0
  0
VERTEX
  5
2BC
  8
1
  6
CONTINUOUS
 62
     7
 10
-171.1057270007504
 20
83.0981942659488
 30
0.0
  0
VERTEX
  5
2BD
  8
1
  6
CONTINUOUS
 62
     7
 10
-170.7894873736127
 20
83.11172120187739
 30
0.0
  0
VERTEX
  5
2BE
  8
1
  6
CONTINUOUS
 62
     7
 10
-170.4570129206317
 20
83.12524813780598
 30
0.0
  0
VERTEX
  5
2BF
  8
1
  6
CONTINUOUS
 62
     7
 10
-170.1085981071132
 20
83.13877507373455
 30
0.0
  0
VERTEX
  5
2C0
  8
1
  6
CONTINUOUS
 62
     7
 10
-169.7445373983639
 20
83.15230200966315
 30
0.0
  0
VERTEX
  5
2C1
  8
1
  6
CONTINUOUS
 62
     7
 10
-169.3651323243347
 20
83.16582894559171
 30
0.0
  0
VERTEX
  5
2C2
  8
1
  6
CONTINUOUS
 62
     7
 10
-168.9707706734817
 20
83.17935588152031
 30
0.0
  0
VERTEX
  5
2C3
  8
1
  6
CONTINUOUS
 62
     7
 10
-168.5618979119319
 20
83.19288281744889
 30
0.0
  0
VERTEX
  5
2C4
  8
1
  6
CONTINUOUS
 62
     7
 10
-168.1389605624207
 20
83.20640975337747
 30
0.0
  0
VERTEX
  5
2C5
  8
1
  6
CONTINUOUS
 62
     7
 10
-167.7024051476831
 20
83.21993668930605
 30
0.0
  0
VERTEX
  5
2C6
  8
1
  6
CONTINUOUS
 62
     7
 10
-167.2526781904545
 20
83.23346362523463
 30
0.0
  0
VERTEX
  5
2C7
  8
1
  6
CONTINUOUS
 62
     7
 10
-166.7902262134701
 20
83.24699056116323
 30
0.0
  0
VERTEX
  5
2C8
  8
1
  6
CONTINUOUS
 62
     7
 10
-166.3154957394651
 20
83.26051749709181
 30
0.0
  0
VERTEX
  5
2C9
  8
1
  6
CONTINUOUS
 62
     7
 10
-165.8289332911747
 20
83.27404443302038
 30
0.0
  0
VERTEX
  5
2CA
  8
1
  6
CONTINUOUS
 62
     7
 10
-165.3309853913341
 20
83.28757136894896
 30
0.0
  0
VERTEX
  5
2CB
  8
1
  6
CONTINUOUS
 62
     7
 10
-164.8221008431296
 20
83.30109830487756
 30
0.0
  0
VERTEX
  5
2CC
  8
1
  6
CONTINUOUS
 62
     7
 10
-164.3027799263559
 20
83.31462524080614
 30
0.0
  0
VERTEX
  5
2CD
  8
1
  6
CONTINUOUS
 62
     7
 10
-163.7735738621792
 20
83.32815217673472
 30
0.0
  0
VERTEX
  5
2CE
  8
1
  6
CONTINUOUS
 62
     7
 10
-163.2350360451658
 20
83.34167911266331
 30
0.0
  0
VERTEX
  5
2CF
  8
1
  6
CONTINUOUS
 62
     7
 10
-162.6877198698816
 20
83.3552060485919
 30
0.0
  0
VERTEX
  5
2D0
  8
1
  6
CONTINUOUS
 62
     7
 10
-162.1321787308929
 20
83.36873298452048
 30
0.0
  0
VERTEX
  5
2D1
  8
1
  6
CONTINUOUS
 62
     7
 10
-161.5689660227656
 20
83.38225992044906
 30
0.0
  0
VERTEX
  5
2D2
  8
1
  6
CONTINUOUS
 62
     7
 10
-160.9986351400659
 20
83.39578685637763
 30
0.0
  0
VERTEX
  5
2D3
  8
1
  6
CONTINUOUS
 62
     7
 10
-160.4217394773599
 20
83.40931379230624
 30
0.0
  0
VERTEX
  5
2D4
  8
1
  6
CONTINUOUS
 62
     7
 10
-159.8388324292136
 20
83.4228407282348
 30
0.0
  0
VERTEX
  5
2D5
  8
1
  6
CONTINUOUS
 62
     7
 10
-159.250467768711
 20
83.43636766416338
 30
0.0
  0
VERTEX
  5
2D6
  8
1
  6
CONTINUOUS
 62
     7
 10
-158.6572188340986
 20
83.44989460009197
 30
0.0
  0
VERTEX
  5
2D7
  8
1
  6
CONTINUOUS
 62
     7
 10
-158.0596876070499
 20
83.46342153602053
 30
0.0
  0
VERTEX
  5
2D8
  8
1
  6
CONTINUOUS
 62
     7
 10
-157.458478346513
 20
83.47694847194913
 30
0.0
  0
VERTEX
  5
2D9
  8
1
  6
CONTINUOUS
 62
     7
 10
-156.8541953114362
 20
83.49047540787771
 30
0.0
  0
VERTEX
  5
2DA
  8
1
  6
CONTINUOUS
 62
     7
 10
-156.2474427607675
 20
83.50400234380629
 30
0.0
  0
VERTEX
  5
2DB
  8
1
  6
CONTINUOUS
 62
     7
 10
-155.6388249534552
 20
83.51752927973487
 30
0.0
  0
VERTEX
  5
2DC
  8
1
  6
CONTINUOUS
 62
     7
 10
-155.0289461484475
 20
83.53105621566345
 30
0.0
  0
VERTEX
  5
2DD
  8
1
  6
CONTINUOUS
 62
     7
 10
-154.4184106046926
 20
83.54458315159205
 30
0.0
  0
VERTEX
  5
2DE
  8
1
  6
CONTINUOUS
 62
     7
 10
-153.8078225811387
 20
83.55811008752062
 30
0.0
  0
VERTEX
  5
2DF
  8
1
  6
CONTINUOUS
 62
     7
 10
-153.1977863218464
 20
83.5716370234492
 30
0.0
  0
VERTEX
  5
2E0
  8
1
  6
CONTINUOUS
 62
     7
 10
-152.5889031260335
 20
83.58516395937778
 30
0.0
  0
VERTEX
  5
2E1
  8
1
  6
CONTINUOUS
 62
     7
 10
-151.9817678234278
 20
83.59869089530638
 30
0.0
  0
VERTEX
  5
2E2
  8
1
  6
CONTINUOUS
 62
     7
 10
-151.3769743838118
 20
83.61221783123496
 30
0.0
  0
VERTEX
  5
2E3
  8
1
  6
CONTINUOUS
 62
     7
 10
-150.7751167769679
 20
83.62574476716352
 30
0.0
  0
VERTEX
  5
2E4
  8
1
  6
CONTINUOUS
 62
     7
 10
-150.1767889726787
 20
83.6392717030921
 30
0.0
  0
VERTEX
  5
2E5
  8
1
  6
CONTINUOUS
 62
     7
 10
-149.5825849407266
 20
83.65279863902069
 30
0.0
  0
VERTEX
  5
2E6
  8
1
  6
CONTINUOUS
 62
     7
 10
-148.993098650894
 20
83.66632557494928
 30
0.0
  0
VERTEX
  5
2E7
  8
1
  6
CONTINUOUS
 62
     7
 10
-148.4089240729635
 20
83.67985251087786
 30
0.0
  0
VERTEX
  5
2E8
  8
1
  6
CONTINUOUS
 62
     7
 10
-147.8306551767175
 20
83.69337944680645
 30
0.0
  0
VERTEX
  5
2E9
  8
1
  6
CONTINUOUS
 62
     7
 10
-147.2588859298465
 20
83.70690638273504
 30
0.0
  0
VERTEX
  5
2EA
  8
1
  6
CONTINUOUS
 62
     7
 10
-146.6941964799547
 20
83.72043331866362
 30
0.0
  0
VERTEX
  5
2EB
  8
1
  6
CONTINUOUS
 62
     7
 10
-146.1371202568257
 20
83.7339602545922
 30
0.0
  0
VERTEX
  5
2EC
  8
1
  6
CONTINUOUS
 62
     7
 10
-145.5881808283989
 20
83.74748719052079
 30
0.0
  0
VERTEX
  5
2ED
  8
1
  6
CONTINUOUS
 62
     7
 10
-145.0479017626139
 20
83.76101412644937
 30
0.0
  0
VERTEX
  5
2EE
  8
1
  6
CONTINUOUS
 62
     7
 10
-144.5168066274101
 20
83.77454106237793
 30
0.0
  0
VERTEX
  5
2EF
  8
1
  6
CONTINUOUS
 62
     7
 10
-143.9954189907271
 20
83.78806799830653
 30
0.0
  0
VERTEX
  5
2F0
  8
1
  6
CONTINUOUS
 62
     7
 10
-143.4842624205044
 20
83.80159493423511
 30
0.0
  0
VERTEX
  5
2F1
  8
1
  6
CONTINUOUS
 62
     7
 10
-142.9838604846814
 20
83.8151218701637
 30
0.0
  0
VERTEX
  5
2F2
  8
1
  6
CONTINUOUS
 62
     7
 10
-142.4947367511976
 20
83.82864880609227
 30
0.0
  0
VERTEX
  5
2F3
  8
1
  6
CONTINUOUS
 62
     7
 10
-142.0174147879925
 20
83.84217574202086
 30
0.0
  0
VERTEX
  5
2F4
  8
1
  6
CONTINUOUS
 62
     7
 10
-141.5524028165368
 20
83.85570267794944
 30
0.0
  0
VERTEX
  5
2F5
  8
1
  6
CONTINUOUS
 62
     7
 10
-141.100127815381
 20
83.86922961387802
 30
0.0
  0
VERTEX
  5
2F6
  8
1
  6
CONTINUOUS
 62
     7
 10
-140.6609899795866
 20
83.88275654980661
 30
0.0
  0
VERTEX
  5
2F7
  8
1
  6
CONTINUOUS
 62
     7
 10
-140.2353894876953
 20
83.8962834857352
 30
0.0
  0
VERTEX
  5
2F8
  8
1
  6
CONTINUOUS
 62
     7
 10
-139.8237265182492
 20
83.90981042166378
 30
0.0
  0
VERTEX
  5
2F9
  8
1
  6
CONTINUOUS
 62
     7
 10
-139.4264012497904
 20
83.92333735759237
 30
0.0
  0
VERTEX
  5
2FA
  8
1
  6
CONTINUOUS
 62
     7
 10
-139.0438138608608
 20
83.93686429352096
 30
0.0
  0
VERTEX
  5
2FB
  8
1
  6
CONTINUOUS
 62
     7
 10
-138.6763645300022
 20
83.95039122944954
 30
0.0
  0
VERTEX
  5
2FC
  8
1
  6
CONTINUOUS
 62
     7
 10
-138.324453435757
 20
83.96391816537813
 30
0.0
  0
VERTEX
  5
2FD
  8
1
  6
CONTINUOUS
 62
     7
 10
-137.9884807566668
 20
83.9774451013067
 30
0.0
  0
VERTEX
  5
2FE
  8
1
  6
CONTINUOUS
 62
     7
 10
-137.6688347844902
 20
83.9909720372353
 30
0.0
  0
VERTEX
  5
2FF
  8
1
  6
CONTINUOUS
 62
     7
 10
-137.3658030010048
 20
84.00449897316386
 30
0.0
  0
VERTEX
  5
300
  8
1
  6
CONTINUOUS
 62
     7
 10
-137.0796220834438
 20
84.01802590909246
 30
0.0
  0
VERTEX
  5
301
  8
1
  6
CONTINUOUS
 62
     7
 10
-136.8105283209624
 20
84.03155284502104
 30
0.0
  0
VERTEX
  5
302
  8
1
  6
CONTINUOUS
 62
     7
 10
-136.558758002716
 20
84.0450797809496
 30
0.0
  0
VERTEX
  5
303
  8
1
  6
CONTINUOUS
 62
     7
 10
-136.32454741786
 20
84.0586067168782
 30
0.0
  0
VERTEX
  5
304
  8
1
  6
CONTINUOUS
 62
     7
 10
-136.1081328555495
 20
84.07213365280678
 30
0.0
  0
VERTEX
  5
305
  8
1
  6
CONTINUOUS
 62
     7
 10
-135.9097506049399
 20
84.08566058873537
 30
0.0
  0
VERTEX
  5
306
  8
1
  6
CONTINUOUS
 62
     7
 10
-135.7296369551865
 20
84.09918752466396
 30
0.0
  0
VERTEX
  5
307
  8
1
  6
CONTINUOUS
 62
     7
 10
-135.5680281954446
 20
84.11271446059251
 30
0.0
  0
VERTEX
  5
308
  8
1
  6
CONTINUOUS
 62
     7
 10
-135.42515356047
 20
84.12624139652111
 30
0.0
  0
VERTEX
  5
309
  8
1
  6
CONTINUOUS
 62
     7
 10
-135.3011402271924
 20
84.13976833244969
 30
0.0
  0
VERTEX
  5
30A
  8
1
  6
CONTINUOUS
 62
     7
 10
-135.1960385591557
 20
84.15329526837827
 30
0.0
  0
VERTEX
  5
30B
  8
1
  6
CONTINUOUS
 62
     7
 10
-135.1098970425375
 20
84.16682220430687
 30
0.0
  0
VERTEX
  5
30C
  8
1
  6
CONTINUOUS
 62
     7
 10
-135.0427641635154
 20
84.18034914023545
 30
0.0
  0
VERTEX
  5
30D
  8
1
  6
CONTINUOUS
 62
     7
 10
-134.9946884082672
 20
84.19387607616402
 30
0.0
  0
VERTEX
  5
30E
  8
1
  6
CONTINUOUS
 62
     7
 10
-134.9657182629704
 20
84.2074030120926
 30
0.0
  0
VERTEX
  5
30F
  8
1
  6
CONTINUOUS
 62
     7
 10
-134.9559022138028
 20
84.2209299480212
 30
0.0
  0
SEQEND
  5
690
  8
1
  6
CONTINUOUS
 62
     7
  0
LINE
  5
107
  8
1
  6
CONTINUOUS
 62
     7
 10
-136.3555985226287
 20
91.80177174324238
 30
0.0
 11
-172.3555985226287
 21
91.80177174324238
 31
0.0
  0
POLYLINE
  5
108
  8
1
  6
CONTINUOUS
 62
     7
 66
     1
 10
0.0
 20
0.0
 30
0.0
  0
VERTEX
  5
310
  8
1
  6
CONTINUOUS
 62
     7
 10
-173.6102017299121
 20
88.32353458598075
 30
0.0
  0
VERTEX
  5
311
  8
1
  6
CONTINUOUS
 62
     7
 10
-173.5334892060198
 20
88.3360117210499
 30
0.0
  0
VERTEX
  5
312
  8
1
  6
CONTINUOUS
 62
     7
 10
-173.4406371949964
 20
88.34848885611905
 30
0.0
  0
VERTEX
  5
313
  8
1
  6
CONTINUOUS
 62
     7
 10
-173.3316837476522
 20
88.36096599118818
 30
0.0
  0
VERTEX
  5
314
  8
1
  6
CONTINUOUS
 62
     7
 10
-173.2066669147973
 20
88.37344312625734
 30
0.0
  0
VERTEX
  5
315
  8
1
  6
CONTINUOUS
 62
     7
 10
-173.0656464828427
 20
88.3859202613265
 30
0.0
  0
VERTEX
  5
316
  8
1
  6
CONTINUOUS
 62
     7
 10
-172.9087802632647
 20
88.39839739639564
 30
0.0
  0
VERTEX
  5
317
  8
1
  6
CONTINUOUS
 62
     7
 10
-172.7362536887884
 20
88.41087453146478
 30
0.0
  0
VERTEX
  5
318
  8
1
  6
CONTINUOUS
 62
     7
 10
-172.5482521937057
 20
88.42335166653392
 30
0.0
  0
VERTEX
  5
319
  8
1
  6
CONTINUOUS
 62
     7
 10
-172.3449612123085
 20
88.43582880160308
 30
0.0
  0
VERTEX
  5
31A
  8
1
  6
CONTINUOUS
 62
     7
 10
-172.1265661788887
 20
88.44830593667221
 30
0.0
  0
VERTEX
  5
31B
  8
1
  6
CONTINUOUS
 62
     7
 10
-171.893252527738
 20
88.46078307174137
 30
0.0
  0
VERTEX
  5
31C
  8
1
  6
CONTINUOUS
 62
     7
 10
-171.6452056931485
 20
88.47326020681051
 30
0.0
  0
VERTEX
  5
31D
  8
1
  6
CONTINUOUS
 62
     7
 10
-171.382611109412
 20
88.48573734187966
 30
0.0
  0
VERTEX
  5
31E
  8
1
  6
CONTINUOUS
 62
     7
 10
-171.1056542108204
 20
88.4982144769488
 30
0.0
  0
VERTEX
  5
31F
  8
1
  6
CONTINUOUS
 62
     7
 10
-170.8145204316655
 20
88.51069161201795
 30
0.0
  0
VERTEX
  5
320
  8
1
  6
CONTINUOUS
 62
     7
 10
-170.5094139864406
 20
88.5231687470871
 30
0.0
  0
VERTEX
  5
321
  8
1
  6
CONTINUOUS
 62
     7
 10
-170.190624599941
 20
88.53564588215623
 30
0.0
  0
VERTEX
  5
322
  8
1
  6
CONTINUOUS
 62
     7
 10
-169.858466321384
 20
88.5481230172254
 30
0.0
  0
VERTEX
  5
323
  8
1
  6
CONTINUOUS
 62
     7
 10
-169.5132532017073
 20
88.56060015229454
 30
0.0
  0
VERTEX
  5
324
  8
1
  6
CONTINUOUS
 62
     7
 10
-169.1552992918484
 20
88.57307728736369
 30
0.0
  0
VERTEX
  5
325
  8
1
  6
CONTINUOUS
 62
     7
 10
-168.7849186427449
 20
88.58555442243284
 30
0.0
  0
VERTEX
  5
326
  8
1
  6
CONTINUOUS
 62
     7
 10
-168.4024253053345
 20
88.59803155750198
 30
0.0
  0
VERTEX
  5
327
  8
1
  6
CONTINUOUS
 62
     7
 10
-168.0081333305546
 20
88.61050869257113
 30
0.0
  0
VERTEX
  5
328
  8
1
  6
CONTINUOUS
 62
     7
 10
-167.6023567693429
 20
88.62298582764028
 30
0.0
  0
VERTEX
  5
329
  8
1
  6
CONTINUOUS
 62
     7
 10
-167.185409672637
 20
88.63546296270943
 30
0.0
  0
VERTEX
  5
32A
  8
1
  6
CONTINUOUS
 62
     7
 10
-166.7576060913745
 20
88.64794009777859
 30
0.0
  0
VERTEX
  5
32B
  8
1
  6
CONTINUOUS
 62
     7
 10
-166.3192740753679
 20
88.6604172328477
 30
0.0
  0
VERTEX
  5
32C
  8
1
  6
CONTINUOUS
 62
     7
 10
-165.8708060270145
 20
88.67289436791685
 30
0.0
  0
VERTEX
  5
32D
  8
1
  6
CONTINUOUS
 62
     7
 10
-165.4126128288326
 20
88.68537150298602
 30
0.0
  0
VERTEX
  5
32E
  8
1
  6
CONTINUOUS
 62
     7
 10
-164.9451053649432
 20
88.69784863805516
 30
0.0
  0
VERTEX
  5
32F
  8
1
  6
CONTINUOUS
 62
     7
 10
-164.4686945194675
 20
88.71032577312431
 30
0.0
  0
VERTEX
  5
330
  8
1
  6
CONTINUOUS
 62
     7
 10
-163.9837911765266
 20
88.72280290819347
 30
0.0
  0
VERTEX
  5
331
  8
1
  6
CONTINUOUS
 62
     7
 10
-163.4908062202416
 20
88.73528004326259
 30
0.0
  0
VERTEX
  5
332
  8
1
  6
CONTINUOUS
 62
     7
 10
-162.9901505347336
 20
88.74775717833172
 30
0.0
  0
VERTEX
  5
333
  8
1
  6
CONTINUOUS
 62
     7
 10
-162.4822350041238
 20
88.76023431340089
 30
0.0
  0
VERTEX
  5
334
  8
1
  6
CONTINUOUS
 62
     7
 10
-161.9674705125333
 20
88.77271144847002
 30
0.0
  0
VERTEX
  5
335
  8
1
  6
CONTINUOUS
 62
     7
 10
-161.4462679440832
 20
88.78518858353917
 30
0.0
  0
VERTEX
  5
336
  8
1
  6
CONTINUOUS
 62
     7
 10
-160.9190460906051
 20
88.79766571860833
 30
0.0
  0
VERTEX
  5
337
  8
1
  6
CONTINUOUS
 62
     7
 10
-160.3862604451401
 20
88.81014285367746
 30
0.0
  0
VERTEX
  5
338
  8
1
  6
CONTINUOUS
 62
     7
 10
-159.8483771404582
 20
88.82261998874662
 30
0.0
  0
VERTEX
  5
339
  8
1
  6
CONTINUOUS
 62
     7
 10
-159.305862310445
 20
88.83509712381576
 30
0.0
  0
VERTEX
  5
33A
  8
1
  6
CONTINUOUS
 62
     7
 10
-158.7591820889867
 20
88.8475742588849
 30
0.0
  0
VERTEX
  5
33B
  8
1
  6
CONTINUOUS
 62
     7
 10
-158.2088026099691
 20
88.86005139395405
 30
0.0
  0
VERTEX
  5
33C
  8
1
  6
CONTINUOUS
 62
     7
 10
-157.655190007278
 20
88.8725285290232
 30
0.0
  0
VERTEX
  5
33D
  8
1
  6
CONTINUOUS
 62
     7
 10
-157.0988104147995
 20
88.88500566409236
 30
0.0
  0
VERTEX
  5
33E
  8
1
  6
CONTINUOUS
 62
     7
 10
-156.5401299664192
 20
88.8974827991615
 30
0.0
  0
VERTEX
  5
33F
  8
1
  6
CONTINUOUS
 62
     7
 10
-155.9796147960232
 20
88.90995993423066
 30
0.0
  0
VERTEX
  5
340
  8
1
  6
CONTINUOUS
 62
     7
 10
-155.4177310374974
 20
88.92243706929979
 30
0.0
  0
VERTEX
  5
341
  8
1
  6
CONTINUOUS
 62
     7
 10
-154.854945968881
 20
88.93491420436894
 30
0.0
  0
VERTEX
  5
342
  8
1
  6
CONTINUOUS
 62
     7
 10
-154.2917322295473
 20
88.9473913394381
 30
0.0
  0
VERTEX
  5
343
  8
1
  6
CONTINUOUS
 62
     7
 10
-153.728564027898
 20
88.95986847450723
 30
0.0
  0
VERTEX
  5
344
  8
1
  6
CONTINUOUS
 62
     7
 10
-153.1659155725318
 20
88.97234560957637
 30
0.0
  0
VERTEX
  5
345
  8
1
  6
CONTINUOUS
 62
     7
 10
-152.6042610720471
 20
88.98482274464551
 30
0.0
  0
VERTEX
  5
346
  8
1
  6
CONTINUOUS
 62
     7
 10
-152.0440747350425
 20
88.99729987971466
 30
0.0
  0
VERTEX
  5
347
  8
1
  6
CONTINUOUS
 62
     7
 10
-151.4858307701164
 20
89.00977701478382
 30
0.0
  0
VERTEX
  5
348
  8
1
  6
CONTINUOUS
 62
     7
 10
-150.9300033858672
 20
89.02225414985296
 30
0.0
  0
VERTEX
  5
349
  8
1
  6
CONTINUOUS
 62
     7
 10
-150.3770667908935
 20
89.03473128492209
 30
0.0
  0
VERTEX
  5
34A
  8
1
  6
CONTINUOUS
 62
     7
 10
-149.8274951937939
 20
89.04720841999122
 30
0.0
  0
VERTEX
  5
34B
  8
1
  6
CONTINUOUS
 62
     7
 10
-149.2817628031667
 20
89.05968555506038
 30
0.0
  0
VERTEX
  5
34C
  8
1
  6
CONTINUOUS
 62
     7
 10
-148.7403382282384
 20
89.07216269012955
 30
0.0
  0
VERTEX
  5
34D
  8
1
  6
CONTINUOUS
 62
     7
 10
-148.2036635877823
 20
89.08463982519869
 30
0.0
  0
VERTEX
  5
34E
  8
1
  6
CONTINUOUS
 62
     7
 10
-147.6721731743611
 20
89.09711696026783
 30
0.0
  0
VERTEX
  5
34F
  8
1
  6
CONTINUOUS
 62
     7
 10
-147.1463012793789
 20
89.10959409533697
 30
0.0
  0
VERTEX
  5
350
  8
1
  6
CONTINUOUS
 62
     7
 10
-146.6264821942397
 20
89.12207123040612
 30
0.0
  0
VERTEX
  5
351
  8
1
  6
CONTINUOUS
 62
     7
 10
-146.1131502103476
 20
89.13454836547527
 30
0.0
  0
VERTEX
  5
352
  8
1
  6
CONTINUOUS
 62
     7
 10
-145.6067396191067
 20
89.14702550054444
 30
0.0
  0
VERTEX
  5
353
  8
1
  6
CONTINUOUS
 62
     7
 10
-145.1076847119207
 20
89.15950263561356
 30
0.0
  0
VERTEX
  5
354
  8
1
  6
CONTINUOUS
 62
     7
 10
-144.6164197801939
 20
89.17197977068273
 30
0.0
  0
VERTEX
  5
355
  8
1
  6
CONTINUOUS
 62
     7
 10
-144.1333791153303
 20
89.18445690575187
 30
0.0
  0
VERTEX
  5
356
  8
1
  6
CONTINUOUS
 62
     7
 10
-143.6589970087339
 20
89.19693404082102
 30
0.0
  0
VERTEX
  5
357
  8
1
  6
CONTINUOUS
 62
     7
 10
-143.1936961052866
 20
89.20941117589015
 30
0.0
  0
VERTEX
  5
358
  8
1
  6
CONTINUOUS
 62
     7
 10
-142.7378434197192
 20
89.2218883109593
 30
0.0
  0
VERTEX
  5
359
  8
1
  6
CONTINUOUS
 62
     7
 10
-142.2917893757552
 20
89.23436544602843
 30
0.0
  0
VERTEX
  5
35A
  8
1
  6
CONTINUOUS
 62
     7
 10
-141.8558843942442
 20
89.2468425810976
 30
0.0
  0
VERTEX
  5
35B
  8
1
  6
CONTINUOUS
 62
     7
 10
-141.4304788960355
 20
89.25931971616674
 30
0.0
  0
VERTEX
  5
35C
  8
1
  6
CONTINUOUS
 62
     7
 10
-141.0159233019785
 20
89.27179685123589
 30
0.0
  0
VERTEX
  5
35D
  8
1
  6
CONTINUOUS
 62
     7
 10
-140.6125680329229
 20
89.28427398630502
 30
0.0
  0
VERTEX
  5
35E
  8
1
  6
CONTINUOUS
 62
     7
 10
-140.2207635097179
 20
89.29675112137417
 30
0.0
  0
VERTEX
  5
35F
  8
1
  6
CONTINUOUS
 62
     7
 10
-139.8408601532132
 20
89.3092282564433
 30
0.0
  0
VERTEX
  5
360
  8
1
  6
CONTINUOUS
 62
     7
 10
-139.473208384258
 20
89.32170539151245
 30
0.0
  0
VERTEX
  5
361
  8
1
  6
CONTINUOUS
 62
     7
 10
-139.118158623702
 20
89.3341825265816
 30
0.0
  0
VERTEX
  5
362
  8
1
  6
CONTINUOUS
 62
     7
 10
-138.7760448890166
 20
89.34665966165076
 30
0.0
  0
VERTEX
  5
363
  8
1
  6
CONTINUOUS
 62
     7
 10
-138.447122090859
 20
89.3591367967199
 30
0.0
  0
VERTEX
  5
364
  8
1
  6
CONTINUOUS
 62
     7
 10
-138.1316213236679
 20
89.37161393178906
 30
0.0
  0
VERTEX
  5
365
  8
1
  6
CONTINUOUS
 62
     7
 10
-137.8297736770957
 20
89.38409106685819
 30
0.0
  0
VERTEX
  5
366
  8
1
  6
CONTINUOUS
 62
     7
 10
-137.5418102407951
 20
89.39656820192735
 30
0.0
  0
VERTEX
  5
367
  8
1
  6
CONTINUOUS
 62
     7
 10
-137.2679621044186
 20
89.40904533699648
 30
0.0
  0
VERTEX
  5
368
  8
1
  6
CONTINUOUS
 62
     7
 10
-137.008460357619
 20
89.42152247206562
 30
0.0
  0
VERTEX
  5
369
  8
1
  6
CONTINUOUS
 62
     7
 10
-136.7635360900487
 20
89.43399960713478
 30
0.0
  0
VERTEX
  5
36A
  8
1
  6
CONTINUOUS
 62
     7
 10
-136.5334203913604
 20
89.44647674220393
 30
0.0
  0
VERTEX
  5
36B
  8
1
  6
CONTINUOUS
 62
     7
 10
-136.3183443512066
 20
89.45895387727307
 30
0.0
  0
VERTEX
  5
36C
  8
1
  6
CONTINUOUS
 62
     7
 10
-136.1185390592399
 20
89.47143101234224
 30
0.0
  0
VERTEX
  5
36D
  8
1
  6
CONTINUOUS
 62
     7
 10
-135.9342161838308
 20
89.48390814741137
 30
0.0
  0
VERTEX
  5
36E
  8
1
  6
CONTINUOUS
 62
     7
 10
-135.7654928288898
 20
89.49638528248049
 30
0.0
  0
VERTEX
  5
36F
  8
1
  6
CONTINUOUS
 62
     7
 10
-135.6124573588291
 20
89.50886241754968
 30
0.0
  0
VERTEX
  5
370
  8
1
  6
CONTINUOUS
 62
     7
 10
-135.4751981314129
 20
89.52133955261881
 30
0.0
  0
VERTEX
  5
371
  8
1
  6
CONTINUOUS
 62
     7
 10
-135.3538035044058
 20
89.53381668768795
 30
0.0
  0
VERTEX
  5
372
  8
1
  6
CONTINUOUS
 62
     7
 10
-135.2483618355724
 20
89.5462938227571
 30
0.0
  0
VERTEX
  5
373
  8
1
  6
CONTINUOUS
 62
     7
 10
-135.1589614826773
 20
89.55877095782624
 30
0.0
  0
VERTEX
  5
374
  8
1
  6
CONTINUOUS
 62
     7
 10
-135.0856908034847
 20
89.57124809289537
 30
0.0
  0
VERTEX
  5
375
  8
1
  6
CONTINUOUS
 62
     7
 10
-135.0286381557595
 20
89.58372522796455
 30
0.0
  0
VERTEX
  5
376
  8
1
  6
CONTINUOUS
 62
     7
 10
-134.9878918972659
 20
89.59620236303368
 30
0.0
  0
VERTEX
  5
377
  8
1
  6
CONTINUOUS
 62
     7
 10
-134.9635403857685
 20
89.60867949810283
 30
0.0
  0
VERTEX
  5
378
  8
1
  6
CONTINUOUS
 62
     7
 10
-134.9556515574704
 20
89.62115663317196
 30
0.0
  0
SEQEND
  5
691
  8
1
  6
CONTINUOUS
 62
     7
  0
LINE
  5
109
  8
1
  6
CONTINUOUS
 62
     7
 10
-135.1032928751495
 20
88.57957691569496
 30
0.0
 11
-134.9556515570513
 21
88.63274901002299
 31
0.0
  0
LINE
  5
10A
  8
1
  6
CONTINUOUS
 62
     7
 10
-147.2908826445078
 20
82.8017717432424
 30
0.0
 11
-143.9149462634704
 21
82.80177174324238
 31
0.0
  0
LINE
  5
10B
  8
1
  6
CONTINUOUS
 62
     7
 10
-137.9810172194528
 20
82.80177174324238
 30
0.0
 11
-136.5183341546727
 21
82.92795276983827
 31
0.0
  0
LINE
  5
10C
  8
1
  6
CONTINUOUS
 62
     7
 10
-143.9116649887554
 20
82.80177174324238
 30
0.0
 11
-147.2908826445078
 21
82.80177174324238
 31
0.0
  0
POLYLINE
  5
10D
  8
1
  6
CONTINUOUS
 62
     7
 66
     1
 10
0.0
 20
0.0
 30
0.0
  0
VERTEX
  5
379
  8
1
  6
CONTINUOUS
 62
     7
 10
-173.7550884500441
 20
84.58262604098248
 30
0.0
  0
VERTEX
  5
37A
  8
1
  6
CONTINUOUS
 62
     7
 10
-173.7469272474139
 20
84.59510379251925
 30
0.0
  0
VERTEX
  5
37B
  8
1
  6
CONTINUOUS
 62
     7
 10
-173.7224607376675
 20
84.60758154405603
 30
0.0
  0
VERTEX
  5
37C
  8
1
  6
CONTINUOUS
 62
     7
 10
-173.6816762233348
 20
84.6200592955928
 30
0.0
  0
VERTEX
  5
37D
  8
1
  6
CONTINUOUS
 62
     7
 10
-173.624561006946
 20
84.63253704712956
 30
0.0
  0
VERTEX
  5
37E
  8
1
  6
CONTINUOUS
 62
     7
 10
-173.5511042511475
 20
84.64501479866634
 30
0.0
  0
VERTEX
  5
37F
  8
1
  6
CONTINUOUS
 62
     7
 10
-173.4613594845892
 20
84.6574925502031
 30
0.0
  0
VERTEX
  5
380
  8
1
  6
CONTINUOUS
 62
     7
 10
-173.3554595228702
 20
84.6699703017399
 30
0.0
  0
VERTEX
  5
381
  8
1
  6
CONTINUOUS
 62
     7
 10
-173.2335420666168
 20
84.68244805327664
 30
0.0
  0
VERTEX
  5
382
  8
1
  6
CONTINUOUS
 62
     7
 10
-173.0957448164557
 20
84.69492580481342
 30
0.0
  0
VERTEX
  5
383
  8
1
  6
CONTINUOUS
 62
     7
 10
-172.9422054730133
 20
84.70740355635019
 30
0.0
  0
VERTEX
  5
384
  8
1
  6
CONTINUOUS
 62
     7
 10
-172.7730617369161
 20
84.719881307887
 30
0.0
  0
VERTEX
  5
385
  8
1
  6
CONTINUOUS
 62
     7
 10
-172.5884513087906
 20
84.73235905942374
 30
0.0
  0
VERTEX
  5
386
  8
1
  6
CONTINUOUS
 62
     7
 10
-172.3885118892634
 20
84.74483681096052
 30
0.0
  0
VERTEX
  5
387
  8
1
  6
CONTINUOUS
 62
     7
 10
-172.1733811789608
 20
84.75731456249729
 30
0.0
  0
VERTEX
  5
388
  8
1
  6
CONTINUOUS
 62
     7
 10
-171.9431968785096
 20
84.76979231403405
 30
0.0
  0
VERTEX
  5
389
  8
1
  6
CONTINUOUS
 62
     7
 10
-171.698098344753
 20
84.78227006557083
 30
0.0
  0
VERTEX
  5
38A
  8
1
  6
CONTINUOUS
 62
     7
 10
-171.4382831006568
 20
84.7947478171076
 30
0.0
  0
VERTEX
  5
38B
  8
1
  6
CONTINUOUS
 62
     7
 10
-171.1640208159135
 20
84.80722556864438
 30
0.0
  0
VERTEX
  5
38C
  8
1
  6
CONTINUOUS
 62
     7
 10
-170.8755856532842
 20
84.81970332018115
 30
0.0
  0
VERTEX
  5
38D
  8
1
  6
CONTINUOUS
 62
     7
 10
-170.5732517755301
 20
84.83218107171793
 30
0.0
  0
VERTEX
  5
38E
  8
1
  6
CONTINUOUS
 62
     7
 10
-170.2572933454121
 20
84.8446588232547
 30
0.0
  0
VERTEX
  5
38F
  8
1
  6
CONTINUOUS
 62
     7
 10
-169.9279845256914
 20
84.85713657479145
 30
0.0
  0
VERTEX
  5
390
  8
1
  6
CONTINUOUS
 62
     7
 10
-169.585599479129
 20
84.86961432632823
 30
0.0
  0
VERTEX
  5
391
  8
1
  6
CONTINUOUS
 62
     7
 10
-169.2304123684862
 20
84.88209207786501
 30
0.0
  0
VERTEX
  5
392
  8
1
  6
CONTINUOUS
 62
     7
 10
-168.8626973565237
 20
84.89456982940177
 30
0.0
  0
VERTEX
  5
393
  8
1
  6
CONTINUOUS
 62
     7
 10
-168.482728606003
 20
84.90704758093855
 30
0.0
  0
VERTEX
  5
394
  8
1
  6
CONTINUOUS
 62
     7
 10
-168.090781574334
 20
84.91952533247532
 30
0.0
  0
VERTEX
  5
395
  8
1
  6
CONTINUOUS
 62
     7
 10
-167.6871778702813
 20
84.9320030840121
 30
0.0
  0
VERTEX
  5
396
  8
1
  6
CONTINUOUS
 62
     7
 10
-167.2722967438668
 20
84.94448083554887
 30
0.0
  0
VERTEX
  5
397
  8
1
  6
CONTINUOUS
 62
     7
 10
-166.8465210734034
 20
84.95695858708567
 30
0.0
  0
VERTEX
  5
398
  8
1
  6
CONTINUOUS
 62
     7
 10
-166.4102337372041
 20
84.96943633862242
 30
0.0
  0
VERTEX
  5
399
  8
1
  6
CONTINUOUS
 62
     7
 10
-165.9638176135816
 20
84.9819140901592
 30
0.0
  0
VERTEX
  5
39A
  8
1
  6
CONTINUOUS
 62
     7
 10
-165.507655580849
 20
84.99439184169597
 30
0.0
  0
VERTEX
  5
39B
  8
1
  6
CONTINUOUS
 62
     7
 10
-165.0421305173192
 20
85.00686959323275
 30
0.0
  0
VERTEX
  5
39C
  8
1
  6
CONTINUOUS
 62
     7
 10
-164.5676253013049
 20
85.0193473447695
 30
0.0
  0
VERTEX
  5
39D
  8
1
  6
CONTINUOUS
 62
     7
 10
-164.0845228111193
 20
85.03182509630629
 30
0.0
  0
VERTEX
  5
39E
  8
1
  6
CONTINUOUS
 62
     7
 10
-163.593205925075
 20
85.04430284784306
 30
0.0
  0
VERTEX
  5
39F
  8
1
  6
CONTINUOUS
 62
     7
 10
-163.0940583389197
 20
85.05678059937985
 30
0.0
  0
VERTEX
  5
3A0
  8
1
  6
CONTINUOUS
 62
     7
 10
-162.5874933290972
 20
85.0692583509166
 30
0.0
  0
VERTEX
  5
3A1
  8
1
  6
CONTINUOUS
 62
     7
 10
-162.0739613736008
 20
85.08173610245336
 30
0.0
  0
VERTEX
  5
3A2
  8
1
  6
CONTINUOUS
 62
     7
 10
-161.5539153171784
 20
85.09421385399013
 30
0.0
  0
VERTEX
  5
3A3
  8
1
  6
CONTINUOUS
 62
     7
 10
-161.0278080045782
 20
85.10669160552692
 30
0.0
  0
VERTEX
  5
3A4
  8
1
  6
CONTINUOUS
 62
     7
 10
-160.4960922805484
 20
85.11916935706368
 30
0.0
  0
VERTEX
  5
3A5
  8
1
  6
CONTINUOUS
 62
     7
 10
-159.959220989837
 20
85.13164710860045
 30
0.0
  0
VERTEX
  5
3A6
  8
1
  6
CONTINUOUS
 62
     7
 10
-159.4176469771923
 20
85.14412486013723
 30
0.0
  0
VERTEX
  5
3A7
  8
1
  6
CONTINUOUS
 62
     7
 10
-158.8718230873623
 20
85.156602611674
 30
0.0
  0
VERTEX
  5
3A8
  8
1
  6
CONTINUOUS
 62
     7
 10
-158.3222021650952
 20
85.16908036321077
 30
0.0
  0
VERTEX
  5
3A9
  8
1
  6
CONTINUOUS
 62
     7
 10
-157.769237055139
 20
85.18155811474755
 30
0.0
  0
VERTEX
  5
3AA
  8
1
  6
CONTINUOUS
 62
     7
 10
-157.2133808788629
 20
85.19403586628432
 30
0.0
  0
VERTEX
  5
3AB
  8
1
  6
CONTINUOUS
 62
     7
 10
-156.655096920303
 20
85.20651361782109
 30
0.0
  0
VERTEX
  5
3AC
  8
1
  6
CONTINUOUS
 62
     7
 10
-156.0948613330982
 20
85.21899136935787
 30
0.0
  0
VERTEX
  5
3AD
  8
1
  6
CONTINUOUS
 62
     7
 10
-155.5331510983774
 20
85.23146912089462
 30
0.0
  0
VERTEX
  5
3AE
  8
1
  6
CONTINUOUS
 62
     7
 10
-154.9704431972696
 20
85.24394687243141
 30
0.0
  0
VERTEX
  5
3AF
  8
1
  6
CONTINUOUS
 62
     7
 10
-154.4072146109035
 20
85.25642462396819
 30
0.0
  0
VERTEX
  5
3B0
  8
1
  6
CONTINUOUS
 62
     7
 10
-153.843942320408
 20
85.26890237550495
 30
0.0
  0
VERTEX
  5
3B1
  8
1
  6
CONTINUOUS
 62
     7
 10
-153.2811033069119
 20
85.28138012704173
 30
0.0
  0
VERTEX
  5
3B2
  8
1
  6
CONTINUOUS
 62
     7
 10
-152.7191745515442
 20
85.29385787857849
 30
0.0
  0
VERTEX
  5
3B3
  8
1
  6
CONTINUOUS
 62
     7
 10
-152.1586330354336
 20
85.30633563011526
 30
0.0
  0
VERTEX
  5
3B4
  8
1
  6
CONTINUOUS
 62
     7
 10
-151.599955739709
 20
85.31881338165203
 30
0.0
  0
VERTEX
  5
3B5
  8
1
  6
CONTINUOUS
 62
     7
 10
-151.0436193741798
 20
85.3312911331888
 30
0.0
  0
VERTEX
  5
3B6
  8
1
  6
CONTINUOUS
 62
     7
 10
-150.4900905278333
 20
85.34376888472556
 30
0.0
  0
VERTEX
  5
3B7
  8
1
  6
CONTINUOUS
 62
     7
 10
-149.939822884025
 20
85.35624663626236
 30
0.0
  0
VERTEX
  5
3B8
  8
1
  6
CONTINUOUS
 62
     7
 10
-149.3932692874925
 20
85.36872438779912
 30
0.0
  0
VERTEX
  5
3B9
  8
1
  6
CONTINUOUS
 62
     7
 10
-148.8508825829738
 20
85.3812021393359
 30
0.0
  0
VERTEX
  5
3BA
  8
1
  6
CONTINUOUS
 62
     7
 10
-148.313115615207
 20
85.39367989087268
 30
0.0
  0
VERTEX
  5
3BB
  8
1
  6
CONTINUOUS
 62
     7
 10
-147.7804212289298
 20
85.40615764240944
 30
0.0
  0
VERTEX
  5
3BC
  8
1
  6
CONTINUOUS
 62
     7
 10
-147.2532522688803
 20
85.41863539394622
 30
0.0
  0
VERTEX
  5
3BD
  8
1
  6
CONTINUOUS
 62
     7
 10
-146.7320615797962
 20
85.43111314548298
 30
0.0
  0
VERTEX
  5
3BE
  8
1
  6
CONTINUOUS
 62
     7
 10
-146.2173020064156
 20
85.44359089701976
 30
0.0
  0
VERTEX
  5
3BF
  8
1
  6
CONTINUOUS
 62
     7
 10
-145.7094263934762
 20
85.45606864855654
 30
0.0
  0
VERTEX
  5
3C0
  8
1
  6
CONTINUOUS
 62
     7
 10
-145.208886814387
 20
85.4685464000933
 30
0.0
  0
VERTEX
  5
3C1
  8
1
  6
CONTINUOUS
 62
     7
 10
-144.7161061257909
 20
85.48102415163008
 30
0.0
  0
VERTEX
  5
3C2
  8
1
  6
CONTINUOUS
 62
     7
 10
-144.2314696695044
 20
85.49350190316686
 30
0.0
  0
VERTEX
  5
3C3
  8
1
  6
CONTINUOUS
 62
     7
 10
-143.7553603238211
 20
85.50597965470362
 30
0.0
  0
VERTEX
  5
3C4
  8
1
  6
CONTINUOUS
 62
     7
 10
-143.2881609670345
 20
85.51845740624039
 30
0.0
  0
VERTEX
  5
3C5
  8
1
  6
CONTINUOUS
 62
     7
 10
-142.830254477438
 20
85.53093515777715
 30
0.0
  0
VERTEX
  5
3C6
  8
1
  6
CONTINUOUS
 62
     7
 10
-142.3820237333252
 20
85.54341290931393
 30
0.0
  0
VERTEX
  5
3C7
  8
1
  6
CONTINUOUS
 62
     7
 10
-141.9438516129896
 20
85.55589066085071
 30
0.0
  0
VERTEX
  5
3C8
  8
1
  6
CONTINUOUS
 62
     7
 10
-141.5161209947247
 20
85.56836841238749
 30
0.0
  0
VERTEX
  5
3C9
  8
1
  6
CONTINUOUS
 62
     7
 10
-141.099214756824
 20
85.58084616392425
 30
0.0
  0
VERTEX
  5
3CA
  8
1
  6
CONTINUOUS
 62
     7
 10
-140.6935157775809
 20
85.59332391546103
 30
0.0
  0
VERTEX
  5
3CB
  8
1
  6
CONTINUOUS
 62
     7
 10
-140.2994057600464
 20
85.60580166699779
 30
0.0
  0
VERTEX
  5
3CC
  8
1
  6
CONTINUOUS
 62
     7
 10
-139.9172211983778
 20
85.61827941853457
 30
0.0
  0
VERTEX
  5
3CD
  8
1
  6
CONTINUOUS
 62
     7
 10
-139.5472401342077
 20
85.63075717007135
 30
0.0
  0
VERTEX
  5
3CE
  8
1
  6
CONTINUOUS
 62
     7
 10
-139.1897367302704
 20
85.64323492160811
 30
0.0
  0
VERTEX
  5
3CF
  8
1
  6
CONTINUOUS
 62
     7
 10
-138.8449851493004
 20
85.65571267314489
 30
0.0
  0
VERTEX
  5
3D0
  8
1
  6
CONTINUOUS
 62
     7
 10
-138.5132595540321
 20
85.66819042468165
 30
0.0
  0
VERTEX
  5
3D1
  8
1
  6
CONTINUOUS
 62
     7
 10
-138.1948341072001
 20
85.68066817621842
 30
0.0
  0
VERTEX
  5
3D2
  8
1
  6
CONTINUOUS
 62
     7
 10
-137.8899829715388
 20
85.6931459277552
 30
0.0
  0
VERTEX
  5
3D3
  8
1
  6
CONTINUOUS
 62
     7
 10
-137.5989803097826
 20
85.70562367929197
 30
0.0
  0
VERTEX
  5
3D4
  8
1
  6
CONTINUOUS
 62
     7
 10
-137.322100284666
 20
85.71810143082874
 30
0.0
  0
VERTEX
  5
3D5
  8
1
  6
CONTINUOUS
 62
     7
 10
-137.0596170589236
 20
85.73057918236552
 30
0.0
  0
VERTEX
  5
3D6
  8
1
  6
CONTINUOUS
 62
     7
 10
-136.8118033489245
 20
85.74305693390228
 30
0.0
  0
VERTEX
  5
3D7
  8
1
  6
CONTINUOUS
 62
     7
 10
-136.5788753610632
 20
85.75553468543906
 30
0.0
  0
VERTEX
  5
3D8
  8
1
  6
CONTINUOUS
 62
     7
 10
-136.3609757294152
 20
85.76801243697582
 30
0.0
  0
VERTEX
  5
3D9
  8
1
  6
CONTINUOUS
 62
     7
 10
-136.1582421545758
 20
85.78049018851262
 30
0.0
  0
VERTEX
  5
3DA
  8
1
  6
CONTINUOUS
 62
     7
 10
-135.9708123371403
 20
85.79296794004937
 30
0.0
  0
VERTEX
  5
3DB
  8
1
  6
CONTINUOUS
 62
     7
 10
-135.7988239777041
 20
85.80544569158613
 30
0.0
  0
VERTEX
  5
3DC
  8
1
  6
CONTINUOUS
 62
     7
 10
-135.6424147768626
 20
85.81792344312291
 30
0.0
  0
VERTEX
  5
3DD
  8
1
  6
CONTINUOUS
 62
     7
 10
-135.5017224352111
 20
85.83040119465967
 30
0.0
  0
VERTEX
  5
3DE
  8
1
  6
CONTINUOUS
 62
     7
 10
-135.376884653345
 20
85.84287894619646
 30
0.0
  0
VERTEX
  5
3DF
  8
1
  6
CONTINUOUS
 62
     7
 10
-135.2680391318596
 20
85.85535669773323
 30
0.0
  0
VERTEX
  5
3E0
  8
1
  6
CONTINUOUS
 62
     7
 10
-135.1753235713504
 20
85.86783444927002
 30
0.0
  0
VERTEX
  5
3E1
  8
1
  6
CONTINUOUS
 62
     7
 10
-135.098874109692
 20
85.88031220080674
 30
0.0
  0
SEQEND
  5
692
  8
1
  6
CONTINUOUS
 62
     7
  0
ARC
  5
10E
  8
1
  6
CONTINUOUS
 62
     7
 10
-154.3555985226287
 20
51.80177174324238
 30
0.0
 40
14.99999999999999
 50
90.0
 51
0.0
  0
CIRCLE
  5
10F
  8
1
  6
CONTINUOUS
 62
     7
 10
-154.3555985226287
 20
51.80177174324238
 30
0.0
 40
18.50000000000001
  0
LINE
  5
110
  8
1
  6
CONTINUOUS
 62
     7
 10
-173.7554753272883
 20
82.87223126602424
 30
0.0
 11
-173.6167936849131
 21
82.92234409887725
 31
0.0
  0
LINE
  5
111
  8
1
  6
CONTINUOUS
 62
     7
 10
-134.9555985226287
 20
82.80177174324238
 30
0.0
 11
-143.8113324071905
 21
82.80177174324238
 31
0.0
  0
CIRCLE
  5
112
  8
1
  6
CONTINUOUS
 62
     7
 10
-154.3555985226287
 20
51.80177174324238
 30
0.0
 40
15.8
  0
LINE
  5
113
  8
1
  6
CONTINUOUS
 62
     7
 10
-135.1064962720938
 20
83.17901808467892
 30
0.0
 11
-134.9559022136374
 21
83.23252232660175
 31
0.0
  0
LINE
  5
114
  8
1
  6
CONTINUOUS
 62
     7
 10
-132.8555985226287
 20
81.80177174324238
 30
0.0
 11
-175.8555985226287
 21
81.80177174324238
 31
0.0
  0
LINE
  5
115
  8
1
  6
CONTINUOUS
 62
     7
 10
-135.0040516254639
 20
84.25135055481687
 30
0.0
 11
-135.1071869885276
 21
84.2747086281344
 31
0.0
  0
LINE
  5
116
  8
1
  6
CONTINUOUS
 62
     7
 10
-143.8113324071905
 20
82.80177174324238
 30
0.0
 11
-143.9116649887554
 21
82.80177174324238
 31
0.0
  0
LINE
  5
117
  8
1
  6
CONTINUOUS
 62
     7
 10
-173.7487475880034
 20
82.80177174324238
 30
0.0
 11
-173.7555985226287
 21
82.80177174324238
 31
0.0
  0
LINE
  5
118
  8
1
  6
CONTINUOUS
 62
     7
 10
-173.7501126791772
 20
82.30177174324236
 30
0.0
 11
-173.7410956790083
 21
81.80177174324238
 31
0.0
  0
LINE
  5
119
  8
1
  6
CONTINUOUS
 62
     7
 10
-135.098874109692
 20
85.88031220080676
 30
0.0
 11
-134.9561087616891
 21
85.93257685681739
 31
0.0
  0
LINE
  5
11A
  8
1
  6
CONTINUOUS
 62
     7
 10
-136.3555985226584
 20
84.4677833721122
 30
0.0
 11
-136.4875088280159
 21
84.41570167144663
 31
0.0
  0
ARC
  5
11B
  8
1
  6
CONTINUOUS
 62
     7
 10
-1232.32790821698
 20
31073.96393591914
 30
0.0
 40
31008.91752292713
 50
271.9591901115714
 51
272.0252272960013
  0
LINE
  5
11C
  8
1
  6
CONTINUOUS
 62
     7
 10
-134.9701013662491
 20
81.80177174324238
 30
0.0
 11
-134.9610843660802
 21
82.30177174324236
 31
0.0
  0
LINE
  5
11D
  8
1
  6
CONTINUOUS
 62
     7
 10
-136.3555985226317
 20
89.86782549505729
 30
0.0
 11
-136.5072734023036
 21
89.81194029996995
 31
0.0
  0
ARC
  5
11E
  8
1
  6
CONTINUOUS
 62
     7
 10
-2406.662303709836
 20
65059.13185318397
 30
0.0
 40
65008.96964115257
 50
271.9697372564829
 51
272.0012123410958
  0
CIRCLE
  5
11F
  8
1
  6
CONTINUOUS
 62
     7
 10
-154.3555985226287
 20
51.80177174324238
 30
0.0
 40
19.00000000000001
  0
LINE
  5
120
  8
1
  6
CONTINUOUS
 62
     7
 10
-173.7550884502239
 20
85.57103366499669
 30
0.0
 11
-173.6164556595867
 21
85.62247050348184
 31
0.0
  0
LINE
  5
121
  8
1
  6
CONTINUOUS
 62
     7
 10
-134.9559022138027
 20
84.2209299480212
 30
0.0
 11
-135.0040516254639
 21
84.25135055481687
 31
0.0
  0
ARC
  5
122
  8
1
  6
CONTINUOUS
 62
     7
 10
-144.9300745539409
 20
209.5286728597592
 30
0.0
 40
126.7309668235887
 50
270.4589500905184
 51
274.4457544676261
  0
LINE
  5
123
  8
1
  6
CONTINUOUS
 62
     7
 10
-172.3555985226286
 20
84.33579300225703
 30
0.0
 11
-172.2578153844345
 21
84.38052942864203
 31
0.0
  0
ARC
  5
124
  8
1
  6
CONTINUOUS
 62
     7
 10
375.8975838088257
 20
-15268.01603255633
 30
0.0
 40
15362.17935509519
 50
91.91188841604497
 51
92.04486997762946
  0
LINE
  5
125
  8
1
  6
CONTINUOUS
 62
     7
 10
-136.6239790682422
 20
85.61142761407623
 30
0.0
 11
-136.5105423194074
 21
85.62928649903935
 31
0.0
  0
LINE
  5
126
  8
1
  6
CONTINUOUS
 62
     7
 10
-173.7552961115885
 20
88.27087964631112
 30
0.0
 11
-173.6102017299121
 21
88.32353458598075
 31
0.0
  0
LINE
  5
127
  8
1
  6
CONTINUOUS
 62
     7
 10
-134.9561087616737
 20
86.92098448169442
 30
0.0
 11
-135.1050425015191
 21
86.97430918052099
 31
0.0
  0
POLYLINE
  5
128
  8
1
  6
CONTINUOUS
 62
     7
 66
     1
 10
0.0
 20
0.0
 30
0.0
  0
VERTEX
  5
3E2
  8
1
  6
CONTINUOUS
 62
     7
 10
-173.7552961118859
 20
87.28247202402642
 30
0.0
  0
VERTEX
  5
3E3
  8
1
  6
CONTINUOUS
 62
     7
 10
-173.745702587834
 20
87.29598353331465
 30
0.0
  0
VERTEX
  5
3E4
  8
1
  6
CONTINUOUS
 62
     7
 10
-173.7169980696239
 20
87.30949504260286
 30
0.0
  0
VERTEX
  5
3E5
  8
1
  6
CONTINUOUS
 62
     7
 10
-173.6692308777357
 20
87.32300655189105
 30
0.0
  0
VERTEX
  5
3E6
  8
1
  6
CONTINUOUS
 62
     7
 10
-173.6024493326497
 20
87.33651806117929
 30
0.0
  0
VERTEX
  5
3E7
  8
1
  6
CONTINUOUS
 62
     7
 10
-173.5167017548461
 20
87.35002957046748
 30
0.0
  0
VERTEX
  5
3E8
  8
1
  6
CONTINUOUS
 62
     7
 10
-173.4120364648052
 20
87.36354107975572
 30
0.0
  0
VERTEX
  5
3E9
  8
1
  6
CONTINUOUS
 62
     7
 10
-173.2885017830071
 20
87.37705258904393
 30
0.0
  0
VERTEX
  5
3EA
  8
1
  6
CONTINUOUS
 62
     7
 10
-173.1461476393683
 20
87.39056409833215
 30
0.0
  0
VERTEX
  5
3EB
  8
1
  6
CONTINUOUS
 62
     7
 10
-172.9850981367693
 20
87.40407560762036
 30
0.0
  0
VERTEX
  5
3EC
  8
1
  6
CONTINUOUS
 62
     7
 10
-172.8055810413977
 20
87.41758711690855
 30
0.0
  0
VERTEX
  5
3ED
  8
1
  6
CONTINUOUS
 62
     7
 10
-172.6078318349105
 20
87.43109862619677
 30
0.0
  0
VERTEX
  5
3EE
  8
1
  6
CONTINUOUS
 62
     7
 10
-172.3920859989647
 20
87.444610135485
 30
0.0
  0
VERTEX
  5
3EF
  8
1
  6
CONTINUOUS
 62
     7
 10
-172.1585790152176
 20
87.4581216447732
 30
0.0
  0
VERTEX
  5
3F0
  8
1
  6
CONTINUOUS
 62
     7
 10
-171.9075463653259
 20
87.47163315406141
 30
0.0
  0
VERTEX
  5
3F1
  8
1
  6
CONTINUOUS
 62
     7
 10
-171.6392235309469
 20
87.48514466334963
 30
0.0
  0
VERTEX
  5
3F2
  8
1
  6
CONTINUOUS
 62
     7
 10
-171.3538459937376
 20
87.49865617263785
 30
0.0
  0
VERTEX
  5
3F3
  8
1
  6
CONTINUOUS
 62
     7
 10
-171.051649235355
 20
87.51216768192606
 30
0.0
  0
VERTEX
  5
3F4
  8
1
  6
CONTINUOUS
 62
     7
 10
-170.7328689948168
 20
87.52567919121427
 30
0.0
  0
VERTEX
  5
3F5
  8
1
  6
CONTINUOUS
 62
     7
 10
-170.3977883800353
 20
87.53919070050249
 30
0.0
  0
VERTEX
  5
3F6
  8
1
  6
CONTINUOUS
 62
     7
 10
-170.0467928545071
 20
87.55270220979072
 30
0.0
  0
VERTEX
  5
3F7
  8
1
  6
CONTINUOUS
 62
     7
 10
-169.6802812291979
 20
87.56621371907893
 30
0.0
  0
VERTEX
  5
3F8
  8
1
  6
CONTINUOUS
 62
     7
 10
-169.2986523150733
 20
87.57972522836712
 30
0.0
  0
VERTEX
  5
3F9
  8
1
  6
CONTINUOUS
 62
     7
 10
-168.9023049230988
 20
87.59323673765536
 30
0.0
  0
VERTEX
  5
3FA
  8
1
  6
CONTINUOUS
 62
     7
 10
-168.4916378642401
 20
87.60674824694355
 30
0.0
  0
VERTEX
  5
3FB
  8
1
  6
CONTINUOUS
 62
     7
 10
-168.0670499494628
 20
87.62025975623179
 30
0.0
  0
VERTEX
  5
3FC
  8
1
  6
CONTINUOUS
 62
     7
 10
-167.6289399897324
 20
87.63377126551998
 30
0.0
  0
VERTEX
  5
3FD
  8
1
  6
CONTINUOUS
 62
     7
 10
-167.1777067960145
 20
87.64728277480819
 30
0.0
  0
VERTEX
  5
3FE
  8
1
  6
CONTINUOUS
 62
     7
 10
-166.7137491819335
 20
87.66079428409643
 30
0.0
  0
VERTEX
  5
3FF
  8
1
  6
CONTINUOUS
 62
     7
 10
-166.2374897177518
 20
87.67430579338465
 30
0.0
  0
VERTEX
  5
400
  8
1
  6
CONTINUOUS
 62
     7
 10
-165.7494326450756
 20
87.68781730267285
 30
0.0
  0
VERTEX
  5
401
  8
1
  6
CONTINUOUS
 62
     7
 10
-165.2500997425952
 20
87.70132881196106
 30
0.0
  0
VERTEX
  5
402
  8
1
  6
CONTINUOUS
 62
     7
 10
-164.7400127890007
 20
87.7148403212493
 30
0.0
  0
VERTEX
  5
403
  8
1
  6
CONTINUOUS
 62
     7
 10
-164.2196935629825
 20
87.72835183053748
 30
0.0
  0
VERTEX
  5
404
  8
1
  6
CONTINUOUS
 62
     7
 10
-163.6896638432308
 20
87.74186333982571
 30
0.0
  0
VERTEX
  5
405
  8
1
  6
CONTINUOUS
 62
     7
 10
-163.1504454084359
 20
87.75537484911392
 30
0.0
  0
VERTEX
  5
406
  8
1
  6
CONTINUOUS
 62
     7
 10
-162.602560037288
 20
87.76888635840213
 30
0.0
  0
VERTEX
  5
407
  8
1
  6
CONTINUOUS
 62
     7
 10
-162.0465295084774
 20
87.78239786769034
 30
0.0
  0
VERTEX
  5
408
  8
1
  6
CONTINUOUS
 62
     7
 10
-161.4828756006944
 20
87.79590937697856
 30
0.0
  0
VERTEX
  5
409
  8
1
  6
CONTINUOUS
 62
     7
 10
-160.9121283304625
 20
87.80942088626678
 30
0.0
  0
VERTEX
  5
40A
  8
1
  6
CONTINUOUS
 62
     7
 10
-160.3348636832791
 20
87.82293239555499
 30
0.0
  0
VERTEX
  5
40B
  8
1
  6
CONTINUOUS
 62
     7
 10
-159.7516735834329
 20
87.83644390484322
 30
0.0
  0
VERTEX
  5
40C
  8
1
  6
CONTINUOUS
 62
     7
 10
-159.1631499708649
 20
87.84995541413141
 30
0.0
  0
VERTEX
  5
40D
  8
1
  6
CONTINUOUS
 62
     7
 10
-158.5698847855159
 20
87.86346692341962
 30
0.0
  0
VERTEX
  5
40E
  8
1
  6
CONTINUOUS
 62
     7
 10
-157.9724699673268
 20
87.87697843270784
 30
0.0
  0
VERTEX
  5
40F
  8
1
  6
CONTINUOUS
 62
     7
 10
-157.3714974562384
 20
87.89048994199605
 30
0.0
  0
VERTEX
  5
410
  8
1
  6
CONTINUOUS
 62
     7
 10
-156.7675591921916
 20
87.90400145128427
 30
0.0
  0
VERTEX
  5
411
  8
1
  6
CONTINUOUS
 62
     7
 10
-156.1612471151273
 20
87.91751296057248
 30
0.0
  0
VERTEX
  5
412
  8
1
  6
CONTINUOUS
 62
     7
 10
-155.5531531649864
 20
87.9310244698607
 30
0.0
  0
VERTEX
  5
413
  8
1
  6
CONTINUOUS
 62
     7
 10
-154.9438699437134
 20
87.94453597914891
 30
0.0
  0
VERTEX
  5
414
  8
1
  6
CONTINUOUS
 62
     7
 10
-154.3339962380715
 20
87.95804748843713
 30
0.0
  0
VERTEX
  5
415
  8
1
  6
CONTINUOUS
 62
     7
 10
-153.7241342079779
 20
87.97155899772534
 30
0.0
  0
VERTEX
  5
416
  8
1
  6
CONTINUOUS
 62
     7
 10
-153.1148860473768
 20
87.98507050701355
 30
0.0
  0
VERTEX
  5
417
  8
1
  6
CONTINUOUS
 62
     7
 10
-152.5068539502125
 20
87.99858201630177
 30
0.0
  0
VERTEX
  5
418
  8
1
  6
CONTINUOUS
 62
     7
 10
-151.9006401104293
 20
88.01209352559
 30
0.0
  0
VERTEX
  5
419
  8
1
  6
CONTINUOUS
 62
     7
 10
-151.2968467219713
 20
88.0256050348782
 30
0.0
  0
VERTEX
  5
41A
  8
1
  6
CONTINUOUS
 62
     7
 10
-150.6960759787828
 20
88.0391165441664
 30
0.0
  0
VERTEX
  5
41B
  8
1
  6
CONTINUOUS
 62
     7
 10
-150.098930074808
 20
88.05262805345464
 30
0.0
  0
VERTEX
  5
41C
  8
1
  6
CONTINUOUS
 62
     7
 10
-149.5060112039912
 20
88.06613956274286
 30
0.0
  0
VERTEX
  5
41D
  8
1
  6
CONTINUOUS
 62
     7
 10
-148.9179200109951
 20
88.07965107203107
 30
0.0
  0
VERTEX
  5
41E
  8
1
  6
CONTINUOUS
 62
     7
 10
-148.3352307594807
 20
88.09316258131928
 30
0.0
  0
VERTEX
  5
41F
  8
1
  6
CONTINUOUS
 62
     7
 10
-147.7584956333222
 20
88.10667409060748
 30
0.0
  0
VERTEX
  5
420
  8
1
  6
CONTINUOUS
 62
     7
 10
-147.1882661359064
 20
88.1201855998957
 30
0.0
  0
VERTEX
  5
421
  8
1
  6
CONTINUOUS
 62
     7
 10
-146.6250937706203
 20
88.13369710918393
 30
0.0
  0
VERTEX
  5
422
  8
1
  6
CONTINUOUS
 62
     7
 10
-146.0695300408505
 20
88.14720861847213
 30
0.0
  0
VERTEX
  5
423
  8
1
  6
CONTINUOUS
 62
     7
 10
-145.5221264499842
 20
88.16072012776036
 30
0.0
  0
VERTEX
  5
424
  8
1
  6
CONTINUOUS
 62
     7
 10
-144.9834345014081
 20
88.17423163704856
 30
0.0
  0
VERTEX
  5
425
  8
1
  6
CONTINUOUS
 62
     7
 10
-144.4540056985092
 20
88.18774314633677
 30
0.0
  0
VERTEX
  5
426
  8
1
  6
CONTINUOUS
 62
     7
 10
-143.9343915446742
 20
88.20125465562496
 30
0.0
  0
VERTEX
  5
427
  8
1
  6
CONTINUOUS
 62
     7
 10
-143.4251423438253
 20
88.2147661649132
 30
0.0
  0
VERTEX
  5
428
  8
1
  6
CONTINUOUS
 62
     7
 10
-142.9267637221682
 20
88.22827767420141
 30
0.0
  0
VERTEX
  5
429
  8
1
  6
CONTINUOUS
 62
     7
 10
-142.4397043723574
 20
88.24178918348962
 30
0.0
  0
VERTEX
  5
42A
  8
1
  6
CONTINUOUS
 62
     7
 10
-141.9644092911742
 20
88.25530069277785
 30
0.0
  0
VERTEX
  5
42B
  8
1
  6
CONTINUOUS
 62
     7
 10
-141.5013234754001
 20
88.26881220206604
 30
0.0
  0
VERTEX
  5
42C
  8
1
  6
CONTINUOUS
 62
     7
 10
-141.0508919218165
 20
88.28232371135427
 30
0.0
  0
VERTEX
  5
42D
  8
1
  6
CONTINUOUS
 62
     7
 10
-140.6135596272051
 20
88.29583522064247
 30
0.0
  0
VERTEX
  5
42E
  8
1
  6
CONTINUOUS
 62
     7
 10
-140.1897715883471
 20
88.3093467299307
 30
0.0
  0
VERTEX
  5
42F
  8
1
  6
CONTINUOUS
 62
     7
 10
-139.7799728020241
 20
88.32285823921892
 30
0.0
  0
VERTEX
  5
430
  8
1
  6
CONTINUOUS
 62
     7
 10
-139.3846082650176
 20
88.33636974850712
 30
0.0
  0
VERTEX
  5
431
  8
1
  6
CONTINUOUS
 62
     7
 10
-139.004122595929
 20
88.34988125779533
 30
0.0
  0
VERTEX
  5
432
  8
1
  6
CONTINUOUS
 62
     7
 10
-138.6389130132918
 20
88.36339276708354
 30
0.0
  0
VERTEX
  5
433
  8
1
  6
CONTINUOUS
 62
     7
 10
-138.2892837819624
 20
88.37690427637176
 30
0.0
  0
VERTEX
  5
434
  8
1
  6
CONTINUOUS
 62
     7
 10
-137.9555283609367
 20
88.39041578565998
 30
0.0
  0
VERTEX
  5
435
  8
1
  6
CONTINUOUS
 62
     7
 10
-137.6379402092107
 20
88.4039272949482
 30
0.0
  0
VERTEX
  5
436
  8
1
  6
CONTINUOUS
 62
     7
 10
-137.3368127857805
 20
88.4174388042364
 30
0.0
  0
VERTEX
  5
437
  8
1
  6
CONTINUOUS
 62
     7
 10
-137.052439549642
 20
88.43095031352465
 30
0.0
  0
VERTEX
  5
438
  8
1
  6
CONTINUOUS
 62
     7
 10
-136.7851139597912
 20
88.44446182281285
 30
0.0
  0
VERTEX
  5
439
  8
1
  6
CONTINUOUS
 62
     7
 10
-136.535129475224
 20
88.45797333210106
 30
0.0
  0
VERTEX
  5
43A
  8
1
  6
CONTINUOUS
 62
     7
 10
-136.3027795549365
 20
88.47148484138928
 30
0.0
  0
VERTEX
  5
43B
  8
1
  6
CONTINUOUS
 62
     7
 10
-136.0883576389451
 20
88.48499635067748
 30
0.0
  0
VERTEX
  5
43C
  8
1
  6
CONTINUOUS
 62
     7
 10
-135.8921185883451
 20
88.4985078599657
 30
0.0
  0
VERTEX
  5
43D
  8
1
  6
CONTINUOUS
 62
     7
 10
-135.714197700751
 20
88.51201936925393
 30
0.0
  0
VERTEX
  5
43E
  8
1
  6
CONTINUOUS
 62
     7
 10
-135.554707180942
 20
88.52553087854213
 30
0.0
  0
VERTEX
  5
43F
  8
1
  6
CONTINUOUS
 62
     7
 10
-135.413759233698
 20
88.53904238783035
 30
0.0
  0
VERTEX
  5
440
  8
1
  6
CONTINUOUS
 62
     7
 10
-135.2914660637982
 20
88.55255389711854
 30
0.0
  0
VERTEX
  5
441
  8
1
  6
CONTINUOUS
 62
     7
 10
-135.1879398760222
 20
88.56606540640676
 30
0.0
  0
VERTEX
  5
442
  8
1
  6
CONTINUOUS
 62
     7
 10
-135.1032928751495
 20
88.57957691569497
 30
0.0
  0
SEQEND
  5
693
  8
1
  6
CONTINUOUS
 62
     7
  0
ARC
  5
129
  8
1
  6
CONTINUOUS
 62
     7
 10
-137.3555985226287
 20
71.13984533565001
 30
0.0
 40
1.000000000000011
 50
290.0000000000001
 51
0.0
  0
LINE
  5
12A
  8
1
  6
CONTINUOUS
 62
     7
 10
-173.6053085310282
 20
84.5290828192245
 30
0.0
 11
-172.3555554532599
 21
84.30685831079354
 31
0.0
  0
ARC
  5
12B
  8
1
  6
CONTINUOUS
 62
     7
 10
-136.8555985226287
 20
60.4109281750729
 30
0.0
 40
0.5000000000000004
 50
0.0
 51
89.00000000000017
  0
LINE
  5
12C
  8
1
  6
CONTINUOUS
 62
     7
 10
-136.3555985226287
 20
87.16775247725434
 30
0.0
 11
-136.3555985226287
 21
88.3569041665287
 31
0.0
  0
LINE
  5
12D
  8
1
  6
CONTINUOUS
 62
     7
 10
-175.8555985226287
 20
81.80177174324238
 30
0.0
 11
-175.8555985226287
 21
81.50197928145208
 31
0.0
  0
LINE
  5
12E
  8
1
  6
CONTINUOUS
 62
     7
 10
-173.755088450223
 20
85.57103366585949
 30
0.0
 11
-173.7550884500724
 21
84.5826260133353
 31
0.0
  0
LINE
  5
12F
  8
1
  6
CONTINUOUS
 62
     7
 10
-135.6976186659544
 20
79.76736100588685
 30
0.0
 11
-133.513578379303
 21
80.56228666066619
 31
0.0
  0
ARC
  5
130
  8
1
  6
CONTINUOUS
 62
     7
 10
-135.3555985226287
 20
78.82766838510096
 30
0.0
 40
1.000000000000001
 50
110.0000000000001
 51
180.0
  0
LINE
  5
131
  8
1
  6
CONTINUOUS
 62
     7
 10
-136.5225574672523
 20
88.32720677616146
 30
0.0
 11
-135.1032116150728
 21
88.5795915238654
 31
0.0
  0
LINE
  5
132
  8
1
  6
CONTINUOUS
 62
     7
 10
-136.3555985226287
 20
82.80177174324238
 30
0.0
 11
-136.3555985226287
 21
82.95690053793243
 31
0.0
  0
LINE
  5
133
  8
1
  6
CONTINUOUS
 62
     7
 10
-140.8555985226287
 20
65.80177174324237
 30
0.0
 11
-140.8555985226287
 21
65.17151370036333
 31
0.0
  0
LINE
  5
134
  8
1
  6
CONTINUOUS
 62
     7
 10
-173.7554753272883
 20
82.87223126602426
 30
0.0
 11
-173.7554753269524
 21
82.80177174324258
 31
0.0
  0
LINE
  5
135
  8
1
  6
CONTINUOUS
 62
     7
 10
-172.3555985226287
 20
84.33579017782272
 30
0.0
 11
-172.3555985226287
 21
83.14660075828863
 31
0.0
  0
LINE
  5
136
  8
1
  6
CONTINUOUS
 62
     7
 10
-134.9556515570513
 20
88.63274901002293
 30
0.0
 11
-134.9556515582542
 21
89.62115666220649
 31
0.0
  0
ARC
  5
137
  8
1
  6
CONTINUOUS
 62
     7
 10
-133.8555985226286
 20
81.50197928145208
 30
0.0
 40
0.9999999999999883
 50
290.0000000000002
 51
0.0
  0
LINE
  5
138
  8
1
  6
CONTINUOUS
 62
     7
 10
-132.8555985226286
 20
81.50197928145208
 30
0.0
 11
-132.8555985226286
 21
81.80177174324238
 31
0.0
  0
ARC
  5
139
  8
1
  6
CONTINUOUS
 62
     7
 10
-139.8555985226287
 20
68.10156420503267
 30
0.0
 40
1.000000000000001
 50
109.9999999999999
 51
180.0
  0
LINE
  5
13A
  8
1
  6
CONTINUOUS
 62
     7
 10
-167.8555985226287
 20
65.17151370036335
 30
0.0
 11
-167.8555985226287
 21
65.8017717432424
 31
0.0
  0
LINE
  5
13B
  8
1
  6
CONTINUOUS
 62
     7
 10
-172.3555985226287
 20
91.80177174324238
 30
0.0
 11
-172.3555985226287
 21
90.97090705722948
 31
0.0
  0
LINE
  5
13C
  8
1
  6
CONTINUOUS
 62
     7
 10
-167.8555985226287
 20
68.10156420503267
 30
0.0
 11
-167.8555985226287
 21
65.8017717432424
 31
0.0
  0
LINE
  5
13D
  8
1
  6
CONTINUOUS
 62
     7
 10
-136.5193968409845
 20
85.62771097474409
 30
0.0
 11
-135.09880687745
 21
85.88032448853691
 31
0.0
  0
LINE
  5
13E
  8
1
  6
CONTINUOUS
 62
     7
 10
-136.3555985226287
 20
89.86782458748202
 30
0.0
 11
-136.3555985226287
 21
91.80177174324238
 31
0.0
  0
LINE
  5
13F
  8
1
  6
CONTINUOUS
 62
     7
 10
-134.9559022136374
 20
83.23252232660178
 30
0.0
 11
-134.9559022132935
 21
84.22092997893718
 31
0.0
  0
LINE
  5
140
  8
1
  6
CONTINUOUS
 62
     7
 10
-172.3555985226287
 20
87.03576052892957
 30
0.0
 11
-172.3555985226287
 21
85.84667523540071
 31
0.0
  0
LINE
  5
141
  8
1
  6
CONTINUOUS
 62
     7
 10
-136.5275208339507
 20
82.92631806309552
 30
0.0
 11
-135.1063902936843
 21
83.17903700115764
 31
0.0
  0
LINE
  5
142
  8
1
  6
CONTINUOUS
 62
     7
 10
-172.1891150493517
 20
88.57624838419731
 30
0.0
 11
-173.610284711047
 21
88.32351949763812
 31
0.0
  0
LINE
  5
143
  8
1
  6
CONTINUOUS
 62
     7
 10
-136.3555985226287
 20
71.13984533565001
 30
0.0
 11
-136.3555985226287
 21
78.82766838510096
 31
0.0
  0
LINE
  5
144
  8
1
  6
CONTINUOUS
 62
     7
 10
-172.35559841169
 20
90.97093729192673
 30
0.0
 11
-172.3335968330987
 21
90.91972354441468
 31
0.0
  0
LINE
  5
145
  8
1
  6
CONTINUOUS
 62
     7
 10
-134.9561087616891
 20
85.93257685681736
 30
0.0
 11
-134.9561087618389
 21
86.92098450926386
 31
0.0
  0
LINE
  5
146
  8
1
  6
CONTINUOUS
 62
     7
 10
-173.7552961115885
 20
88.2708796463111
 30
0.0
 11
-173.7552961119349
 21
87.28247199382533
 31
0.0
  0
LINE
  5
147
  8
1
  6
CONTINUOUS
 62
     7
 10
-173.6021320152796
 20
87.22850295013055
 30
0.0
 11
-172.3555538992524
 21
87.00685766115294
 31
0.0
  0
LINE
  5
148
  8
1
  6
CONTINUOUS
 62
     7
 10
-171.6976186659543
 20
70.2001527148641
 30
0.0
 11
-168.513578379303
 21
69.04125682581859
 31
0.0
  0
LINE
  5
149
  8
1
  6
CONTINUOUS
 62
     7
 10
-136.3555985226287
 20
84.46778400886562
 30
0.0
 11
-136.3555985226287
 21
85.65684672547931
 31
0.0
  0
LINE
  5
14A
  8
1
  6
CONTINUOUS
 62
     7
 10
-140.1976186659543
 20
69.04125682581859
 30
0.0
 11
-137.013578379303
 21
70.2001527148641
 31
0.0
  0
LINE
  5
14B
  8
1
  6
CONTINUOUS
 62
     7
 10
-134.9555985226287
 20
82.30177174324238
 30
0.0
 11
-134.9555985226287
 21
82.80177174324238
 31
0.0
  0
LINE
  5
14C
  8
1
  6
CONTINUOUS
 62
     7
 10
-173.7555985226287
 20
82.80177174324238
 30
0.0
 11
-173.7555985226287
 21
82.30177174324238
 31
0.0
  0
ARC
  5
14D
  8
1
  6
CONTINUOUS
 62
     7
 10
-168.8555985226287
 20
68.10156420503267
 30
0.0
 40
1.000000000000001
 50
0.0
 51
70.00000000000006
  0
LINE
  5
14E
  8
1
  6
CONTINUOUS
 62
     7
 10
-140.8555985226287
 20
65.8017717432424
 30
0.0
 11
-140.8555985226287
 21
68.10156420503267
 31
0.0
  0
ARC
  5
14F
  8
1
  6
CONTINUOUS
 62
     7
 10
-171.8555985226287
 20
60.4109281750729
 30
0.0
 40
0.499999999999999
 50
90.99999999999983
 51
180.0
  0
LINE
  5
150
  8
1
  6
CONTINUOUS
 62
     7
 10
-135.1071133186076
 20
84.27469556677325
 30
0.0
 11
-136.3556420779332
 21
84.49668753598594
 31
0.0
  0
LINE
  5
151
  8
1
  6
CONTINUOUS
 62
     7
 10
-172.1967521348701
 20
83.17485503559061
 30
0.0
 11
-173.6168901275724
 21
82.92232621804241
 31
0.0
  0
ARC
  5
152
  8
1
  6
CONTINUOUS
 62
     7
 10
-171.3555985226287
 20
71.13984533565001
 30
0.0
 40
1.000000000000001
 50
180.0
 51
250.0
  0
LINE
  5
153
  8
1
  6
CONTINUOUS
 62
     7
 10
-172.3555985226287
 20
78.82766838510096
 30
0.0
 11
-172.3555985226287
 21
71.13984533565001
 31
0.0
  0
ARC
  5
154
  8
1
  6
CONTINUOUS
 62
     7
 10
-174.8555985226287
 20
81.50197928145208
 30
0.0
 40
1.000000000000001
 50
180.0
 51
249.9999999999997
  0
LINE
  5
155
  8
1
  6
CONTINUOUS
 62
     7
 10
-135.1067466800537
 20
89.67455742558217
 30
0.0
 11
-136.3556423228113
 21
89.89662479071336
 31
0.0
  0
LINE
  5
156
  8
1
  6
CONTINUOUS
 62
     7
 10
-135.1049461227701
 20
86.97429189573661
 30
0.0
 11
-136.3556411203256
 21
87.19668396374944
 31
0.0
  0
LINE
  5
157
  8
1
  6
CONTINUOUS
 62
     7
 10
-172.3555985226287
 20
89.98242357267894
 30
0.0
 11
-172.3555985226287
 21
88.54663338901838
 31
0.0
  0
LINE
  5
158
  8
1
  6
CONTINUOUS
 62
     7
 10
-136.84687231941
 20
60.91085202265109
 30
0.0
 11
-137.6895713263075
 21
60.92556138853143
 31
0.0
  0
LINE
  5
159
  8
1
  6
CONTINUOUS
 62
     7
 10
-172.1957710604126
 20
85.8751049339831
 30
0.0
 11
-173.6165227249612
 21
85.62245806465674
 31
0.0
  0
LINE
  5
15A
  8
1
  6
CONTINUOUS
 62
     7
 10
-171.0216257189498
 20
60.92556138853143
 30
0.0
 11
-171.8643247258473
 21
60.91085202265109
 31
0.0
  0
LINE
  5
15B
  8
1
  6
CONTINUOUS
 62
     7
 10
-175.1976186659543
 20
80.56228666066619
 30
0.0
 11
-173.013578379303
 21
79.76736100588685
 31
0.0
  0
ARC
  5
15C
  8
1
  6
CONTINUOUS
 62
     7
 10
-173.3555985226287
 20
78.82766838510096
 30
0.0
 40
0.9999999999999883
 50
0.0
 51
69.99999999999996
  0
POLYLINE
  5
15D
  8
1
  6
CONTINUOUS
 62
     7
 66
     1
 10
0.0
 20
0.0
 30
0.0
  0
VERTEX
  5
443
  8
1
  6
CONTINUOUS
 62
     7
 10
-251.7163218675373
 20
82.80177174324237
 30
0.0
  0
VERTEX
  5
444
  8
1
  6
CONTINUOUS
 62
     7
 10
-251.1969817752817
 20
82.81340164554264
 30
0.0
  0
VERTEX
  5
445
  8
1
  6
CONTINUOUS
 62
     7
 10
-250.6757516068166
 20
82.82503154784293
 30
0.0
  0
VERTEX
  5
446
  8
1
  6
CONTINUOUS
 62
     7
 10
-250.1530141550918
 20
82.83666145014323
 30
0.0
  0
VERTEX
  5
447
  8
1
  6
CONTINUOUS
 62
     7
 10
-249.6291522130569
 20
82.84829135244347
 30
0.0
  0
VERTEX
  5
448
  8
1
  6
CONTINUOUS
 62
     7
 10
-249.1045485736618
 20
82.85992125474375
 30
0.0
  0
VERTEX
  5
449
  8
1
  6
CONTINUOUS
 62
     7
 10
-248.579586029856
 20
82.87155115704404
 30
0.0
  0
VERTEX
  5
44A
  8
1
  6
CONTINUOUS
 62
     7
 10
-248.0546473744342
 20
82.88318105934431
 30
0.0
  0
VERTEX
  5
44B
  8
1
  6
CONTINUOUS
 62
     7
 10
-247.5301147401962
 20
82.8948109616446
 30
0.0
  0
VERTEX
  5
44C
  8
1
  6
CONTINUOUS
 62
     7
 10
-247.0063680907775
 20
82.90644086394487
 30
0.0
  0
VERTEX
  5
44D
  8
1
  6
CONTINUOUS
 62
     7
 10
-246.4837869448383
 20
82.91807076624517
 30
0.0
  0
VERTEX
  5
44E
  8
1
  6
CONTINUOUS
 62
     7
 10
-245.962750821039
 20
82.92970066854545
 30
0.0
  0
VERTEX
  5
44F
  8
1
  6
CONTINUOUS
 62
     7
 10
-245.4436392380398
 20
82.94133057084572
 30
0.0
  0
VERTEX
  5
450
  8
1
  6
CONTINUOUS
 62
     7
 10
-244.9268317145008
 20
82.952960473146
 30
0.0
  0
VERTEX
  5
451
  8
1
  6
CONTINUOUS
 62
     7
 10
-244.4127077690823
 20
82.96459037544628
 30
0.0
  0
VERTEX
  5
452
  8
1
  6
CONTINUOUS
 62
     7
 10
-243.9016469204446
 20
82.97622027774656
 30
0.0
  0
VERTEX
  5
453
  8
1
  6
CONTINUOUS
 62
     7
 10
-243.3940286872479
 20
82.98785018004685
 30
0.0
  0
VERTEX
  5
454
  8
1
  6
CONTINUOUS
 62
     7
 10
-242.8902325881524
 20
82.99948008234713
 30
0.0
  0
VERTEX
  5
455
  8
1
  6
CONTINUOUS
 62
     7
 10
-242.3906381418182
 20
83.01110998464742
 30
0.0
  0
VERTEX
  5
456
  8
1
  6
CONTINUOUS
 62
     7
 10
-241.8956247433877
 20
83.0227398869477
 30
0.0
  0
VERTEX
  5
457
  8
1
  6
CONTINUOUS
 62
     7
 10
-241.40555835321
 20
83.03436978924799
 30
0.0
  0
VERTEX
  5
458
  8
1
  6
CONTINUOUS
 62
     7
 10
-240.9207796148351
 20
83.04599969154826
 30
0.0
  0
VERTEX
  5
459
  8
1
  6
CONTINUOUS
 62
     7
 10
-240.4416263684696
 20
83.05762959384855
 30
0.0
  0
VERTEX
  5
45A
  8
1
  6
CONTINUOUS
 62
     7
 10
-239.9684364543197
 20
83.06925949614882
 30
0.0
  0
VERTEX
  5
45B
  8
1
  6
CONTINUOUS
 62
     7
 10
-239.5015477125916
 20
83.0808893984491
 30
0.0
  0
VERTEX
  5
45C
  8
1
  6
CONTINUOUS
 62
     7
 10
-239.0412979834918
 20
83.09251930074937
 30
0.0
  0
VERTEX
  5
45D
  8
1
  6
CONTINUOUS
 62
     7
 10
-238.5880251072266
 20
83.10414920304964
 30
0.0
  0
VERTEX
  5
45E
  8
1
  6
CONTINUOUS
 62
     7
 10
-238.1420669240022
 20
83.11577910534994
 30
0.0
  0
VERTEX
  5
45F
  8
1
  6
CONTINUOUS
 62
     7
 10
-237.703761274025
 20
83.12740900765023
 30
0.0
  0
VERTEX
  5
460
  8
1
  6
CONTINUOUS
 62
     7
 10
-237.2734459975013
 20
83.1390389099505
 30
0.0
  0
VERTEX
  5
461
  8
1
  6
CONTINUOUS
 62
     7
 10
-236.8514589346374
 20
83.15066881225077
 30
0.0
  0
VERTEX
  5
462
  8
1
  6
CONTINUOUS
 62
     7
 10
-236.4381367246148
 20
83.16229871455104
 30
0.0
  0
VERTEX
  5
463
  8
1
  6
CONTINUOUS
 62
     7
 10
-236.0337817590296
 20
83.17392861685134
 30
0.0
  0
VERTEX
  5
464
  8
1
  6
CONTINUOUS
 62
     7
 10
-235.6386580395792
 20
83.18555851915161
 30
0.0
  0
VERTEX
  5
465
  8
1
  6
CONTINUOUS
 62
     7
 10
-235.253027535086
 20
83.1971884214519
 30
0.0
  0
VERTEX
  5
466
  8
1
  6
CONTINUOUS
 62
     7
 10
-234.8771522143728
 20
83.20881832375218
 30
0.0
  0
VERTEX
  5
467
  8
1
  6
CONTINUOUS
 62
     7
 10
-234.5112940462619
 20
83.22044822605245
 30
0.0
  0
VERTEX
  5
468
  8
1
  6
CONTINUOUS
 62
     7
 10
-234.1557149995759
 20
83.23207812835274
 30
0.0
  0
VERTEX
  5
469
  8
1
  6
CONTINUOUS
 62
     7
 10
-233.8106770431374
 20
83.24370803065302
 30
0.0
  0
VERTEX
  5
46A
  8
1
  6
CONTINUOUS
 62
     7
 10
-233.4764421457688
 20
83.25533793295332
 30
0.0
  0
VERTEX
  5
46B
  8
1
  6
CONTINUOUS
 62
     7
 10
-233.1532722762928
 20
83.26696783525361
 30
0.0
  0
VERTEX
  5
46C
  8
1
  6
CONTINUOUS
 62
     7
 10
-232.8414294035319
 20
83.27859773755388
 30
0.0
  0
VERTEX
  5
46D
  8
1
  6
CONTINUOUS
 62
     7
 10
-232.5411754963085
 20
83.29022763985417
 30
0.0
  0
VERTEX
  5
46E
  8
1
  6
CONTINUOUS
 62
     7
 10
-232.2527678047217
 20
83.30185754215444
 30
0.0
  0
VERTEX
  5
46F
  8
1
  6
CONTINUOUS
 62
     7
 10
-231.9764055912116
 20
83.31348744445471
 30
0.0
  0
VERTEX
  5
470
  8
1
  6
CONTINUOUS
 62
     7
 10
-231.7122491635938
 20
83.325117346755
 30
0.0
  0
VERTEX
  5
471
  8
1
  6
CONTINUOUS
 62
     7
 10
-231.4604581074478
 20
83.33674724905528
 30
0.0
  0
VERTEX
  5
472
  8
1
  6
CONTINUOUS
 62
     7
 10
-231.221192008353
 20
83.34837715135558
 30
0.0
  0
VERTEX
  5
473
  8
1
  6
CONTINUOUS
 62
     7
 10
-230.9946104518889
 20
83.36000705365583
 30
0.0
  0
VERTEX
  5
474
  8
1
  6
CONTINUOUS
 62
     7
 10
-230.780873023635
 20
83.37163695595613
 30
0.0
  0
VERTEX
  5
475
  8
1
  6
CONTINUOUS
 62
     7
 10
-230.5801393091707
 20
83.3832668582564
 30
0.0
  0
VERTEX
  5
476
  8
1
  6
CONTINUOUS
 62
     7
 10
-230.3925688940756
 20
83.3948967605567
 30
0.0
  0
VERTEX
  5
477
  8
1
  6
CONTINUOUS
 62
     7
 10
-230.218321363929
 20
83.40652666285698
 30
0.0
  0
VERTEX
  5
478
  8
1
  6
CONTINUOUS
 62
     7
 10
-230.0575563043105
 20
83.41815656515725
 30
0.0
  0
VERTEX
  5
479
  8
1
  6
CONTINUOUS
 62
     7
 10
-229.9104333007995
 20
83.42978646745755
 30
0.0
  0
VERTEX
  5
47A
  8
1
  6
CONTINUOUS
 62
     7
 10
-229.7770999452269
 20
83.44141636975782
 30
0.0
  0
VERTEX
  5
47B
  8
1
  6
CONTINUOUS
 62
     7
 10
-229.6576273771823
 20
83.4530462720581
 30
0.0
  0
VERTEX
  5
47C
  8
1
  6
CONTINUOUS
 62
     7
 10
-229.5520567190883
 20
83.46467617435836
 30
0.0
  0
VERTEX
  5
47D
  8
1
  6
CONTINUOUS
 62
     7
 10
-229.4604290222605
 20
83.47630607665866
 30
0.0
  0
VERTEX
  5
47E
  8
1
  6
CONTINUOUS
 62
     7
 10
-229.3827853380144
 20
83.48793597895896
 30
0.0
  0
VERTEX
  5
47F
  8
1
  6
CONTINUOUS
 62
     7
 10
-229.3191667176656
 20
83.49956588125922
 30
0.0
  0
VERTEX
  5
480
  8
1
  6
CONTINUOUS
 62
     7
 10
-229.2696142125295
 20
83.51119578355949
 30
0.0
  0
VERTEX
  5
481
  8
1
  6
CONTINUOUS
 62
     7
 10
-229.2341688739219
 20
83.5228256858598
 30
0.0
  0
VERTEX
  5
482
  8
1
  6
CONTINUOUS
 62
     7
 10
-229.2128717531581
 20
83.53445558816007
 30
0.0
  0
VERTEX
  5
483
  8
1
  6
CONTINUOUS
 62
     7
 10
-229.2057639015538
 20
83.5460854904603
 30
0.0
  0
SEQEND
  5
694
  8
1
  6
CONTINUOUS
 62
     7
  0
LINE
  5
15E
  8
1
  6
CONTINUOUS
 62
     7
 10
-229.3588357305331
 20
85.20353595252809
 30
0.0
 11
-229.2061384083622
 21
85.25756790597957
 31
0.0
  0
LINE
  5
15F
  8
1
  6
CONTINUOUS
 62
     7
 10
-229.2057639015538
 20
83.5460854904603
 30
0.0
 11
-229.3562710688648
 21
83.59952249340769
 31
0.0
  0
LINE
  5
160
  8
1
  6
CONTINUOUS
 62
     7
 10
-248.6055985226286
 20
81.80177174324238
 30
0.0
 11
-270.1055985226287
 21
81.80177174324238
 31
0.0
  0
POLYLINE
  5
161
  8
1
  6
CONTINUOUS
 62
     7
 66
     1
 10
0.0
 20
0.0
 30
0.0
  0
VERTEX
  5
484
  8
1
  6
CONTINUOUS
 62
     7
 10
-268.0051727327011
 20
86.60749875339319
 30
0.0
  0
VERTEX
  5
485
  8
1
  6
CONTINUOUS
 62
     7
 10
-267.9955848004681
 20
86.62101302773114
 30
0.0
  0
VERTEX
  5
486
  8
1
  6
CONTINUOUS
 62
     7
 10
-267.9668964995222
 20
86.63452730206909
 30
0.0
  0
VERTEX
  5
487
  8
1
  6
CONTINUOUS
 62
     7
 10
-267.9191400823559
 20
86.64804157640705
 30
0.0
  0
VERTEX
  5
488
  8
1
  6
CONTINUOUS
 62
     7
 10
-267.8523478014619
 20
86.66155585074499
 30
0.0
  0
VERTEX
  5
489
  8
1
  6
CONTINUOUS
 62
     7
 10
-267.7665519093328
 20
86.67507012508295
 30
0.0
  0
VERTEX
  5
48A
  8
1
  6
CONTINUOUS
 62
     7
 10
-267.6617846584611
 20
86.68858439942089
 30
0.0
  0
VERTEX
  5
48B
  8
1
  6
CONTINUOUS
 62
     7
 10
-267.5380786467113
 20
86.70209867375885
 30
0.0
  0
VERTEX
  5
48C
  8
1
  6
CONTINUOUS
 62
     7
 10
-267.3955224510109
 20
86.71561294809682
 30
0.0
  0
VERTEX
  5
48D
  8
1
  6
CONTINUOUS
 62
     7
 10
-267.2343219844928
 20
86.72912722243476
 30
0.0
  0
VERTEX
  5
48E
  8
1
  6
CONTINUOUS
 62
     7
 10
-267.054697927349
 20
86.74264149677272
 30
0.0
  0
VERTEX
  5
48F
  8
1
  6
CONTINUOUS
 62
     7
 10
-266.8568709597715
 20
86.75615577111067
 30
0.0
  0
VERTEX
  5
490
  8
1
  6
CONTINUOUS
 62
     7
 10
-266.6410617619525
 20
86.76967004544863
 30
0.0
  0
VERTEX
  5
491
  8
1
  6
CONTINUOUS
 62
     7
 10
-266.407491014084
 20
86.78318431978657
 30
0.0
  0
VERTEX
  5
492
  8
1
  6
CONTINUOUS
 62
     7
 10
-266.1563793963582
 20
86.79669859412452
 30
0.0
  0
VERTEX
  5
493
  8
1
  6
CONTINUOUS
 62
     7
 10
-265.8879475889671
 20
86.81021286846247
 30
0.0
  0
VERTEX
  5
494
  8
1
  6
CONTINUOUS
 62
     7
 10
-265.6024162721027
 20
86.82372714280042
 30
0.0
  0
VERTEX
  5
495
  8
1
  6
CONTINUOUS
 62
     7
 10
-265.300006133089
 20
86.83724141713837
 30
0.0
  0
VERTEX
  5
496
  8
1
  6
CONTINUOUS
 62
     7
 10
-264.9809711407579
 20
86.85075569147634
 30
0.0
  0
VERTEX
  5
497
  8
1
  6
CONTINUOUS
 62
     7
 10
-264.6456753420455
 20
86.86426996581429
 30
0.0
  0
VERTEX
  5
498
  8
1
  6
CONTINUOUS
 62
     7
 10
-264.2945055109525
 20
86.87778424015225
 30
0.0
  0
VERTEX
  5
499
  8
1
  6
CONTINUOUS
 62
     7
 10
-263.9278484214794
 20
86.89129851449019
 30
0.0
  0
VERTEX
  5
49A
  8
1
  6
CONTINUOUS
 62
     7
 10
-263.5460908476268
 20
86.90481278882814
 30
0.0
  0
VERTEX
  5
49B
  8
1
  6
CONTINUOUS
 62
     7
 10
-263.1496195633954
 20
86.91832706316612
 30
0.0
  0
VERTEX
  5
49C
  8
1
  6
CONTINUOUS
 62
     7
 10
-262.7388213427857
 20
86.93184133750407
 30
0.0
  0
VERTEX
  5
49D
  8
1
  6
CONTINUOUS
 62
     7
 10
-262.3140829597982
 20
86.94535561184202
 30
0.0
  0
VERTEX
  5
49E
  8
1
  6
CONTINUOUS
 62
     7
 10
-261.8757911884337
 20
86.95886988617998
 30
0.0
  0
VERTEX
  5
49F
  8
1
  6
CONTINUOUS
 62
     7
 10
-261.4243328026927
 20
86.97238416051792
 30
0.0
  0
VERTEX
  5
4A0
  8
1
  6
CONTINUOUS
 62
     7
 10
-260.9601102533657
 20
86.98589843485587
 30
0.0
  0
VERTEX
  5
4A1
  8
1
  6
CONTINUOUS
 62
     7
 10
-260.4836095308872
 20
86.99941270919382
 30
0.0
  0
VERTEX
  5
4A2
  8
1
  6
CONTINUOUS
 62
     7
 10
-259.9953443414786
 20
87.01292698353178
 30
0.0
  0
VERTEX
  5
4A3
  8
1
  6
CONTINUOUS
 62
     7
 10
-259.4958284095701
 20
87.02644125786975
 30
0.0
  0
VERTEX
  5
4A4
  8
1
  6
CONTINUOUS
 62
     7
 10
-258.9855754595918
 20
87.03995553220768
 30
0.0
  0
VERTEX
  5
4A5
  8
1
  6
CONTINUOUS
 62
     7
 10
-258.4650992159743
 20
87.05346980654564
 30
0.0
  0
VERTEX
  5
4A6
  8
1
  6
CONTINUOUS
 62
     7
 10
-257.9349134031476
 20
87.06698408088356
 30
0.0
  0
VERTEX
  5
4A7
  8
1
  6
CONTINUOUS
 62
     7
 10
-257.395531745542
 20
87.08049835522152
 30
0.0
  0
VERTEX
  5
4A8
  8
1
  6
CONTINUOUS
 62
     7
 10
-256.847467967588
 20
87.09401262955947
 30
0.0
  0
VERTEX
  5
4A9
  8
1
  6
CONTINUOUS
 62
     7
 10
-256.2912357937158
 20
87.10752690389745
 30
0.0
  0
VERTEX
  5
4AA
  8
1
  6
CONTINUOUS
 62
     7
 10
-255.7273541377627
 20
87.12104117823539
 30
0.0
  0
VERTEX
  5
4AB
  8
1
  6
CONTINUOUS
 62
     7
 10
-255.1563876684245
 20
87.13455545257334
 30
0.0
  0
VERTEX
  5
4AC
  8
1
  6
CONTINUOUS
 62
     7
 10
-254.5789248647812
 20
87.1480697269113
 30
0.0
  0
VERTEX
  5
4AD
  8
1
  6
CONTINUOUS
 62
     7
 10
-253.9955544103231
 20
87.16158400124924
 30
0.0
  0
VERTEX
  5
4AE
  8
1
  6
CONTINUOUS
 62
     7
 10
-253.4068649885409
 20
87.1750982755872
 30
0.0
  0
VERTEX
  5
4AF
  8
1
  6
CONTINUOUS
 62
     7
 10
-252.8134452829249
 20
87.18861254992515
 30
0.0
  0
VERTEX
  5
4B0
  8
1
  6
CONTINUOUS
 62
     7
 10
-252.2158839769656
 20
87.2021268242631
 30
0.0
  0
VERTEX
  5
4B1
  8
1
  6
CONTINUOUS
 62
     7
 10
-251.6147697541535
 20
87.21564109860105
 30
0.0
  0
VERTEX
  5
4B2
  8
1
  6
CONTINUOUS
 62
     7
 10
-251.010691297979
 20
87.229155372939
 30
0.0
  0
VERTEX
  5
4B3
  8
1
  6
CONTINUOUS
 62
     7
 10
-250.4042372919327
 20
87.24266964727697
 30
0.0
  0
VERTEX
  5
4B4
  8
1
  6
CONTINUOUS
 62
     7
 10
-249.795996939029
 20
87.25618392161492
 30
0.0
  0
VERTEX
  5
4B5
  8
1
  6
CONTINUOUS
 62
     7
 10
-249.1865676181084
 20
87.26969819595287
 30
0.0
  0
VERTEX
  5
4B6
  8
1
  6
CONTINUOUS
 62
     7
 10
-248.576553214044
 20
87.28321247029083
 30
0.0
  0
VERTEX
  5
4B7
  8
1
  6
CONTINUOUS
 62
     7
 10
-247.9665577918015
 20
87.29672674462878
 30
0.0
  0
VERTEX
  5
4B8
  8
1
  6
CONTINUOUS
 62
     7
 10
-247.3571854163466
 20
87.31024101896674
 30
0.0
  0
VERTEX
  5
4B9
  8
1
  6
CONTINUOUS
 62
     7
 10
-246.7490401526449
 20
87.32375529330467
 30
0.0
  0
VERTEX
  5
4BA
  8
1
  6
CONTINUOUS
 62
     7
 10
-246.142726065662
 20
87.33726956764262
 30
0.0
  0
VERTEX
  5
4BB
  8
1
  6
CONTINUOUS
 62
     7
 10
-245.5388472203637
 20
87.35078384198059
 30
0.0
  0
VERTEX
  5
4BC
  8
1
  6
CONTINUOUS
 62
     7
 10
-244.9380076817155
 20
87.36429811631852
 30
0.0
  0
VERTEX
  5
4BD
  8
1
  6
CONTINUOUS
 62
     7
 10
-244.3408115146832
 20
87.37781239065647
 30
0.0
  0
VERTEX
  5
4BE
  8
1
  6
CONTINUOUS
 62
     7
 10
-243.7478621837283
 20
87.39132666499444
 30
0.0
  0
VERTEX
  5
4BF
  8
1
  6
CONTINUOUS
 62
     7
 10
-243.1597433208899
 20
87.4048409393324
 30
0.0
  0
VERTEX
  5
4C0
  8
1
  6
CONTINUOUS
 62
     7
 10
-242.5770146607301
 20
87.41835521367032
 30
0.0
  0
VERTEX
  5
4C1
  8
1
  6
CONTINUOUS
 62
     7
 10
-242.0002345154264
 20
87.43186948800829
 30
0.0
  0
VERTEX
  5
4C2
  8
1
  6
CONTINUOUS
 62
     7
 10
-241.4299611971558
 20
87.44538376234624
 30
0.0
  0
VERTEX
  5
4C3
  8
1
  6
CONTINUOUS
 62
     7
 10
-240.8667530180956
 20
87.45889803668419
 30
0.0
  0
VERTEX
  5
4C4
  8
1
  6
CONTINUOUS
 62
     7
 10
-240.3111682904228
 20
87.47241231102214
 30
0.0
  0
VERTEX
  5
4C5
  8
1
  6
CONTINUOUS
 62
     7
 10
-239.7637653263149
 20
87.4859265853601
 30
0.0
  0
VERTEX
  5
4C6
  8
1
  6
CONTINUOUS
 62
     7
 10
-239.2251024379489
 20
87.49944085969805
 30
0.0
  0
VERTEX
  5
4C7
  8
1
  6
CONTINUOUS
 62
     7
 10
-238.695737937502
 20
87.51295513403602
 30
0.0
  0
VERTEX
  5
4C8
  8
1
  6
CONTINUOUS
 62
     7
 10
-238.1762298021436
 20
87.52646940837397
 30
0.0
  0
VERTEX
  5
4C9
  8
1
  6
CONTINUOUS
 62
     7
 10
-237.667102448795
 20
87.53998368271193
 30
0.0
  0
VERTEX
  5
4CA
  8
1
  6
CONTINUOUS
 62
     7
 10
-237.1688185661667
 20
87.55349795704987
 30
0.0
  0
VERTEX
  5
4CB
  8
1
  6
CONTINUOUS
 62
     7
 10
-236.6818342097843
 20
87.56701223138782
 30
0.0
  0
VERTEX
  5
4CC
  8
1
  6
CONTINUOUS
 62
     7
 10
-236.206605435173
 20
87.58052650572579
 30
0.0
  0
VERTEX
  5
4CD
  8
1
  6
CONTINUOUS
 62
     7
 10
-235.7435882978584
 20
87.59404078006374
 30
0.0
  0
VERTEX
  5
4CE
  8
1
  6
CONTINUOUS
 62
     7
 10
-235.2932388533658
 20
87.60755505440167
 30
0.0
  0
VERTEX
  5
4CF
  8
1
  6
CONTINUOUS
 62
     7
 10
-234.8560131572207
 20
87.62106932873965
 30
0.0
  0
VERTEX
  5
4D0
  8
1
  6
CONTINUOUS
 62
     7
 10
-234.4323672649485
 20
87.6345836030776
 30
0.0
  0
VERTEX
  5
4D1
  8
1
  6
CONTINUOUS
 62
     7
 10
-234.0227572320747
 20
87.64809787741555
 30
0.0
  0
VERTEX
  5
4D2
  8
1
  6
CONTINUOUS
 62
     7
 10
-233.6276390801765
 20
87.66161215175352
 30
0.0
  0
VERTEX
  5
4D3
  8
1
  6
CONTINUOUS
 62
     7
 10
-233.2474350344348
 20
87.67512642609145
 30
0.0
  0
VERTEX
  5
4D4
  8
1
  6
CONTINUOUS
 62
     7
 10
-232.8824701099659
 20
87.68864070042942
 30
0.0
  0
VERTEX
  5
4D5
  8
1
  6
CONTINUOUS
 62
     7
 10
-232.5330519506445
 20
87.70215497476735
 30
0.0
  0
VERTEX
  5
4D6
  8
1
  6
CONTINUOUS
 62
     7
 10
-232.199488200346
 20
87.71566924910529
 30
0.0
  0
VERTEX
  5
4D7
  8
1
  6
CONTINUOUS
 62
     7
 10
-231.8820865029452
 20
87.72918352344325
 30
0.0
  0
VERTEX
  5
4D8
  8
1
  6
CONTINUOUS
 62
     7
 10
-231.5811545023171
 20
87.7426977977812
 30
0.0
  0
VERTEX
  5
4D9
  8
1
  6
CONTINUOUS
 62
     7
 10
-231.2969998423368
 20
87.75621207211917
 30
0.0
  0
VERTEX
  5
4DA
  8
1
  6
CONTINUOUS
 62
     7
 10
-231.0299301668792
 20
87.76972634645712
 30
0.0
  0
VERTEX
  5
4DB
  8
1
  6
CONTINUOUS
 62
     7
 10
-230.7802531198193
 20
87.78324062079508
 30
0.0
  0
VERTEX
  5
4DC
  8
1
  6
CONTINUOUS
 62
     7
 10
-230.5482763450322
 20
87.79675489513302
 30
0.0
  0
VERTEX
  5
4DD
  8
1
  6
CONTINUOUS
 62
     7
 10
-230.3342816365784
 20
87.81026916947097
 30
0.0
  0
VERTEX
  5
4DE
  8
1
  6
CONTINUOUS
 62
     7
 10
-230.1384314881776
 20
87.82378344380894
 30
0.0
  0
VERTEX
  5
4DF
  8
1
  6
CONTINUOUS
 62
     7
 10
-229.9608540002476
 20
87.83729771814689
 30
0.0
  0
VERTEX
  5
4E0
  8
1
  6
CONTINUOUS
 62
     7
 10
-229.8016772699745
 20
87.85081199248484
 30
0.0
  0
VERTEX
  5
4E1
  8
1
  6
CONTINUOUS
 62
     7
 10
-229.6610293945447
 20
87.86432626682279
 30
0.0
  0
VERTEX
  5
4E2
  8
1
  6
CONTINUOUS
 62
     7
 10
-229.5390384711444
 20
87.87784054116075
 30
0.0
  0
VERTEX
  5
4E3
  8
1
  6
CONTINUOUS
 62
     7
 10
-229.4358325969599
 20
87.89135481549869
 30
0.0
  0
VERTEX
  5
4E4
  8
1
  6
CONTINUOUS
 62
     7
 10
-229.3515398691775
 20
87.90486908983664
 30
0.0
  0
SEQEND
  5
695
  8
1
  6
CONTINUOUS
 62
     7
  0
LINE
  5
162
  8
1
  6
CONTINUOUS
 62
     7
 10
-268.0051727476024
 20
87.59587873986702
 30
0.0
 11
-267.8512404872815
 21
87.65015927920514
 31
0.0
  0
LINE
  5
163
  8
1
  6
CONTINUOUS
 62
     7
 10
-267.8618097063373
 20
83.85528260516767
 30
0.0
 11
-267.9426917292772
 21
83.87309355654403
 31
0.0
  0
LINE
  5
164
  8
1
  6
CONTINUOUS
 62
     7
 10
-267.9482230505633
 20
86.57452869943336
 30
0.0
 11
-268.0051727327011
 21
86.60749875339319
 31
0.0
  0
LINE
  5
165
  8
1
  6
CONTINUOUS
 62
     7
 10
-267.9426917292772
 20
83.87309355654403
 30
0.0
 11
-268.0051727262378
 21
83.90767809945653
 31
0.0
  0
LINE
  5
166
  8
1
  6
CONTINUOUS
 62
     7
 10
-248.0900703195633
 20
82.80177174324238
 30
0.0
 11
-251.7173391408551
 21
82.80177174324238
 31
0.0
  0
LINE
  5
167
  8
1
  6
CONTINUOUS
 62
     7
 10
-229.3515398691775
 20
87.90486908983664
 30
0.0
 11
-229.2057639016058
 21
87.9574594423509
 31
0.0
  0
LINE
  5
168
  8
1
  6
CONTINUOUS
 62
     7
 10
-251.7173391408551
 20
82.80177174324238
 30
0.0
 11
-268.0055985226286
 21
82.80177174324238
 31
0.0
  0
LINE
  5
169
  8
1
  6
CONTINUOUS
 62
     7
 10
-199.1055985226286
 20
32.80177174324238
 30
0.0
 11
-199.1055985226286
 21
70.8017717432424
 31
0.0
  0
LINE
  5
16A
  8
1
  6
CONTINUOUS
 62
     7
 10
-229.2061384083622
 20
86.24597555855479
 30
0.0
 11
-229.3493703442767
 21
86.2983060807994
 31
0.0
  0
POLYLINE
  5
16B
  8
1
  6
CONTINUOUS
 62
     7
 66
     1
 10
0.0
 20
0.0
 30
0.0
  0
VERTEX
  5
4E5
  8
1
  6
CONTINUOUS
 62
     7
 10
-248.6036589023357
 20
89.98248677214926
 30
0.0
  0
VERTEX
  5
4E6
  8
1
  6
CONTINUOUS
 62
     7
 10
-248.866335541338
 20
89.97622141655089
 30
0.0
  0
VERTEX
  5
4E7
  8
1
  6
CONTINUOUS
 62
     7
 10
-249.129141060583
 20
89.96996071799879
 30
0.0
  0
VERTEX
  5
4E8
  8
1
  6
CONTINUOUS
 62
     7
 10
-249.3920191183695
 20
89.96370466615195
 30
0.0
  0
VERTEX
  5
4E9
  8
1
  6
CONTINUOUS
 62
     7
 10
-249.6549133729961
 20
89.9574532506694
 30
0.0
  0
VERTEX
  5
4EA
  8
1
  6
CONTINUOUS
 62
     7
 10
-249.9177674827616
 20
89.95120646121006
 30
0.0
  0
VERTEX
  5
4EB
  8
1
  6
CONTINUOUS
 62
     7
 10
-250.1805251059648
 20
89.94496428743298
 30
0.0
  0
VERTEX
  5
4EC
  8
1
  6
CONTINUOUS
 62
     7
 10
-250.4431299484784
 20
89.9387267190065
 30
0.0
  0
VERTEX
  5
4ED
  8
1
  6
CONTINUOUS
 62
     7
 10
-250.7055266037239
 20
89.93249374577314
 30
0.0
  0
VERTEX
  5
4EE
  8
1
  6
CONTINUOUS
 62
     7
 10
-250.9676604511003
 20
89.92626535772983
 30
0.0
  0
VERTEX
  5
4EF
  8
1
  6
CONTINUOUS
 62
     7
 10
-251.2294768971717
 20
89.92004154487877
 30
0.0
  0
VERTEX
  5
4F0
  8
1
  6
CONTINUOUS
 62
     7
 10
-251.4909213485021
 20
89.91382229722215
 30
0.0
  0
VERTEX
  5
4F1
  8
1
  6
CONTINUOUS
 62
     7
 10
-251.751939211656
 20
89.9076076047622
 30
0.0
  0
VERTEX
  5
4F2
  8
1
  6
CONTINUOUS
 62
     7
 10
-252.0124758931973
 20
89.90139745750113
 30
0.0
  0
VERTEX
  5
4F3
  8
1
  6
CONTINUOUS
 62
     7
 10
-252.2724767996902
 20
89.89519184544115
 30
0.0
  0
VERTEX
  5
4F4
  8
1
  6
CONTINUOUS
 62
     7
 10
-252.5318873376989
 20
89.88899075858446
 30
0.0
  0
VERTEX
  5
4F5
  8
1
  6
CONTINUOUS
 62
     7
 10
-252.7906529213384
 20
89.88279418693432
 30
0.0
  0
VERTEX
  5
4F6
  8
1
  6
CONTINUOUS
 62
     7
 10
-253.0487197420409
 20
89.87660212060213
 30
0.0
  0
VERTEX
  5
4F7
  8
1
  6
CONTINUOUS
 62
     7
 10
-253.3060354326326
 20
89.8704145498998
 30
0.0
  0
VERTEX
  5
4F8
  8
1
  6
CONTINUOUS
 62
     7
 10
-253.5625477823999
 20
89.86423146516098
 30
0.0
  0
VERTEX
  5
4F9
  8
1
  6
CONTINUOUS
 62
     7
 10
-253.8182045806291
 20
89.85805285671935
 30
0.0
  0
VERTEX
  5
4FA
  8
1
  6
CONTINUOUS
 62
     7
 10
-254.0729536166067
 20
89.85187871490855
 30
0.0
  0
VERTEX
  5
4FB
  8
1
  6
CONTINUOUS
 62
     7
 10
-254.3267426796191
 20
89.84570903006228
 30
0.0
  0
VERTEX
  5
4FC
  8
1
  6
CONTINUOUS
 62
     7
 10
-254.5795195589529
 20
89.83954379251419
 30
0.0
  0
VERTEX
  5
4FD
  8
1
  6
CONTINUOUS
 62
     7
 10
-254.8312320438941
 20
89.83338299259793
 30
0.0
  0
VERTEX
  5
4FE
  8
1
  6
CONTINUOUS
 62
     7
 10
-255.0818279237296
 20
89.8272266206472
 30
0.0
  0
VERTEX
  5
4FF
  8
1
  6
CONTINUOUS
 62
     7
 10
-255.3312554252752
 20
89.8210746670377
 30
0.0
  0
VERTEX
  5
500
  8
1
  6
CONTINUOUS
 62
     7
 10
-255.5794649742828
 20
89.81492712235692
 30
0.0
  0
VERTEX
  5
501
  8
1
  6
CONTINUOUS
 62
     7
 10
-255.8264076858108
 20
89.80878397725851
 30
0.0
  0
VERTEX
  5
502
  8
1
  6
CONTINUOUS
 62
     7
 10
-256.0720346751595
 20
89.80264522239621
 30
0.0
  0
VERTEX
  5
503
  8
1
  6
CONTINUOUS
 62
     7
 10
-256.3162970576291
 20
89.79651084842378
 30
0.0
  0
VERTEX
  5
504
  8
1
  6
CONTINUOUS
 62
     7
 10
-256.5591459485201
 20
89.79038084599495
 30
0.0
  0
VERTEX
  5
505
  8
1
  6
CONTINUOUS
 62
     7
 10
-256.8005324631326
 20
89.78425520576344
 30
0.0
  0
VERTEX
  5
506
  8
1
  6
CONTINUOUS
 62
     7
 10
-257.0404077167671
 20
89.77813391838303
 30
0.0
  0
VERTEX
  5
507
  8
1
  6
CONTINUOUS
 62
     7
 10
-257.2787228247238
 20
89.77201697450744
 30
0.0
  0
VERTEX
  5
508
  8
1
  6
CONTINUOUS
 62
     7
 10
-257.5154289971603
 20
89.76590436479754
 30
0.0
  0
VERTEX
  5
509
  8
1
  6
CONTINUOUS
 62
     7
 10
-257.7504794492128
 20
89.75979608006446
 30
0.0
  0
VERTEX
  5
50A
  8
1
  6
CONTINUOUS
 62
     7
 10
-257.9838293074627
 20
89.75369211126275
 30
0.0
  0
VERTEX
  5
50B
  8
1
  6
CONTINUOUS
 62
     7
 10
-258.2154337746284
 20
89.74759244935261
 30
0.0
  0
VERTEX
  5
50C
  8
1
  6
CONTINUOUS
 62
     7
 10
-258.4452480534285
 20
89.74149708529424
 30
0.0
  0
VERTEX
  5
50D
  8
1
  6
CONTINUOUS
 62
     7
 10
-258.6732273465814
 20
89.73540601004783
 30
0.0
  0
VERTEX
  5
50E
  8
1
  6
CONTINUOUS
 62
     7
 10
-258.8993268568056
 20
89.72931921457356
 30
0.0
  0
VERTEX
  5
50F
  8
1
  6
CONTINUOUS
 62
     7
 10
-259.1235017868196
 20
89.72323668983171
 30
0.0
  0
VERTEX
  5
510
  8
1
  6
CONTINUOUS
 62
     7
 10
-259.3457073393419
 20
89.71715842678242
 30
0.0
  0
VERTEX
  5
511
  8
1
  6
CONTINUOUS
 62
     7
 10
-259.5658987171869
 20
89.71108441638592
 30
0.0
  0
VERTEX
  5
512
  8
1
  6
CONTINUOUS
 62
     7
 10
-259.7840320437274
 20
89.70501464965919
 30
0.0
  0
VERTEX
  5
513
  8
1
  6
CONTINUOUS
 62
     7
 10
-260.0000666188637
 20
89.69894911781498
 30
0.0
  0
VERTEX
  5
514
  8
1
  6
CONTINUOUS
 62
     7
 10
-260.2139624271578
 20
89.69288781210825
 30
0.0
  0
VERTEX
  5
515
  8
1
  6
CONTINUOUS
 62
     7
 10
-260.4256794531718
 20
89.68683072379399
 30
0.0
  0
VERTEX
  5
516
  8
1
  6
CONTINUOUS
 62
     7
 10
-260.6351776814681
 20
89.68077784412715
 30
0.0
  0
VERTEX
  5
517
  8
1
  6
CONTINUOUS
 62
     7
 10
-260.8424170966086
 20
89.67472916436273
 30
0.0
  0
VERTEX
  5
518
  8
1
  6
CONTINUOUS
 62
     7
 10
-261.0473576831556
 20
89.6686846757557
 30
0.0
  0
VERTEX
  5
519
  8
1
  6
CONTINUOUS
 62
     7
 10
-261.2499594256711
 20
89.662644369561
 30
0.0
  0
VERTEX
  5
51A
  8
1
  6
CONTINUOUS
 62
     7
 10
-261.4501823087174
 20
89.65660823703364
 30
0.0
  0
VERTEX
  5
51B
  8
1
  6
CONTINUOUS
 62
     7
 10
-261.6479864406949
 20
89.65057626943513
 30
0.0
  0
VERTEX
  5
51C
  8
1
  6
CONTINUOUS
 62
     7
 10
-261.8433345591789
 20
89.64454845816596
 30
0.0
  0
VERTEX
  5
51D
  8
1
  6
CONTINUOUS
 62
     7
 10
-262.0361919146633
 20
89.63852479475948
 30
0.0
  0
VERTEX
  5
51E
  8
1
  6
CONTINUOUS
 62
     7
 10
-262.2265238582143
 20
89.63250527075432
 30
0.0
  0
VERTEX
  5
51F
  8
1
  6
CONTINUOUS
 62
     7
 10
-262.4142957408982
 20
89.62648987768914
 30
0.0
  0
VERTEX
  5
520
  8
1
  6
CONTINUOUS
 62
     7
 10
-262.5994729137813
 20
89.62047860710257
 30
0.0
  0
VERTEX
  5
521
  8
1
  6
CONTINUOUS
 62
     7
 10
-262.7820207279296
 20
89.6144714505333
 30
0.0
  0
VERTEX
  5
522
  8
1
  6
CONTINUOUS
 62
     7
 10
-262.9619045344098
 20
89.60846839951996
 30
0.0
  0
VERTEX
  5
523
  8
1
  6
CONTINUOUS
 62
     7
 10
-263.1390896842878
 20
89.60246944560117
 30
0.0
  0
VERTEX
  5
524
  8
1
  6
CONTINUOUS
 62
     7
 10
-263.31354152863
 20
89.59647458031563
 30
0.0
  0
VERTEX
  5
525
  8
1
  6
CONTINUOUS
 62
     7
 10
-263.4852261821886
 20
89.59048379523736
 30
0.0
  0
VERTEX
  5
526
  8
1
  6
CONTINUOUS
 62
     7
 10
-263.6541136206675
 20
89.58449708211955
 30
0.0
  0
VERTEX
  5
527
  8
1
  6
CONTINUOUS
 62
     7
 10
-263.8201750370839
 20
89.57851443277178
 30
0.0
  0
VERTEX
  5
528
  8
1
  6
CONTINUOUS
 62
     7
 10
-263.9833816249136
 20
89.57253583900369
 30
0.0
  0
VERTEX
  5
529
  8
1
  6
CONTINUOUS
 62
     7
 10
-264.1437045776327
 20
89.56656129262488
 30
0.0
  0
VERTEX
  5
52A
  8
1
  6
CONTINUOUS
 62
     7
 10
-264.3011150887168
 20
89.56059078544504
 30
0.0
  0
VERTEX
  5
52B
  8
1
  6
CONTINUOUS
 62
     7
 10
-264.4555843516418
 20
89.55462430927372
 30
0.0
  0
VERTEX
  5
52C
  8
1
  6
CONTINUOUS
 62
     7
 10
-264.6070835598835
 20
89.54866185592059
 30
0.0
  0
VERTEX
  5
52D
  8
1
  6
CONTINUOUS
 62
     7
 10
-264.7555839069179
 20
89.54270341719527
 30
0.0
  0
VERTEX
  5
52E
  8
1
  6
CONTINUOUS
 62
     7
 10
-264.9010566052339
 20
89.53674898490823
 30
0.0
  0
VERTEX
  5
52F
  8
1
  6
CONTINUOUS
 62
     7
 10
-265.04347487875
 20
89.5307985509564
 30
0.0
  0
VERTEX
  5
530
  8
1
  6
CONTINUOUS
 62
     7
 10
-265.1828157112828
 20
89.52485210739853
 30
0.0
  0
VERTEX
  5
531
  8
1
  6
CONTINUOUS
 62
     7
 10
-265.3190564988572
 20
89.5189096463111
 30
0.0
  0
VERTEX
  5
532
  8
1
  6
CONTINUOUS
 62
     7
 10
-265.4521746374979
 20
89.51297115977056
 30
0.0
  0
VERTEX
  5
533
  8
1
  6
CONTINUOUS
 62
     7
 10
-265.5821475232295
 20
89.50703663985335
 30
0.0
  0
VERTEX
  5
534
  8
1
  6
CONTINUOUS
 62
     7
 10
-265.7089525520769
 20
89.50110607863598
 30
0.0
  0
VERTEX
  5
535
  8
1
  6
CONTINUOUS
 62
     7
 10
-265.8325671200649
 20
89.4951794681949
 30
0.0
  0
VERTEX
  5
536
  8
1
  6
CONTINUOUS
 62
     7
 10
-265.9529686232181
 20
89.48925680060654
 30
0.0
  0
VERTEX
  5
537
  8
1
  6
CONTINUOUS
 62
     7
 10
-266.0701344575614
 20
89.48333806794741
 30
0.0
  0
VERTEX
  5
538
  8
1
  6
CONTINUOUS
 62
     7
 10
-266.1840421906808
 20
89.47742326230018
 30
0.0
  0
VERTEX
  5
539
  8
1
  6
CONTINUOUS
 62
     7
 10
-266.2946726457464
 20
89.47151237586641
 30
0.0
  0
VERTEX
  5
53A
  8
1
  6
CONTINUOUS
 62
     7
 10
-266.4020095587192
 20
89.4656054009539
 30
0.0
  0
VERTEX
  5
53B
  8
1
  6
CONTINUOUS
 62
     7
 10
-266.5060367682968
 20
89.45970232987416
 30
0.0
  0
VERTEX
  5
53C
  8
1
  6
CONTINUOUS
 62
     7
 10
-266.6067381131772
 20
89.45380315493873
 30
0.0
  0
VERTEX
  5
53D
  8
1
  6
CONTINUOUS
 62
     7
 10
-266.7040974320581
 20
89.44790786845917
 30
0.0
  0
VERTEX
  5
53E
  8
1
  6
CONTINUOUS
 62
     7
 10
-266.7980985636373
 20
89.44201646274703
 30
0.0
  0
VERTEX
  5
53F
  8
1
  6
CONTINUOUS
 62
     7
 10
-266.8887253466127
 20
89.43612893011385
 30
0.0
  0
VERTEX
  5
540
  8
1
  6
CONTINUOUS
 62
     7
 10
-266.9759616196819
 20
89.43024526287118
 30
0.0
  0
VERTEX
  5
541
  8
1
  6
CONTINUOUS
 62
     7
 10
-267.059791221543
 20
89.42436545333058
 30
0.0
  0
VERTEX
  5
542
  8
1
  6
CONTINUOUS
 62
     7
 10
-267.1401984678026
 20
89.41848949382532
 30
0.0
  0
VERTEX
  5
543
  8
1
  6
CONTINUOUS
 62
     7
 10
-267.2171717134636
 20
89.41261737687317
 30
0.0
  0
VERTEX
  5
544
  8
1
  6
CONTINUOUS
 62
     7
 10
-267.2907013470615
 20
89.40674909508466
 30
0.0
  0
VERTEX
  5
545
  8
1
  6
CONTINUOUS
 62
     7
 10
-267.3607777726036
 20
89.4008846410711
 30
0.0
  0
VERTEX
  5
546
  8
1
  6
CONTINUOUS
 62
     7
 10
-267.427391394097
 20
89.39502400744378
 30
0.0
  0
VERTEX
  5
547
  8
1
  6
CONTINUOUS
 62
     7
 10
-267.4905326155488
 20
89.38916718681396
 30
0.0
  0
VERTEX
  5
548
  8
1
  6
CONTINUOUS
 62
     7
 10
-267.5501918409662
 20
89.38331417179289
 30
0.0
  0
VERTEX
  5
549
  8
1
  6
CONTINUOUS
 62
     7
 10
-267.6063594743566
 20
89.37746495499186
 30
0.0
  0
VERTEX
  5
54A
  8
1
  6
CONTINUOUS
 62
     7
 10
-267.6590259197269
 20
89.37161952902215
 30
0.0
  0
VERTEX
  5
54B
  8
1
  6
CONTINUOUS
 62
     7
 10
-267.7081815810845
 20
89.3657778864951
 30
0.0
  0
VERTEX
  5
54C
  8
1
  6
CONTINUOUS
 62
     7
 10
-267.7538176883157
 20
89.35994002002698
 30
0.0
  0
VERTEX
  5
54D
  8
1
  6
CONTINUOUS
 62
     7
 10
-267.7959297957448
 20
89.35410592226123
 30
0.0
  0
VERTEX
  5
54E
  8
1
  6
CONTINUOUS
 62
     7
 10
-267.8345148683287
 20
89.34827558584985
 30
0.0
  0
VERTEX
  5
54F
  8
1
  6
CONTINUOUS
 62
     7
 10
-267.8695698718037
 20
89.34244900344494
 30
0.0
  0
VERTEX
  5
550
  8
1
  6
CONTINUOUS
 62
     7
 10
-267.9010917719067
 20
89.33662616769854
 30
0.0
  0
VERTEX
  5
551
  8
1
  6
CONTINUOUS
 62
     7
 10
-267.9290775343746
 20
89.33080707126278
 30
0.0
  0
VERTEX
  5
552
  8
1
  6
CONTINUOUS
 62
     7
 10
-267.953524124944
 20
89.32499170678972
 30
0.0
  0
VERTEX
  5
553
  8
1
  6
CONTINUOUS
 62
     7
 10
-267.9744285093516
 20
89.31918006693142
 30
0.0
  0
VERTEX
  5
554
  8
1
  6
CONTINUOUS
 62
     7
 10
-267.9917876533342
 20
89.31337214433998
 30
0.0
  0
VERTEX
  5
555
  8
1
  6
CONTINUOUS
 62
     7
 10
-268.0055985226286
 20
89.30756793166745
 30
0.0
  0
SEQEND
  5
696
  8
1
  6
CONTINUOUS
 62
     7
  0
POLYLINE
  5
16C
  8
1
  6
CONTINUOUS
 62
     7
 66
     1
 10
0.0
 20
0.0
 30
0.0
  0
VERTEX
  5
556
  8
1
  6
CONTINUOUS
 62
     7
 10
-268.0051727262378
 20
83.90767809945653
 30
0.0
  0
VERTEX
  5
557
  8
1
  6
CONTINUOUS
 62
     7
 10
-267.9970076387963
 20
83.9201382711207
 30
0.0
  0
VERTEX
  5
558
  8
1
  6
CONTINUOUS
 62
     7
 10
-267.9725528262254
 20
83.93259844278487
 30
0.0
  0
VERTEX
  5
559
  8
1
  6
CONTINUOUS
 62
     7
 10
-267.9317830097157
 20
83.945058614449
 30
0.0
  0
VERTEX
  5
55A
  8
1
  6
CONTINUOUS
 62
     7
 10
-267.874673861366
 20
83.95751878611316
 30
0.0
  0
VERTEX
  5
55B
  8
1
  6
CONTINUOUS
 62
     7
 10
-267.8012569785957
 20
83.96997895777731
 30
0.0
  0
VERTEX
  5
55C
  8
1
  6
CONTINUOUS
 62
     7
 10
-267.7116499999652
 20
83.98243912944145
 30
0.0
  0
VERTEX
  5
55D
  8
1
  6
CONTINUOUS
 62
     7
 10
-267.6059778907671
 20
83.99489930110559
 30
0.0
  0
VERTEX
  5
55E
  8
1
  6
CONTINUOUS
 62
     7
 10
-267.4843656162932
 20
84.00735947276975
 30
0.0
  0
VERTEX
  5
55F
  8
1
  6
CONTINUOUS
 62
     7
 10
-267.3469381418358
 20
84.0198196444339
 30
0.0
  0
VERTEX
  5
560
  8
1
  6
CONTINUOUS
 62
     7
 10
-267.1938204326867
 20
84.03227981609804
 30
0.0
  0
VERTEX
  5
561
  8
1
  6
CONTINUOUS
 62
     7
 10
-267.0251374541382
 20
84.04473998776217
 30
0.0
  0
VERTEX
  5
562
  8
1
  6
CONTINUOUS
 62
     7
 10
-266.8410141714825
 20
84.05720015942633
 30
0.0
  0
VERTEX
  5
563
  8
1
  6
CONTINUOUS
 62
     7
 10
-266.6415755500115
 20
84.06966033109047
 30
0.0
  0
VERTEX
  5
564
  8
1
  6
CONTINUOUS
 62
     7
 10
-266.4269465550173
 20
84.08212050275462
 30
0.0
  0
VERTEX
  5
565
  8
1
  6
CONTINUOUS
 62
     7
 10
-266.1972528890079
 20
84.09458067441878
 30
0.0
  0
VERTEX
  5
566
  8
1
  6
CONTINUOUS
 62
     7
 10
-265.9526698068175
 20
84.10704084608294
 30
0.0
  0
VERTEX
  5
567
  8
1
  6
CONTINUOUS
 62
     7
 10
-265.6934525949964
 20
84.11950101774708
 30
0.0
  0
VERTEX
  5
568
  8
1
  6
CONTINUOUS
 62
     7
 10
-265.4198638158526
 20
84.13196118941123
 30
0.0
  0
VERTEX
  5
569
  8
1
  6
CONTINUOUS
 62
     7
 10
-265.1321660316943
 20
84.14442136107536
 30
0.0
  0
VERTEX
  5
56A
  8
1
  6
CONTINUOUS
 62
     7
 10
-264.8306218048298
 20
84.15688153273953
 30
0.0
  0
VERTEX
  5
56B
  8
1
  6
CONTINUOUS
 62
     7
 10
-264.5154936975672
 20
84.16934170440369
 30
0.0
  0
VERTEX
  5
56C
  8
1
  6
CONTINUOUS
 62
     7
 10
-264.1870442722147
 20
84.18180187606784
 30
0.0
  0
VERTEX
  5
56D
  8
1
  6
CONTINUOUS
 62
     7
 10
-263.8455360910805
 20
84.19426204773197
 30
0.0
  0
VERTEX
  5
56E
  8
1
  6
CONTINUOUS
 62
     7
 10
-263.4912317164727
 20
84.20672221939614
 30
0.0
  0
VERTEX
  5
56F
  8
1
  6
CONTINUOUS
 62
     7
 10
-263.1243937106997
 20
84.21918239106027
 30
0.0
  0
VERTEX
  5
570
  8
1
  6
CONTINUOUS
 62
     7
 10
-262.7452851347163
 20
84.23164256272443
 30
0.0
  0
VERTEX
  5
571
  8
1
  6
CONTINUOUS
 62
     7
 10
-262.3542076902507
 20
84.24410273438856
 30
0.0
  0
VERTEX
  5
572
  8
1
  6
CONTINUOUS
 62
     7
 10
-261.9515286119195
 20
84.25656290605272
 30
0.0
  0
VERTEX
  5
573
  8
1
  6
CONTINUOUS
 62
     7
 10
-261.5376214864852
 20
84.26902307771688
 30
0.0
  0
VERTEX
  5
574
  8
1
  6
CONTINUOUS
 62
     7
 10
-261.1128599007108
 20
84.28148324938101
 30
0.0
  0
VERTEX
  5
575
  8
1
  6
CONTINUOUS
 62
     7
 10
-260.6776174413592
 20
84.29394342104516
 30
0.0
  0
VERTEX
  5
576
  8
1
  6
CONTINUOUS
 62
     7
 10
-260.2322676951931
 20
84.30640359270932
 30
0.0
  0
VERTEX
  5
577
  8
1
  6
CONTINUOUS
 62
     7
 10
-259.7771842489753
 20
84.31886376437346
 30
0.0
  0
VERTEX
  5
578
  8
1
  6
CONTINUOUS
 62
     7
 10
-259.3127406894687
 20
84.33132393603762
 30
0.0
  0
VERTEX
  5
579
  8
1
  6
CONTINUOUS
 62
     7
 10
-258.8393106034362
 20
84.34378410770177
 30
0.0
  0
VERTEX
  5
57A
  8
1
  6
CONTINUOUS
 62
     7
 10
-258.3572675776404
 20
84.35624427936591
 30
0.0
  0
VERTEX
  5
57B
  8
1
  6
CONTINUOUS
 62
     7
 10
-257.866985471478
 20
84.36870445103006
 30
0.0
  0
VERTEX
  5
57C
  8
1
  6
CONTINUOUS
 62
     7
 10
-257.3688627436078
 20
84.38116462269423
 30
0.0
  0
VERTEX
  5
57D
  8
1
  6
CONTINUOUS
 62
     7
 10
-256.8633416731098
 20
84.39362479435836
 30
0.0
  0
VERTEX
  5
57E
  8
1
  6
CONTINUOUS
 62
     7
 10
-256.3508690624339
 20
84.40608496602252
 30
0.0
  0
VERTEX
  5
57F
  8
1
  6
CONTINUOUS
 62
     7
 10
-255.8318917140304
 20
84.41854513768666
 30
0.0
  0
VERTEX
  5
580
  8
1
  6
CONTINUOUS
 62
     7
 10
-255.3068564303494
 20
84.43100530935081
 30
0.0
  0
VERTEX
  5
581
  8
1
  6
CONTINUOUS
 62
     7
 10
-254.7762100138411
 20
84.44346548101495
 30
0.0
  0
VERTEX
  5
582
  8
1
  6
CONTINUOUS
 62
     7
 10
-254.2403992669558
 20
84.4559256526791
 30
0.0
  0
VERTEX
  5
583
  8
1
  6
CONTINUOUS
 62
     7
 10
-253.6998709921437
 20
84.46838582434327
 30
0.0
  0
VERTEX
  5
584
  8
1
  6
CONTINUOUS
 62
     7
 10
-253.1550719918547
 20
84.48084599600742
 30
0.0
  0
VERTEX
  5
585
  8
1
  6
CONTINUOUS
 62
     7
 10
-252.6064490685392
 20
84.49330616767158
 30
0.0
  0
VERTEX
  5
586
  8
1
  6
CONTINUOUS
 62
     7
 10
-252.0544491100092
 20
84.50576633933572
 30
0.0
  0
VERTEX
  5
587
  8
1
  6
CONTINUOUS
 62
     7
 10
-251.4995280745827
 20
84.51822651099987
 30
0.0
  0
VERTEX
  5
588
  8
1
  6
CONTINUOUS
 62
     7
 10
-250.9421588976408
 20
84.53068668266403
 30
0.0
  0
VERTEX
  5
589
  8
1
  6
CONTINUOUS
 62
     7
 10
-250.3828163787759
 20
84.54314685432816
 30
0.0
  0
VERTEX
  5
58A
  8
1
  6
CONTINUOUS
 62
     7
 10
-249.8219753175805
 20
84.55560702599232
 30
0.0
  0
VERTEX
  5
58B
  8
1
  6
CONTINUOUS
 62
     7
 10
-249.2601105136472
 20
84.56806719765648
 30
0.0
  0
VERTEX
  5
58C
  8
1
  6
CONTINUOUS
 62
     7
 10
-248.6976967665684
 20
84.58052736932059
 30
0.0
  0
VERTEX
  5
58D
  8
1
  6
CONTINUOUS
 62
     7
 10
-248.1352088759367
 20
84.59298754098477
 30
0.0
  0
VERTEX
  5
58E
  8
1
  6
CONTINUOUS
 62
     7
 10
-247.5731216413445
 20
84.60544771264891
 30
0.0
  0
VERTEX
  5
58F
  8
1
  6
CONTINUOUS
 62
     7
 10
-247.0119098623843
 20
84.61790788431306
 30
0.0
  0
VERTEX
  5
590
  8
1
  6
CONTINUOUS
 62
     7
 10
-246.4520483386486
 20
84.63036805597721
 30
0.0
  0
VERTEX
  5
591
  8
1
  6
CONTINUOUS
 62
     7
 10
-245.8940118203737
 20
84.64282822764136
 30
0.0
  0
VERTEX
  5
592
  8
1
  6
CONTINUOUS
 62
     7
 10
-245.3382687997807
 20
84.6552883993055
 30
0.0
  0
VERTEX
  5
593
  8
1
  6
CONTINUOUS
 62
     7
 10
-244.7852754582026
 20
84.66774857096965
 30
0.0
  0
VERTEX
  5
594
  8
1
  6
CONTINUOUS
 62
     7
 10
-244.2354865403842
 20
84.6802087426338
 30
0.0
  0
VERTEX
  5
595
  8
1
  6
CONTINUOUS
 62
     7
 10
-243.6893567910708
 20
84.69266891429795
 30
0.0
  0
VERTEX
  5
596
  8
1
  6
CONTINUOUS
 62
     7
 10
-243.1473409550072
 20
84.7051290859621
 30
0.0
  0
VERTEX
  5
597
  8
1
  6
CONTINUOUS
 62
     7
 10
-242.6098937769385
 20
84.71758925762623
 30
0.0
  0
VERTEX
  5
598
  8
1
  6
CONTINUOUS
 62
     7
 10
-242.07747000161
 20
84.7300494292904
 30
0.0
  0
VERTEX
  5
599
  8
1
  6
CONTINUOUS
 62
     7
 10
-241.5505243737665
 20
84.74250960095455
 30
0.0
  0
VERTEX
  5
59A
  8
1
  6
CONTINUOUS
 62
     7
 10
-241.0295116381531
 20
84.75496977261871
 30
0.0
  0
VERTEX
  5
59B
  8
1
  6
CONTINUOUS
 62
     7
 10
-240.5148865395149
 20
84.76742994428284
 30
0.0
  0
VERTEX
  5
59C
  8
1
  6
CONTINUOUS
 62
     7
 10
-240.0071036934777
 20
84.77989011594698
 30
0.0
  0
VERTEX
  5
59D
  8
1
  6
CONTINUOUS
 62
     7
 10
-239.5065978794705
 20
84.79235028761113
 30
0.0
  0
VERTEX
  5
59E
  8
1
  6
CONTINUOUS
 62
     7
 10
-239.0137628482946
 20
84.8048104592753
 30
0.0
  0
VERTEX
  5
59F
  8
1
  6
CONTINUOUS
 62
     7
 10
-238.5289872675042
 20
84.81727063093945
 30
0.0
  0
VERTEX
  5
5A0
  8
1
  6
CONTINUOUS
 62
     7
 10
-238.0526598046535
 20
84.82973080260359
 30
0.0
  0
VERTEX
  5
5A1
  8
1
  6
CONTINUOUS
 62
     7
 10
-237.5851691272971
 20
84.84219097426774
 30
0.0
  0
VERTEX
  5
5A2
  8
1
  6
CONTINUOUS
 62
     7
 10
-237.1269039029891
 20
84.85465114593191
 30
0.0
  0
VERTEX
  5
5A3
  8
1
  6
CONTINUOUS
 62
     7
 10
-236.678252799284
 20
84.86711131759604
 30
0.0
  0
VERTEX
  5
5A4
  8
1
  6
CONTINUOUS
 62
     7
 10
-236.239604483736
 20
84.8795714892602
 30
0.0
  0
VERTEX
  5
5A5
  8
1
  6
CONTINUOUS
 62
     7
 10
-235.8113476238996
 20
84.89203166092435
 30
0.0
  0
VERTEX
  5
5A6
  8
1
  6
CONTINUOUS
 62
     7
 10
-235.3938708873291
 20
84.90449183258849
 30
0.0
  0
VERTEX
  5
5A7
  8
1
  6
CONTINUOUS
 62
     7
 10
-234.9875627811447
 20
84.91695200425262
 30
0.0
  0
VERTEX
  5
5A8
  8
1
  6
CONTINUOUS
 62
     7
 10
-234.5927814058232
 20
84.92941217591678
 30
0.0
  0
VERTEX
  5
5A9
  8
1
  6
CONTINUOUS
 62
     7
 10
-234.2098187110794
 20
84.94187234758094
 30
0.0
  0
VERTEX
  5
5AA
  8
1
  6
CONTINUOUS
 62
     7
 10
-233.8389579522612
 20
84.95433251924509
 30
0.0
  0
VERTEX
  5
5AB
  8
1
  6
CONTINUOUS
 62
     7
 10
-233.4804823847169
 20
84.96679269090924
 30
0.0
  0
VERTEX
  5
5AC
  8
1
  6
CONTINUOUS
 62
     7
 10
-233.1346752637945
 20
84.97925286257339
 30
0.0
  0
VERTEX
  5
5AD
  8
1
  6
CONTINUOUS
 62
     7
 10
-232.8018198448421
 20
84.99171303423755
 30
0.0
  0
VERTEX
  5
5AE
  8
1
  6
CONTINUOUS
 62
     7
 10
-232.4821993832077
 20
85.00417320590168
 30
0.0
  0
VERTEX
  5
5AF
  8
1
  6
CONTINUOUS
 62
     7
 10
-232.1760971342397
 20
85.01663337756585
 30
0.0
  0
VERTEX
  5
5B0
  8
1
  6
CONTINUOUS
 62
     7
 10
-231.883796353286
 20
85.02909354922998
 30
0.0
  0
VERTEX
  5
5B1
  8
1
  6
CONTINUOUS
 62
     7
 10
-231.6055802956946
 20
85.04155372089414
 30
0.0
  0
VERTEX
  5
5B2
  8
1
  6
CONTINUOUS
 62
     7
 10
-231.3417320614453
 20
85.0540138925583
 30
0.0
  0
VERTEX
  5
5B3
  8
1
  6
CONTINUOUS
 62
     7
 10
-231.0924976327611
 20
85.06647406422246
 30
0.0
  0
VERTEX
  5
5B4
  8
1
  6
CONTINUOUS
 62
     7
 10
-230.8580380239917
 20
85.07893423588659
 30
0.0
  0
VERTEX
  5
5B5
  8
1
  6
CONTINUOUS
 62
     7
 10
-230.638502411483
 20
85.09139440755077
 30
0.0
  0
VERTEX
  5
5B6
  8
1
  6
CONTINUOUS
 62
     7
 10
-230.4340399715806
 20
85.10385457921488
 30
0.0
  0
VERTEX
  5
5B7
  8
1
  6
CONTINUOUS
 62
     7
 10
-230.2447998806305
 20
85.11631475087904
 30
0.0
  0
VERTEX
  5
5B8
  8
1
  6
CONTINUOUS
 62
     7
 10
-230.0709313149784
 20
85.12877492254319
 30
0.0
  0
VERTEX
  5
5B9
  8
1
  6
CONTINUOUS
 62
     7
 10
-229.9125834509701
 20
85.14123509420733
 30
0.0
  0
VERTEX
  5
5BA
  8
1
  6
CONTINUOUS
 62
     7
 10
-229.7699054649516
 20
85.15369526587148
 30
0.0
  0
VERTEX
  5
5BB
  8
1
  6
CONTINUOUS
 62
     7
 10
-229.6430465332684
 20
85.16615543753562
 30
0.0
  0
VERTEX
  5
5BC
  8
1
  6
CONTINUOUS
 62
     7
 10
-229.5321558322666
 20
85.17861560919977
 30
0.0
  0
VERTEX
  5
5BD
  8
1
  6
CONTINUOUS
 62
     7
 10
-229.4373824102202
 20
85.19107578086393
 30
0.0
  0
VERTEX
  5
5BE
  8
1
  6
CONTINUOUS
 62
     7
 10
-229.3588357305331
 20
85.20353595252809
 30
0.0
  0
SEQEND
  5
697
  8
1
  6
CONTINUOUS
 62
     7
  0
LINE
  5
16D
  8
1
  6
CONTINUOUS
 62
     7
 10
-268.0051727500639
 20
84.89605813177123
 30
0.0
 11
-267.8537728176674
 21
84.94976798219386
 31
0.0
  0
LINE
  5
16E
  8
1
  6
CONTINUOUS
 62
     7
 10
-267.8551069883214
 20
86.55401248388475
 30
0.0
 11
-267.9482230505633
 21
86.57452869943336
 31
0.0
  0
LINE
  5
16F
  8
1
  6
CONTINUOUS
 62
     7
 10
-267.7122588428437
 20
89.23281274748777
 30
0.0
 11
-268.0055985226286
 21
89.30756793166745
 31
0.0
  0
POLYLINE
  5
170
  8
1
  6
CONTINUOUS
 62
     7
 66
     1
 10
0.0
 20
0.0
 30
0.0
  0
VERTEX
  5
5BF
  8
1
  6
CONTINUOUS
 62
     7
 10
-267.8512404872815
 20
87.65015927920514
 30
0.0
  0
VERTEX
  5
5C0
  8
1
  6
CONTINUOUS
 62
     7
 10
-267.7725756094041
 20
87.6626180081843
 30
0.0
  0
VERTEX
  5
5C1
  8
1
  6
CONTINUOUS
 62
     7
 10
-267.6777854455908
 20
87.67507673716344
 30
0.0
  0
VERTEX
  5
5C2
  8
1
  6
CONTINUOUS
 62
     7
 10
-267.5668952658717
 20
87.68753546614259
 30
0.0
  0
VERTEX
  5
5C3
  8
1
  6
CONTINUOUS
 62
     7
 10
-267.4399551509234
 20
87.69999419512175
 30
0.0
  0
VERTEX
  5
5C4
  8
1
  6
CONTINUOUS
 62
     7
 10
-267.2971136032742
 20
87.7124529241009
 30
0.0
  0
VERTEX
  5
5C5
  8
1
  6
CONTINUOUS
 62
     7
 10
-267.1385435274257
 20
87.72491165308006
 30
0.0
  0
VERTEX
  5
5C6
  8
1
  6
CONTINUOUS
 62
     7
 10
-266.9644178278798
 20
87.7373703820592
 30
0.0
  0
VERTEX
  5
5C7
  8
1
  6
CONTINUOUS
 62
     7
 10
-266.774909409138
 20
87.74982911103835
 30
0.0
  0
VERTEX
  5
5C8
  8
1
  6
CONTINUOUS
 62
     7
 10
-266.5701911757024
 20
87.76228784001749
 30
0.0
  0
VERTEX
  5
5C9
  8
1
  6
CONTINUOUS
 62
     7
 10
-266.3504360320744
 20
87.77474656899666
 30
0.0
  0
VERTEX
  5
5CA
  8
1
  6
CONTINUOUS
 62
     7
 10
-266.115816882756
 20
87.78720529797582
 30
0.0
  0
VERTEX
  5
5CB
  8
1
  6
CONTINUOUS
 62
     7
 10
-265.8665066322486
 20
87.79966402695496
 30
0.0
  0
VERTEX
  5
5CC
  8
1
  6
CONTINUOUS
 62
     7
 10
-265.6026781850541
 20
87.81212275593414
 30
0.0
  0
VERTEX
  5
5CD
  8
1
  6
CONTINUOUS
 62
     7
 10
-265.3245044456742
 20
87.82458148491328
 30
0.0
  0
VERTEX
  5
5CE
  8
1
  6
CONTINUOUS
 62
     7
 10
-265.0321789414875
 20
87.83704021389241
 30
0.0
  0
VERTEX
  5
5CF
  8
1
  6
CONTINUOUS
 62
     7
 10
-264.7259819211701
 20
87.84949894287158
 30
0.0
  0
VERTEX
  5
5D0
  8
1
  6
CONTINUOUS
 62
     7
 10
-264.4062164248328
 20
87.86195767185073
 30
0.0
  0
VERTEX
  5
5D1
  8
1
  6
CONTINUOUS
 62
     7
 10
-264.0731854926867
 20
87.87441640082987
 30
0.0
  0
VERTEX
  5
5D2
  8
1
  6
CONTINUOUS
 62
     7
 10
-263.7271921649432
 20
87.88687512980903
 30
0.0
  0
VERTEX
  5
5D3
  8
1
  6
CONTINUOUS
 62
     7
 10
-263.3685394818135
 20
87.89933385878818
 30
0.0
  0
VERTEX
  5
5D4
  8
1
  6
CONTINUOUS
 62
     7
 10
-262.9975304835088
 20
87.91179258776735
 30
0.0
  0
VERTEX
  5
5D5
  8
1
  6
CONTINUOUS
 62
     7
 10
-262.6144682102402
 20
87.92425131674648
 30
0.0
  0
VERTEX
  5
5D6
  8
1
  6
CONTINUOUS
 62
     7
 10
-262.219655702219
 20
87.93671004572562
 30
0.0
  0
VERTEX
  5
5D7
  8
1
  6
CONTINUOUS
 62
     7
 10
-261.8133959996564
 20
87.94916877470479
 30
0.0
  0
VERTEX
  5
5D8
  8
1
  6
CONTINUOUS
 62
     7
 10
-261.3959921427636
 20
87.96162750368393
 30
0.0
  0
VERTEX
  5
5D9
  8
1
  6
CONTINUOUS
 62
     7
 10
-260.9677620182302
 20
87.97408623266308
 30
0.0
  0
VERTEX
  5
5DA
  8
1
  6
CONTINUOUS
 62
     7
 10
-260.5290896965279
 20
87.98654496164224
 30
0.0
  0
VERTEX
  5
5DB
  8
1
  6
CONTINUOUS
 62
     7
 10
-260.0803776836788
 20
87.99900369062141
 30
0.0
  0
VERTEX
  5
5DC
  8
1
  6
CONTINUOUS
 62
     7
 10
-259.6220284864846
 20
88.01146241960056
 30
0.0
  0
VERTEX
  5
5DD
  8
1
  6
CONTINUOUS
 62
     7
 10
-259.1544446117472
 20
88.02392114857969
 30
0.0
  0
VERTEX
  5
5DE
  8
1
  6
CONTINUOUS
 62
     7
 10
-258.6780285662687
 20
88.03637987755884
 30
0.0
  0
VERTEX
  5
5DF
  8
1
  6
CONTINUOUS
 62
     7
 10
-258.1931828568507
 20
88.048838606538
 30
0.0
  0
VERTEX
  5
5E0
  8
1
  6
CONTINUOUS
 62
     7
 10
-257.7003099902951
 20
88.06129733551714
 30
0.0
  0
VERTEX
  5
5E1
  8
1
  6
CONTINUOUS
 62
     7
 10
-257.1998124734038
 20
88.07375606449631
 30
0.0
  0
VERTEX
  5
5E2
  8
1
  6
CONTINUOUS
 62
     7
 10
-256.6920928129786
 20
88.08621479347546
 30
0.0
  0
VERTEX
  5
5E3
  8
1
  6
CONTINUOUS
 62
     7
 10
-256.1775535158215
 20
88.09867352245462
 30
0.0
  0
VERTEX
  5
5E4
  8
1
  6
CONTINUOUS
 62
     7
 10
-255.6566053353773
 20
88.11113225143376
 30
0.0
  0
VERTEX
  5
5E5
  8
1
  6
CONTINUOUS
 62
     7
 10
-255.1296980029872
 20
88.12359098041291
 30
0.0
  0
VERTEX
  5
5E6
  8
1
  6
CONTINUOUS
 62
     7
 10
-254.597292754754
 20
88.13604970939207
 30
0.0
  0
VERTEX
  5
5E7
  8
1
  6
CONTINUOUS
 62
     7
 10
-254.0598508284565
 20
88.14850843837121
 30
0.0
  0
VERTEX
  5
5E8
  8
1
  6
CONTINUOUS
 62
     7
 10
-253.5178334618739
 20
88.16096716735038
 30
0.0
  0
VERTEX
  5
5E9
  8
1
  6
CONTINUOUS
 62
     7
 10
-252.9717018927848
 20
88.17342589632952
 30
0.0
  0
VERTEX
  5
5EA
  8
1
  6
CONTINUOUS
 62
     7
 10
-252.4219173589685
 20
88.18588462530869
 30
0.0
  0
VERTEX
  5
5EB
  8
1
  6
CONTINUOUS
 62
     7
 10
-251.8689410982037
 20
88.19834335428783
 30
0.0
  0
VERTEX
  5
5EC
  8
1
  6
CONTINUOUS
 62
     7
 10
-251.3132343482694
 20
88.21080208326698
 30
0.0
  0
VERTEX
  5
5ED
  8
1
  6
CONTINUOUS
 62
     7
 10
-250.7552583469447
 20
88.22326081224612
 30
0.0
  0
VERTEX
  5
5EE
  8
1
  6
CONTINUOUS
 62
     7
 10
-250.1954743320084
 20
88.23571954122527
 30
0.0
  0
VERTEX
  5
5EF
  8
1
  6
CONTINUOUS
 62
     7
 10
-249.634345131116
 20
88.24817827020443
 30
0.0
  0
VERTEX
  5
5F0
  8
1
  6
CONTINUOUS
 62
     7
 10
-249.0723415410718
 20
88.26063699918359
 30
0.0
  0
VERTEX
  5
5F1
  8
1
  6
CONTINUOUS
 62
     7
 10
-248.5099368503163
 20
88.27309572816272
 30
0.0
  0
VERTEX
  5
5F2
  8
1
  6
CONTINUOUS
 62
     7
 10
-247.9476043481363
 20
88.28555445714188
 30
0.0
  0
VERTEX
  5
5F3
  8
1
  6
CONTINUOUS
 62
     7
 10
-247.3858173238181
 20
88.29801318612104
 30
0.0
  0
VERTEX
  5
5F4
  8
1
  6
CONTINUOUS
 62
     7
 10
-246.8250490666487
 20
88.31047191510021
 30
0.0
  0
VERTEX
  5
5F5
  8
1
  6
CONTINUOUS
 62
     7
 10
-246.2657728659146
 20
88.32293064407934
 30
0.0
  0
VERTEX
  5
5F6
  8
1
  6
CONTINUOUS
 62
     7
 10
-245.7084620109023
 20
88.33538937305849
 30
0.0
  0
VERTEX
  5
5F7
  8
1
  6
CONTINUOUS
 62
     7
 10
-245.1535897908986
 20
88.34784810203763
 30
0.0
  0
VERTEX
  5
5F8
  8
1
  6
CONTINUOUS
 62
     7
 10
-244.6016294951903
 20
88.3603068310168
 30
0.0
  0
VERTEX
  5
5F9
  8
1
  6
CONTINUOUS
 62
     7
 10
-244.0530544130636
 20
88.37276555999594
 30
0.0
  0
VERTEX
  5
5FA
  8
1
  6
CONTINUOUS
 62
     7
 10
-243.5083333965001
 20
88.38522428897508
 30
0.0
  0
VERTEX
  5
5FB
  8
1
  6
CONTINUOUS
 62
     7
 10
-242.967911703429
 20
88.39768301795424
 30
0.0
  0
VERTEX
  5
5FC
  8
1
  6
CONTINUOUS
 62
     7
 10
-242.4322267805309
 20
88.41014174693339
 30
0.0
  0
VERTEX
  5
5FD
  8
1
  6
CONTINUOUS
 62
     7
 10
-241.901716069461
 20
88.42260047591255
 30
0.0
  0
VERTEX
  5
5FE
  8
1
  6
CONTINUOUS
 62
     7
 10
-241.3768170118739
 20
88.4350592048917
 30
0.0
  0
VERTEX
  5
5FF
  8
1
  6
CONTINUOUS
 62
     7
 10
-240.8579670494247
 20
88.44751793387084
 30
0.0
  0
VERTEX
  5
600
  8
1
  6
CONTINUOUS
 62
     7
 10
-240.3456036237682
 20
88.45997666285
 30
0.0
  0
VERTEX
  5
601
  8
1
  6
CONTINUOUS
 62
     7
 10
-239.8401641765593
 20
88.47243539182915
 30
0.0
  0
VERTEX
  5
602
  8
1
  6
CONTINUOUS
 62
     7
 10
-239.3420861494529
 20
88.4848941208083
 30
0.0
  0
VERTEX
  5
603
  8
1
  6
CONTINUOUS
 62
     7
 10
-238.8518069841038
 20
88.49735284978745
 30
0.0
  0
VERTEX
  5
604
  8
1
  6
CONTINUOUS
 62
     7
 10
-238.369764122167
 20
88.5098115787666
 30
0.0
  0
VERTEX
  5
605
  8
1
  6
CONTINUOUS
 62
     7
 10
-237.8963857128491
 20
88.52227030774576
 30
0.0
  0
VERTEX
  5
606
  8
1
  6
CONTINUOUS
 62
     7
 10
-237.4320474718951
 20
88.53472903672491
 30
0.0
  0
VERTEX
  5
607
  8
1
  6
CONTINUOUS
 62
     7
 10
-236.9771067418363
 20
88.54718776570407
 30
0.0
  0
VERTEX
  5
608
  8
1
  6
CONTINUOUS
 62
     7
 10
-236.5319208455075
 20
88.5596464946832
 30
0.0
  0
VERTEX
  5
609
  8
1
  6
CONTINUOUS
 62
     7
 10
-236.0968471057438
 20
88.57210522366238
 30
0.0
  0
VERTEX
  5
60A
  8
1
  6
CONTINUOUS
 62
     7
 10
-235.6722428453799
 20
88.58456395264153
 30
0.0
  0
VERTEX
  5
60B
  8
1
  6
CONTINUOUS
 62
     7
 10
-235.258465387251
 20
88.59702268162069
 30
0.0
  0
VERTEX
  5
60C
  8
1
  6
CONTINUOUS
 62
     7
 10
-234.8558720541918
 20
88.60948141059983
 30
0.0
  0
VERTEX
  5
60D
  8
1
  6
CONTINUOUS
 62
     7
 10
-234.4648201690373
 20
88.621940139579
 30
0.0
  0
VERTEX
  5
60E
  8
1
  6
CONTINUOUS
 62
     7
 10
-234.0856670546223
 20
88.63439886855815
 30
0.0
  0
VERTEX
  5
60F
  8
1
  6
CONTINUOUS
 62
     7
 10
-233.7187700337819
 20
88.64685759753729
 30
0.0
  0
VERTEX
  5
610
  8
1
  6
CONTINUOUS
 62
     7
 10
-233.3644738105928
 20
88.65931632651645
 30
0.0
  0
VERTEX
  5
611
  8
1
  6
CONTINUOUS
 62
     7
 10
-233.0230474956121
 20
88.6717750554956
 30
0.0
  0
VERTEX
  5
612
  8
1
  6
CONTINUOUS
 62
     7
 10
-232.6947321759456
 20
88.68423378447476
 30
0.0
  0
VERTEX
  5
613
  8
1
  6
CONTINUOUS
 62
     7
 10
-232.3797688928297
 20
88.6966925134539
 30
0.0
  0
VERTEX
  5
614
  8
1
  6
CONTINUOUS
 62
     7
 10
-232.0783986875009
 20
88.70915124243304
 30
0.0
  0
VERTEX
  5
615
  8
1
  6
CONTINUOUS
 62
     7
 10
-231.7908626011955
 20
88.72160997141222
 30
0.0
  0
VERTEX
  5
616
  8
1
  6
CONTINUOUS
 62
     7
 10
-231.5174016751498
 20
88.73406870039136
 30
0.0
  0
VERTEX
  5
617
  8
1
  6
CONTINUOUS
 62
     7
 10
-231.2582569506006
 20
88.7465274293705
 30
0.0
  0
VERTEX
  5
618
  8
1
  6
CONTINUOUS
 62
     7
 10
-231.0136694687839
 20
88.75898615834964
 30
0.0
  0
VERTEX
  5
619
  8
1
  6
CONTINUOUS
 62
     7
 10
-230.7838802709365
 20
88.77144488732883
 30
0.0
  0
VERTEX
  5
61A
  8
1
  6
CONTINUOUS
 62
     7
 10
-230.5691303982945
 20
88.78390361630795
 30
0.0
  0
VERTEX
  5
61B
  8
1
  6
CONTINUOUS
 62
     7
 10
-230.3696466300794
 20
88.79636234528711
 30
0.0
  0
VERTEX
  5
61C
  8
1
  6
CONTINUOUS
 62
     7
 10
-230.1855649911668
 20
88.80882107426628
 30
0.0
  0
VERTEX
  5
61D
  8
1
  6
CONTINUOUS
 62
     7
 10
-230.0169859301438
 20
88.82127980324542
 30
0.0
  0
VERTEX
  5
61E
  8
1
  6
CONTINUOUS
 62
     7
 10
-229.8640098121172
 20
88.83373853222454
 30
0.0
  0
VERTEX
  5
61F
  8
1
  6
CONTINUOUS
 62
     7
 10
-229.7267370021937
 20
88.84619726120371
 30
0.0
  0
VERTEX
  5
620
  8
1
  6
CONTINUOUS
 62
     7
 10
-229.6052678654798
 20
88.85865599018285
 30
0.0
  0
VERTEX
  5
621
  8
1
  6
CONTINUOUS
 62
     7
 10
-229.4997027670823
 20
88.87111471916202
 30
0.0
  0
VERTEX
  5
622
  8
1
  6
CONTINUOUS
 62
     7
 10
-229.4101420721076
 20
88.88357344814118
 30
0.0
  0
VERTEX
  5
623
  8
1
  6
CONTINUOUS
 62
     7
 10
-229.3366861456626
 20
88.89603217712032
 30
0.0
  0
VERTEX
  5
624
  8
1
  6
CONTINUOUS
 62
     7
 10
-229.2794353528539
 20
88.90849090609947
 30
0.0
  0
VERTEX
  5
625
  8
1
  6
CONTINUOUS
 62
     7
 10
-229.2384900587879
 20
88.92094963507863
 30
0.0
  0
VERTEX
  5
626
  8
1
  6
CONTINUOUS
 62
     7
 10
-229.2139363650191
 20
88.93340836405777
 30
0.0
  0
VERTEX
  5
627
  8
1
  6
CONTINUOUS
 62
     7
 10
-229.2057639019461
 20
88.94586709303695
 30
0.0
  0
SEQEND
  5
698
  8
1
  6
CONTINUOUS
 62
     7
  0
LINE
  5
171
  8
1
  6
CONTINUOUS
 62
     7
 10
-229.2201013662491
 20
81.80177174324238
 30
0.0
 11
-229.2110843660802
 21
82.30177174324236
 31
0.0
  0
LINE
  5
172
  8
1
  6
CONTINUOUS
 62
     7
 10
-227.1055985226286
 20
81.80177174324238
 30
0.0
 11
-248.6055985226286
 21
81.80177174324238
 31
0.0
  0
POLYLINE
  5
173
  8
1
  6
CONTINUOUS
 62
     7
 66
     1
 10
0.0
 20
0.0
 30
0.0
  0
VERTEX
  5
628
  8
1
  6
CONTINUOUS
 62
     7
 10
-267.8537728176674
 20
84.94976798219386
 30
0.0
  0
VERTEX
  5
629
  8
1
  6
CONTINUOUS
 62
     7
 10
-267.7680594900588
 20
84.96327014444762
 30
0.0
  0
VERTEX
  5
62A
  8
1
  6
CONTINUOUS
 62
     7
 10
-267.6633925409525
 20
84.97677230670138
 30
0.0
  0
VERTEX
  5
62B
  8
1
  6
CONTINUOUS
 62
     7
 10
-267.5399309813565
 20
84.99027446895514
 30
0.0
  0
VERTEX
  5
62C
  8
1
  6
CONTINUOUS
 62
     7
 10
-267.3978338222788
 20
85.0037766312089
 30
0.0
  0
VERTEX
  5
62D
  8
1
  6
CONTINUOUS
 62
     7
 10
-267.2372600747273
 20
85.01727879346265
 30
0.0
  0
VERTEX
  5
62E
  8
1
  6
CONTINUOUS
 62
     7
 10
-267.0583687497102
 20
85.03078095571641
 30
0.0
  0
VERTEX
  5
62F
  8
1
  6
CONTINUOUS
 62
     7
 10
-266.8613188582354
 20
85.04428311797015
 30
0.0
  0
VERTEX
  5
630
  8
1
  6
CONTINUOUS
 62
     7
 10
-266.6462694113111
 20
85.05778528022392
 30
0.0
  0
VERTEX
  5
631
  8
1
  6
CONTINUOUS
 62
     7
 10
-266.4133794199452
 20
85.07128744247768
 30
0.0
  0
VERTEX
  5
632
  8
1
  6
CONTINUOUS
 62
     7
 10
-266.1628101643695
 20
85.08478960473143
 30
0.0
  0
VERTEX
  5
633
  8
1
  6
CONTINUOUS
 62
     7
 10
-265.8947986130847
 20
85.0982917669852
 30
0.0
  0
VERTEX
  5
634
  8
1
  6
CONTINUOUS
 62
     7
 10
-265.6096733667173
 20
85.11179392923894
 30
0.0
  0
VERTEX
  5
635
  8
1
  6
CONTINUOUS
 62
     7
 10
-265.3077685204609
 20
85.12529609149271
 30
0.0
  0
VERTEX
  5
636
  8
1
  6
CONTINUOUS
 62
     7
 10
-264.9894181695088
 20
85.13879825374646
 30
0.0
  0
VERTEX
  5
637
  8
1
  6
CONTINUOUS
 62
     7
 10
-264.6549564090546
 20
85.15230041600023
 30
0.0
  0
VERTEX
  5
638
  8
1
  6
CONTINUOUS
 62
     7
 10
-264.3047173342918
 20
85.16580257825399
 30
0.0
  0
VERTEX
  5
639
  8
1
  6
CONTINUOUS
 62
     7
 10
-263.9390350404137
 20
85.17930474050776
 30
0.0
  0
VERTEX
  5
63A
  8
1
  6
CONTINUOUS
 62
     7
 10
-263.558243622614
 20
85.19280690276152
 30
0.0
  0
VERTEX
  5
63B
  8
1
  6
CONTINUOUS
 62
     7
 10
-263.162677176086
 20
85.20630906501529
 30
0.0
  0
VERTEX
  5
63C
  8
1
  6
CONTINUOUS
 62
     7
 10
-262.7526702049699
 20
85.21981122726905
 30
0.0
  0
VERTEX
  5
63D
  8
1
  6
CONTINUOUS
 62
     7
 10
-262.3286025620643
 20
85.2333133895228
 30
0.0
  0
VERTEX
  5
63E
  8
1
  6
CONTINUOUS
 62
     7
 10
-261.8909400337751
 20
85.24681555177656
 30
0.0
  0
VERTEX
  5
63F
  8
1
  6
CONTINUOUS
 62
     7
 10
-261.4401579874492
 20
85.26031771403032
 30
0.0
  0
VERTEX
  5
640
  8
1
  6
CONTINUOUS
 62
     7
 10
-260.9767317904343
 20
85.2738198762841
 30
0.0
  0
VERTEX
  5
641
  8
1
  6
CONTINUOUS
 62
     7
 10
-260.5011368100776
 20
85.28732203853784
 30
0.0
  0
VERTEX
  5
642
  8
1
  6
CONTINUOUS
 62
     7
 10
-260.0138484137265
 20
85.3008242007916
 30
0.0
  0
VERTEX
  5
643
  8
1
  6
CONTINUOUS
 62
     7
 10
-259.5153419687285
 20
85.31432636304537
 30
0.0
  0
VERTEX
  5
644
  8
1
  6
CONTINUOUS
 62
     7
 10
-259.0060928424307
 20
85.32782852529913
 30
0.0
  0
VERTEX
  5
645
  8
1
  6
CONTINUOUS
 62
     7
 10
-258.4865764021807
 20
85.34133068755288
 30
0.0
  0
VERTEX
  5
646
  8
1
  6
CONTINUOUS
 62
     7
 10
-257.9572680270688
 20
85.35483284980664
 30
0.0
  0
VERTEX
  5
647
  8
1
  6
CONTINUOUS
 62
     7
 10
-257.418663218751
 20
85.3683350120604
 30
0.0
  0
VERTEX
  5
648
  8
1
  6
CONTINUOUS
 62
     7
 10
-256.8713188492425
 20
85.38183717431416
 30
0.0
  0
VERTEX
  5
649
  8
1
  6
CONTINUOUS
 62
     7
 10
-256.3158034485954
 20
85.39533933656793
 30
0.0
  0
VERTEX
  5
64A
  8
1
  6
CONTINUOUS
 62
     7
 10
-255.7526855468616
 20
85.40884149882169
 30
0.0
  0
VERTEX
  5
64B
  8
1
  6
CONTINUOUS
 62
     7
 10
-255.1825336740931
 20
85.42234366107544
 30
0.0
  0
VERTEX
  5
64C
  8
1
  6
CONTINUOUS
 62
     7
 10
-254.6059163603419
 20
85.43584582332917
 30
0.0
  0
VERTEX
  5
64D
  8
1
  6
CONTINUOUS
 62
     7
 10
-254.02340213566
 20
85.44934798558296
 30
0.0
  0
VERTEX
  5
64E
  8
1
  6
CONTINUOUS
 62
     7
 10
-253.4355595300993
 20
85.46285014783672
 30
0.0
  0
VERTEX
  5
64F
  8
1
  6
CONTINUOUS
 62
     7
 10
-252.8429570737117
 20
85.47635231009048
 30
0.0
  0
VERTEX
  5
650
  8
1
  6
CONTINUOUS
 62
     7
 10
-252.2461632965494
 20
85.48985447234425
 30
0.0
  0
VERTEX
  5
651
  8
1
  6
CONTINUOUS
 62
     7
 10
-251.6457514012112
 20
85.50335663459799
 30
0.0
  0
VERTEX
  5
652
  8
1
  6
CONTINUOUS
 62
     7
 10
-251.0423181383109
 20
85.51685879685176
 30
0.0
  0
VERTEX
  5
653
  8
1
  6
CONTINUOUS
 62
     7
 10
-250.43646765996
 20
85.53036095910552
 30
0.0
  0
VERTEX
  5
654
  8
1
  6
CONTINUOUS
 62
     7
 10
-249.8288041209545
 20
85.54386312135928
 30
0.0
  0
VERTEX
  5
655
  8
1
  6
CONTINUOUS
 62
     7
 10
-249.2199316760904
 20
85.55736528361304
 30
0.0
  0
VERTEX
  5
656
  8
1
  6
CONTINUOUS
 62
     7
 10
-248.6104544801637
 20
85.5708674458668
 30
0.0
  0
VERTEX
  5
657
  8
1
  6
CONTINUOUS
 62
     7
 10
-248.0009766879704
 20
85.58436960812058
 30
0.0
  0
VERTEX
  5
658
  8
1
  6
CONTINUOUS
 62
     7
 10
-247.3921024543065
 20
85.59787177037431
 30
0.0
  0
VERTEX
  5
659
  8
1
  6
CONTINUOUS
 62
     7
 10
-246.784435933968
 20
85.61137393262808
 30
0.0
  0
VERTEX
  5
65A
  8
1
  6
CONTINUOUS
 62
     7
 10
-246.1785812817511
 20
85.62487609488186
 30
0.0
  0
VERTEX
  5
65B
  8
1
  6
CONTINUOUS
 62
     7
 10
-245.5751408192573
 20
85.6383782571356
 30
0.0
  0
VERTEX
  5
65C
  8
1
  6
CONTINUOUS
 62
     7
 10
-244.9747011958823
 20
85.65188041938937
 30
0.0
  0
VERTEX
  5
65D
  8
1
  6
CONTINUOUS
 62
     7
 10
-244.3778411100645
 20
85.66538258164312
 30
0.0
  0
VERTEX
  5
65E
  8
1
  6
CONTINUOUS
 62
     7
 10
-243.7851391979888
 20
85.67888474389689
 30
0.0
  0
VERTEX
  5
65F
  8
1
  6
CONTINUOUS
 62
     7
 10
-243.1971740958402
 20
85.69238690615066
 30
0.0
  0
VERTEX
  5
660
  8
1
  6
CONTINUOUS
 62
     7
 10
-242.6145244398038
 20
85.7058890684044
 30
0.0
  0
VERTEX
  5
661
  8
1
  6
CONTINUOUS
 62
     7
 10
-242.0377688660645
 20
85.71939123065816
 30
0.0
  0
VERTEX
  5
662
  8
1
  6
CONTINUOUS
 62
     7
 10
-241.4674860108072
 20
85.73289339291192
 30
0.0
  0
VERTEX
  5
663
  8
1
  6
CONTINUOUS
 62
     7
 10
-240.9042545102171
 20
85.74639555516568
 30
0.0
  0
VERTEX
  5
664
  8
1
  6
CONTINUOUS
 62
     7
 10
-240.348653000479
 20
85.75989771741943
 30
0.0
  0
VERTEX
  5
665
  8
1
  6
CONTINUOUS
 62
     7
 10
-239.8012572758857
 20
85.77339987967319
 30
0.0
  0
VERTEX
  5
666
  8
1
  6
CONTINUOUS
 62
     7
 10
-239.2625984327191
 20
85.78690204192694
 30
0.0
  0
VERTEX
  5
667
  8
1
  6
CONTINUOUS
 62
     7
 10
-238.7331720112366
 20
85.80040420418071
 30
0.0
  0
VERTEX
  5
668
  8
1
  6
CONTINUOUS
 62
     7
 10
-238.2134725682625
 20
85.81390636643448
 30
0.0
  0
VERTEX
  5
669
  8
1
  6
CONTINUOUS
 62
     7
 10
-237.7039946606212
 20
85.82740852868822
 30
0.0
  0
VERTEX
  5
66A
  8
1
  6
CONTINUOUS
 62
     7
 10
-237.2052328451371
 20
85.84091069094201
 30
0.0
  0
VERTEX
  5
66B
  8
1
  6
CONTINUOUS
 62
     7
 10
-236.7176816786345
 20
85.85441285319575
 30
0.0
  0
VERTEX
  5
66C
  8
1
  6
CONTINUOUS
 62
     7
 10
-236.2418357179379
 20
85.86791501544951
 30
0.0
  0
VERTEX
  5
66D
  8
1
  6
CONTINUOUS
 62
     7
 10
-235.7781895198716
 20
85.8814171777033
 30
0.0
  0
VERTEX
  5
66E
  8
1
  6
CONTINUOUS
 62
     7
 10
-235.32723764126
 20
85.89491933995706
 30
0.0
  0
VERTEX
  5
66F
  8
1
  6
CONTINUOUS
 62
     7
 10
-234.8894729867256
 20
85.9084215022108
 30
0.0
  0
VERTEX
  5
670
  8
1
  6
CONTINUOUS
 62
     7
 10
-234.465331106755
 20
85.92192366446457
 30
0.0
  0
VERTEX
  5
671
  8
1
  6
CONTINUOUS
 62
     7
 10
-234.05517679678
 20
85.93542582671834
 30
0.0
  0
VERTEX
  5
672
  8
1
  6
CONTINUOUS
 62
     7
 10
-233.6593704827485
 20
85.94892798897209
 30
0.0
  0
VERTEX
  5
673
  8
1
  6
CONTINUOUS
 62
     7
 10
-233.2782725906079
 20
85.96243015122583
 30
0.0
  0
VERTEX
  5
674
  8
1
  6
CONTINUOUS
 62
     7
 10
-232.912243546306
 20
85.97593231347963
 30
0.0
  0
VERTEX
  5
675
  8
1
  6
CONTINUOUS
 62
     7
 10
-232.5616437757904
 20
85.98943447573336
 30
0.0
  0
VERTEX
  5
676
  8
1
  6
CONTINUOUS
 62
     7
 10
-232.2268337050089
 20
86.00293663798713
 30
0.0
  0
VERTEX
  5
677
  8
1
  6
CONTINUOUS
 62
     7
 10
-231.9081737599089
 20
86.01643880024089
 30
0.0
  0
VERTEX
  5
678
  8
1
  6
CONTINUOUS
 62
     7
 10
-231.6060243664383
 20
86.02994096249465
 30
0.0
  0
VERTEX
  5
679
  8
1
  6
CONTINUOUS
 62
     7
 10
-231.3207454966164
 20
86.0434431247484
 30
0.0
  0
VERTEX
  5
67A
  8
1
  6
CONTINUOUS
 62
     7
 10
-231.0526431622544
 20
86.05694528700216
 30
0.0
  0
VERTEX
  5
67B
  8
1
  6
CONTINUOUS
 62
     7
 10
-230.8019190915364
 20
86.07044744925592
 30
0.0
  0
VERTEX
  5
67C
  8
1
  6
CONTINUOUS
 62
     7
 10
-230.5687631027035
 20
86.08394961150968
 30
0.0
  0
VERTEX
  5
67D
  8
1
  6
CONTINUOUS
 62
     7
 10
-230.3533650139969
 20
86.09745177376344
 30
0.0
  0
VERTEX
  5
67E
  8
1
  6
CONTINUOUS
 62
     7
 10
-230.1559146436575
 20
86.11095393601718
 30
0.0
  0
VERTEX
  5
67F
  8
1
  6
CONTINUOUS
 62
     7
 10
-229.9766018099266
 20
86.12445609827097
 30
0.0
  0
VERTEX
  5
680
  8
1
  6
CONTINUOUS
 62
     7
 10
-229.8156163310449
 20
86.13795826052471
 30
0.0
  0
VERTEX
  5
681
  8
1
  6
CONTINUOUS
 62
     7
 10
-229.673148025254
 20
86.15146042277848
 30
0.0
  0
VERTEX
  5
682
  8
1
  6
CONTINUOUS
 62
     7
 10
-229.5493867107946
 20
86.16496258503224
 30
0.0
  0
VERTEX
  5
683
  8
1
  6
CONTINUOUS
 62
     7
 10
-229.4445221872026
 20
86.178464747286
 30
0.0
  0
VERTEX
  5
684
  8
1
  6
CONTINUOUS
 62
     7
 10
-229.3587040392798
 20
86.19196690953976
 30
0.0
  0
VERTEX
  5
685
  8
1
  6
CONTINUOUS
 62
     7
 10
-229.2919565874138
 20
86.20546907179353
 30
0.0
  0
VERTEX
  5
686
  8
1
  6
CONTINUOUS
 62
     7
 10
-229.2442798316251
 20
86.21897123404729
 30
0.0
  0
VERTEX
  5
687
  8
1
  6
CONTINUOUS
 62
     7
 10
-229.2156737719343
 20
86.23247339630105
 30
0.0
  0
VERTEX
  5
688
  8
1
  6
CONTINUOUS
 62
     7
 10
-229.2061384083622
 20
86.24597555855479
 30
0.0
  0
SEQEND
  5
699
  8
1
  6
CONTINUOUS
 62
     7
  0
LINE
  5
174
  8
1
  6
CONTINUOUS
 62
     7
 10
-229.2057639019461
 20
88.94586709303695
 30
0.0
 11
-229.3441567745745
 21
88.99726630365012
 31
0.0
  0
LINE
  5
175
  8
1
  6
CONTINUOUS
 62
     7
 10
-198.6055985226286
 20
70.3017717432424
 30
0.0
 11
-198.6055985226286
 21
33.30177174324238
 31
0.0
  0
LINE
  5
176
  8
1
  6
CONTINUOUS
 62
     7
 10
-266.6055985226287
 20
89.06071015867559
 30
0.0
 11
-268.0055985226286
 21
89.30756793166745
 31
0.0
  0
LINE
  5
177
  8
1
  6
CONTINUOUS
 62
     7
 10
-268.0055985226286
 20
89.30756793166745
 30
0.0
 11
-268.0055985226286
 21
90.2959755548173
 31
0.0
  0
TEXT
  5
178
  8
1
  6
CONTINUOUS
 62
     7
 10
-165.5195318726349
 20
24.72092082344754
 30
0.0
 40
3.0
  1
ＢＷＭＨ－Ｃ
  0
CIRCLE
  5
179
  8
1
  6
CONTINUOUS
 62
     7
 10
-248.6055985226286
 20
126.2413753689021
 30
0.0
 40
18.00000000000001
  0
CIRCLE
  5
17A
  8
1
  6
CONTINUOUS
 62
     7
 10
-248.6055985226286
 20
126.2413753689021
 30
0.0
 40
15.29500024998126
  0
ENDSEC
  0
EOF
