  0
SECTION
  2
HEADER
  9
$ACADVER
  1
AC1004
  9
$INSBASE
 10
0.0
 20
0.0
  9
$EXTMIN
 10
-236.6666666666667
 20
61.66666666666667
  9
$EXTMAX
 10
-83.33333333333334
 20
274.1666666666667
  9
$LIMMIN
 10
0.0
 20
0.0
  9
$LIMMAX
 10
12.0
 20
9.0
  9
$ORTHOMODE
 70
     0
  9
$REGENMODE
 70
     1
  9
$FILLMODE
 70
     1
  9
$QTEXTMODE
 70
     0
  9
$DRAGMODE
 70
     2
  9
$LTSCALE
 40
1.0
  9
$OSMODE
 70
    37
  9
$ATTMODE
 70
     1
  9
$TEXTSIZE
 40
0.2
  9
$TRACEWID
 40
0.05
  9
$TEXTSTYLE
  7
STANDARD
  9
$CLAYER
  8
0
  9
$CELTYPE
  6
BYLAYER
  9
$CECOLOR
 62
   256
  9
$DIMSCALE
 40
1.0
  9
$DIMASZ
 40
3.0
  9
$DIMEXO
 40
0.0625
  9
$DIMDLI
 40
0.38
  9
$DIMRND
 40
0.0
  9
$DIMDLE
 40
0.0
  9
$DIMEXE
 40
1.5
  9
$DIMTP
 40
0.0
  9
$DIMTM
 40
0.0
  9
$DIMTXT
 40
3.0
  9
$DIMCEN
 40
0.09
  9
$DIMTSZ
 40
0.0
  9
$DIMTOL
 70
     0
  9
$DIMLIM
 70
     0
  9
$DIMTIH
 70
     1
  9
$DIMTOH
 70
     1
  9
$DIMSE1
 70
     0
  9
$DIMSE2
 70
     0
  9
$DIMTAD
 70
     1
  9
$DIMZIN
 70
     0
  9
$DIMBLK
  1

  9
$DIMASO
 70
     1
  9
$DIMSHO
 70
     1
  9
$DIMPOST
  1

  9
$DIMAPOST
  1

  9
$DIMALT
 70
     0
  9
$DIMALTD
 70
     2
  9
$DIMALTF
 40
25.4
  9
$DIMLFAC
 40
1.0
  9
$DIMTOFL
 70
     0
  9
$DIMTVP
 40
0.0
  9
$DIMTIX
 70
     0
  9
$DIMSOXD
 70
     0
  9
$DIMSAH
 70
     0
  9
$DIMBLK1
  1

  9
$DIMBLK2
  1

  9
$LUNITS
 70
     2
  9
$LUPREC
 70
     4
  9
$SKETCHINC
 40
0.1
  9
$FILLETRAD
 40
0.5
  9
$AUNITS
 70
     0
  9
$AUPREC
 70
     0
  9
$MENU
  1
.
  9
$ELEVATION
 40
0.0
  9
$THICKNESS
 40
0.0
  9
$LIMCHECK
 70
     0
  9
$CHAMFERA
 40
0.0
  9
$CHAMFERB
 40
0.0
  9
$SKPOLY
 70
     0
  9
$TDCREATE
 40
2459984.619773403
  9
$TDUPDATE
 40
2459984.619773669
  9
$TDINDWG
 40
0.0000000116
  9
$TDUSRTIMER
 40
0.0000000116
  9
$USRTIMER
 70
     1
  9
$ANGBASE
 50
0.0
  9
$ANGDIR
 70
     0
  9
$PDMODE
 70
     0
  9
$PDSIZE
 40
0.0
  9
$PLINEWID
 40
0.0
  9
$COORDS
 70
     1
  9
$SPLFRAME
 70
     0
  9
$SPLINETYPE
 70
     6
  9
$SPLINESEGS
 70
     8
  9
$ATTDIA
 70
     0
  9
$ATTREQ
 70
     1
  9
$SURFTAB1
 70
     6
  9
$SURFTAB2
 70
     6
  9
$SURFTYPE
 70
     6
  9
$SURFU
 70
     6
  9
$SURFV
 70
     6
  9
$UCSNAME
  2

  9
$UCSORG
 10
0.0
 20
0.0
 30
0.0
  9
$UCSXDIR
 10
1.0
 20
0.0
 30
0.0
  9
$UCSYDIR
 10
0.0
 20
1.0
 30
0.0
  9
$USERI1
 70
     0
  9
$USERI2
 70
     0
  9
$USERI3
 70
     0
  9
$USERI4
 70
     0
  9
$USERI5
 70
     0
  9
$USERR1
 40
0.0
  9
$USERR2
 40
0.0
  9
$USERR3
 40
0.0
  9
$USERR4
 40
0.0
  9
$USERR5
 40
0.0
  9
$WORLDVIEW
 70
     1
  0
ENDSEC
  0
SECTION
  2
TABLES
  0
TABLE
  2
LTYPE
 70
     2
  0
LTYPE
  2
CONTINUOUS
 70
     0
  3
Solid line
 72
    65
 73
     0
 40
0.0
  0
LTYPE
  2
CENTER
 70
     0
  3

 72
    65
 73
     0
 40
0.0
  0
ENDTAB
  0
TABLE
  2
LAYER
 70
     2
  0
LAYER
  2
0
 70
     0
 62
     7
  6
CONTINUOUS
  0
LAYER
  2
1
 70
     0
 62
     7
  6
CONTINUOUS
  0
ENDTAB
  0
TABLE
  2
STYLE
 70
     2
  0
STYLE
  2
STANDARD
 70
     0
 40
0.0
 41
1.0
 50
0.0
 71
     0
 42
0.2
  3
txt
  4

  0
STYLE
  2
ＭＳ_ゴシック
 70
     0
 40
0.0
 41
1.0
 50
0.0
 71
     0
 42
0.2
  3
ＭＳ ゴシック.shx
  4

  0
ENDTAB
  0
TABLE
  2
VIEW
 70
     0
  0
ENDTAB
  0
ENDSEC
  0
SECTION
  2
BLOCKS
  0
BLOCK
  8
0
  2
D_FRAME_VIEW_1491
 70
     0
 10
0.0
 20
0.0
  0
ARC
  8
1
  6
CONTINUOUS
 62
     7
 10
-200.1666666666667
 20
156.3666666666666
 40
1.000000000000001
 50
180.0
 51
270.0000000000001
  0
LINE
  8
1
  6
CONTINUOUS
 62
     7
 10
-201.1666666666667
 20
157.5210227429277
 11
-201.1666666666667
 21
156.3666666666666
  0
ARC
  8
1
  6
CONTINUOUS
 62
     7
 10
-201.6666666666667
 20
158.6666666666667
 40
1.249999999999998
 50
293.5781784782023
 51
66.42182152179782
  0
LINE
  8
1
  6
CONTINUOUS
 62
     7
 10
-201.1666666666667
 20
162.9666666666666
 11
-201.1666666666667
 21
159.8123105904056
  0
ARC
  8
1
  6
CONTINUOUS
 62
     7
 10
-200.1666666666667
 20
162.9666666666666
 40
1.0
 50
90.0
 51
180.0
  0
LINE
  8
1
  6
CONTINUOUS
 62
     7
 10
-200.1666666666667
 20
163.9666666666667
 11
-190.8666666666667
 21
163.9666666666667
  0
LINE
  8
1
  6
CONTINUOUS
 62
     7
 10
-190.8666666666667
 20
163.9666666666667
 11
-190.8666666666667
 21
168.9666666666667
  0
ARC
  8
1
  6
CONTINUOUS
 62
     7
 10
-189.8666666666667
 20
168.9666666666666
 40
1.000000000000001
 50
90.0
 51
180.0
  0
LINE
  8
1
  6
CONTINUOUS
 62
     7
 10
-189.8666666666667
 20
169.9666666666666
 11
-176.4666666666667
 21
169.9666666666666
  0
LINE
  8
1
  6
CONTINUOUS
 62
     7
 10
-176.4666666666667
 20
169.9666666666666
 11
-176.4666666666667
 21
248.3666666666666
  0
LINE
  8
1
  6
CONTINUOUS
 62
     7
 10
-176.4666666666667
 20
248.3666666666666
 11
-189.8666666666667
 21
248.3666666666667
  0
ARC
  8
1
  6
CONTINUOUS
 62
     7
 10
-189.8666666666667
 20
249.3666666666667
 40
1.000000000000001
 50
180.0
 51
270.0
  0
LINE
  8
1
  6
CONTINUOUS
 62
     7
 10
-190.8666666666667
 20
249.3666666666667
 11
-190.8666666666667
 21
254.3666666666667
  0
LINE
  8
1
  6
CONTINUOUS
 62
     7
 10
-190.8666666666667
 20
254.3666666666666
 11
-200.1666666666667
 21
254.3666666666666
  0
ARC
  8
1
  6
CONTINUOUS
 62
     7
 10
-200.1666666666667
 20
255.3666666666667
 40
1.000000000000001
 50
180.0
 51
270.0
  0
LINE
  8
1
  6
CONTINUOUS
 62
     7
 10
-201.1666666666667
 20
258.5210227429277
 11
-201.1666666666667
 21
255.3666666666667
  0
ARC
  8
1
  6
CONTINUOUS
 62
     7
 10
-201.6666666666667
 20
259.6666666666666
 40
1.250000000000002
 50
293.5781784782018
 51
66.42182152179817
  0
LINE
  8
1
  6
CONTINUOUS
 62
     7
 10
-201.1666666666667
 20
261.9666666666667
 11
-201.1666666666667
 21
260.8123105904057
  0
ARC
  8
1
  6
CONTINUOUS
 62
     7
 10
-200.1666666666667
 20
261.9666666666667
 40
1.0
 50
89.99999999999994
 51
180.0
  0
LINE
  8
1
  6
CONTINUOUS
 62
     7
 10
-197.6666666666667
 20
262.9666666666667
 11
-200.1666666666667
 21
262.9666666666667
  0
LINE
  8
1
  6
CONTINUOUS
 62
     7
 10
-197.6666666666667
 20
265.4666666666667
 11
-197.6666666666667
 21
262.9666666666667
  0
ARC
  8
1
  6
CONTINUOUS
 62
     7
 10
-196.6666666666667
 20
265.4666666666667
 40
1.0
 50
90.0
 51
180.0
  0
LINE
  8
1
  6
CONTINUOUS
 62
     7
 10
-191.8666666666667
 20
266.4666666666667
 11
-196.6666666666667
 21
266.4666666666667
  0
ARC
  8
1
  6
CONTINUOUS
 62
     7
 10
-191.8666666666667
 20
265.4666666666667
 40
1.000000000000001
 50
0.0
 51
90.0
  0
LINE
  8
1
  6
CONTINUOUS
 62
     7
 10
-190.8666666666667
 20
262.9666666666667
 11
-190.8666666666667
 21
265.4666666666667
  0
LINE
  8
1
  6
CONTINUOUS
 62
     7
 10
-182.8666666666667
 20
262.9666666666667
 11
-190.8666666666667
 21
262.9666666666667
  0
ARC
  8
1
  6
CONTINUOUS
 62
     7
 10
-182.8666666666667
 20
261.9666666666667
 40
1.000000000000001
 50
0.0
 51
90.0
  0
LINE
  8
1
  6
CONTINUOUS
 62
     7
 10
-181.8666666666667
 20
257.9666666666667
 11
-181.8666666666667
 21
261.9666666666667
  0
LINE
  8
1
  6
CONTINUOUS
 62
     7
 10
-176.4666666666667
 20
257.9666666666667
 11
-181.8666666666667
 21
257.9666666666667
  0
LINE
  8
1
  6
CONTINUOUS
 62
     7
 10
-176.4666666666667
 20
265.4666666666667
 11
-176.4666666666667
 21
257.9666666666667
  0
ARC
  8
1
  6
CONTINUOUS
 62
     7
 10
-175.4666666666667
 20
265.4666666666667
 40
1.000000000000001
 50
90.0
 51
180.0
  0
LINE
  8
1
  6
CONTINUOUS
 62
     7
 10
-174.3666666666667
 20
266.4666666666667
 11
-175.4666666666667
 21
266.4666666666667
  0
ARC
  8
1
  6
CONTINUOUS
 62
     7
 10
-174.3666666666667
 20
261.4666666666667
 40
4.999999999999997
 50
0.0
 51
90.0
  0
LINE
  8
1
  6
CONTINUOUS
 62
     7
 10
-169.3666666666667
 20
156.8666666666666
 11
-169.3666666666667
 21
261.4666666666666
  0
ARC
  8
1
  6
CONTINUOUS
 62
     7
 10
-174.3666666666667
 20
156.8666666666666
 40
5.000000000000001
 50
270.0
 51
0.0
  0
LINE
  8
1
  6
CONTINUOUS
 62
     7
 10
-175.4666666666667
 20
151.8666666666666
 11
-174.3666666666667
 21
151.8666666666666
  0
ARC
  8
1
  6
CONTINUOUS
 62
     7
 10
-175.4666666666667
 20
152.8666666666666
 40
1.000000000000001
 50
180.0
 51
270.0
  0
LINE
  8
1
  6
CONTINUOUS
 62
     7
 10
-176.4666666666667
 20
160.3666666666666
 11
-176.4666666666667
 21
152.8666666666666
  0
LINE
  8
1
  6
CONTINUOUS
 62
     7
 10
-181.8666666666667
 20
160.3666666666666
 11
-176.4666666666667
 21
160.3666666666666
  0
LINE
  8
1
  6
CONTINUOUS
 62
     7
 10
-181.8666666666667
 20
156.3666666666666
 11
-181.8666666666667
 21
160.3666666666666
  0
ARC
  8
1
  6
CONTINUOUS
 62
     7
 10
-182.8666666666667
 20
156.3666666666666
 40
1.000000000000001
 50
270.0
 51
0.0
  0
LINE
  8
1
  6
CONTINUOUS
 62
     7
 10
-190.8666666666667
 20
155.3666666666666
 11
-182.8666666666667
 21
155.3666666666666
  0
LINE
  8
1
  6
CONTINUOUS
 62
     7
 10
-190.8666666666667
 20
152.8666666666666
 11
-190.8666666666667
 21
155.3666666666666
  0
ARC
  8
1
  6
CONTINUOUS
 62
     7
 10
-191.8666666666667
 20
152.8666666666666
 40
1.000000000000001
 50
270.0
 51
0.0
  0
LINE
  8
1
  6
CONTINUOUS
 62
     7
 10
-196.6666666666667
 20
151.8666666666666
 11
-191.8666666666667
 21
151.8666666666666
  0
ARC
  8
1
  6
CONTINUOUS
 62
     7
 10
-196.6666666666667
 20
152.8666666666666
 40
1.000000000000001
 50
180.0
 51
270.0
  0
LINE
  8
1
  6
CONTINUOUS
 62
     7
 10
-197.6666666666667
 20
155.3666666666667
 11
-197.6666666666667
 21
152.8666666666666
  0
LINE
  8
1
  6
CONTINUOUS
 62
     7
 10
-200.1666666666667
 20
155.3666666666666
 11
-197.6666666666667
 21
155.3666666666666
  0
ARC
  8
1
  6
CONTINUOUS
 62
     7
 10
-206.6666666666667
 20
152.8666666666666
 40
1.000000000000001
 50
270.0
 51
0.0
  0
LINE
  8
1
  6
CONTINUOUS
 62
     7
 10
-206.6666666666667
 20
151.8666666666666
 11
-211.4666666666667
 21
151.8666666666666
  0
ARC
  8
1
  6
CONTINUOUS
 62
     7
 10
-211.4666666666667
 20
152.8666666666666
 40
1.000000000000001
 50
180.0
 51
270.0
  0
LINE
  8
1
  6
CONTINUOUS
 62
     7
 10
-212.4666666666667
 20
152.8666666666666
 11
-212.4666666666667
 21
155.3666666666666
  0
LINE
  8
1
  6
CONTINUOUS
 62
     7
 10
-212.4666666666667
 20
155.3666666666666
 11
-220.4666666666667
 21
155.3666666666666
  0
ARC
  8
1
  6
CONTINUOUS
 62
     7
 10
-220.4666666666667
 20
156.3666666666666
 40
1.000000000000001
 50
180.0
 51
270.0
  0
LINE
  8
1
  6
CONTINUOUS
 62
     7
 10
-221.4666666666667
 20
156.3666666666666
 11
-221.4666666666667
 21
160.3666666666666
  0
LINE
  8
1
  6
CONTINUOUS
 62
     7
 10
-221.4666666666667
 20
160.3666666666666
 11
-226.8666666666667
 21
160.3666666666666
  0
LINE
  8
1
  6
CONTINUOUS
 62
     7
 10
-226.8666666666667
 20
160.3666666666666
 11
-226.8666666666667
 21
152.8666666666666
  0
ARC
  8
1
  6
CONTINUOUS
 62
     7
 10
-227.8666666666667
 20
152.8666666666666
 40
1.000000000000001
 50
270.0
 51
0.0
  0
LINE
  8
1
  6
CONTINUOUS
 62
     7
 10
-227.8666666666667
 20
151.8666666666666
 11
-228.9666666666667
 21
151.8666666666666
  0
ARC
  8
1
  6
CONTINUOUS
 62
     7
 10
-228.9666666666667
 20
156.8666666666666
 40
5.000000000000001
 50
180.0
 51
270.0
  0
LINE
  8
1
  6
CONTINUOUS
 62
     7
 10
-233.9666666666667
 20
156.8666666666666
 11
-233.9666666666667
 21
261.4666666666666
  0
ARC
  8
1
  6
CONTINUOUS
 62
     7
 10
-228.9666666666667
 20
261.4666666666667
 40
4.999999999999997
 50
90.0
 51
180.0
  0
LINE
  8
1
  6
CONTINUOUS
 62
     7
 10
-228.9666666666667
 20
266.4666666666667
 11
-227.8666666666667
 21
266.4666666666667
  0
ARC
  8
1
  6
CONTINUOUS
 62
     7
 10
-227.8666666666667
 20
265.4666666666667
 40
1.000000000000001
 50
0.0
 51
90.0
  0
LINE
  8
1
  6
CONTINUOUS
 62
     7
 10
-226.8666666666667
 20
265.4666666666667
 11
-226.8666666666667
 21
257.9666666666667
  0
LINE
  8
1
  6
CONTINUOUS
 62
     7
 10
-226.8666666666667
 20
257.9666666666667
 11
-221.4666666666667
 21
257.9666666666667
  0
LINE
  8
1
  6
CONTINUOUS
 62
     7
 10
-221.4666666666667
 20
257.9666666666667
 11
-221.4666666666667
 21
261.9666666666667
  0
ARC
  8
1
  6
CONTINUOUS
 62
     7
 10
-220.4666666666667
 20
261.9666666666667
 40
1.000000000000001
 50
90.0
 51
180.0
  0
LINE
  8
1
  6
CONTINUOUS
 62
     7
 10
-220.4666666666667
 20
262.9666666666667
 11
-212.4666666666667
 21
262.9666666666667
  0
LINE
  8
1
  6
CONTINUOUS
 62
     7
 10
-212.4666666666667
 20
262.9666666666667
 11
-212.4666666666667
 21
265.4666666666667
  0
ARC
  8
1
  6
CONTINUOUS
 62
     7
 10
-211.4666666666667
 20
265.4666666666667
 40
1.000000000000001
 50
90.0
 51
180.0
  0
LINE
  8
1
  6
CONTINUOUS
 62
     7
 10
-211.4666666666667
 20
266.4666666666667
 11
-206.6666666666667
 21
266.4666666666667
  0
ARC
  8
1
  6
CONTINUOUS
 62
     7
 10
-206.6666666666667
 20
265.4666666666667
 40
1.0
 50
0.0
 51
90.0
  0
LINE
  8
1
  6
CONTINUOUS
 62
     7
 10
-205.6666666666667
 20
262.9666666666667
 11
-203.1666666666667
 21
262.9666666666667
  0
ARC
  8
1
  6
CONTINUOUS
 62
     7
 10
-203.1666666666667
 20
261.9666666666667
 40
1.0
 50
0.0
 51
90.00000000000009
  0
LINE
  8
1
  6
CONTINUOUS
 62
     7
 10
-202.1666666666667
 20
261.9666666666667
 11
-202.1666666666667
 21
260.8123105904057
  0
ARC
  8
1
  6
CONTINUOUS
 62
     7
 10
-201.6666666666667
 20
259.6666666666666
 40
1.250000000000002
 50
113.5781784782018
 51
246.4218215217982
  0
ARC
  8
1
  6
CONTINUOUS
 62
     7
 10
-203.1666666666667
 20
255.3666666666667
 40
1.000000000000001
 50
269.9999999999999
 51
0.0
  0
LINE
  8
1
  6
CONTINUOUS
 62
     7
 10
-212.4666666666667
 20
254.3666666666666
 11
-203.1666666666667
 21
254.3666666666666
  0
LINE
  8
1
  6
CONTINUOUS
 62
     7
 10
-212.4666666666667
 20
249.3666666666667
 11
-212.4666666666667
 21
254.3666666666667
  0
ARC
  8
1
  6
CONTINUOUS
 62
     7
 10
-213.4666666666667
 20
249.3666666666667
 40
1.000000000000001
 50
270.0
 51
0.0
  0
LINE
  8
1
  6
CONTINUOUS
 62
     7
 10
-226.8666666666667
 20
248.3666666666666
 11
-213.4666666666667
 21
248.3666666666667
  0
LINE
  8
1
  6
CONTINUOUS
 62
     7
 10
-226.8666666666667
 20
169.9666666666666
 11
-226.8666666666667
 21
248.3666666666666
  0
LINE
  8
1
  6
CONTINUOUS
 62
     7
 10
-213.4666666666667
 20
169.9666666666666
 11
-226.8666666666667
 21
169.9666666666666
  0
ARC
  8
1
  6
CONTINUOUS
 62
     7
 10
-213.4666666666667
 20
168.9666666666666
 40
1.000000000000001
 50
0.0
 51
90.0
  0
LINE
  8
1
  6
CONTINUOUS
 62
     7
 10
-212.4666666666667
 20
163.9666666666667
 11
-212.4666666666667
 21
168.9666666666667
  0
LINE
  8
1
  6
CONTINUOUS
 62
     7
 10
-203.1666666666667
 20
163.9666666666667
 11
-212.4666666666667
 21
163.9666666666667
  0
ARC
  8
1
  6
CONTINUOUS
 62
     7
 10
-203.1666666666667
 20
162.9666666666666
 40
1.0
 50
0.0
 51
90.00000000000001
  0
ARC
  8
1
  6
CONTINUOUS
 62
     7
 10
-203.1666666666667
 20
156.3666666666666
 40
1.000000000000001
 50
269.9999999999999
 51
0.0
  0
ARC
  8
1
  6
CONTINUOUS
 62
     7
 10
-201.6666666666667
 20
158.6666666666667
 40
1.249999999999998
 50
113.5781784782022
 51
246.4218215217978
  0
LINE
  8
1
  6
CONTINUOUS
 62
     7
 10
-203.1666666666667
 20
155.3666666666666
 11
-205.6666666666667
 21
155.3666666666666
  0
LINE
  8
1
  6
CONTINUOUS
 62
     7
 10
-205.6666666666667
 20
155.3666666666667
 11
-205.6666666666667
 21
152.8666666666666
  0
LINE
  8
1
  6
CONTINUOUS
 62
     7
 10
-202.1666666666667
 20
258.5210227429277
 11
-202.1666666666667
 21
255.3666666666667
  0
LINE
  8
1
  6
CONTINUOUS
 62
     7
 10
-202.1666666666667
 20
157.5210227429277
 11
-202.1666666666667
 21
156.3666666666666
  0
LINE
  8
1
  6
CONTINUOUS
 62
     7
 10
-202.1666666666667
 20
162.9666666666666
 11
-202.1666666666667
 21
159.8123105904056
  0
LINE
  8
1
  6
CONTINUOUS
 62
     7
 10
-205.6666666666667
 20
265.4666666666667
 11
-205.6666666666667
 21
262.9666666666667
  0
ARC
  8
1
  6
CONTINUOUS
 62
     7
 10
-229.1768878382176
 20
156.8564429343368
 40
7.489783241997249
 50
180.0622009418437
 51
270.0781905369487
  0
LINE
  8
1
  6
CONTINUOUS
 62
     7
 10
-236.6666666666667
 20
156.8483119431136
 11
-236.6666666666667
 21
157.0725718355989
  0
POLYLINE
  8
1
  6
CONTINUOUS
 62
     7
 66
     1
  0
VERTEX
  8
1
  6
CONTINUOUS
 62
     7
 10
-211.6666666666667
 20
151.6666666666667
  0
VERTEX
  8
1
  6
CONTINUOUS
 62
     7
 10
-211.7146084082136
 20
151.6678406736724
  0
VERTEX
  8
1
  6
CONTINUOUS
 62
     7
 10
-211.7625746307016
 20
151.6713439098469
  0
VERTEX
  8
1
  6
CONTINUOUS
 62
     7
 10
-211.8104012084636
 20
151.6771481979261
  0
VERTEX
  8
1
  6
CONTINUOUS
 62
     7
 10
-211.8579240158324
 20
151.6852253606459
  0
VERTEX
  8
1
  6
CONTINUOUS
 62
     7
 10
-211.9049789271405
 20
151.6955472207421
  0
VERTEX
  8
1
  6
CONTINUOUS
 62
     7
 10
-211.9514018167209
 20
151.7080856009508
  0
VERTEX
  8
1
  6
CONTINUOUS
 62
     7
 10
-211.9970285589063
 20
151.7228123240079
  0
VERTEX
  8
1
  6
CONTINUOUS
 62
     7
 10
-212.0418742094757
 20
151.7397516734824
  0
VERTEX
  8
1
  6
CONTINUOUS
 62
     7
 10
-212.0859704058047
 20
151.7588941110527
  0
VERTEX
  8
1
  6
CONTINUOUS
 62
     7
 10
-212.1291723166312
 20
151.7801587742456
  0
VERTEX
  8
1
  6
CONTINUOUS
 62
     7
 10
-212.171335110693
 20
151.8034648005878
  0
VERTEX
  8
1
  6
CONTINUOUS
 62
     7
 10
-212.2123139567279
 20
151.8287313276061
  0
VERTEX
  8
1
  6
CONTINUOUS
 62
     7
 10
-212.2519640234738
 20
151.8558774928273
  0
VERTEX
  8
1
  6
CONTINUOUS
 62
     7
 10
-212.2901404796687
 20
151.8848224337783
  0
VERTEX
  8
1
  6
CONTINUOUS
 62
     7
 10
-212.3268940072669
 20
151.9156325684829
  0
VERTEX
  8
1
  6
CONTINUOUS
 62
     7
 10
-212.3622099597154
 20
151.9482748040567
  0
VERTEX
  8
1
  6
CONTINUOUS
 62
     7
 10
-212.3959786635509
 20
151.9826251912374
  0
VERTEX
  8
1
  6
CONTINUOUS
 62
     7
 10
-212.4280904453099
 20
152.0185597807631
  0
VERTEX
  8
1
  6
CONTINUOUS
 62
     7
 10
-212.4584356315291
 20
152.0559546233716
  0
VERTEX
  8
1
  6
CONTINUOUS
 62
     7
 10
-212.4869045487451
 20
152.0946857698007
  0
VERTEX
  8
1
  6
CONTINUOUS
 62
     7
 10
-212.5133875234945
 20
152.1346292707886
  0
VERTEX
  8
1
  6
CONTINUOUS
 62
     7
 10
-212.53794069272
 20
152.1759183823091
  0
VERTEX
  8
1
  6
CONTINUOUS
 62
     7
 10
-212.5605256968817
 20
152.2184666698809
  0
VERTEX
  8
1
  6
CONTINUOUS
 62
     7
 10
-212.5810796250916
 20
152.2621206520226
  0
VERTEX
  8
1
  6
CONTINUOUS
 62
     7
 10
-212.5995395664621
 20
152.3067268472534
  0
VERTEX
  8
1
  6
CONTINUOUS
 62
     7
 10
-212.6158426101051
 20
152.3521317740921
  0
VERTEX
  8
1
  6
CONTINUOUS
 62
     7
 10
-212.629925845133
 20
152.3981819510578
  0
VERTEX
  8
1
  6
CONTINUOUS
 62
     7
 10
-212.6417263606577
 20
152.4447238966694
  0
VERTEX
  8
1
  6
CONTINUOUS
 62
     7
 10
-212.6506654656259
 20
152.4885360508859
  0
VERTEX
  8
1
  6
CONTINUOUS
 62
     7
 10
-212.657643825659
 20
152.5327690288835
  0
VERTEX
  8
1
  6
CONTINUOUS
 62
     7
 10
-212.6626466638089
 20
152.5772902067725
  0
VERTEX
  8
1
  6
CONTINUOUS
 62
     7
 10
-212.6656592031275
 20
152.6219669606634
  0
VERTEX
  8
1
  6
CONTINUOUS
 62
     7
 10
-212.6666666666667
 20
152.6666666666667
  0
SEQEND
  8
1
  6
CONTINUOUS
 62
     7
  0
LINE
  8
1
  6
CONTINUOUS
 62
     7
 10
-211.6666666666667
 20
151.6666666666667
 11
-191.6666666666667
 21
151.6666666666667
  0
POLYLINE
  8
1
  6
CONTINUOUS
 62
     7
 66
     1
  0
VERTEX
  8
1
  6
CONTINUOUS
 62
     7
 10
-190.6666666666667
 20
152.6666666666667
  0
VERTEX
  8
1
  6
CONTINUOUS
 62
     7
 10
-190.6678495317897
 20
152.6185392492129
  0
VERTEX
  8
1
  6
CONTINUOUS
 62
     7
 10
-190.6713795674811
 20
152.5703872706012
  0
VERTEX
  8
1
  6
CONTINUOUS
 62
     7
 10
-190.6772289342245
 20
152.5223753379184
  0
VERTEX
  8
1
  6
CONTINUOUS
 62
     7
 10
-190.6853697925037
 20
152.4746680582517
  0
VERTEX
  8
1
  6
CONTINUOUS
 62
     7
 10
-190.6957743028023
 20
152.4274300386878
  0
VERTEX
  8
1
  6
CONTINUOUS
 62
     7
 10
-190.708414625604
 20
152.380825886314
  0
VERTEX
  8
1
  6
CONTINUOUS
 62
     7
 10
-190.7232629213923
 20
152.3350202082169
  0
VERTEX
  8
1
  6
CONTINUOUS
 62
     7
 10
-190.7403463333557
 20
152.2899940569544
  0
VERTEX
  8
1
  6
CONTINUOUS
 62
     7
 10
-190.7596555146976
 20
152.2457200328399
  0
VERTEX
  8
1
  6
CONTINUOUS
 62
     7
 10
-190.7811096970731
 20
152.2023449268122
  0
VERTEX
  8
1
  6
CONTINUOUS
 62
     7
 10
-190.8046281121371
 20
152.1600155298102
  0
VERTEX
  8
1
  6
CONTINUOUS
 62
     7
 10
-190.8301299915447
 20
152.1188786327727
  0
VERTEX
  8
1
  6
CONTINUOUS
 62
     7
 10
-190.8575345669507
 20
152.0790810266386
  0
VERTEX
  8
1
  6
CONTINUOUS
 62
     7
 10
-190.8867610700102
 20
152.0407695023466
  0
VERTEX
  8
1
  6
CONTINUOUS
 62
     7
 10
-190.9178049689597
 20
152.0039770645245
  0
VERTEX
  8
1
  6
CONTINUOUS
 62
     7
 10
-190.9506992808125
 20
151.9686299417708
  0
VERTEX
  8
1
  6
CONTINUOUS
 62
     7
 10
-190.9853189060096
 20
151.934840182405
  0
VERTEX
  8
1
  6
CONTINUOUS
 62
     7
 10
-191.021538744992
 20
151.9027198347463
  0
VERTEX
  8
1
  6
CONTINUOUS
 62
     7
 10
-191.0592336982006
 20
151.8723809471138
  0
VERTEX
  8
1
  6
CONTINUOUS
 62
     7
 10
-191.0982786660766
 20
151.8439355678269
  0
VERTEX
  8
1
  6
CONTINUOUS
 62
     7
 10
-191.1385485490608
 20
151.8174957452048
  0
VERTEX
  8
1
  6
CONTINUOUS
 62
     7
 10
-191.1799723876972
 20
151.7931221307468
  0
VERTEX
  8
1
  6
CONTINUOUS
 62
     7
 10
-191.2226579950091
 20
151.7707197173274
  0
VERTEX
  8
1
  6
CONTINUOUS
 62
     7
 10
-191.2664504112443
 20
151.7503524098605
  0
VERTEX
  8
1
  6
CONTINUOUS
 62
     7
 10
-191.3111946766508
 20
151.73208411326
  0
VERTEX
  8
1
  6
CONTINUOUS
 62
     7
 10
-191.3567358314762
 20
151.7159787324398
  0
VERTEX
  8
1
  6
CONTINUOUS
 62
     7
 10
-191.4029189159686
 20
151.7021001723138
  0
VERTEX
  8
1
  6
CONTINUOUS
 62
     7
 10
-191.4495889703758
 20
151.6905123377959
  0
VERTEX
  8
1
  6
CONTINUOUS
 62
     7
 10
-191.4924605766925
 20
151.6819649548638
  0
VERTEX
  8
1
  6
CONTINUOUS
 62
     7
 10
-191.5357293690713
 20
151.6752927992819
  0
VERTEX
  8
1
  6
CONTINUOUS
 62
     7
 10
-191.579270127921
 20
151.6705097680531
  0
VERTEX
  8
1
  6
CONTINUOUS
 62
     7
 10
-191.6229576336499
 20
151.6676297581804
  0
VERTEX
  8
1
  6
CONTINUOUS
 62
     7
 10
-191.6666666666667
 20
151.6666666666667
  0
SEQEND
  8
1
  6
CONTINUOUS
 62
     7
  0
LINE
  8
1
  6
CONTINUOUS
 62
     7
 10
-190.6666666666667
 20
154.6666666666667
 11
-190.6666666666667
 21
152.6666666666667
  0
POLYLINE
  8
1
  6
CONTINUOUS
 62
     7
 66
     1
  0
VERTEX
  8
1
  6
CONTINUOUS
 62
     7
 10
-190.1666666666667
 20
155.1666666666667
  0
VERTEX
  8
1
  6
CONTINUOUS
 62
     7
 10
-190.1906427113704
 20
155.1660794170538
  0
VERTEX
  8
1
  6
CONTINUOUS
 62
     7
 10
-190.2146310065004
 20
155.1643270533241
  0
VERTEX
  8
1
  6
CONTINUOUS
 62
     7
 10
-190.2385494766119
 20
155.1614236531412
  0
VERTEX
  8
1
  6
CONTINUOUS
 62
     7
 10
-190.2623160462602
 20
155.1573832941686
  0
VERTEX
  8
1
  6
CONTINUOUS
 62
     7
 10
-190.2858486400008
 20
155.1522200540698
  0
VERTEX
  8
1
  6
CONTINUOUS
 62
     7
 10
-190.3090651823889
 20
155.1459480105082
  0
VERTEX
  8
1
  6
CONTINUOUS
 62
     7
 10
-190.3318835979799
 20
155.1385812411475
  0
VERTEX
  8
1
  6
CONTINUOUS
 62
     7
 10
-190.3543115471952
 20
155.1301075101807
  0
VERTEX
  8
1
  6
CONTINUOUS
 62
     7
 10
-190.3763646993943
 20
155.1205315896764
  0
VERTEX
  8
1
  6
CONTINUOUS
 62
     7
 10
-190.3979705770046
 20
155.109893914788
  0
VERTEX
  8
1
  6
CONTINUOUS
 62
     7
 10
-190.4190567024535
 20
155.0982349206689
  0
VERTEX
  8
1
  6
CONTINUOUS
 62
     7
 10
-190.4395505981681
 20
155.0855950424728
  0
VERTEX
  8
1
  6
CONTINUOUS
 62
     7
 10
-190.459379786576
 20
155.072014715353
  0
VERTEX
  8
1
  6
CONTINUOUS
 62
     7
 10
-190.4784717901042
 20
155.0575343744632
  0
VERTEX
  8
1
  6
CONTINUOUS
 62
     7
 10
-190.4968491135888
 20
155.0421232218234
  0
VERTEX
  8
1
  6
CONTINUOUS
 62
     7
 10
-190.5145074344322
 20
155.0257955990384
  0
VERTEX
  8
1
  6
CONTINUOUS
 62
     7
 10
-190.5313918554288
 20
155.008613524942
  0
VERTEX
  8
1
  6
CONTINUOUS
 62
     7
 10
-190.5474474793725
 20
154.9906390183684
  0
VERTEX
  8
1
  6
CONTINUOUS
 62
     7
 10
-190.5626194090576
 20
154.9719340981516
  0
VERTEX
  8
1
  6
CONTINUOUS
 62
     7
 10
-190.5768527472782
 20
154.9525607831256
  0
VERTEX
  8
1
  6
CONTINUOUS
 62
     7
 10
-190.5900925968285
 20
154.9325810921245
  0
VERTEX
  8
1
  6
CONTINUOUS
 62
     7
 10
-190.6023636872664
 20
154.9119342193997
  0
VERTEX
  8
1
  6
CONTINUOUS
 62
     7
 10
-190.6136506737507
 20
154.8906578914657
  0
VERTEX
  8
1
  6
CONTINUOUS
 62
     7
 10
-190.6239220979424
 20
154.8688288848799
  0
VERTEX
  8
1
  6
CONTINUOUS
 62
     7
 10
-190.6331465015027
 20
154.8465239761995
  0
VERTEX
  8
1
  6
CONTINUOUS
 62
     7
 10
-190.6412924260925
 20
154.8238199419818
  0
VERTEX
  8
1
  6
CONTINUOUS
 62
     7
 10
-190.6483284133731
 20
154.800793558784
  0
VERTEX
  8
1
  6
CONTINUOUS
 62
     7
 10
-190.6542230050055
 20
154.7775216031633
  0
VERTEX
  8
1
  6
CONTINUOUS
 62
     7
 10
-190.6586831266155
 20
154.7556377563924
  0
VERTEX
  8
1
  6
CONTINUOUS
 62
     7
 10
-190.6621649023071
 20
154.7335442088746
  0
VERTEX
  8
1
  6
CONTINUOUS
 62
     7
 10
-190.6646609833599
 20
154.7113070910924
  0
VERTEX
  8
1
  6
CONTINUOUS
 62
     7
 10
-190.6661640210532
 20
154.6889925335288
  0
VERTEX
  8
1
  6
CONTINUOUS
 62
     7
 10
-190.6666666666667
 20
154.6666666666667
  0
SEQEND
  8
1
  6
CONTINUOUS
 62
     7
  0
LINE
  8
1
  6
CONTINUOUS
 62
     7
 10
-190.1666666666667
 20
155.1666666666667
 11
-188.6666666666667
 21
155.1666666666667
  0
LINE
  8
1
  6
CONTINUOUS
 62
     7
 10
-188.6666666666667
 20
153.1666666666667
 11
-188.6666666666667
 21
155.1666666666667
  0
LINE
  8
1
  6
CONTINUOUS
 62
     7
 10
-188.6666666666667
 20
153.1666666666667
 11
-176.6666666666667
 21
153.1666666666667
  0
LINE
  8
1
  6
CONTINUOUS
 62
     7
 10
-176.6666666666667
 20
152.6666666666667
 11
-176.6666666666667
 21
153.1666666666667
  0
POLYLINE
  8
1
  6
CONTINUOUS
 62
     7
 66
     1
  0
VERTEX
  8
1
  6
CONTINUOUS
 62
     7
 10
-175.6666666666667
 20
151.6666666666667
  0
VERTEX
  8
1
  6
CONTINUOUS
 62
     7
 10
-175.7146084082136
 20
151.6678406736724
  0
VERTEX
  8
1
  6
CONTINUOUS
 62
     7
 10
-175.7625746307016
 20
151.6713439098469
  0
VERTEX
  8
1
  6
CONTINUOUS
 62
     7
 10
-175.8104012084636
 20
151.6771481979261
  0
VERTEX
  8
1
  6
CONTINUOUS
 62
     7
 10
-175.8579240158323
 20
151.6852253606459
  0
VERTEX
  8
1
  6
CONTINUOUS
 62
     7
 10
-175.9049789271405
 20
151.6955472207421
  0
VERTEX
  8
1
  6
CONTINUOUS
 62
     7
 10
-175.9514018167209
 20
151.7080856009508
  0
VERTEX
  8
1
  6
CONTINUOUS
 62
     7
 10
-175.9970285589063
 20
151.7228123240079
  0
VERTEX
  8
1
  6
CONTINUOUS
 62
     7
 10
-176.0418742094757
 20
151.7397516734824
  0
VERTEX
  8
1
  6
CONTINUOUS
 62
     7
 10
-176.0859704058047
 20
151.7588941110527
  0
VERTEX
  8
1
  6
CONTINUOUS
 62
     7
 10
-176.1291723166312
 20
151.7801587742456
  0
VERTEX
  8
1
  6
CONTINUOUS
 62
     7
 10
-176.1713351106929
 20
151.8034648005878
  0
VERTEX
  8
1
  6
CONTINUOUS
 62
     7
 10
-176.2123139567279
 20
151.8287313276061
  0
VERTEX
  8
1
  6
CONTINUOUS
 62
     7
 10
-176.2519640234738
 20
151.8558774928273
  0
VERTEX
  8
1
  6
CONTINUOUS
 62
     7
 10
-176.2901404796687
 20
151.8848224337783
  0
VERTEX
  8
1
  6
CONTINUOUS
 62
     7
 10
-176.3268940072669
 20
151.9156325684829
  0
VERTEX
  8
1
  6
CONTINUOUS
 62
     7
 10
-176.3622099597154
 20
151.9482748040567
  0
VERTEX
  8
1
  6
CONTINUOUS
 62
     7
 10
-176.3959786635509
 20
151.9826251912374
  0
VERTEX
  8
1
  6
CONTINUOUS
 62
     7
 10
-176.4280904453099
 20
152.0185597807631
  0
VERTEX
  8
1
  6
CONTINUOUS
 62
     7
 10
-176.4584356315291
 20
152.0559546233715
  0
VERTEX
  8
1
  6
CONTINUOUS
 62
     7
 10
-176.4869045487451
 20
152.0946857698007
  0
VERTEX
  8
1
  6
CONTINUOUS
 62
     7
 10
-176.5133875234945
 20
152.1346292707885
  0
VERTEX
  8
1
  6
CONTINUOUS
 62
     7
 10
-176.53794069272
 20
152.1759183823091
  0
VERTEX
  8
1
  6
CONTINUOUS
 62
     7
 10
-176.5605256968817
 20
152.2184666698809
  0
VERTEX
  8
1
  6
CONTINUOUS
 62
     7
 10
-176.5810796250916
 20
152.2621206520226
  0
VERTEX
  8
1
  6
CONTINUOUS
 62
     7
 10
-176.599539566462
 20
152.3067268472534
  0
VERTEX
  8
1
  6
CONTINUOUS
 62
     7
 10
-176.6158426101051
 20
152.3521317740921
  0
VERTEX
  8
1
  6
CONTINUOUS
 62
     7
 10
-176.629925845133
 20
152.3981819510578
  0
VERTEX
  8
1
  6
CONTINUOUS
 62
     7
 10
-176.6417263606577
 20
152.4447238966694
  0
VERTEX
  8
1
  6
CONTINUOUS
 62
     7
 10
-176.6506654656258
 20
152.4885360508859
  0
VERTEX
  8
1
  6
CONTINUOUS
 62
     7
 10
-176.657643825659
 20
152.5327690288835
  0
VERTEX
  8
1
  6
CONTINUOUS
 62
     7
 10
-176.6626466638089
 20
152.5772902067725
  0
VERTEX
  8
1
  6
CONTINUOUS
 62
     7
 10
-176.6656592031275
 20
152.6219669606634
  0
VERTEX
  8
1
  6
CONTINUOUS
 62
     7
 10
-176.6666666666667
 20
152.6666666666667
  0
SEQEND
  8
1
  6
CONTINUOUS
 62
     7
  0
LINE
  8
1
  6
CONTINUOUS
 62
     7
 10
-175.6666666666667
 20
151.6666666666667
 11
-174.1666666666667
 21
151.6666666666667
  0
ARC
  8
1
  6
CONTINUOUS
 62
     7
 10
-174.1674676264584
 20
156.6674676264584
 40
5.000801023935122
 50
270.0091768529884
 51
359.9908231470114
  0
LINE
  8
1
  6
CONTINUOUS
 62
     7
 10
-169.1666666666667
 20
261.6666666666662
 11
-169.1666666666667
 21
156.6666666666667
  0
ARC
  8
1
  6
CONTINUOUS
 62
     7
 10
-174.1674834131078
 20
261.6658499202256
 40
5.000816813137702
 50
0.0093576961454562
 51
89.99064230385443
  0
LINE
  8
1
  6
CONTINUOUS
 62
     7
 10
-174.1666666666667
 20
266.6666666666667
 11
-175.6666666666667
 21
266.6666666666667
  0
POLYLINE
  8
1
  6
CONTINUOUS
 62
     7
 66
     1
  0
VERTEX
  8
1
  6
CONTINUOUS
 62
     7
 10
-176.6666666666667
 20
265.6666666666666
  0
VERTEX
  8
1
  6
CONTINUOUS
 62
     7
 10
-176.6654838015437
 20
265.7147940841205
  0
VERTEX
  8
1
  6
CONTINUOUS
 62
     7
 10
-176.6619537658523
 20
265.7629460627322
  0
VERTEX
  8
1
  6
CONTINUOUS
 62
     7
 10
-176.6561043991089
 20
265.8109579954149
  0
VERTEX
  8
1
  6
CONTINUOUS
 62
     7
 10
-176.6479635408296
 20
265.8586652750816
  0
VERTEX
  8
1
  6
CONTINUOUS
 62
     7
 10
-176.6375590305311
 20
265.9059032946454
  0
VERTEX
  8
1
  6
CONTINUOUS
 62
     7
 10
-176.6249187077294
 20
265.9525074470193
  0
VERTEX
  8
1
  6
CONTINUOUS
 62
     7
 10
-176.6100704119411
 20
265.9983131251164
  0
VERTEX
  8
1
  6
CONTINUOUS
 62
     7
 10
-176.5929869999777
 20
266.0433392763789
  0
VERTEX
  8
1
  6
CONTINUOUS
 62
     7
 10
-176.5736778186358
 20
266.0876133004934
  0
VERTEX
  8
1
  6
CONTINUOUS
 62
     7
 10
-176.5522236362603
 20
266.1309884065211
  0
VERTEX
  8
1
  6
CONTINUOUS
 62
     7
 10
-176.5287052211962
 20
266.1733178035231
  0
VERTEX
  8
1
  6
CONTINUOUS
 62
     7
 10
-176.5032033417887
 20
266.2144547005606
  0
VERTEX
  8
1
  6
CONTINUOUS
 62
     7
 10
-176.4757987663827
 20
266.2542523066947
  0
VERTEX
  8
1
  6
CONTINUOUS
 62
     7
 10
-176.4465722633232
 20
266.2925638309866
  0
VERTEX
  8
1
  6
CONTINUOUS
 62
     7
 10
-176.4155283643736
 20
266.3293562688089
  0
VERTEX
  8
1
  6
CONTINUOUS
 62
     7
 10
-176.3826340525208
 20
266.3647033915625
  0
VERTEX
  8
1
  6
CONTINUOUS
 62
     7
 10
-176.3480144273238
 20
266.3984931509283
  0
VERTEX
  8
1
  6
CONTINUOUS
 62
     7
 10
-176.3117945883414
 20
266.430613498587
  0
VERTEX
  8
1
  6
CONTINUOUS
 62
     7
 10
-176.2740996351328
 20
266.4609523862195
  0
VERTEX
  8
1
  6
CONTINUOUS
 62
     7
 10
-176.2350546672568
 20
266.4893977655065
  0
VERTEX
  8
1
  6
CONTINUOUS
 62
     7
 10
-176.1947847842725
 20
266.5158375881286
  0
VERTEX
  8
1
  6
CONTINUOUS
 62
     7
 10
-176.1533609456361
 20
266.5402112025865
  0
VERTEX
  8
1
  6
CONTINUOUS
 62
     7
 10
-176.1106753383243
 20
266.5626136160059
  0
VERTEX
  8
1
  6
CONTINUOUS
 62
     7
 10
-176.066882922089
 20
266.5829809234728
  0
VERTEX
  8
1
  6
CONTINUOUS
 62
     7
 10
-176.0221386566826
 20
266.6012492200733
  0
VERTEX
  8
1
  6
CONTINUOUS
 62
     7
 10
-175.9765975018572
 20
266.6173546008935
  0
VERTEX
  8
1
  6
CONTINUOUS
 62
     7
 10
-175.9304144173647
 20
266.6312331610195
  0
VERTEX
  8
1
  6
CONTINUOUS
 62
     7
 10
-175.8837443629576
 20
266.6428209955374
  0
VERTEX
  8
1
  6
CONTINUOUS
 62
     7
 10
-175.8408727566409
 20
266.6513683784696
  0
VERTEX
  8
1
  6
CONTINUOUS
 62
     7
 10
-175.797603964262
 20
266.6580405340515
  0
VERTEX
  8
1
  6
CONTINUOUS
 62
     7
 10
-175.7540632054124
 20
266.6628235652802
  0
VERTEX
  8
1
  6
CONTINUOUS
 62
     7
 10
-175.7103756996835
 20
266.6657035751529
  0
VERTEX
  8
1
  6
CONTINUOUS
 62
     7
 10
-175.6666666666667
 20
266.6666666666667
  0
SEQEND
  8
1
  6
CONTINUOUS
 62
     7
  0
LINE
  8
1
  6
CONTINUOUS
 62
     7
 10
-176.6666666666667
 20
265.1666666666666
 11
-176.6666666666667
 21
265.6666666666666
  0
LINE
  8
1
  6
CONTINUOUS
 62
     7
 10
-176.6666666666667
 20
265.1666666666666
 11
-188.6666666666667
 21
265.1666666666666
  0
LINE
  8
1
  6
CONTINUOUS
 62
     7
 10
-188.6666666666667
 20
263.1666666666666
 11
-188.6666666666667
 21
265.1666666666666
  0
LINE
  8
1
  6
CONTINUOUS
 62
     7
 10
-188.6666666666667
 20
263.1666666666666
 11
-190.1666666666667
 21
263.1666666666666
  0
POLYLINE
  8
1
  6
CONTINUOUS
 62
     7
 66
     1
  0
VERTEX
  8
1
  6
CONTINUOUS
 62
     7
 10
-190.6666666666667
 20
263.6666666666666
  0
VERTEX
  8
1
  6
CONTINUOUS
 62
     7
 10
-190.666075477929
 20
263.642608047226
  0
VERTEX
  8
1
  6
CONTINUOUS
 62
     7
 10
-190.6643111818583
 20
263.6185369899388
  0
VERTEX
  8
1
  6
CONTINUOUS
 62
     7
 10
-190.6613876836675
 20
263.5945357880423
  0
VERTEX
  8
1
  6
CONTINUOUS
 62
     7
 10
-190.6573188885698
 20
263.5706867347733
  0
VERTEX
  8
1
  6
CONTINUOUS
 62
     7
 10
-190.6521187017785
 20
263.5470721233689
  0
VERTEX
  8
1
  6
CONTINUOUS
 62
     7
 10
-190.6458010285065
 20
263.5237742470659
  0
VERTEX
  8
1
  6
CONTINUOUS
 62
     7
 10
-190.6383797739672
 20
263.5008753991013
  0
VERTEX
  8
1
  6
CONTINUOUS
 62
     7
 10
-190.6298413751414
 20
263.4783661284184
  0
VERTEX
  8
1
  6
CONTINUOUS
 62
     7
 10
-190.6201905201988
 20
263.4562327399532
  0
VERTEX
  8
1
  6
CONTINUOUS
 62
     7
 10
-190.6094675946729
 20
263.4345486102976
  0
VERTEX
  8
1
  6
CONTINUOUS
 62
     7
 10
-190.5977129840971
 20
263.4133871160433
  0
VERTEX
  8
1
  6
CONTINUOUS
 62
     7
 10
-190.5849670740052
 20
263.392821633782
  0
VERTEX
  8
1
  6
CONTINUOUS
 62
     7
 10
-190.5712702499307
 20
263.3729255401054
  0
VERTEX
  8
1
  6
CONTINUOUS
 62
     7
 10
-190.5566628974072
 20
263.3537722116052
  0
VERTEX
  8
1
  6
CONTINUOUS
 62
     7
 10
-190.5411467893061
 20
263.3353775409988
  0
VERTEX
  8
1
  6
CONTINUOUS
 62
     7
 10
-190.5247059365219
 20
263.317705281361
  0
VERTEX
  8
1
  6
CONTINUOUS
 62
     7
 10
-190.5074028661739
 20
263.3008114055998
  0
VERTEX
  8
1
  6
CONTINUOUS
 62
     7
 10
-190.4893001053821
 20
263.284751886623
  0
VERTEX
  8
1
  6
CONTINUOUS
 62
     7
 10
-190.4704601812659
 20
263.2695826973387
  0
VERTEX
  8
1
  6
CONTINUOUS
 62
     7
 10
-190.4509456209449
 20
263.2553598106547
  0
VERTEX
  8
1
  6
CONTINUOUS
 62
     7
 10
-190.430818951539
 20
263.242139199479
  0
VERTEX
  8
1
  6
CONTINUOUS
 62
     7
 10
-190.4101110706916
 20
263.2299485883956
  0
VERTEX
  8
1
  6
CONTINUOUS
 62
     7
 10
-190.3887724529557
 20
263.2187434413275
  0
VERTEX
  8
1
  6
CONTINUOUS
 62
     7
 10
-190.3668805338396
 20
263.2085556786676
  0
VERTEX
  8
1
  6
CONTINUOUS
 62
     7
 10
-190.3445127488522
 20
263.1994172208089
  0
VERTEX
  8
1
  6
CONTINUOUS
 62
     7
 10
-190.3217465335019
 20
263.1913599881441
  0
VERTEX
  8
1
  6
CONTINUOUS
 62
     7
 10
-190.2986593232974
 20
263.1844159010664
  0
VERTEX
  8
1
  6
CONTINUOUS
 62
     7
 10
-190.2753285537473
 20
263.1786168799686
  0
VERTEX
  8
1
  6
CONTINUOUS
 62
     7
 10
-190.253868919024
 20
263.1743333849571
  0
VERTEX
  8
1
  6
CONTINUOUS
 62
     7
 10
-190.2322101238668
 20
263.1709896479547
  0
VERTEX
  8
1
  6
CONTINUOUS
 62
     7
 10
-190.2104149573633
 20
263.1685926371279
  0
VERTEX
  8
1
  6
CONTINUOUS
 62
     7
 10
-190.1885462086007
 20
263.167149320643
  0
VERTEX
  8
1
  6
CONTINUOUS
 62
     7
 10
-190.1666666666667
 20
263.1666666666666
  0
SEQEND
  8
1
  6
CONTINUOUS
 62
     7
  0
LINE
  8
1
  6
CONTINUOUS
 62
     7
 10
-190.6666666666667
 20
265.6666666666666
 11
-190.6666666666667
 21
263.6666666666666
  0
POLYLINE
  8
1
  6
CONTINUOUS
 62
     7
 66
     1
  0
VERTEX
  8
1
  6
CONTINUOUS
 62
     7
 10
-191.6666666666667
 20
266.6666666666667
  0
VERTEX
  8
1
  6
CONTINUOUS
 62
     7
 10
-191.6187249251198
 20
266.6654926596609
  0
VERTEX
  8
1
  6
CONTINUOUS
 62
     7
 10
-191.5707587026317
 20
266.6619894234864
  0
VERTEX
  8
1
  6
CONTINUOUS
 62
     7
 10
-191.5229321248697
 20
266.6561851354072
  0
VERTEX
  8
1
  6
CONTINUOUS
 62
     7
 10
-191.475409317501
 20
266.6481079726875
  0
VERTEX
  8
1
  6
CONTINUOUS
 62
     7
 10
-191.4283544061929
 20
266.6377861125912
  0
VERTEX
  8
1
  6
CONTINUOUS
 62
     7
 10
-191.3819315166124
 20
266.6252477323825
  0
VERTEX
  8
1
  6
CONTINUOUS
 62
     7
 10
-191.3363047744271
 20
266.6105210093255
  0
VERTEX
  8
1
  6
CONTINUOUS
 62
     7
 10
-191.2914591238577
 20
266.5935816598509
  0
VERTEX
  8
1
  6
CONTINUOUS
 62
     7
 10
-191.2473629275287
 20
266.5744392222805
  0
VERTEX
  8
1
  6
CONTINUOUS
 62
     7
 10
-191.2041610167022
 20
266.5531745590877
  0
VERTEX
  8
1
  6
CONTINUOUS
 62
     7
 10
-191.1619982226404
 20
266.5298685327456
  0
VERTEX
  8
1
  6
CONTINUOUS
 62
     7
 10
-191.1210193766055
 20
266.5046020057272
  0
VERTEX
  8
1
  6
CONTINUOUS
 62
     7
 10
-191.0813693098595
 20
266.477455840506
  0
VERTEX
  8
1
  6
CONTINUOUS
 62
     7
 10
-191.0431928536647
 20
266.448510899555
  0
VERTEX
  8
1
  6
CONTINUOUS
 62
     7
 10
-191.0064393260665
 20
266.4177007648504
  0
VERTEX
  8
1
  6
CONTINUOUS
 62
     7
 10
-190.971123373618
 20
266.3850585292766
  0
VERTEX
  8
1
  6
CONTINUOUS
 62
     7
 10
-190.9373546697825
 20
266.3507081420959
  0
VERTEX
  8
1
  6
CONTINUOUS
 62
     7
 10
-190.9052428880235
 20
266.3147735525703
  0
VERTEX
  8
1
  6
CONTINUOUS
 62
     7
 10
-190.8748977018042
 20
266.2773787099617
  0
VERTEX
  8
1
  6
CONTINUOUS
 62
     7
 10
-190.8464287845882
 20
266.2386475635326
  0
VERTEX
  8
1
  6
CONTINUOUS
 62
     7
 10
-190.8199458098389
 20
266.1987040625448
  0
VERTEX
  8
1
  6
CONTINUOUS
 62
     7
 10
-190.7953926406134
 20
266.1574149510242
  0
VERTEX
  8
1
  6
CONTINUOUS
 62
     7
 10
-190.7728076364517
 20
266.1148666634525
  0
VERTEX
  8
1
  6
CONTINUOUS
 62
     7
 10
-190.7522537082417
 20
266.0712126813107
  0
VERTEX
  8
1
  6
CONTINUOUS
 62
     7
 10
-190.7337937668713
 20
266.02660648608
  0
VERTEX
  8
1
  6
CONTINUOUS
 62
     7
 10
-190.7174907232283
 20
265.9812015592412
  0
VERTEX
  8
1
  6
CONTINUOUS
 62
     7
 10
-190.7034074882004
 20
265.9351513822755
  0
VERTEX
  8
1
  6
CONTINUOUS
 62
     7
 10
-190.6916069726756
 20
265.8886094366638
  0
VERTEX
  8
1
  6
CONTINUOUS
 62
     7
 10
-190.6826678677075
 20
265.8447972824474
  0
VERTEX
  8
1
  6
CONTINUOUS
 62
     7
 10
-190.6756895076744
 20
265.8005643044498
  0
VERTEX
  8
1
  6
CONTINUOUS
 62
     7
 10
-190.6706866695244
 20
265.7560431265608
  0
VERTEX
  8
1
  6
CONTINUOUS
 62
     7
 10
-190.6676741302058
 20
265.7113663726699
  0
VERTEX
  8
1
  6
CONTINUOUS
 62
     7
 10
-190.6666666666667
 20
265.6666666666666
  0
SEQEND
  8
1
  6
CONTINUOUS
 62
     7
  0
LINE
  8
1
  6
CONTINUOUS
 62
     7
 10
-191.6666666666667
 20
266.6666666666667
 11
-211.6666666666667
 21
266.6666666666667
  0
POLYLINE
  8
1
  6
CONTINUOUS
 62
     7
 66
     1
  0
VERTEX
  8
1
  6
CONTINUOUS
 62
     7
 10
-212.6666666666667
 20
265.6666666666666
  0
VERTEX
  8
1
  6
CONTINUOUS
 62
     7
 10
-212.6654838015437
 20
265.7147940841205
  0
VERTEX
  8
1
  6
CONTINUOUS
 62
     7
 10
-212.6619537658523
 20
265.7629460627322
  0
VERTEX
  8
1
  6
CONTINUOUS
 62
     7
 10
-212.6561043991088
 20
265.8109579954149
  0
VERTEX
  8
1
  6
CONTINUOUS
 62
     7
 10
-212.6479635408296
 20
265.8586652750816
  0
VERTEX
  8
1
  6
CONTINUOUS
 62
     7
 10
-212.6375590305311
 20
265.9059032946454
  0
VERTEX
  8
1
  6
CONTINUOUS
 62
     7
 10
-212.6249187077294
 20
265.9525074470193
  0
VERTEX
  8
1
  6
CONTINUOUS
 62
     7
 10
-212.6100704119411
 20
265.9983131251164
  0
VERTEX
  8
1
  6
CONTINUOUS
 62
     7
 10
-212.5929869999777
 20
266.0433392763789
  0
VERTEX
  8
1
  6
CONTINUOUS
 62
     7
 10
-212.5736778186358
 20
266.0876133004934
  0
VERTEX
  8
1
  6
CONTINUOUS
 62
     7
 10
-212.5522236362603
 20
266.1309884065211
  0
VERTEX
  8
1
  6
CONTINUOUS
 62
     7
 10
-212.5287052211962
 20
266.1733178035231
  0
VERTEX
  8
1
  6
CONTINUOUS
 62
     7
 10
-212.5032033417887
 20
266.2144547005606
  0
VERTEX
  8
1
  6
CONTINUOUS
 62
     7
 10
-212.4757987663827
 20
266.2542523066947
  0
VERTEX
  8
1
  6
CONTINUOUS
 62
     7
 10
-212.4465722633232
 20
266.2925638309866
  0
VERTEX
  8
1
  6
CONTINUOUS
 62
     7
 10
-212.4155283643737
 20
266.3293562688089
  0
VERTEX
  8
1
  6
CONTINUOUS
 62
     7
 10
-212.3826340525209
 20
266.3647033915625
  0
VERTEX
  8
1
  6
CONTINUOUS
 62
     7
 10
-212.3480144273238
 20
266.3984931509283
  0
VERTEX
  8
1
  6
CONTINUOUS
 62
     7
 10
-212.3117945883414
 20
266.430613498587
  0
VERTEX
  8
1
  6
CONTINUOUS
 62
     7
 10
-212.2740996351328
 20
266.4609523862195
  0
VERTEX
  8
1
  6
CONTINUOUS
 62
     7
 10
-212.2350546672568
 20
266.4893977655065
  0
VERTEX
  8
1
  6
CONTINUOUS
 62
     7
 10
-212.1947847842726
 20
266.5158375881286
  0
VERTEX
  8
1
  6
CONTINUOUS
 62
     7
 10
-212.1533609456361
 20
266.5402112025865
  0
VERTEX
  8
1
  6
CONTINUOUS
 62
     7
 10
-212.1106753383243
 20
266.5626136160059
  0
VERTEX
  8
1
  6
CONTINUOUS
 62
     7
 10
-212.0668829220891
 20
266.5829809234728
  0
VERTEX
  8
1
  6
CONTINUOUS
 62
     7
 10
-212.0221386566826
 20
266.6012492200733
  0
VERTEX
  8
1
  6
CONTINUOUS
 62
     7
 10
-211.9765975018572
 20
266.6173546008935
  0
VERTEX
  8
1
  6
CONTINUOUS
 62
     7
 10
-211.9304144173648
 20
266.6312331610195
  0
VERTEX
  8
1
  6
CONTINUOUS
 62
     7
 10
-211.8837443629576
 20
266.6428209955374
  0
VERTEX
  8
1
  6
CONTINUOUS
 62
     7
 10
-211.8408727566409
 20
266.6513683784696
  0
VERTEX
  8
1
  6
CONTINUOUS
 62
     7
 10
-211.797603964262
 20
266.6580405340515
  0
VERTEX
  8
1
  6
CONTINUOUS
 62
     7
 10
-211.7540632054124
 20
266.6628235652802
  0
VERTEX
  8
1
  6
CONTINUOUS
 62
     7
 10
-211.7103756996835
 20
266.6657035751529
  0
VERTEX
  8
1
  6
CONTINUOUS
 62
     7
 10
-211.6666666666667
 20
266.6666666666667
  0
SEQEND
  8
1
  6
CONTINUOUS
 62
     7
  0
LINE
  8
1
  6
CONTINUOUS
 62
     7
 10
-212.6666666666667
 20
263.6666666666666
 11
-212.6666666666667
 21
265.6666666666666
  0
POLYLINE
  8
1
  6
CONTINUOUS
 62
     7
 66
     1
  0
VERTEX
  8
1
  6
CONTINUOUS
 62
     7
 10
-213.1666666666667
 20
263.1666666666666
  0
VERTEX
  8
1
  6
CONTINUOUS
 62
     7
 10
-213.1426906219629
 20
263.1672539162795
  0
VERTEX
  8
1
  6
CONTINUOUS
 62
     7
 10
-213.118702326833
 20
263.1690062800092
  0
VERTEX
  8
1
  6
CONTINUOUS
 62
     7
 10
-213.0947838567215
 20
263.1719096801921
  0
VERTEX
  8
1
  6
CONTINUOUS
 62
     7
 10
-213.0710172870731
 20
263.1759500391647
  0
VERTEX
  8
1
  6
CONTINUOUS
 62
     7
 10
-213.0474846933326
 20
263.1811132792635
  0
VERTEX
  8
1
  6
CONTINUOUS
 62
     7
 10
-213.0242681509445
 20
263.1873853228251
  0
VERTEX
  8
1
  6
CONTINUOUS
 62
     7
 10
-213.0014497353535
 20
263.1947520921858
  0
VERTEX
  8
1
  6
CONTINUOUS
 62
     7
 10
-212.9790217861382
 20
263.2032258231526
  0
VERTEX
  8
1
  6
CONTINUOUS
 62
     7
 10
-212.9569686339391
 20
263.2128017436569
  0
VERTEX
  8
1
  6
CONTINUOUS
 62
     7
 10
-212.9353627563287
 20
263.2234394185454
  0
VERTEX
  8
1
  6
CONTINUOUS
 62
     7
 10
-212.9142766308799
 20
263.2350984126644
  0
VERTEX
  8
1
  6
CONTINUOUS
 62
     7
 10
-212.8937827351652
 20
263.2477382908606
  0
VERTEX
  8
1
  6
CONTINUOUS
 62
     7
 10
-212.8739535467574
 20
263.2613186179803
  0
VERTEX
  8
1
  6
CONTINUOUS
 62
     7
 10
-212.8548615432291
 20
263.2757989588702
  0
VERTEX
  8
1
  6
CONTINUOUS
 62
     7
 10
-212.8364842197446
 20
263.2912101115099
  0
VERTEX
  8
1
  6
CONTINUOUS
 62
     7
 10
-212.8188258989012
 20
263.307537734295
  0
VERTEX
  8
1
  6
CONTINUOUS
 62
     7
 10
-212.8019414779046
 20
263.3247198083913
  0
VERTEX
  8
1
  6
CONTINUOUS
 62
     7
 10
-212.7858858539608
 20
263.3426943149649
  0
VERTEX
  8
1
  6
CONTINUOUS
 62
     7
 10
-212.7707139242757
 20
263.3613992351817
  0
VERTEX
  8
1
  6
CONTINUOUS
 62
     7
 10
-212.7564805860551
 20
263.3807725502077
  0
VERTEX
  8
1
  6
CONTINUOUS
 62
     7
 10
-212.7432407365049
 20
263.4007522412088
  0
VERTEX
  8
1
  6
CONTINUOUS
 62
     7
 10
-212.7309696460669
 20
263.4213991139337
  0
VERTEX
  8
1
  6
CONTINUOUS
 62
     7
 10
-212.7196826595826
 20
263.4426754418676
  0
VERTEX
  8
1
  6
CONTINUOUS
 62
     7
 10
-212.7094112353909
 20
263.4645044484533
  0
VERTEX
  8
1
  6
CONTINUOUS
 62
     7
 10
-212.7001868318307
 20
263.4868093571337
  0
VERTEX
  8
1
  6
CONTINUOUS
 62
     7
 10
-212.6920409072408
 20
263.5095133913515
  0
VERTEX
  8
1
  6
CONTINUOUS
 62
     7
 10
-212.6850049199602
 20
263.5325397745494
  0
VERTEX
  8
1
  6
CONTINUOUS
 62
     7
 10
-212.6791103283279
 20
263.55581173017
  0
VERTEX
  8
1
  6
CONTINUOUS
 62
     7
 10
-212.6746502067179
 20
263.5776955769409
  0
VERTEX
  8
1
  6
CONTINUOUS
 62
     7
 10
-212.6711684310262
 20
263.5997891244588
  0
VERTEX
  8
1
  6
CONTINUOUS
 62
     7
 10
-212.6686723499735
 20
263.6220262422409
  0
VERTEX
  8
1
  6
CONTINUOUS
 62
     7
 10
-212.6671693122801
 20
263.6443407998045
  0
VERTEX
  8
1
  6
CONTINUOUS
 62
     7
 10
-212.6666666666667
 20
263.6666666666666
  0
SEQEND
  8
1
  6
CONTINUOUS
 62
     7
  0
LINE
  8
1
  6
CONTINUOUS
 62
     7
 10
-213.1666666666667
 20
263.1666666666666
 11
-214.6666666666667
 21
263.1666666666666
  0
LINE
  8
1
  6
CONTINUOUS
 62
     7
 10
-214.6666666666667
 20
265.1666666666666
 11
-214.6666666666667
 21
263.1666666666666
  0
LINE
  8
1
  6
CONTINUOUS
 62
     7
 10
-214.6666666666667
 20
265.1666666666666
 11
-226.6666666666667
 21
265.1666666666666
  0
LINE
  8
1
  6
CONTINUOUS
 62
     7
 10
-226.6666666666667
 20
265.6666666666666
 11
-226.6666666666667
 21
265.1666666666666
  0
POLYLINE
  8
1
  6
CONTINUOUS
 62
     7
 66
     1
  0
VERTEX
  8
1
  6
CONTINUOUS
 62
     7
 10
-227.6666666666667
 20
266.6666666666667
  0
VERTEX
  8
1
  6
CONTINUOUS
 62
     7
 10
-227.6187249251198
 20
266.6654926596609
  0
VERTEX
  8
1
  6
CONTINUOUS
 62
     7
 10
-227.5707587026317
 20
266.6619894234864
  0
VERTEX
  8
1
  6
CONTINUOUS
 62
     7
 10
-227.5229321248697
 20
266.6561851354072
  0
VERTEX
  8
1
  6
CONTINUOUS
 62
     7
 10
-227.475409317501
 20
266.6481079726875
  0
VERTEX
  8
1
  6
CONTINUOUS
 62
     7
 10
-227.4283544061929
 20
266.6377861125912
  0
VERTEX
  8
1
  6
CONTINUOUS
 62
     7
 10
-227.3819315166124
 20
266.6252477323825
  0
VERTEX
  8
1
  6
CONTINUOUS
 62
     7
 10
-227.3363047744271
 20
266.6105210093255
  0
VERTEX
  8
1
  6
CONTINUOUS
 62
     7
 10
-227.2914591238577
 20
266.5935816598509
  0
VERTEX
  8
1
  6
CONTINUOUS
 62
     7
 10
-227.2473629275287
 20
266.5744392222805
  0
VERTEX
  8
1
  6
CONTINUOUS
 62
     7
 10
-227.2041610167022
 20
266.5531745590877
  0
VERTEX
  8
1
  6
CONTINUOUS
 62
     7
 10
-227.1619982226404
 20
266.5298685327456
  0
VERTEX
  8
1
  6
CONTINUOUS
 62
     7
 10
-227.1210193766055
 20
266.5046020057272
  0
VERTEX
  8
1
  6
CONTINUOUS
 62
     7
 10
-227.0813693098595
 20
266.477455840506
  0
VERTEX
  8
1
  6
CONTINUOUS
 62
     7
 10
-227.0431928536647
 20
266.448510899555
  0
VERTEX
  8
1
  6
CONTINUOUS
 62
     7
 10
-227.0064393260665
 20
266.4177007648504
  0
VERTEX
  8
1
  6
CONTINUOUS
 62
     7
 10
-226.971123373618
 20
266.3850585292766
  0
VERTEX
  8
1
  6
CONTINUOUS
 62
     7
 10
-226.9373546697825
 20
266.3507081420959
  0
VERTEX
  8
1
  6
CONTINUOUS
 62
     7
 10
-226.9052428880235
 20
266.3147735525703
  0
VERTEX
  8
1
  6
CONTINUOUS
 62
     7
 10
-226.8748977018042
 20
266.2773787099617
  0
VERTEX
  8
1
  6
CONTINUOUS
 62
     7
 10
-226.8464287845883
 20
266.2386475635326
  0
VERTEX
  8
1
  6
CONTINUOUS
 62
     7
 10
-226.8199458098389
 20
266.1987040625448
  0
VERTEX
  8
1
  6
CONTINUOUS
 62
     7
 10
-226.7953926406134
 20
266.1574149510242
  0
VERTEX
  8
1
  6
CONTINUOUS
 62
     7
 10
-226.7728076364517
 20
266.1148666634525
  0
VERTEX
  8
1
  6
CONTINUOUS
 62
     7
 10
-226.7522537082418
 20
266.0712126813107
  0
VERTEX
  8
1
  6
CONTINUOUS
 62
     7
 10
-226.7337937668713
 20
266.02660648608
  0
VERTEX
  8
1
  6
CONTINUOUS
 62
     7
 10
-226.7174907232283
 20
265.9812015592412
  0
VERTEX
  8
1
  6
CONTINUOUS
 62
     7
 10
-226.7034074882004
 20
265.9351513822755
  0
VERTEX
  8
1
  6
CONTINUOUS
 62
     7
 10
-226.6916069726756
 20
265.8886094366638
  0
VERTEX
  8
1
  6
CONTINUOUS
 62
     7
 10
-226.6826678677075
 20
265.8447972824474
  0
VERTEX
  8
1
  6
CONTINUOUS
 62
     7
 10
-226.6756895076744
 20
265.8005643044498
  0
VERTEX
  8
1
  6
CONTINUOUS
 62
     7
 10
-226.6706866695244
 20
265.7560431265608
  0
VERTEX
  8
1
  6
CONTINUOUS
 62
     7
 10
-226.6676741302058
 20
265.7113663726699
  0
VERTEX
  8
1
  6
CONTINUOUS
 62
     7
 10
-226.6666666666667
 20
265.6666666666666
  0
SEQEND
  8
1
  6
CONTINUOUS
 62
     7
  0
LINE
  8
1
  6
CONTINUOUS
 62
     7
 10
-227.6666666666667
 20
266.6666666666667
 11
-229.1666666666667
 21
266.6666666666667
  0
ARC
  8
1
  6
CONTINUOUS
 62
     7
 10
-229.165865706875
 20
261.665865706875
 40
5.000801023935094
 50
90.00917685298838
 51
179.9908231470117
  0
LINE
  8
1
  6
CONTINUOUS
 62
     7
 10
-234.1666666666667
 20
156.6666666666672
 11
-234.1666666666667
 21
261.6666666666666
  0
ARC
  8
1
  6
CONTINUOUS
 62
     7
 10
-229.1658499202256
 20
156.6674834131078
 40
5.000816813137688
 50
180.0093576961452
 51
269.9906423038545
  0
LINE
  8
1
  6
CONTINUOUS
 62
     7
 10
-229.1666666666667
 20
151.6666666666667
 11
-227.6666666666667
 21
151.6666666666667
  0
POLYLINE
  8
1
  6
CONTINUOUS
 62
     7
 66
     1
  0
VERTEX
  8
1
  6
CONTINUOUS
 62
     7
 10
-226.6666666666667
 20
152.6666666666667
  0
VERTEX
  8
1
  6
CONTINUOUS
 62
     7
 10
-226.6678495317897
 20
152.6185392492129
  0
VERTEX
  8
1
  6
CONTINUOUS
 62
     7
 10
-226.6713795674811
 20
152.5703872706012
  0
VERTEX
  8
1
  6
CONTINUOUS
 62
     7
 10
-226.6772289342245
 20
152.5223753379184
  0
VERTEX
  8
1
  6
CONTINUOUS
 62
     7
 10
-226.6853697925037
 20
152.4746680582517
  0
VERTEX
  8
1
  6
CONTINUOUS
 62
     7
 10
-226.6957743028023
 20
152.4274300386878
  0
VERTEX
  8
1
  6
CONTINUOUS
 62
     7
 10
-226.708414625604
 20
152.380825886314
  0
VERTEX
  8
1
  6
CONTINUOUS
 62
     7
 10
-226.7232629213923
 20
152.3350202082169
  0
VERTEX
  8
1
  6
CONTINUOUS
 62
     7
 10
-226.7403463333557
 20
152.2899940569544
  0
VERTEX
  8
1
  6
CONTINUOUS
 62
     7
 10
-226.7596555146976
 20
152.2457200328399
  0
VERTEX
  8
1
  6
CONTINUOUS
 62
     7
 10
-226.7811096970731
 20
152.2023449268122
  0
VERTEX
  8
1
  6
CONTINUOUS
 62
     7
 10
-226.8046281121371
 20
152.1600155298102
  0
VERTEX
  8
1
  6
CONTINUOUS
 62
     7
 10
-226.8301299915447
 20
152.1188786327727
  0
VERTEX
  8
1
  6
CONTINUOUS
 62
     7
 10
-226.8575345669507
 20
152.0790810266386
  0
VERTEX
  8
1
  6
CONTINUOUS
 62
     7
 10
-226.8867610700102
 20
152.0407695023466
  0
VERTEX
  8
1
  6
CONTINUOUS
 62
     7
 10
-226.9178049689597
 20
152.0039770645245
  0
VERTEX
  8
1
  6
CONTINUOUS
 62
     7
 10
-226.9506992808125
 20
151.9686299417708
  0
VERTEX
  8
1
  6
CONTINUOUS
 62
     7
 10
-226.9853189060096
 20
151.934840182405
  0
VERTEX
  8
1
  6
CONTINUOUS
 62
     7
 10
-227.021538744992
 20
151.9027198347463
  0
VERTEX
  8
1
  6
CONTINUOUS
 62
     7
 10
-227.0592336982006
 20
151.8723809471138
  0
VERTEX
  8
1
  6
CONTINUOUS
 62
     7
 10
-227.0982786660766
 20
151.8439355678269
  0
VERTEX
  8
1
  6
CONTINUOUS
 62
     7
 10
-227.1385485490608
 20
151.8174957452048
  0
VERTEX
  8
1
  6
CONTINUOUS
 62
     7
 10
-227.1799723876973
 20
151.7931221307468
  0
VERTEX
  8
1
  6
CONTINUOUS
 62
     7
 10
-227.2226579950091
 20
151.7707197173274
  0
VERTEX
  8
1
  6
CONTINUOUS
 62
     7
 10
-227.2664504112443
 20
151.7503524098605
  0
VERTEX
  8
1
  6
CONTINUOUS
 62
     7
 10
-227.3111946766507
 20
151.73208411326
  0
VERTEX
  8
1
  6
CONTINUOUS
 62
     7
 10
-227.3567358314762
 20
151.7159787324398
  0
VERTEX
  8
1
  6
CONTINUOUS
 62
     7
 10
-227.4029189159686
 20
151.7021001723138
  0
VERTEX
  8
1
  6
CONTINUOUS
 62
     7
 10
-227.4495889703758
 20
151.6905123377959
  0
VERTEX
  8
1
  6
CONTINUOUS
 62
     7
 10
-227.4924605766925
 20
151.6819649548638
  0
VERTEX
  8
1
  6
CONTINUOUS
 62
     7
 10
-227.5357293690713
 20
151.6752927992819
  0
VERTEX
  8
1
  6
CONTINUOUS
 62
     7
 10
-227.579270127921
 20
151.6705097680531
  0
VERTEX
  8
1
  6
CONTINUOUS
 62
     7
 10
-227.6229576336499
 20
151.6676297581804
  0
VERTEX
  8
1
  6
CONTINUOUS
 62
     7
 10
-227.6666666666667
 20
151.6666666666667
  0
SEQEND
  8
1
  6
CONTINUOUS
 62
     7
  0
LINE
  8
1
  6
CONTINUOUS
 62
     7
 10
-226.6666666666667
 20
153.1666666666667
 11
-226.6666666666667
 21
152.6666666666667
  0
LINE
  8
1
  6
CONTINUOUS
 62
     7
 10
-226.6666666666667
 20
153.1666666666667
 11
-214.6666666666667
 21
153.1666666666667
  0
LINE
  8
1
  6
CONTINUOUS
 62
     7
 10
-214.6666666666667
 20
155.1666666666667
 11
-214.6666666666667
 21
153.1666666666667
  0
LINE
  8
1
  6
CONTINUOUS
 62
     7
 10
-214.6666666666667
 20
155.1666666666667
 11
-213.1666666666667
 21
155.1666666666667
  0
POLYLINE
  8
1
  6
CONTINUOUS
 62
     7
 66
     1
  0
VERTEX
  8
1
  6
CONTINUOUS
 62
     7
 10
-212.6666666666667
 20
154.6666666666667
  0
VERTEX
  8
1
  6
CONTINUOUS
 62
     7
 10
-212.6672578554043
 20
154.6907252861074
  0
VERTEX
  8
1
  6
CONTINUOUS
 62
     7
 10
-212.6690221514751
 20
154.7147963433945
  0
VERTEX
  8
1
  6
CONTINUOUS
 62
     7
 10
-212.6719456496659
 20
154.738797545291
  0
VERTEX
  8
1
  6
CONTINUOUS
 62
     7
 10
-212.6760144447636
 20
154.7626465985599
  0
VERTEX
  8
1
  6
CONTINUOUS
 62
     7
 10
-212.6812146315549
 20
154.7862612099644
  0
VERTEX
  8
1
  6
CONTINUOUS
 62
     7
 10
-212.6875323048268
 20
154.8095590862674
  0
VERTEX
  8
1
  6
CONTINUOUS
 62
     7
 10
-212.6949535593662
 20
154.832457934232
  0
VERTEX
  8
1
  6
CONTINUOUS
 62
     7
 10
-212.7034919581919
 20
154.8549672049149
  0
VERTEX
  8
1
  6
CONTINUOUS
 62
     7
 10
-212.7131428131345
 20
154.8771005933801
  0
VERTEX
  8
1
  6
CONTINUOUS
 62
     7
 10
-212.7238657386605
 20
154.8987847230357
  0
VERTEX
  8
1
  6
CONTINUOUS
 62
     7
 10
-212.7356203492362
 20
154.91994621729
  0
VERTEX
  8
1
  6
CONTINUOUS
 62
     7
 10
-212.7483662593281
 20
154.9405116995513
  0
VERTEX
  8
1
  6
CONTINUOUS
 62
     7
 10
-212.7620630834026
 20
154.9604077932279
  0
VERTEX
  8
1
  6
CONTINUOUS
 62
     7
 10
-212.7766704359262
 20
154.9795611217281
  0
VERTEX
  8
1
  6
CONTINUOUS
 62
     7
 10
-212.7921865440272
 20
154.9979557923345
  0
VERTEX
  8
1
  6
CONTINUOUS
 62
     7
 10
-212.8086273968115
 20
155.0156280519723
  0
VERTEX
  8
1
  6
CONTINUOUS
 62
     7
 10
-212.8259304671594
 20
155.0325219277335
  0
VERTEX
  8
1
  6
CONTINUOUS
 62
     7
 10
-212.8440332279513
 20
155.0485814467103
  0
VERTEX
  8
1
  6
CONTINUOUS
 62
     7
 10
-212.8628731520675
 20
155.0637506359946
  0
VERTEX
  8
1
  6
CONTINUOUS
 62
     7
 10
-212.8823877123884
 20
155.0779735226786
  0
VERTEX
  8
1
  6
CONTINUOUS
 62
     7
 10
-212.9025143817944
 20
155.0911941338543
  0
VERTEX
  8
1
  6
CONTINUOUS
 62
     7
 10
-212.9232222626418
 20
155.1033847449376
  0
VERTEX
  8
1
  6
CONTINUOUS
 62
     7
 10
-212.9445608803777
 20
155.1145898920057
  0
VERTEX
  8
1
  6
CONTINUOUS
 62
     7
 10
-212.9664527994937
 20
155.1247776546657
  0
VERTEX
  8
1
  6
CONTINUOUS
 62
     7
 10
-212.9888205844812
 20
155.1339161125244
  0
VERTEX
  8
1
  6
CONTINUOUS
 62
     7
 10
-213.0115867998315
 20
155.1419733451892
  0
VERTEX
  8
1
  6
CONTINUOUS
 62
     7
 10
-213.034674010036
 20
155.1489174322669
  0
VERTEX
  8
1
  6
CONTINUOUS
 62
     7
 10
-213.0580047795861
 20
155.1547164533648
  0
VERTEX
  8
1
  6
CONTINUOUS
 62
     7
 10
-213.0794644143094
 20
155.1589999483762
  0
VERTEX
  8
1
  6
CONTINUOUS
 62
     7
 10
-213.1011232094666
 20
155.1623436853786
  0
VERTEX
  8
1
  6
CONTINUOUS
 62
     7
 10
-213.1229183759701
 20
155.1647406962055
  0
VERTEX
  8
1
  6
CONTINUOUS
 62
     7
 10
-213.1447871247326
 20
155.1661840126903
  0
VERTEX
  8
1
  6
CONTINUOUS
 62
     7
 10
-213.1666666666667
 20
155.1666666666667
  0
SEQEND
  8
1
  6
CONTINUOUS
 62
     7
  0
LINE
  8
1
  6
CONTINUOUS
 62
     7
 10
-212.6666666666667
 20
152.6666666666667
 11
-212.6666666666667
 21
154.6666666666667
  0
LINE
  8
1
  6
CONTINUOUS
 62
     7
 10
-236.6666666666667
 20
157.0725718355991
 11
-236.6666666666667
 21
261.2607614977344
  0
LINE
  8
1
  6
CONTINUOUS
 62
     7
 10
-166.6666666666667
 20
157.0725718355991
 11
-166.6666666666667
 21
261.2607614977344
  0
LINE
  8
1
  6
CONTINUOUS
 62
     7
 10
-166.6666666666667
 20
261.4850213902197
 11
-166.6666666666667
 21
261.2607614977344
  0
ARC
  8
1
  6
CONTINUOUS
 62
     7
 10
-174.1564454951157
 20
261.4768903989965
 40
7.489783241997118
 50
0.062200941843173
 51
90.07819053694965
  0
LINE
  8
1
  6
CONTINUOUS
 62
     7
 10
-166.6666666666667
 20
157.0725718355989
 11
-166.6666666666667
 21
156.8483119431136
  0
ARC
  8
1
  6
CONTINUOUS
 62
     7
 10
-174.1568204857953
 20
156.8568188449811
 40
7.490158649961006
 50
269.9246818662866
 51
359.9349266549211
  0
LINE
  8
1
  6
CONTINUOUS
 62
     7
 10
-236.6666666666667
 20
261.2607614977344
 11
-236.6666666666667
 21
261.4850213902197
  0
ARC
  8
1
  6
CONTINUOUS
 62
     7
 10
-229.1765128475382
 20
261.4765144883522
 40
7.490158649960923
 50
89.92468186628584
 51
179.9349266549214
  0
LINE
  8
1
  6
CONTINUOUS
 62
     7
 10
-174.1666666666667
 20
149.3666666666667
 11
-229.1666666666667
 21
149.3666666666667
  0
LINE
  8
1
  6
CONTINUOUS
 62
     7
 10
-174.1666666666667
 20
268.9666666666666
 11
-229.1666666666667
 21
268.9666666666666
  0
LINE
  8
1
  6
CONTINUOUS
 62
     7
 10
-181.6666666666667
 20
263.1666666666666
 11
-178.6666666666667
 21
263.1666666666666
  0
LINE
  8
1
  6
CONTINUOUS
 62
     7
 10
-178.6666666666667
 20
258.1666666666666
 11
-178.6666666666667
 21
263.1666666666666
  0
LINE
  8
1
  6
CONTINUOUS
 62
     7
 10
-178.6666666666667
 20
258.1666666666666
 11
-181.1666666666667
 21
258.1666666666666
  0
POLYLINE
  8
1
  6
CONTINUOUS
 62
     7
 66
     1
  0
VERTEX
  8
1
  6
CONTINUOUS
 62
     7
 10
-181.6666666666667
 20
258.6666666666666
  0
VERTEX
  8
1
  6
CONTINUOUS
 62
     7
 10
-181.6660758282698
 20
258.6426153800876
  0
VERTEX
  8
1
  6
CONTINUOUS
 62
     7
 10
-181.664312593505
 20
258.6185516726006
  0
VERTEX
  8
1
  6
CONTINUOUS
 62
     7
 10
-181.6613908830107
 20
258.5945578179197
  0
VERTEX
  8
1
  6
CONTINUOUS
 62
     7
 10
-181.6573246174254
 20
258.5707160897591
  0
VERTEX
  8
1
  6
CONTINUOUS
 62
     7
 10
-181.6521277173875
 20
258.5471087618327
  0
VERTEX
  8
1
  6
CONTINUOUS
 62
     7
 10
-181.6458141035357
 20
258.5238181078548
  0
VERTEX
  8
1
  6
CONTINUOUS
 62
     7
 10
-181.6383976965084
 20
258.5009264015393
  0
VERTEX
  8
1
  6
CONTINUOUS
 62
     7
 10
-181.6298650522843
 20
258.478424352102
  0
VERTEX
  8
1
  6
CONTINUOUS
 62
     7
 10
-181.6202208663554
 20
258.4562980878511
  0
VERTEX
  8
1
  6
CONTINUOUS
 62
     7
 10
-181.6095055286077
 20
258.4346209048826
  0
VERTEX
  8
1
  6
CONTINUOUS
 62
     7
 10
-181.5977594289274
 20
258.4134660992931
  0
VERTEX
  8
1
  6
CONTINUOUS
 62
     7
 10
-181.5850229572004
 20
258.3929069671785
  0
VERTEX
  8
1
  6
CONTINUOUS
 62
     7
 10
-181.5713365033128
 20
258.3730168046351
  0
VERTEX
  8
1
  6
CONTINUOUS
 62
     7
 10
-181.5567404571505
 20
258.3538689077591
  0
VERTEX
  8
1
  6
CONTINUOUS
 62
     7
 10
-181.5412336473706
 20
258.3354757184132
  0
VERTEX
  8
1
  6
CONTINUOUS
 62
     7
 10
-181.5248028240157
 20
258.3178046371532
  0
VERTEX
  8
1
  6
CONTINUOUS
 62
     7
 10
-181.5075104685434
 20
258.3009115412784
  0
VERTEX
  8
1
  6
CONTINUOUS
 62
     7
 10
-181.4894190624111
 20
258.2848523080881
  0
VERTEX
  8
1
  6
CONTINUOUS
 62
     7
 10
-181.4705910870762
 20
258.2696828148816
  0
VERTEX
  8
1
  6
CONTINUOUS
 62
     7
 10
-181.4510890239962
 20
258.2554589389582
  0
VERTEX
  8
1
  6
CONTINUOUS
 62
     7
 10
-181.4309753546285
 20
258.242236557617
  0
VERTEX
  8
1
  6
CONTINUOUS
 62
     7
 10
-181.4102727963103
 20
258.2300387590101
  0
VERTEX
  8
1
  6
CONTINUOUS
 62
     7
 10
-181.3889396048056
 20
258.2188263068548
  0
VERTEX
  8
1
  6
CONTINUOUS
 62
     7
 10
-181.367053157192
 20
258.2086310818557
  0
VERTEX
  8
1
  6
CONTINUOUS
 62
     7
 10
-181.3446908305469
 20
258.1994849647176
  0
VERTEX
  8
1
  6
CONTINUOUS
 62
     7
 10
-181.3219300019477
 20
258.1914198361449
  0
VERTEX
  8
1
  6
CONTINUOUS
 62
     7
 10
-181.298848048472
 20
258.1844675768422
  0
VERTEX
  8
1
  6
CONTINUOUS
 62
     7
 10
-181.2755223471971
 20
258.1786600675143
  0
VERTEX
  8
1
  6
CONTINUOUS
 62
     7
 10
-181.254025217596
 20
258.17436111555
  0
VERTEX
  8
1
  6
CONTINUOUS
 62
     7
 10
-181.2323280042003
 20
258.1710052973552
  0
VERTEX
  8
1
  6
CONTINUOUS
 62
     7
 10
-181.210493787552
 20
258.1685996150579
  0
VERTEX
  8
1
  6
CONTINUOUS
 62
     7
 10
-181.1885856481934
 20
258.1671510707857
  0
VERTEX
  8
1
  6
CONTINUOUS
 62
     7
 10
-181.1666666666667
 20
258.1666666666666
  0
SEQEND
  8
1
  6
CONTINUOUS
 62
     7
  0
LINE
  8
1
  6
CONTINUOUS
 62
     7
 10
-181.6666666666667
 20
263.1666666666666
 11
-181.6666666666667
 21
258.6666666666666
  0
LINE
  8
1
  6
CONTINUOUS
 62
     7
 10
-221.6666666666667
 20
258.6666666666666
 11
-221.6666666666667
 21
263.1666666666666
  0
POLYLINE
  8
1
  6
CONTINUOUS
 62
     7
 66
     1
  0
VERTEX
  8
1
  6
CONTINUOUS
 62
     7
 10
-222.1666666666667
 20
258.1666666666666
  0
VERTEX
  8
1
  6
CONTINUOUS
 62
     7
 10
-222.1426833533293
 20
258.1672542625212
  0
VERTEX
  8
1
  6
CONTINUOUS
 62
     7
 10
-222.1186877778327
 20
258.1690076745589
  0
VERTEX
  8
1
  6
CONTINUOUS
 62
     7
 10
-222.0947620345777
 20
258.1719128394916
  0
VERTEX
  8
1
  6
CONTINUOUS
 62
     7
 10
-222.0709882179653
 20
258.1759556940304
  0
VERTEX
  8
1
  6
CONTINUOUS
 62
     7
 10
-222.0474484223962
 20
258.181122174887
  0
VERTEX
  8
1
  6
CONTINUOUS
 62
     7
 10
-222.0242247422713
 20
258.1873982187727
  0
VERTEX
  8
1
  6
CONTINUOUS
 62
     7
 10
-222.0013992719915
 20
258.1947697623991
  0
VERTEX
  8
1
  6
CONTINUOUS
 62
     7
 10
-221.9789641967128
 20
258.2032491555258
  0
VERTEX
  8
1
  6
CONTINUOUS
 62
     7
 10
-221.9569040166936
 20
258.2128316336152
  0
VERTEX
  8
1
  6
CONTINUOUS
 62
     7
 10
-221.9352912871632
 20
258.2234767656358
  0
VERTEX
  8
1
  6
CONTINUOUS
 62
     7
 10
-221.9141985633508
 20
258.2351441205558
  0
VERTEX
  8
1
  6
CONTINUOUS
 62
     7
 10
-221.8936984004856
 20
258.2477932673439
  0
VERTEX
  8
1
  6
CONTINUOUS
 62
     7
 10
-221.8738633537968
 20
258.2613837749683
  0
VERTEX
  8
1
  6
CONTINUOUS
 62
     7
 10
-221.8547659785138
 20
258.2758752123976
  0
VERTEX
  8
1
  6
CONTINUOUS
 62
     7
 10
-221.8363870772017
 20
258.2912955887073
  0
VERTEX
  8
1
  6
CONTINUOUS
 62
     7
 10
-221.8187274791963
 20
258.3076331621062
  0
VERTEX
  8
1
  6
CONTINUOUS
 62
     7
 10
-221.8018421755811
 20
258.3248258694769
  0
VERTEX
  8
1
  6
CONTINUOUS
 62
     7
 10
-221.7857861574394
 20
258.3428116477019
  0
VERTEX
  8
1
  6
CONTINUOUS
 62
     7
 10
-221.7706144158545
 20
258.3615284336637
  0
VERTEX
  8
1
  6
CONTINUOUS
 62
     7
 10
-221.7563819419099
 20
258.380914164245
  0
VERTEX
  8
1
  6
CONTINUOUS
 62
     7
 10
-221.7431437266889
 20
258.4009067763284
  0
VERTEX
  8
1
  6
CONTINUOUS
 62
     7
 10
-221.7308796573485
 20
258.4215590773934
  0
VERTEX
  8
1
  6
CONTINUOUS
 62
     7
 10
-221.7195998145769
 20
258.4428409522475
  0
VERTEX
  8
1
  6
CONTINUOUS
 62
     7
 10
-221.7093356980385
 20
258.464675566373
  0
VERTEX
  8
1
  6
CONTINUOUS
 62
     7
 10
-221.7001188073978
 20
258.4869860852519
  0
VERTEX
  8
1
  6
CONTINUOUS
 62
     7
 10
-221.6919806423192
 20
258.5096956743663
  0
VERTEX
  8
1
  6
CONTINUOUS
 62
     7
 10
-221.6849527024671
 20
258.5327274991984
  0
VERTEX
  8
1
  6
CONTINUOUS
 62
     7
 10
-221.679066487506
 20
258.5560047252303
  0
VERTEX
  8
1
  6
CONTINUOUS
 62
     7
 10
-221.6746220590114
 20
258.5778512552453
  0
VERTEX
  8
1
  6
CONTINUOUS
 62
     7
 10
-221.6711525475523
 20
258.5999065471001
  0
VERTEX
  8
1
  6
CONTINUOUS
 62
     7
 10
-221.6686652682567
 20
258.6221047680911
  0
VERTEX
  8
1
  6
CONTINUOUS
 62
     7
 10
-221.6671675362522
 20
258.6443800855145
  0
VERTEX
  8
1
  6
CONTINUOUS
 62
     7
 10
-221.6666666666667
 20
258.6666666666666
  0
SEQEND
  8
1
  6
CONTINUOUS
 62
     7
  0
LINE
  8
1
  6
CONTINUOUS
 62
     7
 10
-222.1666666666667
 20
258.1666666666666
 11
-224.6666666666667
 21
258.1666666666666
  0
LINE
  8
1
  6
CONTINUOUS
 62
     7
 10
-224.6666666666667
 20
263.1666666666666
 11
-224.6666666666667
 21
258.1666666666666
  0
LINE
  8
1
  6
CONTINUOUS
 62
     7
 10
-224.6666666666667
 20
263.1666666666666
 11
-221.6666666666667
 21
263.1666666666666
  0
LINE
  8
1
  6
CONTINUOUS
 62
     7
 10
-221.6666666666667
 20
155.1666666666667
 11
-224.6666666666667
 21
155.1666666666667
  0
LINE
  8
1
  6
CONTINUOUS
 62
     7
 10
-224.6666666666667
 20
160.1666666666667
 11
-222.1666666666667
 21
160.1666666666667
  0
POLYLINE
  8
1
  6
CONTINUOUS
 62
     7
 66
     1
  0
VERTEX
  8
1
  6
CONTINUOUS
 62
     7
 10
-221.6666666666667
 20
159.6666666666667
  0
VERTEX
  8
1
  6
CONTINUOUS
 62
     7
 10
-221.6672575050635
 20
159.6907179532458
  0
VERTEX
  8
1
  6
CONTINUOUS
 62
     7
 10
-221.6690207398284
 20
159.7147816607328
  0
VERTEX
  8
1
  6
CONTINUOUS
 62
     7
 10
-221.6719424503227
 20
159.7387755154137
  0
VERTEX
  8
1
  6
CONTINUOUS
 62
     7
 10
-221.676008715908
 20
159.7626172435743
  0
VERTEX
  8
1
  6
CONTINUOUS
 62
     7
 10
-221.6812056159458
 20
159.7862245715006
  0
VERTEX
  8
1
  6
CONTINUOUS
 62
     7
 10
-221.6875192297977
 20
159.8095152254785
  0
VERTEX
  8
1
  6
CONTINUOUS
 62
     7
 10
-221.694935636825
 20
159.8324069317939
  0
VERTEX
  8
1
  6
CONTINUOUS
 62
     7
 10
-221.7034682810491
 20
159.8549089812313
  0
VERTEX
  8
1
  6
CONTINUOUS
 62
     7
 10
-221.713112466978
 20
159.8770352454823
  0
VERTEX
  8
1
  6
CONTINUOUS
 62
     7
 10
-221.7238278047257
 20
159.8987124284507
  0
VERTEX
  8
1
  6
CONTINUOUS
 62
     7
 10
-221.735573904406
 20
159.9198672340402
  0
VERTEX
  8
1
  6
CONTINUOUS
 62
     7
 10
-221.748310376133
 20
159.9404263661547
  0
VERTEX
  8
1
  6
CONTINUOUS
 62
     7
 10
-221.7619968300206
 20
159.9603165286981
  0
VERTEX
  8
1
  6
CONTINUOUS
 62
     7
 10
-221.7765928761829
 20
159.9794644255742
  0
VERTEX
  8
1
  6
CONTINUOUS
 62
     7
 10
-221.7920996859628
 20
159.9978576149201
  0
VERTEX
  8
1
  6
CONTINUOUS
 62
     7
 10
-221.8085305093176
 20
160.0155286961801
  0
VERTEX
  8
1
  6
CONTINUOUS
 62
     7
 10
-221.82582286479
 20
160.0324217920549
  0
VERTEX
  8
1
  6
CONTINUOUS
 62
     7
 10
-221.8439142709223
 20
160.0484810252452
  0
VERTEX
  8
1
  6
CONTINUOUS
 62
     7
 10
-221.8627422462572
 20
160.0636505184517
  0
VERTEX
  8
1
  6
CONTINUOUS
 62
     7
 10
-221.8822443093372
 20
160.0778743943752
  0
VERTEX
  8
1
  6
CONTINUOUS
 62
     7
 10
-221.9023579787049
 20
160.0910967757163
  0
VERTEX
  8
1
  6
CONTINUOUS
 62
     7
 10
-221.9230605370231
 20
160.1032945743233
  0
VERTEX
  8
1
  6
CONTINUOUS
 62
     7
 10
-221.9443937285277
 20
160.1145070264785
  0
VERTEX
  8
1
  6
CONTINUOUS
 62
     7
 10
-221.9662801761413
 20
160.1247022514776
  0
VERTEX
  8
1
  6
CONTINUOUS
 62
     7
 10
-221.9886425027865
 20
160.1338483686157
  0
VERTEX
  8
1
  6
CONTINUOUS
 62
     7
 10
-222.0114033313856
 20
160.1419134971884
  0
VERTEX
  8
1
  6
CONTINUOUS
 62
     7
 10
-222.0344852848614
 20
160.1488657564911
  0
VERTEX
  8
1
  6
CONTINUOUS
 62
     7
 10
-222.0578109861363
 20
160.154673265819
  0
VERTEX
  8
1
  6
CONTINUOUS
 62
     7
 10
-222.0793081157373
 20
160.1589722177833
  0
VERTEX
  8
1
  6
CONTINUOUS
 62
     7
 10
-222.1010053291331
 20
160.1623280359781
  0
VERTEX
  8
1
  6
CONTINUOUS
 62
     7
 10
-222.1228395457814
 20
160.1647337182754
  0
VERTEX
  8
1
  6
CONTINUOUS
 62
     7
 10
-222.14474768514
 20
160.1661822625476
  0
VERTEX
  8
1
  6
CONTINUOUS
 62
     7
 10
-222.1666666666667
 20
160.1666666666667
  0
SEQEND
  8
1
  6
CONTINUOUS
 62
     7
  0
LINE
  8
1
  6
CONTINUOUS
 62
     7
 10
-224.6666666666667
 20
160.1666666666667
 11
-224.6666666666667
 21
155.1666666666667
  0
LINE
  8
1
  6
CONTINUOUS
 62
     7
 10
-221.6666666666667
 20
155.1666666666667
 11
-221.6666666666667
 21
159.6666666666667
  0
POLYLINE
  8
1
  6
CONTINUOUS
 62
     7
 66
     1
  0
VERTEX
  8
1
  6
CONTINUOUS
 62
     7
 10
-181.1666666666667
 20
160.1666666666667
  0
VERTEX
  8
1
  6
CONTINUOUS
 62
     7
 10
-181.1906499800041
 20
160.1660790708121
  0
VERTEX
  8
1
  6
CONTINUOUS
 62
     7
 10
-181.2146455555007
 20
160.1643256587744
  0
VERTEX
  8
1
  6
CONTINUOUS
 62
     7
 10
-181.2385712987556
 20
160.1614204938418
  0
VERTEX
  8
1
  6
CONTINUOUS
 62
     7
 10
-181.2623451153681
 20
160.1573776393029
  0
VERTEX
  8
1
  6
CONTINUOUS
 62
     7
 10
-181.2858849109372
 20
160.1522111584464
  0
VERTEX
  8
1
  6
CONTINUOUS
 62
     7
 10
-181.3091085910621
 20
160.1459351145606
  0
VERTEX
  8
1
  6
CONTINUOUS
 62
     7
 10
-181.3319340613419
 20
160.1385635709342
  0
VERTEX
  8
1
  6
CONTINUOUS
 62
     7
 10
-181.3543691366206
 20
160.1300841778075
  0
VERTEX
  8
1
  6
CONTINUOUS
 62
     7
 10
-181.3764293166398
 20
160.1205016997181
  0
VERTEX
  8
1
  6
CONTINUOUS
 62
     7
 10
-181.3980420461702
 20
160.1098565676975
  0
VERTEX
  8
1
  6
CONTINUOUS
 62
     7
 10
-181.4191347699826
 20
160.0981892127775
  0
VERTEX
  8
1
  6
CONTINUOUS
 62
     7
 10
-181.4396349328478
 20
160.0855400659894
  0
VERTEX
  8
1
  6
CONTINUOUS
 62
     7
 10
-181.4594699795365
 20
160.071949558365
  0
VERTEX
  8
1
  6
CONTINUOUS
 62
     7
 10
-181.4785673548196
 20
160.0574581209357
  0
VERTEX
  8
1
  6
CONTINUOUS
 62
     7
 10
-181.4969462561317
 20
160.042037744626
  0
VERTEX
  8
1
  6
CONTINUOUS
 62
     7
 10
-181.514605854137
 20
160.025700171227
  0
VERTEX
  8
1
  6
CONTINUOUS
 62
     7
 10
-181.5314911577523
 20
160.0085074638564
  0
VERTEX
  8
1
  6
CONTINUOUS
 62
     7
 10
-181.547547175894
 20
159.9905216856314
  0
VERTEX
  8
1
  6
CONTINUOUS
 62
     7
 10
-181.5627189174789
 20
159.9718048996696
  0
VERTEX
  8
1
  6
CONTINUOUS
 62
     7
 10
-181.5769513914235
 20
159.9524191690883
  0
VERTEX
  8
1
  6
CONTINUOUS
 62
     7
 10
-181.5901896066444
 20
159.9324265570049
  0
VERTEX
  8
1
  6
CONTINUOUS
 62
     7
 10
-181.6024536759849
 20
159.9117742559399
  0
VERTEX
  8
1
  6
CONTINUOUS
 62
     7
 10
-181.6137335187565
 20
159.8904923810858
  0
VERTEX
  8
1
  6
CONTINUOUS
 62
     7
 10
-181.6239976352949
 20
159.8686577669603
  0
VERTEX
  8
1
  6
CONTINUOUS
 62
     7
 10
-181.6332145259356
 20
159.8463472480814
  0
VERTEX
  8
1
  6
CONTINUOUS
 62
     7
 10
-181.6413526910142
 20
159.823637658967
  0
VERTEX
  8
1
  6
CONTINUOUS
 62
     7
 10
-181.6483806308663
 20
159.8006058341349
  0
VERTEX
  8
1
  6
CONTINUOUS
 62
     7
 10
-181.6542668458274
 20
159.777328608103
  0
VERTEX
  8
1
  6
CONTINUOUS
 62
     7
 10
-181.6587112743219
 20
159.755482078088
  0
VERTEX
  8
1
  6
CONTINUOUS
 62
     7
 10
-181.662180785781
 20
159.7334267862332
  0
VERTEX
  8
1
  6
CONTINUOUS
 62
     7
 10
-181.6646680650767
 20
159.7112285652422
  0
VERTEX
  8
1
  6
CONTINUOUS
 62
     7
 10
-181.6661657970812
 20
159.6889532478189
  0
VERTEX
  8
1
  6
CONTINUOUS
 62
     7
 10
-181.6666666666667
 20
159.6666666666667
  0
SEQEND
  8
1
  6
CONTINUOUS
 62
     7
  0
LINE
  8
1
  6
CONTINUOUS
 62
     7
 10
-181.1666666666667
 20
160.1666666666667
 11
-178.6666666666667
 21
160.1666666666667
  0
LINE
  8
1
  6
CONTINUOUS
 62
     7
 10
-178.6666666666667
 20
155.1666666666667
 11
-178.6666666666667
 21
160.1666666666667
  0
LINE
  8
1
  6
CONTINUOUS
 62
     7
 10
-178.6666666666667
 20
155.1666666666667
 11
-181.6666666666667
 21
155.1666666666667
  0
LINE
  8
1
  6
CONTINUOUS
 62
     7
 10
-181.6666666666667
 20
159.6666666666667
 11
-181.6666666666667
 21
155.1666666666667
  0
POLYLINE
  8
1
  6
CONTINUOUS
 62
     7
 66
     1
  0
VERTEX
  8
1
  6
CONTINUOUS
 62
     7
 10
-212.2666666666667
 20
249.1666666666666
  0
VERTEX
  8
1
  6
CONTINUOUS
 62
     7
 10
-212.2678471574979
 20
249.1185889210639
  0
VERTEX
  8
1
  6
CONTINUOUS
 62
     7
 10
-212.2713700419767
 20
249.0704863142495
  0
VERTEX
  8
1
  6
CONTINUOUS
 62
     7
 10
-212.277207438081
 20
249.0225233292447
  0
VERTEX
  8
1
  6
CONTINUOUS
 62
     7
 10
-212.2853314637886
 20
248.9748644490702
  0
VERTEX
  8
1
  6
CONTINUOUS
 62
     7
 10
-212.2957142370773
 20
248.927674156747
  0
VERTEX
  8
1
  6
CONTINUOUS
 62
     7
 10
-212.3083278759249
 20
248.881116935296
  0
VERTEX
  8
1
  6
CONTINUOUS
 62
     7
 10
-212.3231444983093
 20
248.8353572677383
  0
VERTEX
  8
1
  6
CONTINUOUS
 62
     7
 10
-212.3401906232928
 20
248.7903770749388
  0
VERTEX
  8
1
  6
CONTINUOUS
 62
     7
 10
-212.3594568309489
 20
248.7461480730321
  0
VERTEX
  8
1
  6
CONTINUOUS
 62
     7
 10
-212.3808623277418
 20
248.7028165987174
  0
VERTEX
  8
1
  6
CONTINUOUS
 62
     7
 10
-212.4043263201353
 20
248.660528988694
  0
VERTEX
  8
1
  6
CONTINUOUS
 62
     7
 10
-212.4297680145935
 20
248.619431579661
  0
VERTEX
  8
1
  6
CONTINUOUS
 62
     7
 10
-212.4571066175804
 20
248.5796707083179
  0
VERTEX
  8
1
  6
CONTINUOUS
 62
     7
 10
-212.4862613355599
 20
248.5413927113638
  0
VERTEX
  8
1
  6
CONTINUOUS
 62
     7
 10
-212.5172437482217
 20
248.5046116155775
  0
VERTEX
  8
1
  6
CONTINUOUS
 62
     7
 10
-212.5500717338789
 20
248.4692736939945
  0
VERTEX
  8
1
  6
CONTINUOUS
 62
     7
 10
-212.5846204801101
 20
248.4354903847149
  0
VERTEX
  8
1
  6
CONTINUOUS
 62
     7
 10
-212.6207651744941
 20
248.4033731258388
  0
VERTEX
  8
1
  6
CONTINUOUS
 62
     7
 10
-212.6583810046095
 20
248.3730333554662
  0
VERTEX
  8
1
  6
CONTINUOUS
 62
     7
 10
-212.6973431580352
 20
248.3445825116972
  0
VERTEX
  8
1
  6
CONTINUOUS
 62
     7
 10
-212.7375268223497
 20
248.3181320326321
  0
VERTEX
  8
1
  6
CONTINUOUS
 62
     7
 10
-212.7789137265494
 20
248.2937126592485
  0
VERTEX
  8
1
  6
CONTINUOUS
 62
     7
 10
-212.8215615104153
 20
248.2712635547763
  0
VERTEX
  8
1
  6
CONTINUOUS
 62
     7
 10
-212.8653156190616
 20
248.2508483439674
  0
VERTEX
  8
1
  6
CONTINUOUS
 62
     7
 10
-212.9100214976025
 20
248.2325306515736
  0
VERTEX
  8
1
  6
CONTINUOUS
 62
     7
 10
-212.9555245911521
 20
248.2163741023466
  0
VERTEX
  8
1
  6
CONTINUOUS
 62
     7
 10
-213.0016703448245
 20
248.2024423210383
  0
VERTEX
  8
1
  6
CONTINUOUS
 62
     7
 10
-213.0483042037341
 20
248.1907989324004
  0
VERTEX
  8
1
  6
CONTINUOUS
 62
     7
 10
-213.0914244330701
 20
248.1821489641115
  0
VERTEX
  8
1
  6
CONTINUOUS
 62
     7
 10
-213.1349479354567
 20
248.1753966356279
  0
VERTEX
  8
1
  6
CONTINUOUS
 62
     7
 10
-213.1787475694686
 20
248.1705560647155
  0
VERTEX
  8
1
  6
CONTINUOUS
 62
     7
 10
-213.2226961936803
 20
248.1676413691398
  0
VERTEX
  8
1
  6
CONTINUOUS
 62
     7
 10
-213.2666666666667
 20
248.1666666666666
  0
SEQEND
  8
1
  6
CONTINUOUS
 62
     7
  0
LINE
  8
1
  6
CONTINUOUS
 62
     7
 10
-212.2666666666667
 20
253.1666666666666
 11
-212.2666666666667
 21
249.1666666666666
  0
POLYLINE
  8
1
  6
CONTINUOUS
 62
     7
 66
     1
  0
VERTEX
  8
1
  6
CONTINUOUS
 62
     7
 10
-211.2666666666667
 20
254.1666666666667
  0
VERTEX
  8
1
  6
CONTINUOUS
 62
     7
 10
-211.3146444292273
 20
254.1654909439134
  0
VERTEX
  8
1
  6
CONTINUOUS
 62
     7
 10
-211.3626467315725
 20
254.1619825127835
  0
VERTEX
  8
1
  6
CONTINUOUS
 62
     7
 10
-211.4105093544771
 20
254.1561694789725
  0
VERTEX
  8
1
  6
CONTINUOUS
 62
     7
 10
-211.4580680787156
 20
254.1480799481751
  0
VERTEX
  8
1
  6
CONTINUOUS
 62
     7
 10
-211.5051586850627
 20
254.1377420260868
  0
VERTEX
  8
1
  6
CONTINUOUS
 62
     7
 10
-211.5516169542929
 20
254.1251838184025
  0
VERTEX
  8
1
  6
CONTINUOUS
 62
     7
 10
-211.597278667181
 20
254.1104334308176
  0
VERTEX
  8
1
  6
CONTINUOUS
 62
     7
 10
-211.6421596546452
 20
254.0934660094046
  0
VERTEX
  8
1
  6
CONTINUOUS
 62
     7
 10
-211.6862907010256
 20
254.074291058726
  0
VERTEX
  8
1
  6
CONTINUOUS
 62
     7
 10
-211.7295265872997
 20
254.0529894237539
  0
VERTEX
  8
1
  6
CONTINUOUS
 62
     7
 10
-211.7717220944451
 20
254.0296419494604
  0
VERTEX
  8
1
  6
CONTINUOUS
 62
     7
 10
-211.8127320034391
 20
254.0043294808175
  0
VERTEX
  8
1
  6
CONTINUOUS
 62
     7
 10
-211.8524110952594
 20
253.9771328627975
  0
VERTEX
  8
1
  6
CONTINUOUS
 62
     7
 10
-211.8906141508834
 20
253.9481329403724
  0
VERTEX
  8
1
  6
CONTINUOUS
 62
     7
 10
-211.9273752508787
 20
253.9172773030861
  0
VERTEX
  8
1
  6
CONTINUOUS
 62
     7
 10
-211.9626972852205
 20
253.884586004442
  0
VERTEX
  8
1
  6
CONTINUOUS
 62
     7
 10
-211.9964701178536
 20
253.8501832186575
  0
VERTEX
  8
1
  6
CONTINUOUS
 62
     7
 10
-212.028583612723
 20
253.8141931199502
  0
VERTEX
  8
1
  6
CONTINUOUS
 62
     7
 10
-212.0589276337736
 20
253.7767398825378
  0
VERTEX
  8
1
  6
CONTINUOUS
 62
     7
 10
-212.0873920449503
 20
253.7379476806377
  0
VERTEX
  8
1
  6
CONTINUOUS
 62
     7
 10
-212.1138667101981
 20
253.6979406884675
  0
VERTEX
  8
1
  6
CONTINUOUS
 62
     7
 10
-212.1383848615269
 20
253.6566253545346
  0
VERTEX
  8
1
  6
CONTINUOUS
 62
     7
 10
-212.1609342689217
 20
253.6140503517472
  0
VERTEX
  8
1
  6
CONTINUOUS
 62
     7
 10
-212.1814518282365
 20
253.5703694466099
  0
VERTEX
  8
1
  6
CONTINUOUS
 62
     7
 10
-212.1998744353259
 20
253.5257364056274
  0
VERTEX
  8
1
  6
CONTINUOUS
 62
     7
 10
-212.2161389860439
 20
253.4803049953046
  0
VERTEX
  8
1
  6
CONTINUOUS
 62
     7
 10
-212.230182376245
 20
253.4342289821461
  0
VERTEX
  8
1
  6
CONTINUOUS
 62
     7
 10
-212.2419415017834
 20
253.3876621326566
  0
VERTEX
  8
1
  6
CONTINUOUS
 62
     7
 10
-212.2508036194485
 20
253.3440330186214
  0
VERTEX
  8
1
  6
CONTINUOUS
 62
     7
 10
-212.2577217979042
 20
253.2999877528552
  0
VERTEX
  8
1
  6
CONTINUOUS
 62
     7
 10
-212.2626814340157
 20
253.2556574975077
  0
VERTEX
  8
1
  6
CONTINUOUS
 62
     7
 10
-212.2656679246481
 20
253.2111734147283
  0
VERTEX
  8
1
  6
CONTINUOUS
 62
     7
 10
-212.2666666666667
 20
253.1666666666667
  0
SEQEND
  8
1
  6
CONTINUOUS
 62
     7
  0
LINE
  8
1
  6
CONTINUOUS
 62
     7
 10
-211.2666666666667
 20
254.1666666666667
 11
-192.0666666666667
 21
254.1666666666667
  0
POLYLINE
  8
1
  6
CONTINUOUS
 62
     7
 66
     1
  0
VERTEX
  8
1
  6
CONTINUOUS
 62
     7
 10
-191.0666666666667
 20
253.1666666666667
  0
VERTEX
  8
1
  6
CONTINUOUS
 62
     7
 10
-191.0678477983475
 20
253.2147578069314
  0
VERTEX
  8
1
  6
CONTINUOUS
 62
     7
 10
-191.0713725902908
 20
253.2628734993596
  0
VERTEX
  8
1
  6
CONTINUOUS
 62
     7
 10
-191.0772131378483
 20
253.3108492319237
  0
VERTEX
  8
1
  6
CONTINUOUS
 62
     7
 10
-191.0853415363715
 20
253.3585204925959
  0
VERTEX
  8
1
  6
CONTINUOUS
 62
     7
 10
-191.0957298812121
 20
253.4057227693484
  0
VERTEX
  8
1
  6
CONTINUOUS
 62
     7
 10
-191.1083502677215
 20
253.4522915501534
  0
VERTEX
  8
1
  6
CONTINUOUS
 62
     7
 10
-191.1231747912515
 20
253.4980623229833
  0
VERTEX
  8
1
  6
CONTINUOUS
 62
     7
 10
-191.1402300391332
 20
253.5430532815107
  0
VERTEX
  8
1
  6
CONTINUOUS
 62
     7
 10
-191.1595066241056
 20
253.5872926430628
  0
VERTEX
  8
1
  6
CONTINUOUS
 62
     7
 10
-191.1809237570333
 20
253.630633998482
  0
VERTEX
  8
1
  6
CONTINUOUS
 62
     7
 10
-191.2044006487807
 20
253.6729309386105
  0
VERTEX
  8
1
  6
CONTINUOUS
 62
     7
 10
-191.2298565102123
 20
253.7140370542909
  0
VERTEX
  8
1
  6
CONTINUOUS
 62
     7
 10
-191.2572105521924
 20
253.7538059363654
  0
VERTEX
  8
1
  6
CONTINUOUS
 62
     7
 10
-191.2863819855855
 20
253.7920911756763
  0
VERTEX
  8
1
  6
CONTINUOUS
 62
     7
 10
-191.3173801491599
 20
253.8288760455303
  0
VERTEX
  8
1
  6
CONTINUOUS
 62
     7
 10
-191.3502251280389
 20
253.8642171147543
  0
VERTEX
  8
1
  6
CONTINUOUS
 62
     7
 10
-191.3847920445703
 20
253.8980028014221
  0
VERTEX
  8
1
  6
CONTINUOUS
 62
     7
 10
-191.4209560211021
 20
253.9301215236073
  0
VERTEX
  8
1
  6
CONTINUOUS
 62
     7
 10
-191.4585921799822
 20
253.9604616993837
  0
VERTEX
  8
1
  6
CONTINUOUS
 62
     7
 10
-191.4975756435585
 20
253.988911746825
  0
VERTEX
  8
1
  6
CONTINUOUS
 62
     7
 10
-191.5377815341788
 20
254.0153600840049
  0
VERTEX
  8
1
  6
CONTINUOUS
 62
     7
 10
-191.5791788820398
 20
254.0397687339855
  0
VERTEX
  8
1
  6
CONTINUOUS
 62
     7
 10
-191.6218374516218
 20
254.0622067887809
  0
VERTEX
  8
1
  6
CONTINUOUS
 62
     7
 10
-191.6656025739769
 20
254.0826105419406
  0
VERTEX
  8
1
  6
CONTINUOUS
 62
     7
 10
-191.7103195801572
 20
254.1009162870144
  0
VERTEX
  8
1
  6
CONTINUOUS
 62
     7
 10
-191.7558338012151
 20
254.1170603175518
  0
VERTEX
  8
1
  6
CONTINUOUS
 62
     7
 10
-191.8019905682026
 20
254.1309789271026
  0
VERTEX
  8
1
  6
CONTINUOUS
 62
     7
 10
-191.8486352121719
 20
254.1426084092163
  0
VERTEX
  8
1
  6
CONTINUOUS
 62
     7
 10
-191.891691359046
 20
254.1512318795228
  0
VERTEX
  8
1
  6
CONTINUOUS
 62
     7
 10
-191.9351492300186
 20
254.1579635038119
  0
VERTEX
  8
1
  6
CONTINUOUS
 62
     7
 10
-191.9788821730035
 20
254.1627892186928
  0
VERTEX
  8
1
  6
CONTINUOUS
 62
     7
 10
-192.0227635359148
 20
254.1656949607747
  0
VERTEX
  8
1
  6
CONTINUOUS
 62
     7
 10
-192.0666666666667
 20
254.1666666666667
  0
SEQEND
  8
1
  6
CONTINUOUS
 62
     7
  0
LINE
  8
1
  6
CONTINUOUS
 62
     7
 10
-191.0666666666667
 20
249.1666666666666
 11
-191.0666666666667
 21
253.1666666666667
  0
POLYLINE
  8
1
  6
CONTINUOUS
 62
     7
 66
     1
  0
VERTEX
  8
1
  6
CONTINUOUS
 62
     7
 10
-190.0666666666667
 20
248.1666666666666
  0
VERTEX
  8
1
  6
CONTINUOUS
 62
     7
 10
-190.1146579775206
 20
248.1678430345253
  0
VERTEX
  8
1
  6
CONTINUOUS
 62
     7
 10
-190.1626738532595
 20
248.171353419884
  0
VERTEX
  8
1
  6
CONTINUOUS
 62
     7
 10
-190.2105500410159
 20
248.1771697454174
  0
VERTEX
  8
1
  6
CONTINUOUS
 62
     7
 10
-190.2581222879224
 20
248.1852639338
  0
VERTEX
  8
1
  6
CONTINUOUS
 62
     7
 10
-190.3052263411114
 20
248.1956079077062
  0
VERTEX
  8
1
  6
CONTINUOUS
 62
     7
 10
-190.3516979477156
 20
248.2081735898105
  0
VERTEX
  8
1
  6
CONTINUOUS
 62
     7
 10
-190.3973728548676
 20
248.2229329027874
  0
VERTEX
  8
1
  6
CONTINUOUS
 62
     7
 10
-190.4422672273533
 20
248.2399109396188
  0
VERTEX
  8
1
  6
CONTINUOUS
 62
     7
 10
-190.4864114754549
 20
248.2590981933182
  0
VERTEX
  8
1
  6
CONTINUOUS
 62
     7
 10
-190.5296602216443
 20
248.2804138130362
  0
VERTEX
  8
1
  6
CONTINUOUS
 62
     7
 10
-190.5718680883934
 20
248.303776947923
  0
VERTEX
  8
1
  6
CONTINUOUS
 62
     7
 10
-190.6128896981744
 20
248.3291067471294
  0
VERTEX
  8
1
  6
CONTINUOUS
 62
     7
 10
-190.6525796734591
 20
248.3563223598056
  0
VERTEX
  8
1
  6
CONTINUOUS
 62
     7
 10
-190.6907926367194
 20
248.3853429351022
  0
VERTEX
  8
1
  6
CONTINUOUS
 62
     7
 10
-190.7275555200289
 20
248.4162148021094
  0
VERTEX
  8
1
  6
CONTINUOUS
 62
     7
 10
-190.7628787748459
 20
248.4489234898609
  0
VERTEX
  8
1
  6
CONTINUOUS
 62
     7
 10
-190.7966521025166
 20
248.4833447158503
  0
VERTEX
  8
1
  6
CONTINUOUS
 62
     7
 10
-190.8287652043871
 20
248.5193541975711
  0
VERTEX
  8
1
  6
CONTINUOUS
 62
     7
 10
-190.8591077818035
 20
248.5568276525169
  0
VERTEX
  8
1
  6
CONTINUOUS
 62
     7
 10
-190.8875695361119
 20
248.5956407981812
  0
VERTEX
  8
1
  6
CONTINUOUS
 62
     7
 10
-190.9140401686585
 20
248.6356693520575
  0
VERTEX
  8
1
  6
CONTINUOUS
 62
     7
 10
-190.9385442109646
 20
248.6769916557577
  0
VERTEX
  8
1
  6
CONTINUOUS
 62
     7
 10
-190.9610794147533
 20
248.7195734101266
  0
VERTEX
  8
1
  6
CONTINUOUS
 62
     7
 10
-190.9815826525564
 20
248.7632607514026
  0
VERTEX
  8
1
  6
CONTINUOUS
 62
     7
 10
-190.9999907969058
 20
248.8078998158242
  0
VERTEX
  8
1
  6
CONTINUOUS
 62
     7
 10
-191.0162407203334
 20
248.8533367396299
  0
VERTEX
  8
1
  6
CONTINUOUS
 62
     7
 10
-191.0302692953712
 20
248.899417659058
  0
VERTEX
  8
1
  6
CONTINUOUS
 62
     7
 10
-191.042013394551
 20
248.9459887103471
  0
VERTEX
  8
1
  6
CONTINUOUS
 62
     7
 10
-191.0508498808934
 20
248.9895569891945
  0
VERTEX
  8
1
  6
CONTINUOUS
 62
     7
 10
-191.0577479606334
 20
249.0335395959861
  0
VERTEX
  8
1
  6
CONTINUOUS
 62
     7
 10
-191.0626931244137
 20
249.077805858986
  0
VERTEX
  8
1
  6
CONTINUOUS
 62
     7
 10
-191.0656708628772
 20
249.1222251064582
  0
VERTEX
  8
1
  6
CONTINUOUS
 62
     7
 10
-191.0666666666667
 20
249.1666666666666
  0
SEQEND
  8
1
  6
CONTINUOUS
 62
     7
  0
LINE
  8
1
  6
CONTINUOUS
 62
     7
 10
-190.0666666666667
 20
248.1666666666666
 11
-177.6666666666667
 21
248.1666666666666
  0
POLYLINE
  8
1
  6
CONTINUOUS
 62
     7
 66
     1
  0
VERTEX
  8
1
  6
CONTINUOUS
 62
     7
 10
-176.6666666666667
 20
247.1666666666666
  0
VERTEX
  8
1
  6
CONTINUOUS
 62
     7
 10
-176.6678471195485
 20
247.2147435939086
  0
VERTEX
  8
1
  6
CONTINUOUS
 62
     7
 10
-176.6713698585192
 20
247.2628450740494
  0
VERTEX
  8
1
  6
CONTINUOUS
 62
     7
 10
-176.6772069540667
 20
247.3108066320744
  0
VERTEX
  8
1
  6
CONTINUOUS
 62
     7
 10
-176.6853304766788
 20
247.3584637929687
  0
VERTEX
  8
1
  6
CONTINUOUS
 62
     7
 10
-176.6957124968435
 20
247.4056520817174
  0
VERTEX
  8
1
  6
CONTINUOUS
 62
     7
 10
-176.7083250850487
 20
247.4522070233057
  0
VERTEX
  8
1
  6
CONTINUOUS
 62
     7
 10
-176.7231403117822
 20
247.4979641427187
  0
VERTEX
  8
1
  6
CONTINUOUS
 62
     7
 10
-176.7401845488307
 20
247.5429413407919
  0
VERTEX
  8
1
  6
CONTINUOUS
 62
     7
 10
-176.7594483929046
 20
247.5871671518555
  0
VERTEX
  8
1
  6
CONTINUOUS
 62
     7
 10
-176.7808510468319
 20
247.6304953151446
  0
VERTEX
  8
1
  6
CONTINUOUS
 62
     7
 10
-176.8043117134408
 20
247.6727795698945
  0
VERTEX
  8
1
  6
CONTINUOUS
 62
     7
 10
-176.829749595559
 20
247.7138736553401
  0
VERTEX
  8
1
  6
CONTINUOUS
 62
     7
 10
-176.8570838960146
 20
247.7536313107167
  0
VERTEX
  8
1
  6
CONTINUOUS
 62
     7
 10
-176.8862338176356
 20
247.7919062752594
  0
VERTEX
  8
1
  6
CONTINUOUS
 62
     7
 10
-176.9172140701316
 20
247.8286881381425
  0
VERTEX
  8
1
  6
CONTINUOUS
 62
     7
 10
-176.9500397286621
 20
247.8640267945681
  0
VERTEX
  8
1
  6
CONTINUOUS
 62
     7
 10
-176.9845860022054
 20
247.8978108448336
  0
VERTEX
  8
1
  6
CONTINUOUS
 62
     7
 10
-177.0207280997399
 20
247.929928889236
  0
VERTEX
  8
1
  6
CONTINUOUS
 62
     7
 10
-177.058341230244
 20
247.9602695280726
  0
VERTEX
  8
1
  6
CONTINUOUS
 62
     7
 10
-177.097300602696
 20
247.9887213616406
  0
VERTEX
  8
1
  6
CONTINUOUS
 62
     7
 10
-177.1374814260744
 20
248.0151729902372
  0
VERTEX
  8
1
  6
CONTINUOUS
 62
     7
 10
-177.1788683526212
 20
248.0395953215934
  0
VERTEX
  8
1
  6
CONTINUOUS
 62
     7
 10
-177.2215162821228
 20
248.0620472973629
  0
VERTEX
  8
1
  6
CONTINUOUS
 62
     7
 10
-177.2652706596245
 20
248.0824652893562
  0
VERTEX
  8
1
  6
CONTINUOUS
 62
     7
 10
-177.3099769301713
 20
248.1007856693836
  0
VERTEX
  8
1
  6
CONTINUOUS
 62
     7
 10
-177.3554805388085
 20
248.1169448092554
  0
VERTEX
  8
1
  6
CONTINUOUS
 62
     7
 10
-177.4016269305812
 20
248.1308790807821
  0
VERTEX
  8
1
  6
CONTINUOUS
 62
     7
 10
-177.4482615505346
 20
248.1425248557737
  0
VERTEX
  8
1
  6
CONTINUOUS
 62
     7
 10
-177.4913899865233
 20
248.1511782312517
  0
VERTEX
  8
1
  6
CONTINUOUS
 62
     7
 10
-177.5349219317487
 20
248.1579332287463
  0
VERTEX
  8
1
  6
CONTINUOUS
 62
     7
 10
-177.5787301705929
 20
248.1627757195912
  0
VERTEX
  8
1
  6
CONTINUOUS
 62
     7
 10
-177.6226874874382
 20
248.1656915751201
  0
VERTEX
  8
1
  6
CONTINUOUS
 62
     7
 10
-177.6666666666667
 20
248.1666666666666
  0
SEQEND
  8
1
  6
CONTINUOUS
 62
     7
  0
LINE
  8
1
  6
CONTINUOUS
 62
     7
 10
-176.6666666666667
 20
171.1666666666686
 11
-176.6666666666667
 21
247.1666666666667
  0
POLYLINE
  8
1
  6
CONTINUOUS
 62
     7
 66
     1
  0
VERTEX
  8
1
  6
CONTINUOUS
 62
     7
 10
-177.6666666666667
 20
170.1666666666667
  0
VERTEX
  8
1
  6
CONTINUOUS
 62
     7
 10
-177.6186747503224
 20
170.1678430639101
  0
VERTEX
  8
1
  6
CONTINUOUS
 62
     7
 10
-177.5706582710153
 20
170.171353537323
  0
VERTEX
  8
1
  6
CONTINUOUS
 62
     7
 10
-177.522781484764
 20
170.1771700094286
  0
VERTEX
  8
1
  6
CONTINUOUS
 62
     7
 10
-177.475208647587
 20
170.1852644027506
  0
VERTEX
  8
1
  6
CONTINUOUS
 62
     7
 10
-177.4281040155028
 20
170.1956086398124
  0
VERTEX
  8
1
  6
CONTINUOUS
 62
     7
 10
-177.3816318445301
 20
170.2081746431376
  0
VERTEX
  8
1
  6
CONTINUOUS
 62
     7
 10
-177.3359563906875
 20
170.2229343352496
  0
VERTEX
  8
1
  6
CONTINUOUS
 62
     7
 10
-177.2910615173813
 20
170.2399127950796
  0
VERTEX
  8
1
  6
CONTINUOUS
 62
     7
 10
-177.2469167766419
 20
170.2591005312129
  0
VERTEX
  8
1
  6
CONTINUOUS
 62
     7
 10
-177.2036675403166
 20
170.2804167055365
  0
VERTEX
  8
1
  6
CONTINUOUS
 62
     7
 10
-177.1614591802525
 20
170.3037804799375
  0
VERTEX
  8
1
  6
CONTINUOUS
 62
     7
 10
-177.1204370682968
 20
170.3291110163029
  0
VERTEX
  8
1
  6
CONTINUOUS
 62
     7
 10
-177.0807465762964
 20
170.3563274765199
  0
VERTEX
  8
1
  6
CONTINUOUS
 62
     7
 10
-177.0425330760987
 20
170.3853490224753
  0
VERTEX
  8
1
  6
CONTINUOUS
 62
     7
 10
-177.0057690357141
 20
170.4162225285444
  0
VERTEX
  8
1
  6
CONTINUOUS
 62
     7
 10
-176.9704446469694
 20
170.4489330930805
  0
VERTEX
  8
1
  6
CONTINUOUS
 62
     7
 10
-176.9366702278245
 20
170.4833564530049
  0
VERTEX
  8
1
  6
CONTINUOUS
 62
     7
 10
-176.9045560962392
 20
170.5193683452393
  0
VERTEX
  8
1
  6
CONTINUOUS
 62
     7
 10
-176.8742125701732
 20
170.5568445067053
  0
VERTEX
  8
1
  6
CONTINUOUS
 62
     7
 10
-176.8457499675862
 20
170.5956606743245
  0
VERTEX
  8
1
  6
CONTINUOUS
 62
     7
 10
-176.8192786064382
 20
170.6356925850184
  0
VERTEX
  8
1
  6
CONTINUOUS
 62
     7
 10
-176.7947742471751
 20
170.6770181546778
  0
VERTEX
  8
1
  6
CONTINUOUS
 62
     7
 10
-176.7722388567815
 20
170.719603579284
  0
VERTEX
  8
1
  6
CONTINUOUS
 62
     7
 10
-176.7517356143694
 20
170.7632949803649
  0
VERTEX
  8
1
  6
CONTINUOUS
 62
     7
 10
-176.7333276990509
 20
170.807938479449
  0
VERTEX
  8
1
  6
CONTINUOUS
 62
     7
 10
-176.7170782899383
 20
170.8533801980645
  0
VERTEX
  8
1
  6
CONTINUOUS
 62
     7
 10
-176.7030505661436
 20
170.8994662577396
  0
VERTEX
  8
1
  6
CONTINUOUS
 62
     7
 10
-176.691307706779
 20
170.9460427800027
  0
VERTEX
  8
1
  6
CONTINUOUS
 62
     7
 10
-176.6824756913942
 20
170.9896000927955
  0
VERTEX
  8
1
  6
CONTINUOUS
 62
     7
 10
-176.6755810450447
 20
171.0335717290794
  0
VERTEX
  8
1
  6
CONTINUOUS
 62
     7
 10
-176.6706383023764
 20
171.0778270976333
  0
VERTEX
  8
1
  6
CONTINUOUS
 62
     7
 10
-176.6676619980351
 20
171.122235607236
  0
VERTEX
  8
1
  6
CONTINUOUS
 62
     7
 10
-176.6666666666667
 20
171.1666666666667
  0
SEQEND
  8
1
  6
CONTINUOUS
 62
     7
  0
LINE
  8
1
  6
CONTINUOUS
 62
     7
 10
-177.6666666666667
 20
170.1666666666667
 11
-190.0666666666667
 21
170.1666666666667
  0
POLYLINE
  8
1
  6
CONTINUOUS
 62
     7
 66
     1
  0
VERTEX
  8
1
  6
CONTINUOUS
 62
     7
 10
-191.0666666666667
 20
169.1666666666667
  0
VERTEX
  8
1
  6
CONTINUOUS
 62
     7
 10
-191.0654861758355
 20
169.2147444122694
  0
VERTEX
  8
1
  6
CONTINUOUS
 62
     7
 10
-191.0619632913566
 20
169.2628470190838
  0
VERTEX
  8
1
  6
CONTINUOUS
 62
     7
 10
-191.0561258952524
 20
169.3108100040886
  0
VERTEX
  8
1
  6
CONTINUOUS
 62
     7
 10
-191.0480018695448
 20
169.3584688842631
  0
VERTEX
  8
1
  6
CONTINUOUS
 62
     7
 10
-191.0376190962561
 20
169.4056591765863
  0
VERTEX
  8
1
  6
CONTINUOUS
 62
     7
 10
-191.0250054574085
 20
169.4522163980373
  0
VERTEX
  8
1
  6
CONTINUOUS
 62
     7
 10
-191.010188835024
 20
169.4979760655951
  0
VERTEX
  8
1
  6
CONTINUOUS
 62
     7
 10
-190.9931427100406
 20
169.5429562583945
  0
VERTEX
  8
1
  6
CONTINUOUS
 62
     7
 10
-190.9738765023845
 20
169.5871852603012
  0
VERTEX
  8
1
  6
CONTINUOUS
 62
     7
 10
-190.9524710055916
 20
169.6305167346159
  0
VERTEX
  8
1
  6
CONTINUOUS
 62
     7
 10
-190.9290070131981
 20
169.6728043446393
  0
VERTEX
  8
1
  6
CONTINUOUS
 62
     7
 10
-190.9035653187398
 20
169.7139017536722
  0
VERTEX
  8
1
  6
CONTINUOUS
 62
     7
 10
-190.8762267157529
 20
169.7536626250154
  0
VERTEX
  8
1
  6
CONTINUOUS
 62
     7
 10
-190.8470719977734
 20
169.7919406219696
  0
VERTEX
  8
1
  6
CONTINUOUS
 62
     7
 10
-190.8160895851117
 20
169.8287217177558
  0
VERTEX
  8
1
  6
CONTINUOUS
 62
     7
 10
-190.7832615994545
 20
169.8640596393388
  0
VERTEX
  8
1
  6
CONTINUOUS
 62
     7
 10
-190.7487128532233
 20
169.8978429486184
  0
VERTEX
  8
1
  6
CONTINUOUS
 62
     7
 10
-190.7125681588393
 20
169.9299602074945
  0
VERTEX
  8
1
  6
CONTINUOUS
 62
     7
 10
-190.6749523287238
 20
169.9602999778671
  0
VERTEX
  8
1
  6
CONTINUOUS
 62
     7
 10
-190.6359901752982
 20
169.988750821636
  0
VERTEX
  8
1
  6
CONTINUOUS
 62
     7
 10
-190.5958065109836
 20
170.0152013007012
  0
VERTEX
  8
1
  6
CONTINUOUS
 62
     7
 10
-190.554419606784
 20
170.0396206740848
  0
VERTEX
  8
1
  6
CONTINUOUS
 62
     7
 10
-190.5117718229181
 20
170.062069778557
  0
VERTEX
  8
1
  6
CONTINUOUS
 62
     7
 10
-190.4680177142718
 20
170.0824849893659
  0
VERTEX
  8
1
  6
CONTINUOUS
 62
     7
 10
-190.4233118357309
 20
170.1008026817597
  0
VERTEX
  8
1
  6
CONTINUOUS
 62
     7
 10
-190.3778087421813
 20
170.1169592309867
  0
VERTEX
  8
1
  6
CONTINUOUS
 62
     7
 10
-190.3316629885088
 20
170.1308910122951
  0
VERTEX
  8
1
  6
CONTINUOUS
 62
     7
 10
-190.2850291295993
 20
170.142534400933
  0
VERTEX
  8
1
  6
CONTINUOUS
 62
     7
 10
-190.2419089002632
 20
170.1511843692218
  0
VERTEX
  8
1
  6
CONTINUOUS
 62
     7
 10
-190.1983853978766
 20
170.1579366977053
  0
VERTEX
  8
1
  6
CONTINUOUS
 62
     7
 10
-190.1545857638648
 20
170.1627772686178
  0
VERTEX
  8
1
  6
CONTINUOUS
 62
     7
 10
-190.1106371396531
 20
170.1656919641935
  0
VERTEX
  8
1
  6
CONTINUOUS
 62
     7
 10
-190.0666666666667
 20
170.1666666666667
  0
SEQEND
  8
1
  6
CONTINUOUS
 62
     7
  0
LINE
  8
1
  6
CONTINUOUS
 62
     7
 10
-191.0666666666667
 20
165.1666666666667
 11
-191.0666666666667
 21
169.1666666666667
  0
POLYLINE
  8
1
  6
CONTINUOUS
 62
     7
 66
     1
  0
VERTEX
  8
1
  6
CONTINUOUS
 62
     7
 10
-192.0666666666667
 20
164.1666666666667
  0
VERTEX
  8
1
  6
CONTINUOUS
 62
     7
 10
-192.0186889041061
 20
164.1678423894199
  0
VERTEX
  8
1
  6
CONTINUOUS
 62
     7
 10
-191.9706866017608
 20
164.1713508205497
  0
VERTEX
  8
1
  6
CONTINUOUS
 62
     7
 10
-191.9228239788563
 20
164.1771638543609
  0
VERTEX
  8
1
  6
CONTINUOUS
 62
     7
 10
-191.8752652546177
 20
164.1852533851582
  0
VERTEX
  8
1
  6
CONTINUOUS
 62
     7
 10
-191.8281746482707
 20
164.1955913072465
  0
VERTEX
  8
1
  6
CONTINUOUS
 62
     7
 10
-191.7817163790405
 20
164.2081495149308
  0
VERTEX
  8
1
  6
CONTINUOUS
 62
     7
 10
-191.7360546661524
 20
164.2228999025157
  0
VERTEX
  8
1
  6
CONTINUOUS
 62
     7
 10
-191.6911736786882
 20
164.2398673239287
  0
VERTEX
  8
1
  6
CONTINUOUS
 62
     7
 10
-191.6470426323078
 20
164.2590422746073
  0
VERTEX
  8
1
  6
CONTINUOUS
 62
     7
 10
-191.6038067460337
 20
164.2803439095794
  0
VERTEX
  8
1
  6
CONTINUOUS
 62
     7
 10
-191.5616112388883
 20
164.303691383873
  0
VERTEX
  8
1
  6
CONTINUOUS
 62
     7
 10
-191.5206013298942
 20
164.3290038525158
  0
VERTEX
  8
1
  6
CONTINUOUS
 62
     7
 10
-191.480922238074
 20
164.3562004705358
  0
VERTEX
  8
1
  6
CONTINUOUS
 62
     7
 10
-191.44271918245
 20
164.3852003929609
  0
VERTEX
  8
1
  6
CONTINUOUS
 62
     7
 10
-191.4059580824546
 20
164.4160560302472
  0
VERTEX
  8
1
  6
CONTINUOUS
 62
     7
 10
-191.3706360481129
 20
164.4487473288914
  0
VERTEX
  8
1
  6
CONTINUOUS
 62
     7
 10
-191.3368632154797
 20
164.4831501146759
  0
VERTEX
  8
1
  6
CONTINUOUS
 62
     7
 10
-191.3047497206103
 20
164.5191402133831
  0
VERTEX
  8
1
  6
CONTINUOUS
 62
     7
 10
-191.2744056995597
 20
164.5565934507955
  0
VERTEX
  8
1
  6
CONTINUOUS
 62
     7
 10
-191.2459412883831
 20
164.5953856526956
  0
VERTEX
  8
1
  6
CONTINUOUS
 62
     7
 10
-191.2194666231353
 20
164.6353926448659
  0
VERTEX
  8
1
  6
CONTINUOUS
 62
     7
 10
-191.1949484718064
 20
164.6767079787986
  0
VERTEX
  8
1
  6
CONTINUOUS
 62
     7
 10
-191.1723990644117
 20
164.7192829815861
  0
VERTEX
  8
1
  6
CONTINUOUS
 62
     7
 10
-191.1518815050968
 20
164.7629638867234
  0
VERTEX
  8
1
  6
CONTINUOUS
 62
     7
 10
-191.1334588980075
 20
164.8075969277059
  0
VERTEX
  8
1
  6
CONTINUOUS
 62
     7
 10
-191.1171943472895
 20
164.8530283380288
  0
VERTEX
  8
1
  6
CONTINUOUS
 62
     7
 10
-191.1031509570884
 20
164.8991043511872
  0
VERTEX
  8
1
  6
CONTINUOUS
 62
     7
 10
-191.09139183155
 20
164.9456712006767
  0
VERTEX
  8
1
  6
CONTINUOUS
 62
     7
 10
-191.0825297138849
 20
164.9893003147119
  0
VERTEX
  8
1
  6
CONTINUOUS
 62
     7
 10
-191.0756115354291
 20
165.0333455804781
  0
VERTEX
  8
1
  6
CONTINUOUS
 62
     7
 10
-191.0706518993177
 20
165.0776758358257
  0
VERTEX
  8
1
  6
CONTINUOUS
 62
     7
 10
-191.0676654086853
 20
165.1221599186051
  0
VERTEX
  8
1
  6
CONTINUOUS
 62
     7
 10
-191.0666666666667
 20
165.1666666666667
  0
SEQEND
  8
1
  6
CONTINUOUS
 62
     7
  0
LINE
  8
1
  6
CONTINUOUS
 62
     7
 10
-192.0666666666667
 20
164.1666666666667
 11
-211.2666666666667
 21
164.1666666666667
  0
POLYLINE
  8
1
  6
CONTINUOUS
 62
     7
 66
     1
  0
VERTEX
  8
1
  6
CONTINUOUS
 62
     7
 10
-212.2666666666667
 20
165.1666666666667
  0
VERTEX
  8
1
  6
CONTINUOUS
 62
     7
 10
-212.2654855349859
 20
165.118575526402
  0
VERTEX
  8
1
  6
CONTINUOUS
 62
     7
 10
-212.2619607430426
 20
165.0704598339737
  0
VERTEX
  8
1
  6
CONTINUOUS
 62
     7
 10
-212.2561201954851
 20
165.0224841014096
  0
VERTEX
  8
1
  6
CONTINUOUS
 62
     7
 10
-212.2479917969619
 20
164.9748128407375
  0
VERTEX
  8
1
  6
CONTINUOUS
 62
     7
 10
-212.2376034521213
 20
164.927610563985
  0
VERTEX
  8
1
  6
CONTINUOUS
 62
     7
 10
-212.2249830656118
 20
164.8810417831799
  0
VERTEX
  8
1
  6
CONTINUOUS
 62
     7
 10
-212.2101585420819
 20
164.83527101035
  0
VERTEX
  8
1
  6
CONTINUOUS
 62
     7
 10
-212.1931032942002
 20
164.7902800518226
  0
VERTEX
  8
1
  6
CONTINUOUS
 62
     7
 10
-212.1738267092277
 20
164.7460406902705
  0
VERTEX
  8
1
  6
CONTINUOUS
 62
     7
 10
-212.1524095763
 20
164.7026993348514
  0
VERTEX
  8
1
  6
CONTINUOUS
 62
     7
 10
-212.1289326845527
 20
164.6604023947228
  0
VERTEX
  8
1
  6
CONTINUOUS
 62
     7
 10
-212.1034768231211
 20
164.6192962790424
  0
VERTEX
  8
1
  6
CONTINUOUS
 62
     7
 10
-212.076122781141
 20
164.579527396968
  0
VERTEX
  8
1
  6
CONTINUOUS
 62
     7
 10
-212.0469513477479
 20
164.5412421576569
  0
VERTEX
  8
1
  6
CONTINUOUS
 62
     7
 10
-212.0159531841735
 20
164.504457287803
  0
VERTEX
  8
1
  6
CONTINUOUS
 62
     7
 10
-211.9831082052945
 20
164.469116218579
  0
VERTEX
  8
1
  6
CONTINUOUS
 62
     7
 10
-211.9485412887631
 20
164.4353305319113
  0
VERTEX
  8
1
  6
CONTINUOUS
 62
     7
 10
-211.9123773122312
 20
164.4032118097261
  0
VERTEX
  8
1
  6
CONTINUOUS
 62
     7
 10
-211.8747411533512
 20
164.3728716339496
  0
VERTEX
  8
1
  6
CONTINUOUS
 62
     7
 10
-211.8357576897749
 20
164.3444215865083
  0
VERTEX
  8
1
  6
CONTINUOUS
 62
     7
 10
-211.7955517991546
 20
164.3179732493284
  0
VERTEX
  8
1
  6
CONTINUOUS
 62
     7
 10
-211.7541544512936
 20
164.2935645993478
  0
VERTEX
  8
1
  6
CONTINUOUS
 62
     7
 10
-211.7114958817116
 20
164.2711265445525
  0
VERTEX
  8
1
  6
CONTINUOUS
 62
     7
 10
-211.6677307593565
 20
164.2507227913927
  0
VERTEX
  8
1
  6
CONTINUOUS
 62
     7
 10
-211.6230137531761
 20
164.232417046319
  0
VERTEX
  8
1
  6
CONTINUOUS
 62
     7
 10
-211.5774995321183
 20
164.2162730157815
  0
VERTEX
  8
1
  6
CONTINUOUS
 62
     7
 10
-211.5313427651308
 20
164.2023544062308
  0
VERTEX
  8
1
  6
CONTINUOUS
 62
     7
 10
-211.4846981211615
 20
164.190724924117
  0
VERTEX
  8
1
  6
CONTINUOUS
 62
     7
 10
-211.4416419742873
 20
164.1821014538105
  0
VERTEX
  8
1
  6
CONTINUOUS
 62
     7
 10
-211.3981841033148
 20
164.1753698295214
  0
VERTEX
  8
1
  6
CONTINUOUS
 62
     7
 10
-211.3544511603299
 20
164.1705441146404
  0
VERTEX
  8
1
  6
CONTINUOUS
 62
     7
 10
-211.3105697974185
 20
164.1676383725586
  0
VERTEX
  8
1
  6
CONTINUOUS
 62
     7
 10
-211.2666666666667
 20
164.1666666666667
  0
SEQEND
  8
1
  6
CONTINUOUS
 62
     7
  0
LINE
  8
1
  6
CONTINUOUS
 62
     7
 10
-212.2666666666667
 20
169.1666666666667
 11
-212.2666666666667
 21
165.1666666666667
  0
POLYLINE
  8
1
  6
CONTINUOUS
 62
     7
 66
     1
  0
VERTEX
  8
1
  6
CONTINUOUS
 62
     7
 10
-213.2666666666667
 20
170.1666666666667
  0
VERTEX
  8
1
  6
CONTINUOUS
 62
     7
 10
-213.2186753558127
 20
170.1654902988081
  0
VERTEX
  8
1
  6
CONTINUOUS
 62
     7
 10
-213.1706594800738
 20
170.1619799134493
  0
VERTEX
  8
1
  6
CONTINUOUS
 62
     7
 10
-213.1227832923175
 20
170.1561635879159
  0
VERTEX
  8
1
  6
CONTINUOUS
 62
     7
 10
-213.075211045411
 20
170.1480693995333
  0
VERTEX
  8
1
  6
CONTINUOUS
 62
     7
 10
-213.028106992222
 20
170.1377254256271
  0
VERTEX
  8
1
  6
CONTINUOUS
 62
     7
 10
-212.9816353856177
 20
170.1251597435228
  0
VERTEX
  8
1
  6
CONTINUOUS
 62
     7
 10
-212.9359604784658
 20
170.1104004305459
  0
VERTEX
  8
1
  6
CONTINUOUS
 62
     7
 10
-212.89106610598
 20
170.0934223937145
  0
VERTEX
  8
1
  6
CONTINUOUS
 62
     7
 10
-212.8469218578784
 20
170.0742351400151
  0
VERTEX
  8
1
  6
CONTINUOUS
 62
     7
 10
-212.8036731116891
 20
170.0529195202972
  0
VERTEX
  8
1
  6
CONTINUOUS
 62
     7
 10
-212.7614652449399
 20
170.0295563854102
  0
VERTEX
  8
1
  6
CONTINUOUS
 62
     7
 10
-212.720443635159
 20
170.0042265862039
  0
VERTEX
  8
1
  6
CONTINUOUS
 62
     7
 10
-212.6807536598743
 20
169.9770109735277
  0
VERTEX
  8
1
  6
CONTINUOUS
 62
     7
 10
-212.6425406966139
 20
169.9479903982311
  0
VERTEX
  8
1
  6
CONTINUOUS
 62
     7
 10
-212.6057778133045
 20
169.9171185312239
  0
VERTEX
  8
1
  6
CONTINUOUS
 62
     7
 10
-212.5704545584874
 20
169.8844098434724
  0
VERTEX
  8
1
  6
CONTINUOUS
 62
     7
 10
-212.5366812308168
 20
169.849988617483
  0
VERTEX
  8
1
  6
CONTINUOUS
 62
     7
 10
-212.5045681289463
 20
169.8139791357622
  0
VERTEX
  8
1
  6
CONTINUOUS
 62
     7
 10
-212.4742255515299
 20
169.7765056808164
  0
VERTEX
  8
1
  6
CONTINUOUS
 62
     7
 10
-212.4457637972215
 20
169.7376925351521
  0
VERTEX
  8
1
  6
CONTINUOUS
 62
     7
 10
-212.4192931646749
 20
169.6976639812758
  0
VERTEX
  8
1
  6
CONTINUOUS
 62
     7
 10
-212.3947891223687
 20
169.6563416775756
  0
VERTEX
  8
1
  6
CONTINUOUS
 62
     7
 10
-212.3722539185801
 20
169.6137599232067
  0
VERTEX
  8
1
  6
CONTINUOUS
 62
     7
 10
-212.351750680777
 20
169.5700725819307
  0
VERTEX
  8
1
  6
CONTINUOUS
 62
     7
 10
-212.3333425364276
 20
169.5254335175091
  0
VERTEX
  8
1
  6
CONTINUOUS
 62
     7
 10
-212.317092613
 20
169.4799965937034
  0
VERTEX
  8
1
  6
CONTINUOUS
 62
     7
 10
-212.3030640379622
 20
169.4339156742753
  0
VERTEX
  8
1
  6
CONTINUOUS
 62
     7
 10
-212.2913199387824
 20
169.3873446229861
  0
VERTEX
  8
1
  6
CONTINUOUS
 62
     7
 10
-212.28248345244
 20
169.3437763441388
  0
VERTEX
  8
1
  6
CONTINUOUS
 62
     7
 10
-212.2755853727
 20
169.2997937373472
  0
VERTEX
  8
1
  6
CONTINUOUS
 62
     7
 10
-212.2706402089196
 20
169.2555274743472
  0
VERTEX
  8
1
  6
CONTINUOUS
 62
     7
 10
-212.2676624704561
 20
169.2111082268751
  0
VERTEX
  8
1
  6
CONTINUOUS
 62
     7
 10
-212.2666666666667
 20
169.1666666666667
  0
SEQEND
  8
1
  6
CONTINUOUS
 62
     7
  0
LINE
  8
1
  6
CONTINUOUS
 62
     7
 10
-213.2666666666667
 20
170.1666666666667
 11
-225.6666666666667
 21
170.1666666666667
  0
POLYLINE
  8
1
  6
CONTINUOUS
 62
     7
 66
     1
  0
VERTEX
  8
1
  6
CONTINUOUS
 62
     7
 10
-226.6666666666667
 20
171.1666666666667
  0
VERTEX
  8
1
  6
CONTINUOUS
 62
     7
 10
-226.6654862137849
 20
171.1185897394247
  0
VERTEX
  8
1
  6
CONTINUOUS
 62
     7
 10
-226.6619634748142
 20
171.0704882592839
  0
VERTEX
  8
1
  6
CONTINUOUS
 62
     7
 10
-226.6561263792667
 20
171.0225267012589
  0
VERTEX
  8
1
  6
CONTINUOUS
 62
     7
 10
-226.6480028566546
 20
170.9748695403646
  0
VERTEX
  8
1
  6
CONTINUOUS
 62
     7
 10
-226.6376208364898
 20
170.9276812516159
  0
VERTEX
  8
1
  6
CONTINUOUS
 62
     7
 10
-226.6250082482847
 20
170.8811263100276
  0
VERTEX
  8
1
  6
CONTINUOUS
 62
     7
 10
-226.6101930215511
 20
170.8353691906146
  0
VERTEX
  8
1
  6
CONTINUOUS
 62
     7
 10
-226.5931487845027
 20
170.7903919925414
  0
VERTEX
  8
1
  6
CONTINUOUS
 62
     7
 10
-226.5738849404288
 20
170.7461661814778
  0
VERTEX
  8
1
  6
CONTINUOUS
 62
     7
 10
-226.5524822865014
 20
170.7028380181887
  0
VERTEX
  8
1
  6
CONTINUOUS
 62
     7
 10
-226.5290216198926
 20
170.6605537634388
  0
VERTEX
  8
1
  6
CONTINUOUS
 62
     7
 10
-226.5035837377744
 20
170.6194596779931
  0
VERTEX
  8
1
  6
CONTINUOUS
 62
     7
 10
-226.4762494373188
 20
170.5797020226165
  0
VERTEX
  8
1
  6
CONTINUOUS
 62
     7
 10
-226.4470995156978
 20
170.5414270580739
  0
VERTEX
  8
1
  6
CONTINUOUS
 62
     7
 10
-226.4161192632018
 20
170.5046451951908
  0
VERTEX
  8
1
  6
CONTINUOUS
 62
     7
 10
-226.3832936046713
 20
170.4693065387652
  0
VERTEX
  8
1
  6
CONTINUOUS
 62
     7
 10
-226.348747331128
 20
170.4355224884997
  0
VERTEX
  8
1
  6
CONTINUOUS
 62
     7
 10
-226.3126052335934
 20
170.4034044440973
  0
VERTEX
  8
1
  6
CONTINUOUS
 62
     7
 10
-226.2749921030893
 20
170.3730638052607
  0
VERTEX
  8
1
  6
CONTINUOUS
 62
     7
 10
-226.2360327306373
 20
170.3446119716927
  0
VERTEX
  8
1
  6
CONTINUOUS
 62
     7
 10
-226.195851907259
 20
170.3181603430961
  0
VERTEX
  8
1
  6
CONTINUOUS
 62
     7
 10
-226.1544649807122
 20
170.2937380117399
  0
VERTEX
  8
1
  6
CONTINUOUS
 62
     7
 10
-226.1118170512105
 20
170.2712860359704
  0
VERTEX
  8
1
  6
CONTINUOUS
 62
     7
 10
-226.0680626737089
 20
170.2508680439771
  0
VERTEX
  8
1
  6
CONTINUOUS
 62
     7
 10
-226.023356403162
 20
170.2325476639497
  0
VERTEX
  8
1
  6
CONTINUOUS
 62
     7
 10
-225.9778527945248
 20
170.2163885240779
  0
VERTEX
  8
1
  6
CONTINUOUS
 62
     7
 10
-225.9317064027522
 20
170.2024542525513
  0
VERTEX
  8
1
  6
CONTINUOUS
 62
     7
 10
-225.8850717827987
 20
170.1908084775596
  0
VERTEX
  8
1
  6
CONTINUOUS
 62
     7
 10
-225.84194334681
 20
170.1821551020816
  0
VERTEX
  8
1
  6
CONTINUOUS
 62
     7
 10
-225.7984114015846
 20
170.175400104587
  0
VERTEX
  8
1
  6
CONTINUOUS
 62
     7
 10
-225.7546031627404
 20
170.1705576137421
  0
VERTEX
  8
1
  6
CONTINUOUS
 62
     7
 10
-225.7106458458951
 20
170.1676417582133
  0
VERTEX
  8
1
  6
CONTINUOUS
 62
     7
 10
-225.6666666666667
 20
170.1666666666667
  0
SEQEND
  8
1
  6
CONTINUOUS
 62
     7
  0
LINE
  8
1
  6
CONTINUOUS
 62
     7
 10
-226.6666666666667
 20
247.1666666666647
 11
-226.6666666666667
 21
171.1666666666666
  0
POLYLINE
  8
1
  6
CONTINUOUS
 62
     7
 66
     1
  0
VERTEX
  8
1
  6
CONTINUOUS
 62
     7
 10
-225.6666666666667
 20
248.1666666666666
  0
VERTEX
  8
1
  6
CONTINUOUS
 62
     7
 10
-225.714658583011
 20
248.1654902694232
  0
VERTEX
  8
1
  6
CONTINUOUS
 62
     7
 10
-225.762675062318
 20
248.1619797960103
  0
VERTEX
  8
1
  6
CONTINUOUS
 62
     7
 10
-225.8105518485694
 20
248.1561633239047
  0
VERTEX
  8
1
  6
CONTINUOUS
 62
     7
 10
-225.8581246857464
 20
248.1480689305827
  0
VERTEX
  8
1
  6
CONTINUOUS
 62
     7
 10
-225.9052293178305
 20
248.1377246935209
  0
VERTEX
  8
1
  6
CONTINUOUS
 62
     7
 10
-225.9517014888032
 20
248.1251586901957
  0
VERTEX
  8
1
  6
CONTINUOUS
 62
     7
 10
-225.9973769426459
 20
248.1103989980836
  0
VERTEX
  8
1
  6
CONTINUOUS
 62
     7
 10
-226.0422718159521
 20
248.0934205382537
  0
VERTEX
  8
1
  6
CONTINUOUS
 62
     7
 10
-226.0864165566915
 20
248.0742328021204
  0
VERTEX
  8
1
  6
CONTINUOUS
 62
     7
 10
-226.1296657930167
 20
248.0529166277968
  0
VERTEX
  8
1
  6
CONTINUOUS
 62
     7
 10
-226.1718741530808
 20
248.0295528533958
  0
VERTEX
  8
1
  6
CONTINUOUS
 62
     7
 10
-226.2128962650366
 20
248.0042223170304
  0
VERTEX
  8
1
  6
CONTINUOUS
 62
     7
 10
-226.2525867570369
 20
247.9770058568134
  0
VERTEX
  8
1
  6
CONTINUOUS
 62
     7
 10
-226.2908002572347
 20
247.947984310858
  0
VERTEX
  8
1
  6
CONTINUOUS
 62
     7
 10
-226.3275642976193
 20
247.9171108047889
  0
VERTEX
  8
1
  6
CONTINUOUS
 62
     7
 10
-226.3628886863639
 20
247.8844002402529
  0
VERTEX
  8
1
  6
CONTINUOUS
 62
     7
 10
-226.3966631055088
 20
247.8499768803285
  0
VERTEX
  8
1
  6
CONTINUOUS
 62
     7
 10
-226.4287772370942
 20
247.8139649880941
  0
VERTEX
  8
1
  6
CONTINUOUS
 62
     7
 10
-226.4591207631602
 20
247.7764888266281
  0
VERTEX
  8
1
  6
CONTINUOUS
 62
     7
 10
-226.4875833657471
 20
247.7376726590089
  0
VERTEX
  8
1
  6
CONTINUOUS
 62
     7
 10
-226.5140547268952
 20
247.6976407483149
  0
VERTEX
  8
1
  6
CONTINUOUS
 62
     7
 10
-226.5385590861583
 20
247.6563151786555
  0
VERTEX
  8
1
  6
CONTINUOUS
 62
     7
 10
-226.5610944765519
 20
247.6137297540494
  0
VERTEX
  8
1
  6
CONTINUOUS
 62
     7
 10
-226.581597718964
 20
247.5700383529684
  0
VERTEX
  8
1
  6
CONTINUOUS
 62
     7
 10
-226.6000056342824
 20
247.5253948538843
  0
VERTEX
  8
1
  6
CONTINUOUS
 62
     7
 10
-226.6162550433951
 20
247.4799531352688
  0
VERTEX
  8
1
  6
CONTINUOUS
 62
     7
 10
-226.6302827671898
 20
247.4338670755937
  0
VERTEX
  8
1
  6
CONTINUOUS
 62
     7
 10
-226.6420256265544
 20
247.3872905533306
  0
VERTEX
  8
1
  6
CONTINUOUS
 62
     7
 10
-226.6508576419392
 20
247.3437332405378
  0
VERTEX
  8
1
  6
CONTINUOUS
 62
     7
 10
-226.6577522882887
 20
247.2997616042539
  0
VERTEX
  8
1
  6
CONTINUOUS
 62
     7
 10
-226.662695030957
 20
247.2555062357
  0
VERTEX
  8
1
  6
CONTINUOUS
 62
     7
 10
-226.6656713352983
 20
247.2110977260973
  0
VERTEX
  8
1
  6
CONTINUOUS
 62
     7
 10
-226.6666666666667
 20
247.1666666666666
  0
SEQEND
  8
1
  6
CONTINUOUS
 62
     7
  0
LINE
  8
1
  6
CONTINUOUS
 62
     7
 10
-225.6666666666667
 20
248.1666666666666
 11
-213.2666666666667
 21
248.1666666666666
  0
LINE
  8
1
  6
CONTINUOUS
 62
     9
 10
-226.1611552914921
 20
172.9669127093046
 11
-226.1611552914921
 21
245.3664206240287
  0
ARC
  8
1
  6
CONTINUOUS
 62
     9
 10
-224.1647415126011
 20
172.9640730389261
 40
1.996415798443209
 50
179.9185033584219
 51
270.0129613949123
  0
LINE
  8
1
  6
CONTINUOUS
 62
     9
 10
-179.1690434479476
 20
170.9676572915662
 11
-224.1642898853858
 21
170.9676572915662
  0
ARC
  8
1
  6
CONTINUOUS
 62
     9
 10
-179.1685981689326
 20
172.9640793795375
 40
1.99642213762841
 50
269.9872208347135
 51
0.0813144119522917
  0
LINE
  8
1
  6
CONTINUOUS
 62
     9
 10
-177.1721780418413
 20
245.3664206240287
 11
-177.1721780418413
 21
172.966912709305
  0
ARC
  8
1
  6
CONTINUOUS
 62
     9
 10
-179.1685918207323
 20
245.3692602944072
 40
1.996415798443209
 50
359.9185033584218
 51
90.0129613949123
  0
LINE
  8
1
  6
CONTINUOUS
 62
     9
 10
-224.1642898853858
 20
247.3656760417671
 11
-179.1690434479476
 21
247.3656760417671
  0
ARC
  8
1
  6
CONTINUOUS
 62
     9
 10
-224.1647351644008
 20
245.3692539537958
 40
1.99642213762841
 50
89.9872208347136
 51
180.0813144119525
  0
LINE
  8
1
  6
CONTINUOUS
 62
     7
 10
-204.1666666666667
 20
248.4166666666667
 11
-199.1666666666667
 21
248.4166666666667
  0
ARC
  8
1
  6
CONTINUOUS
 62
     7
 10
-199.1670696023007
 20
250.9170696023008
 40
2.500402968100254
 50
270.0092331162783
 51
359.9907668837218
  0
ARC
  8
1
  6
CONTINUOUS
 62
     7
 10
-199.1670737249002
 20
250.9162596084331
 40
2.500407091367452
 50
0.009327568691853
 51
89.99067243130811
  0
LINE
  8
1
  6
CONTINUOUS
 62
     7
 10
-199.1666666666667
 20
253.4166666666667
 11
-204.1666666666667
 21
253.4166666666667
  0
ARC
  8
1
  6
CONTINUOUS
 62
     7
 10
-204.1662643886766
 20
250.9162643886766
 40
2.500402310350376
 50
90.00921804904178
 51
179.9907819509581
  0
ARC
  8
1
  6
CONTINUOUS
 62
     7
 10
-204.1662596572952
 20
250.9170736760381
 40
2.500407042497429
 50
180.0093264492202
 51
269.9906735507798
  0
LINE
  8
1
  6
CONTINUOUS
 62
     7
 10
-204.1666666666667
 20
164.9166666666667
 11
-199.1666666666667
 21
164.9166666666667
  0
ARC
  8
1
  6
CONTINUOUS
 62
     7
 10
-199.1670689446568
 20
167.4170689446567
 40
2.500402310350383
 50
270.009218049042
 51
359.990781950958
  0
ARC
  8
1
  6
CONTINUOUS
 62
     7
 10
-199.1670736760382
 20
167.4162596572952
 40
2.500407042497426
 50
0.0093264492201928
 51
89.99067355077977
  0
LINE
  8
1
  6
CONTINUOUS
 62
     7
 10
-199.1666666666667
 20
169.9166666666667
 11
-204.1666666666667
 21
169.9166666666667
  0
ARC
  8
1
  6
CONTINUOUS
 62
     7
 10
-204.1662637310326
 20
167.4162637310326
 40
2.500402968100268
 50
90.00923311627852
 51
179.9907668837215
  0
ARC
  8
1
  6
CONTINUOUS
 62
     7
 10
-204.1662596084331
 20
167.4170737249002
 40
2.500407091367446
 50
180.0093275686917
 51
269.9906724313083
  0
POLYLINE
  8
1
  6
CONTINUOUS
 62
     7
 66
     1
  0
VERTEX
  8
1
  6
CONTINUOUS
 62
     7
 10
-221.1666666666667
 20
155.1666666666667
  0
VERTEX
  8
1
  6
CONTINUOUS
 62
     7
 10
-221.1912005038304
 20
155.1672689385641
  0
VERTEX
  8
1
  6
CONTINUOUS
 62
     7
 10
-221.2156752368315
 20
155.1690743033306
  0
VERTEX
  8
1
  6
CONTINUOUS
 62
     7
 10
-221.2400319038944
 20
155.1720784116843
  0
VERTEX
  8
1
  6
CONTINUOUS
 62
     7
 10
-221.2642118276748
 20
155.1762740264651
  0
VERTEX
  8
1
  6
CONTINUOUS
 62
     7
 10
-221.2881567566183
 20
155.1816510400694
  0
VERTEX
  8
1
  6
CONTINUOUS
 62
     7
 10
-221.3118090052939
 20
155.1881964988006
  0
VERTEX
  8
1
  6
CONTINUOUS
 62
     7
 10
-221.3351115933628
 20
155.1958946340752
  0
VERTEX
  8
1
  6
CONTINUOUS
 62
     7
 10
-221.3580083828492
 20
155.204726900411
  0
VERTEX
  8
1
  6
CONTINUOUS
 62
     7
 10
-221.3804442133818
 20
155.2146720201049
  0
VERTEX
  8
1
  6
CONTINUOUS
 62
     7
 10
-221.4023650350797
 20
155.2257060344925
  0
VERTEX
  8
1
  6
CONTINUOUS
 62
     7
 10
-221.4237180387633
 20
155.2378023616665
  0
VERTEX
  8
1
  6
CONTINUOUS
 62
     7
 10
-221.4444517831765
 20
155.2509318605154
  0
VERTEX
  8
1
  6
CONTINUOUS
 62
     7
 10
-221.4645163189129
 20
155.2650629009264
  0
VERTEX
  8
1
  6
CONTINUOUS
 62
     7
 10
-221.4838633087485
 20
155.2801614399853
  0
VERTEX
  8
1
  6
CONTINUOUS
 62
     7
 10
-221.5024461440902
 20
155.2961911039892
  0
VERTEX
  8
1
  6
CONTINUOUS
 62
     7
 10
-221.52022005726
 20
155.3131132760734
  0
VERTEX
  8
1
  6
CONTINUOUS
 62
     7
 10
-221.5371422293442
 20
155.3308871892432
  0
VERTEX
  8
1
  6
CONTINUOUS
 62
     7
 10
-221.5531718933481
 20
155.3494700245848
  0
VERTEX
  8
1
  6
CONTINUOUS
 62
     7
 10
-221.568270432407
 20
155.3688170144204
  0
VERTEX
  8
1
  6
CONTINUOUS
 62
     7
 10
-221.582401472818
 20
155.3888815501568
  0
VERTEX
  8
1
  6
CONTINUOUS
 62
     7
 10
-221.5955309716668
 20
155.40961529457
  0
VERTEX
  8
1
  6
CONTINUOUS
 62
     7
 10
-221.6076272988409
 20
155.4309682982536
  0
VERTEX
  8
1
  6
CONTINUOUS
 62
     7
 10
-221.6186613132284
 20
155.4528891199515
  0
VERTEX
  8
1
  6
CONTINUOUS
 62
     7
 10
-221.6286064329223
 20
155.4753249504841
  0
VERTEX
  8
1
  6
CONTINUOUS
 62
     7
 10
-221.6374386992582
 20
155.4982217399705
  0
VERTEX
  8
1
  6
CONTINUOUS
 62
     7
 10
-221.6451368345328
 20
155.5215243280394
  0
VERTEX
  8
1
  6
CONTINUOUS
 62
     7
 10
-221.6516822932639
 20
155.545176576715
  0
VERTEX
  8
1
  6
CONTINUOUS
 62
     7
 10
-221.6570593068683
 20
155.5691215056586
  0
VERTEX
  8
1
  6
CONTINUOUS
 62
     7
 10
-221.6612549216491
 20
155.593301429439
  0
VERTEX
  8
1
  6
CONTINUOUS
 62
     7
 10
-221.6642590300028
 20
155.6176580965019
  0
VERTEX
  8
1
  6
CONTINUOUS
 62
     7
 10
-221.6660643947693
 20
155.6421328295029
  0
VERTEX
  8
1
  6
CONTINUOUS
 62
     7
 10
-221.6666666666667
 20
155.6666666666667
  0
SEQEND
  8
1
  6
CONTINUOUS
 62
     7
  0
POLYLINE
  8
1
  6
CONTINUOUS
 62
     7
 66
     1
  0
VERTEX
  8
1
  6
CONTINUOUS
 62
     7
 10
-226.1666666666667
 20
160.1666666666667
  0
VERTEX
  8
1
  6
CONTINUOUS
 62
     7
 10
-226.1912005038304
 20
160.1660643947693
  0
VERTEX
  8
1
  6
CONTINUOUS
 62
     7
 10
-226.2156752368315
 20
160.1642590300027
  0
VERTEX
  8
1
  6
CONTINUOUS
 62
     7
 10
-226.2400319038944
 20
160.1612549216491
  0
VERTEX
  8
1
  6
CONTINUOUS
 62
     7
 10
-226.2642118276748
 20
160.1570593068683
  0
VERTEX
  8
1
  6
CONTINUOUS
 62
     7
 10
-226.2881567566183
 20
160.1516822932639
  0
VERTEX
  8
1
  6
CONTINUOUS
 62
     7
 10
-226.3118090052939
 20
160.1451368345328
  0
VERTEX
  8
1
  6
CONTINUOUS
 62
     7
 10
-226.3351115933628
 20
160.1374386992582
  0
VERTEX
  8
1
  6
CONTINUOUS
 62
     7
 10
-226.3580083828492
 20
160.1286064329223
  0
VERTEX
  8
1
  6
CONTINUOUS
 62
     7
 10
-226.3804442133818
 20
160.1186613132284
  0
VERTEX
  8
1
  6
CONTINUOUS
 62
     7
 10
-226.4023650350797
 20
160.1076272988408
  0
VERTEX
  8
1
  6
CONTINUOUS
 62
     7
 10
-226.4237180387633
 20
160.0955309716668
  0
VERTEX
  8
1
  6
CONTINUOUS
 62
     7
 10
-226.4444517831765
 20
160.0824014728179
  0
VERTEX
  8
1
  6
CONTINUOUS
 62
     7
 10
-226.4645163189129
 20
160.068270432407
  0
VERTEX
  8
1
  6
CONTINUOUS
 62
     7
 10
-226.4838633087485
 20
160.053171893348
  0
VERTEX
  8
1
  6
CONTINUOUS
 62
     7
 10
-226.5024461440902
 20
160.0371422293441
  0
VERTEX
  8
1
  6
CONTINUOUS
 62
     7
 10
-226.52022005726
 20
160.0202200572599
  0
VERTEX
  8
1
  6
CONTINUOUS
 62
     7
 10
-226.5371422293442
 20
160.0024461440902
  0
VERTEX
  8
1
  6
CONTINUOUS
 62
     7
 10
-226.5531718933481
 20
159.9838633087485
  0
VERTEX
  8
1
  6
CONTINUOUS
 62
     7
 10
-226.568270432407
 20
159.9645163189129
  0
VERTEX
  8
1
  6
CONTINUOUS
 62
     7
 10
-226.582401472818
 20
159.9444517831764
  0
VERTEX
  8
1
  6
CONTINUOUS
 62
     7
 10
-226.5955309716668
 20
159.9237180387633
  0
VERTEX
  8
1
  6
CONTINUOUS
 62
     7
 10
-226.6076272988409
 20
159.9023650350796
  0
VERTEX
  8
1
  6
CONTINUOUS
 62
     7
 10
-226.6186613132284
 20
159.8804442133818
  0
VERTEX
  8
1
  6
CONTINUOUS
 62
     7
 10
-226.6286064329223
 20
159.8580083828492
  0
VERTEX
  8
1
  6
CONTINUOUS
 62
     7
 10
-226.6374386992582
 20
159.8351115933628
  0
VERTEX
  8
1
  6
CONTINUOUS
 62
     7
 10
-226.6451368345328
 20
159.8118090052939
  0
VERTEX
  8
1
  6
CONTINUOUS
 62
     7
 10
-226.6516822932639
 20
159.7881567566183
  0
VERTEX
  8
1
  6
CONTINUOUS
 62
     7
 10
-226.6570593068683
 20
159.7642118276747
  0
VERTEX
  8
1
  6
CONTINUOUS
 62
     7
 10
-226.6612549216491
 20
159.7400319038944
  0
VERTEX
  8
1
  6
CONTINUOUS
 62
     7
 10
-226.6642590300028
 20
159.7156752368314
  0
VERTEX
  8
1
  6
CONTINUOUS
 62
     7
 10
-226.6660643947693
 20
159.6912005038304
  0
VERTEX
  8
1
  6
CONTINUOUS
 62
     7
 10
-226.6666666666667
 20
159.6666666666667
  0
SEQEND
  8
1
  6
CONTINUOUS
 62
     7
  0
LINE
  8
1
  6
CONTINUOUS
 62
     7
 10
-226.1666666666667
 20
160.1666666666667
 11
-224.6666666666667
 21
160.1666666666667
  0
LINE
  8
1
  6
CONTINUOUS
 62
     7
 10
-221.1666666666667
 20
155.1666666666667
 11
-214.6666666666667
 21
155.1666666666667
  0
LINE
  8
1
  6
CONTINUOUS
 62
     7
 10
-226.6666666666667
 20
153.1666666666667
 11
-226.6666666666667
 21
159.6666666666667
  0
POLYLINE
  8
1
  6
CONTINUOUS
 62
     7
 66
     1
  0
VERTEX
  8
1
  6
CONTINUOUS
 62
     7
 10
-221.6666666666667
 20
262.6666666666666
  0
VERTEX
  8
1
  6
CONTINUOUS
 62
     7
 10
-221.6660643947693
 20
262.6912005038304
  0
VERTEX
  8
1
  6
CONTINUOUS
 62
     7
 10
-221.6642590300028
 20
262.7156752368314
  0
VERTEX
  8
1
  6
CONTINUOUS
 62
     7
 10
-221.6612549216491
 20
262.7400319038943
  0
VERTEX
  8
1
  6
CONTINUOUS
 62
     7
 10
-221.6570593068683
 20
262.7642118276747
  0
VERTEX
  8
1
  6
CONTINUOUS
 62
     7
 10
-221.6516822932639
 20
262.7881567566183
  0
VERTEX
  8
1
  6
CONTINUOUS
 62
     7
 10
-221.6451368345328
 20
262.8118090052939
  0
VERTEX
  8
1
  6
CONTINUOUS
 62
     7
 10
-221.6374386992582
 20
262.8351115933627
  0
VERTEX
  8
1
  6
CONTINUOUS
 62
     7
 10
-221.6286064329223
 20
262.8580083828492
  0
VERTEX
  8
1
  6
CONTINUOUS
 62
     7
 10
-221.6186613132284
 20
262.8804442133818
  0
VERTEX
  8
1
  6
CONTINUOUS
 62
     7
 10
-221.6076272988409
 20
262.9023650350797
  0
VERTEX
  8
1
  6
CONTINUOUS
 62
     7
 10
-221.5955309716668
 20
262.9237180387633
  0
VERTEX
  8
1
  6
CONTINUOUS
 62
     7
 10
-221.582401472818
 20
262.9444517831765
  0
VERTEX
  8
1
  6
CONTINUOUS
 62
     7
 10
-221.568270432407
 20
262.9645163189129
  0
VERTEX
  8
1
  6
CONTINUOUS
 62
     7
 10
-221.5531718933481
 20
262.9838633087485
  0
VERTEX
  8
1
  6
CONTINUOUS
 62
     7
 10
-221.5371422293442
 20
263.0024461440902
  0
VERTEX
  8
1
  6
CONTINUOUS
 62
     7
 10
-221.52022005726
 20
263.02022005726
  0
VERTEX
  8
1
  6
CONTINUOUS
 62
     7
 10
-221.5024461440902
 20
263.0371422293442
  0
VERTEX
  8
1
  6
CONTINUOUS
 62
     7
 10
-221.4838633087485
 20
263.053171893348
  0
VERTEX
  8
1
  6
CONTINUOUS
 62
     7
 10
-221.4645163189129
 20
263.068270432407
  0
VERTEX
  8
1
  6
CONTINUOUS
 62
     7
 10
-221.4444517831765
 20
263.0824014728179
  0
VERTEX
  8
1
  6
CONTINUOUS
 62
     7
 10
-221.4237180387633
 20
263.0955309716668
  0
VERTEX
  8
1
  6
CONTINUOUS
 62
     7
 10
-221.4023650350797
 20
263.1076272988408
  0
VERTEX
  8
1
  6
CONTINUOUS
 62
     7
 10
-221.3804442133818
 20
263.1186613132284
  0
VERTEX
  8
1
  6
CONTINUOUS
 62
     7
 10
-221.3580083828492
 20
263.1286064329223
  0
VERTEX
  8
1
  6
CONTINUOUS
 62
     7
 10
-221.3351115933628
 20
263.1374386992582
  0
VERTEX
  8
1
  6
CONTINUOUS
 62
     7
 10
-221.3118090052939
 20
263.1451368345328
  0
VERTEX
  8
1
  6
CONTINUOUS
 62
     7
 10
-221.2881567566183
 20
263.1516822932639
  0
VERTEX
  8
1
  6
CONTINUOUS
 62
     7
 10
-221.2642118276748
 20
263.1570593068683
  0
VERTEX
  8
1
  6
CONTINUOUS
 62
     7
 10
-221.2400319038943
 20
263.1612549216491
  0
VERTEX
  8
1
  6
CONTINUOUS
 62
     7
 10
-221.2156752368315
 20
263.1642590300027
  0
VERTEX
  8
1
  6
CONTINUOUS
 62
     7
 10
-221.1912005038304
 20
263.1660643947693
  0
VERTEX
  8
1
  6
CONTINUOUS
 62
     7
 10
-221.1666666666667
 20
263.1666666666666
  0
SEQEND
  8
1
  6
CONTINUOUS
 62
     7
  0
POLYLINE
  8
1
  6
CONTINUOUS
 62
     7
 66
     1
  0
VERTEX
  8
1
  6
CONTINUOUS
 62
     7
 10
-226.6666666666667
 20
258.6666666666666
  0
VERTEX
  8
1
  6
CONTINUOUS
 62
     7
 10
-226.6660643947693
 20
258.6421328295029
  0
VERTEX
  8
1
  6
CONTINUOUS
 62
     7
 10
-226.6642590300028
 20
258.6176580965019
  0
VERTEX
  8
1
  6
CONTINUOUS
 62
     7
 10
-226.6612549216491
 20
258.593301429439
  0
VERTEX
  8
1
  6
CONTINUOUS
 62
     7
 10
-226.6570593068683
 20
258.5691215056586
  0
VERTEX
  8
1
  6
CONTINUOUS
 62
     7
 10
-226.6516822932639
 20
258.5451765767151
  0
VERTEX
  8
1
  6
CONTINUOUS
 62
     7
 10
-226.6451368345328
 20
258.5215243280394
  0
VERTEX
  8
1
  6
CONTINUOUS
 62
     7
 10
-226.6374386992582
 20
258.4982217399706
  0
VERTEX
  8
1
  6
CONTINUOUS
 62
     7
 10
-226.6286064329223
 20
258.4753249504841
  0
VERTEX
  8
1
  6
CONTINUOUS
 62
     7
 10
-226.6186613132284
 20
258.4528891199515
  0
VERTEX
  8
1
  6
CONTINUOUS
 62
     7
 10
-226.6076272988409
 20
258.4309682982537
  0
VERTEX
  8
1
  6
CONTINUOUS
 62
     7
 10
-226.5955309716668
 20
258.4096152945701
  0
VERTEX
  8
1
  6
CONTINUOUS
 62
     7
 10
-226.582401472818
 20
258.3888815501569
  0
VERTEX
  8
1
  6
CONTINUOUS
 62
     7
 10
-226.568270432407
 20
258.3688170144204
  0
VERTEX
  8
1
  6
CONTINUOUS
 62
     7
 10
-226.5531718933481
 20
258.3494700245848
  0
VERTEX
  8
1
  6
CONTINUOUS
 62
     7
 10
-226.5371422293442
 20
258.3308871892431
  0
VERTEX
  8
1
  6
CONTINUOUS
 62
     7
 10
-226.52022005726
 20
258.3131132760734
  0
VERTEX
  8
1
  6
CONTINUOUS
 62
     7
 10
-226.5024461440902
 20
258.2961911039891
  0
VERTEX
  8
1
  6
CONTINUOUS
 62
     7
 10
-226.4838633087485
 20
258.2801614399852
  0
VERTEX
  8
1
  6
CONTINUOUS
 62
     7
 10
-226.4645163189129
 20
258.2650629009263
  0
VERTEX
  8
1
  6
CONTINUOUS
 62
     7
 10
-226.4444517831765
 20
258.2509318605154
  0
VERTEX
  8
1
  6
CONTINUOUS
 62
     7
 10
-226.4237180387633
 20
258.2378023616665
  0
VERTEX
  8
1
  6
CONTINUOUS
 62
     7
 10
-226.4023650350797
 20
258.2257060344925
  0
VERTEX
  8
1
  6
CONTINUOUS
 62
     7
 10
-226.3804442133818
 20
258.214672020105
  0
VERTEX
  8
1
  6
CONTINUOUS
 62
     7
 10
-226.3580083828492
 20
258.204726900411
  0
VERTEX
  8
1
  6
CONTINUOUS
 62
     7
 10
-226.3351115933628
 20
258.1958946340752
  0
VERTEX
  8
1
  6
CONTINUOUS
 62
     7
 10
-226.3118090052939
 20
258.1881964988006
  0
VERTEX
  8
1
  6
CONTINUOUS
 62
     7
 10
-226.2881567566183
 20
258.1816510400694
  0
VERTEX
  8
1
  6
CONTINUOUS
 62
     7
 10
-226.2642118276748
 20
258.176274026465
  0
VERTEX
  8
1
  6
CONTINUOUS
 62
     7
 10
-226.2400319038944
 20
258.1720784116843
  0
VERTEX
  8
1
  6
CONTINUOUS
 62
     7
 10
-226.2156752368315
 20
258.1690743033306
  0
VERTEX
  8
1
  6
CONTINUOUS
 62
     7
 10
-226.1912005038304
 20
258.1672689385641
  0
VERTEX
  8
1
  6
CONTINUOUS
 62
     7
 10
-226.1666666666667
 20
258.1666666666666
  0
SEQEND
  8
1
  6
CONTINUOUS
 62
     7
  0
LINE
  8
1
  6
CONTINUOUS
 62
     7
 10
-226.1666666666667
 20
258.1666666666666
 11
-224.6666666666667
 21
258.1666666666666
  0
LINE
  8
1
  6
CONTINUOUS
 62
     7
 10
-221.1666666666667
 20
263.1666666666666
 11
-214.6666666666667
 21
263.1666666666666
  0
LINE
  8
1
  6
CONTINUOUS
 62
     7
 10
-226.6666666666667
 20
265.1666666666666
 11
-226.6666666666667
 21
258.6666666666666
  0
POLYLINE
  8
1
  6
CONTINUOUS
 62
     7
 66
     1
  0
VERTEX
  8
1
  6
CONTINUOUS
 62
     7
 10
-182.1666666666667
 20
263.1666666666666
  0
VERTEX
  8
1
  6
CONTINUOUS
 62
     7
 10
-182.142132829503
 20
263.1660643947693
  0
VERTEX
  8
1
  6
CONTINUOUS
 62
     7
 10
-182.1176580965019
 20
263.1642590300027
  0
VERTEX
  8
1
  6
CONTINUOUS
 62
     7
 10
-182.093301429439
 20
263.1612549216491
  0
VERTEX
  8
1
  6
CONTINUOUS
 62
     7
 10
-182.0691215056586
 20
263.1570593068683
  0
VERTEX
  8
1
  6
CONTINUOUS
 62
     7
 10
-182.0451765767151
 20
263.1516822932639
  0
VERTEX
  8
1
  6
CONTINUOUS
 62
     7
 10
-182.0215243280394
 20
263.1451368345328
  0
VERTEX
  8
1
  6
CONTINUOUS
 62
     7
 10
-181.9982217399706
 20
263.1374386992582
  0
VERTEX
  8
1
  6
CONTINUOUS
 62
     7
 10
-181.9753249504841
 20
263.1286064329223
  0
VERTEX
  8
1
  6
CONTINUOUS
 62
     7
 10
-181.9528891199515
 20
263.1186613132284
  0
VERTEX
  8
1
  6
CONTINUOUS
 62
     7
 10
-181.9309682982537
 20
263.1076272988408
  0
VERTEX
  8
1
  6
CONTINUOUS
 62
     7
 10
-181.9096152945701
 20
263.0955309716668
  0
VERTEX
  8
1
  6
CONTINUOUS
 62
     7
 10
-181.8888815501569
 20
263.0824014728179
  0
VERTEX
  8
1
  6
CONTINUOUS
 62
     7
 10
-181.8688170144205
 20
263.068270432407
  0
VERTEX
  8
1
  6
CONTINUOUS
 62
     7
 10
-181.8494700245849
 20
263.053171893348
  0
VERTEX
  8
1
  6
CONTINUOUS
 62
     7
 10
-181.8308871892432
 20
263.0371422293442
  0
VERTEX
  8
1
  6
CONTINUOUS
 62
     7
 10
-181.8131132760734
 20
263.02022005726
  0
VERTEX
  8
1
  6
CONTINUOUS
 62
     7
 10
-181.7961911039892
 20
263.0024461440902
  0
VERTEX
  8
1
  6
CONTINUOUS
 62
     7
 10
-181.7801614399853
 20
262.9838633087485
  0
VERTEX
  8
1
  6
CONTINUOUS
 62
     7
 10
-181.7650629009264
 20
262.9645163189129
  0
VERTEX
  8
1
  6
CONTINUOUS
 62
     7
 10
-181.7509318605154
 20
262.9444517831765
  0
VERTEX
  8
1
  6
CONTINUOUS
 62
     7
 10
-181.7378023616666
 20
262.9237180387633
  0
VERTEX
  8
1
  6
CONTINUOUS
 62
     7
 10
-181.7257060344925
 20
262.9023650350797
  0
VERTEX
  8
1
  6
CONTINUOUS
 62
     7
 10
-181.714672020105
 20
262.8804442133818
  0
VERTEX
  8
1
  6
CONTINUOUS
 62
     7
 10
-181.704726900411
 20
262.8580083828492
  0
VERTEX
  8
1
  6
CONTINUOUS
 62
     7
 10
-181.6958946340752
 20
262.8351115933627
  0
VERTEX
  8
1
  6
CONTINUOUS
 62
     7
 10
-181.6881964988006
 20
262.8118090052939
  0
VERTEX
  8
1
  6
CONTINUOUS
 62
     7
 10
-181.6816510400694
 20
262.7881567566183
  0
VERTEX
  8
1
  6
CONTINUOUS
 62
     7
 10
-181.6762740264651
 20
262.7642118276747
  0
VERTEX
  8
1
  6
CONTINUOUS
 62
     7
 10
-181.6720784116843
 20
262.7400319038943
  0
VERTEX
  8
1
  6
CONTINUOUS
 62
     7
 10
-181.6690743033306
 20
262.7156752368314
  0
VERTEX
  8
1
  6
CONTINUOUS
 62
     7
 10
-181.6672689385641
 20
262.6912005038304
  0
VERTEX
  8
1
  6
CONTINUOUS
 62
     7
 10
-181.6666666666667
 20
262.6666666666666
  0
SEQEND
  8
1
  6
CONTINUOUS
 62
     7
  0
POLYLINE
  8
1
  6
CONTINUOUS
 62
     7
 66
     1
  0
VERTEX
  8
1
  6
CONTINUOUS
 62
     7
 10
-177.1666666666667
 20
258.1666666666666
  0
VERTEX
  8
1
  6
CONTINUOUS
 62
     7
 10
-177.142132829503
 20
258.1672689385641
  0
VERTEX
  8
1
  6
CONTINUOUS
 62
     7
 10
-177.1176580965019
 20
258.1690743033306
  0
VERTEX
  8
1
  6
CONTINUOUS
 62
     7
 10
-177.093301429439
 20
258.1720784116843
  0
VERTEX
  8
1
  6
CONTINUOUS
 62
     7
 10
-177.0691215056586
 20
258.176274026465
  0
VERTEX
  8
1
  6
CONTINUOUS
 62
     7
 10
-177.0451765767151
 20
258.1816510400694
  0
VERTEX
  8
1
  6
CONTINUOUS
 62
     7
 10
-177.0215243280394
 20
258.1881964988006
  0
VERTEX
  8
1
  6
CONTINUOUS
 62
     7
 10
-176.9982217399706
 20
258.1958946340752
  0
VERTEX
  8
1
  6
CONTINUOUS
 62
     7
 10
-176.9753249504841
 20
258.204726900411
  0
VERTEX
  8
1
  6
CONTINUOUS
 62
     7
 10
-176.9528891199515
 20
258.214672020105
  0
VERTEX
  8
1
  6
CONTINUOUS
 62
     7
 10
-176.9309682982537
 20
258.2257060344925
  0
VERTEX
  8
1
  6
CONTINUOUS
 62
     7
 10
-176.9096152945701
 20
258.2378023616665
  0
VERTEX
  8
1
  6
CONTINUOUS
 62
     7
 10
-176.8888815501569
 20
258.2509318605154
  0
VERTEX
  8
1
  6
CONTINUOUS
 62
     7
 10
-176.8688170144205
 20
258.2650629009263
  0
VERTEX
  8
1
  6
CONTINUOUS
 62
     7
 10
-176.8494700245849
 20
258.2801614399852
  0
VERTEX
  8
1
  6
CONTINUOUS
 62
     7
 10
-176.8308871892432
 20
258.2961911039891
  0
VERTEX
  8
1
  6
CONTINUOUS
 62
     7
 10
-176.8131132760734
 20
258.3131132760734
  0
VERTEX
  8
1
  6
CONTINUOUS
 62
     7
 10
-176.7961911039892
 20
258.3308871892431
  0
VERTEX
  8
1
  6
CONTINUOUS
 62
     7
 10
-176.7801614399853
 20
258.3494700245848
  0
VERTEX
  8
1
  6
CONTINUOUS
 62
     7
 10
-176.7650629009264
 20
258.3688170144204
  0
VERTEX
  8
1
  6
CONTINUOUS
 62
     7
 10
-176.7509318605154
 20
258.3888815501569
  0
VERTEX
  8
1
  6
CONTINUOUS
 62
     7
 10
-176.7378023616666
 20
258.4096152945701
  0
VERTEX
  8
1
  6
CONTINUOUS
 62
     7
 10
-176.7257060344925
 20
258.4309682982537
  0
VERTEX
  8
1
  6
CONTINUOUS
 62
     7
 10
-176.714672020105
 20
258.4528891199515
  0
VERTEX
  8
1
  6
CONTINUOUS
 62
     7
 10
-176.704726900411
 20
258.4753249504842
  0
VERTEX
  8
1
  6
CONTINUOUS
 62
     7
 10
-176.6958946340752
 20
258.4982217399706
  0
VERTEX
  8
1
  6
CONTINUOUS
 62
     7
 10
-176.6881964988006
 20
258.5215243280394
  0
VERTEX
  8
1
  6
CONTINUOUS
 62
     7
 10
-176.6816510400694
 20
258.5451765767151
  0
VERTEX
  8
1
  6
CONTINUOUS
 62
     7
 10
-176.6762740264651
 20
258.5691215056586
  0
VERTEX
  8
1
  6
CONTINUOUS
 62
     7
 10
-176.6720784116843
 20
258.593301429439
  0
VERTEX
  8
1
  6
CONTINUOUS
 62
     7
 10
-176.6690743033306
 20
258.6176580965019
  0
VERTEX
  8
1
  6
CONTINUOUS
 62
     7
 10
-176.6672689385641
 20
258.6421328295029
  0
VERTEX
  8
1
  6
CONTINUOUS
 62
     7
 10
-176.6666666666667
 20
258.6666666666666
  0
SEQEND
  8
1
  6
CONTINUOUS
 62
     7
  0
LINE
  8
1
  6
CONTINUOUS
 62
     7
 10
-177.1666666666667
 20
258.1666666666666
 11
-178.6666666666667
 21
258.1666666666666
  0
LINE
  8
1
  6
CONTINUOUS
 62
     7
 10
-182.1666666666667
 20
263.1666666666666
 11
-188.6666666666667
 21
263.1666666666666
  0
LINE
  8
1
  6
CONTINUOUS
 62
     7
 10
-176.6666666666667
 20
265.1666666666666
 11
-176.6666666666667
 21
258.6666666666666
  0
POLYLINE
  8
1
  6
CONTINUOUS
 62
     7
 66
     1
  0
VERTEX
  8
1
  6
CONTINUOUS
 62
     7
 10
-181.6666666666667
 20
155.6666666666667
  0
VERTEX
  8
1
  6
CONTINUOUS
 62
     7
 10
-181.6672689385641
 20
155.6421328295029
  0
VERTEX
  8
1
  6
CONTINUOUS
 62
     7
 10
-181.6690743033306
 20
155.6176580965019
  0
VERTEX
  8
1
  6
CONTINUOUS
 62
     7
 10
-181.6720784116843
 20
155.593301429439
  0
VERTEX
  8
1
  6
CONTINUOUS
 62
     7
 10
-181.6762740264651
 20
155.5691215056586
  0
VERTEX
  8
1
  6
CONTINUOUS
 62
     7
 10
-181.6816510400694
 20
155.545176576715
  0
VERTEX
  8
1
  6
CONTINUOUS
 62
     7
 10
-181.6881964988006
 20
155.5215243280394
  0
VERTEX
  8
1
  6
CONTINUOUS
 62
     7
 10
-181.6958946340752
 20
155.4982217399705
  0
VERTEX
  8
1
  6
CONTINUOUS
 62
     7
 10
-181.7047269004111
 20
155.4753249504841
  0
VERTEX
  8
1
  6
CONTINUOUS
 62
     7
 10
-181.714672020105
 20
155.4528891199515
  0
VERTEX
  8
1
  6
CONTINUOUS
 62
     7
 10
-181.7257060344925
 20
155.4309682982536
  0
VERTEX
  8
1
  6
CONTINUOUS
 62
     7
 10
-181.7378023616666
 20
155.40961529457
  0
VERTEX
  8
1
  6
CONTINUOUS
 62
     7
 10
-181.7509318605154
 20
155.3888815501568
  0
VERTEX
  8
1
  6
CONTINUOUS
 62
     7
 10
-181.7650629009264
 20
155.3688170144204
  0
VERTEX
  8
1
  6
CONTINUOUS
 62
     7
 10
-181.7801614399853
 20
155.3494700245848
  0
VERTEX
  8
1
  6
CONTINUOUS
 62
     7
 10
-181.7961911039892
 20
155.3308871892432
  0
VERTEX
  8
1
  6
CONTINUOUS
 62
     7
 10
-181.8131132760734
 20
155.3131132760734
  0
VERTEX
  8
1
  6
CONTINUOUS
 62
     7
 10
-181.8308871892432
 20
155.2961911039892
  0
VERTEX
  8
1
  6
CONTINUOUS
 62
     7
 10
-181.8494700245849
 20
155.2801614399853
  0
VERTEX
  8
1
  6
CONTINUOUS
 62
     7
 10
-181.8688170144205
 20
155.2650629009264
  0
VERTEX
  8
1
  6
CONTINUOUS
 62
     7
 10
-181.8888815501569
 20
155.2509318605154
  0
VERTEX
  8
1
  6
CONTINUOUS
 62
     7
 10
-181.9096152945701
 20
155.2378023616665
  0
VERTEX
  8
1
  6
CONTINUOUS
 62
     7
 10
-181.9309682982537
 20
155.2257060344925
  0
VERTEX
  8
1
  6
CONTINUOUS
 62
     7
 10
-181.9528891199515
 20
155.2146720201049
  0
VERTEX
  8
1
  6
CONTINUOUS
 62
     7
 10
-181.9753249504842
 20
155.204726900411
  0
VERTEX
  8
1
  6
CONTINUOUS
 62
     7
 10
-181.9982217399706
 20
155.1958946340752
  0
VERTEX
  8
1
  6
CONTINUOUS
 62
     7
 10
-182.0215243280395
 20
155.1881964988006
  0
VERTEX
  8
1
  6
CONTINUOUS
 62
     7
 10
-182.0451765767151
 20
155.1816510400694
  0
VERTEX
  8
1
  6
CONTINUOUS
 62
     7
 10
-182.0691215056586
 20
155.1762740264651
  0
VERTEX
  8
1
  6
CONTINUOUS
 62
     7
 10
-182.093301429439
 20
155.1720784116843
  0
VERTEX
  8
1
  6
CONTINUOUS
 62
     7
 10
-182.1176580965019
 20
155.1690743033306
  0
VERTEX
  8
1
  6
CONTINUOUS
 62
     7
 10
-182.142132829503
 20
155.1672689385641
  0
VERTEX
  8
1
  6
CONTINUOUS
 62
     7
 10
-182.1666666666667
 20
155.1666666666667
  0
SEQEND
  8
1
  6
CONTINUOUS
 62
     7
  0
POLYLINE
  8
1
  6
CONTINUOUS
 62
     7
 66
     1
  0
VERTEX
  8
1
  6
CONTINUOUS
 62
     7
 10
-176.6666666666667
 20
159.6666666666667
  0
VERTEX
  8
1
  6
CONTINUOUS
 62
     7
 10
-176.6672689385641
 20
159.6912005038304
  0
VERTEX
  8
1
  6
CONTINUOUS
 62
     7
 10
-176.6690743033306
 20
159.7156752368314
  0
VERTEX
  8
1
  6
CONTINUOUS
 62
     7
 10
-176.6720784116843
 20
159.7400319038944
  0
VERTEX
  8
1
  6
CONTINUOUS
 62
     7
 10
-176.6762740264651
 20
159.7642118276747
  0
VERTEX
  8
1
  6
CONTINUOUS
 62
     7
 10
-176.6816510400694
 20
159.7881567566183
  0
VERTEX
  8
1
  6
CONTINUOUS
 62
     7
 10
-176.6881964988006
 20
159.8118090052939
  0
VERTEX
  8
1
  6
CONTINUOUS
 62
     7
 10
-176.6958946340752
 20
159.8351115933628
  0
VERTEX
  8
1
  6
CONTINUOUS
 62
     7
 10
-176.7047269004111
 20
159.8580083828492
  0
VERTEX
  8
1
  6
CONTINUOUS
 62
     7
 10
-176.714672020105
 20
159.8804442133818
  0
VERTEX
  8
1
  6
CONTINUOUS
 62
     7
 10
-176.7257060344925
 20
159.9023650350796
  0
VERTEX
  8
1
  6
CONTINUOUS
 62
     7
 10
-176.7378023616666
 20
159.9237180387633
  0
VERTEX
  8
1
  6
CONTINUOUS
 62
     7
 10
-176.7509318605154
 20
159.9444517831764
  0
VERTEX
  8
1
  6
CONTINUOUS
 62
     7
 10
-176.7650629009264
 20
159.9645163189129
  0
VERTEX
  8
1
  6
CONTINUOUS
 62
     7
 10
-176.7801614399853
 20
159.9838633087485
  0
VERTEX
  8
1
  6
CONTINUOUS
 62
     7
 10
-176.7961911039892
 20
160.0024461440902
  0
VERTEX
  8
1
  6
CONTINUOUS
 62
     7
 10
-176.8131132760734
 20
160.0202200572599
  0
VERTEX
  8
1
  6
CONTINUOUS
 62
     7
 10
-176.8308871892432
 20
160.0371422293441
  0
VERTEX
  8
1
  6
CONTINUOUS
 62
     7
 10
-176.8494700245849
 20
160.053171893348
  0
VERTEX
  8
1
  6
CONTINUOUS
 62
     7
 10
-176.8688170144205
 20
160.068270432407
  0
VERTEX
  8
1
  6
CONTINUOUS
 62
     7
 10
-176.8888815501569
 20
160.0824014728179
  0
VERTEX
  8
1
  6
CONTINUOUS
 62
     7
 10
-176.9096152945701
 20
160.0955309716668
  0
VERTEX
  8
1
  6
CONTINUOUS
 62
     7
 10
-176.9309682982537
 20
160.1076272988408
  0
VERTEX
  8
1
  6
CONTINUOUS
 62
     7
 10
-176.9528891199515
 20
160.1186613132284
  0
VERTEX
  8
1
  6
CONTINUOUS
 62
     7
 10
-176.9753249504842
 20
160.1286064329223
  0
VERTEX
  8
1
  6
CONTINUOUS
 62
     7
 10
-176.9982217399706
 20
160.1374386992582
  0
VERTEX
  8
1
  6
CONTINUOUS
 62
     7
 10
-177.0215243280395
 20
160.1451368345328
  0
VERTEX
  8
1
  6
CONTINUOUS
 62
     7
 10
-177.0451765767151
 20
160.1516822932639
  0
VERTEX
  8
1
  6
CONTINUOUS
 62
     7
 10
-177.0691215056586
 20
160.1570593068683
  0
VERTEX
  8
1
  6
CONTINUOUS
 62
     7
 10
-177.093301429439
 20
160.1612549216491
  0
VERTEX
  8
1
  6
CONTINUOUS
 62
     7
 10
-177.1176580965019
 20
160.1642590300027
  0
VERTEX
  8
1
  6
CONTINUOUS
 62
     7
 10
-177.142132829503
 20
160.1660643947693
  0
VERTEX
  8
1
  6
CONTINUOUS
 62
     7
 10
-177.1666666666667
 20
160.1666666666667
  0
SEQEND
  8
1
  6
CONTINUOUS
 62
     7
  0
LINE
  8
1
  6
CONTINUOUS
 62
     7
 10
-177.1666666666667
 20
160.1666666666667
 11
-178.6666666666667
 21
160.1666666666667
  0
LINE
  8
1
  6
CONTINUOUS
 62
     7
 10
-182.1666666666667
 20
155.1666666666667
 11
-188.6666666666667
 21
155.1666666666667
  0
LINE
  8
1
  6
CONTINUOUS
 62
     7
 10
-176.6666666666667
 20
153.1666666666667
 11
-176.6666666666667
 21
159.6666666666667
  0
POLYLINE
  8
1
  6
CONTINUOUS
 62
     7
 66
     1
  0
VERTEX
  8
1
  6
CONTINUOUS
 62
     7
 10
-179.4163239916422
 20
172.1666666666667
  0
VERTEX
  8
1
  6
CONTINUOUS
 62
     7
 10
-179.2212640373191
 20
172.185871260513
  0
VERTEX
  8
1
  6
CONTINUOUS
 62
     7
 10
-179.0337199292677
 20
172.2427476619708
  0
VERTEX
  8
1
  6
CONTINUOUS
 62
     7
 10
-178.8608926159038
 20
172.3351120432609
  0
VERTEX
  8
1
  6
CONTINUOUS
 62
     7
 10
-178.7094179792142
 20
172.4594179792142
  0
VERTEX
  8
1
  6
CONTINUOUS
 62
     7
 10
-178.5851120432609
 20
172.6108926159037
  0
VERTEX
  8
1
  6
CONTINUOUS
 62
     7
 10
-178.4927476619708
 20
172.7837199292677
  0
VERTEX
  8
1
  6
CONTINUOUS
 62
     7
 10
-178.435871260513
 20
172.9712640373191
  0
VERTEX
  8
1
  6
CONTINUOUS
 62
     7
 10
-178.4166666666667
 20
173.1663239916422
  0
SEQEND
  8
1
  6
CONTINUOUS
 62
     7
  0
POLYLINE
  8
1
  6
CONTINUOUS
 62
     7
 66
     1
  0
VERTEX
  8
1
  6
CONTINUOUS
 62
     7
 10
-223.9170093416911
 20
246.1666666666666
  0
VERTEX
  8
1
  6
CONTINUOUS
 62
     7
 10
-224.1120692960143
 20
246.1474620728203
  0
VERTEX
  8
1
  6
CONTINUOUS
 62
     7
 10
-224.2996134040657
 20
246.0905856713625
  0
VERTEX
  8
1
  6
CONTINUOUS
 62
     7
 10
-224.4724407174296
 20
245.9982212900724
  0
VERTEX
  8
1
  6
CONTINUOUS
 62
     7
 10
-224.6239153541192
 20
245.8739153541191
  0
VERTEX
  8
1
  6
CONTINUOUS
 62
     7
 10
-224.7482212900724
 20
245.7224407174295
  0
VERTEX
  8
1
  6
CONTINUOUS
 62
     7
 10
-224.8405856713625
 20
245.5496134040656
  0
VERTEX
  8
1
  6
CONTINUOUS
 62
     7
 10
-224.8974620728203
 20
245.3620692960142
  0
VERTEX
  8
1
  6
CONTINUOUS
 62
     7
 10
-224.9166666666667
 20
245.1670093416911
  0
SEQEND
  8
1
  6
CONTINUOUS
 62
     7
  0
POLYLINE
  8
1
  6
CONTINUOUS
 62
     7
 66
     1
  0
VERTEX
  8
1
  6
CONTINUOUS
 62
     7
 10
-178.4166666666667
 20
245.1670093416911
  0
VERTEX
  8
1
  6
CONTINUOUS
 62
     7
 10
-178.435871260513
 20
245.3620692960142
  0
VERTEX
  8
1
  6
CONTINUOUS
 62
     7
 10
-178.4927476619708
 20
245.5496134040656
  0
VERTEX
  8
1
  6
CONTINUOUS
 62
     7
 10
-178.5851120432609
 20
245.7224407174295
  0
VERTEX
  8
1
  6
CONTINUOUS
 62
     7
 10
-178.7094179792142
 20
245.8739153541191
  0
VERTEX
  8
1
  6
CONTINUOUS
 62
     7
 10
-178.8608926159038
 20
245.9982212900724
  0
VERTEX
  8
1
  6
CONTINUOUS
 62
     7
 10
-179.0337199292677
 20
246.0905856713625
  0
VERTEX
  8
1
  6
CONTINUOUS
 62
     7
 10
-179.2212640373191
 20
246.1474620728203
  0
VERTEX
  8
1
  6
CONTINUOUS
 62
     7
 10
-179.4163239916422
 20
246.1666666666666
  0
SEQEND
  8
1
  6
CONTINUOUS
 62
     7
  0
POLYLINE
  8
1
  6
CONTINUOUS
 62
     7
 66
     1
  0
VERTEX
  8
1
  6
CONTINUOUS
 62
     7
 10
-224.9166666666667
 20
173.1663239916422
  0
VERTEX
  8
1
  6
CONTINUOUS
 62
     7
 10
-224.8974620728203
 20
172.9712640373191
  0
VERTEX
  8
1
  6
CONTINUOUS
 62
     7
 10
-224.8405856713625
 20
172.7837199292677
  0
VERTEX
  8
1
  6
CONTINUOUS
 62
     7
 10
-224.7482212900724
 20
172.6108926159037
  0
VERTEX
  8
1
  6
CONTINUOUS
 62
     7
 10
-224.6239153541192
 20
172.4594179792142
  0
VERTEX
  8
1
  6
CONTINUOUS
 62
     7
 10
-224.4724407174296
 20
172.3351120432609
  0
VERTEX
  8
1
  6
CONTINUOUS
 62
     7
 10
-224.2996134040657
 20
172.2427476619708
  0
VERTEX
  8
1
  6
CONTINUOUS
 62
     7
 10
-224.1120692960143
 20
172.185871260513
  0
VERTEX
  8
1
  6
CONTINUOUS
 62
     7
 10
-223.9170093416911
 20
172.1666666666667
  0
SEQEND
  8
1
  6
CONTINUOUS
 62
     7
  0
LINE
  8
1
  6
CONTINUOUS
 62
     7
 10
-179.4163239916423
 20
246.1666666666666
 11
-223.9170093416911
 21
246.1666666666666
  0
LINE
  8
1
  6
CONTINUOUS
 62
     7
 10
-223.9170093416911
 20
172.1666666666667
 11
-179.4163239916423
 21
172.1666666666667
  0
LINE
  8
1
  6
CONTINUOUS
 62
     7
 10
-178.4166666666667
 20
173.1663239916422
 11
-178.4166666666667
 21
173.4752324598211
  0
LINE
  8
1
  6
CONTINUOUS
 62
     7
 10
-178.4166666666667
 20
176.9097514797062
 11
-178.4166666666667
 21
173.4752324598211
  0
LINE
  8
1
  6
CONTINUOUS
 62
     9
 10
-178.4166666666667
 20
176.9097514797062
 11
-178.4166666666667
 21
241.423581853627
  0
LINE
  8
1
  6
CONTINUOUS
 62
     7
 10
-178.4166666666667
 20
244.8581008735121
 11
-178.4166666666667
 21
241.423581853627
  0
LINE
  8
1
  6
CONTINUOUS
 62
     7
 10
-178.4166666666667
 20
244.8581008735121
 11
-178.4166666666667
 21
245.1670093416911
  0
LINE
  8
1
  6
CONTINUOUS
 62
     7
 10
-224.9166666666667
 20
244.8581008735121
 11
-224.9166666666667
 21
245.1670093416911
  0
LINE
  8
1
  6
CONTINUOUS
 62
     7
 10
-224.9166666666667
 20
241.423581853627
 11
-224.9166666666667
 21
244.8581008735121
  0
LINE
  8
1
  6
CONTINUOUS
 62
     9
 10
-224.9166666666667
 20
176.9097514797062
 11
-224.9166666666667
 21
241.423581853627
  0
LINE
  8
1
  6
CONTINUOUS
 62
     7
 10
-224.9166666666667
 20
173.4752324598211
 11
-224.9166666666667
 21
176.9097514797062
  0
LINE
  8
1
  6
CONTINUOUS
 62
     7
 10
-224.9166666666667
 20
173.4752324598211
 11
-224.9166666666667
 21
173.1663239916422
  0
CIRCLE
  8
1
  6
CONTINUOUS
 62
     7
 10
-201.6666666666667
 20
250.9166666666667
 40
1.0
  0
CIRCLE
  8
1
  6
CONTINUOUS
 62
     7
 10
-201.6666666666667
 20
167.4166666666667
 40
1.0
  0
LINE
  8
1
  6
CONTINUOUS
 62
     7
 10
-178.4421671207206
 20
175.1918244456961
 11
-178.4166666666667
 21
176.9097514797062
  0
LINE
  8
1
  6
CONTINUOUS
 62
     7
 10
-178.4166666666667
 20
241.423581853627
 11
-178.4421671207206
 21
243.1415088876372
  0
LINE
  8
1
  6
CONTINUOUS
 62
     7
 10
-224.8911662126128
 20
243.1415088876371
 11
-224.9166666666667
 21
241.423581853627
  0
LINE
  8
1
  6
CONTINUOUS
 62
     7
 10
-224.9166666666667
 20
176.9097514797062
 11
-224.8911662126128
 21
175.1918244456961
  0
LINE
  8
1
  6
CONTINUOUS
 62
     9
 10
-204.9166666666667
 20
229.1666666666667
 11
-204.9166666666667
 21
229.1928525882359
  0
ARC
  8
1
  6
CONTINUOUS
 62
     7
 10
-204.9166666666667
 20
232.1666666666667
 40
3.0
 50
180.0
 51
270.0000000000002
  0
LINE
  8
1
  6
CONTINUOUS
 62
     9
 10
-207.9166666666667
 20
232.1666666666667
 11
-207.8904807450975
 21
232.1666666666667
  0
ARC
  8
1
  6
CONTINUOUS
 62
     7
 10
-204.9166666666667
 20
232.1666666666667
 40
2.973814078430809
 50
180.0
 51
270.0000000000002
  0
ARC
  8
1
  6
CONTINUOUS
 62
     7
 10
-204.9166666666667
 20
232.1666666666667
 40
2.999999999999996
 50
89.99999999999999
 51
180.0
  0
LINE
  8
1
  6
CONTINUOUS
 62
     9
 10
-204.9166666666667
 20
235.1666666666667
 11
-204.9166666666667
 21
235.1404807450975
  0
ARC
  8
1
  6
CONTINUOUS
 62
     7
 10
-204.9166666666667
 20
232.1666666666667
 40
2.973814078430805
 50
89.99999999999999
 51
180.0
  0
LINE
  8
1
  6
CONTINUOUS
 62
     9
 10
-198.4166666666667
 20
229.1666666666667
 11
-198.4166666666667
 21
229.1928525882359
  0
LINE
  8
1
  6
CONTINUOUS
 62
     7
 10
-204.9166666666667
 20
229.1666666666667
 11
-198.4166666666667
 21
229.1666666666667
  0
LINE
  8
1
  6
CONTINUOUS
 62
     7
 10
-204.9166666666667
 20
229.1928525882358
 11
-198.4166666666667
 21
229.1928525882358
  0
LINE
  8
1
  6
CONTINUOUS
 62
     9
 10
-195.4166666666667
 20
232.1666666666667
 11
-195.4428525882359
 21
232.1666666666667
  0
ARC
  8
1
  6
CONTINUOUS
 62
     7
 10
-198.4166666666667
 20
232.1666666666667
 40
2.999999999999996
 50
269.9999999999999
 51
359.9999999999999
  0
ARC
  8
1
  6
CONTINUOUS
 62
     7
 10
-198.4166666666667
 20
232.1666666666667
 40
2.973814078430805
 50
269.9999999999999
 51
359.9999999999999
  0
LINE
  8
1
  6
CONTINUOUS
 62
     7
 10
-198.4166666666667
 20
235.1666666666667
 11
-204.9166666666667
 21
235.1666666666667
  0
LINE
  8
1
  6
CONTINUOUS
 62
     9
 10
-198.4166666666667
 20
235.1666666666667
 11
-198.4166666666667
 21
235.1404807450975
  0
LINE
  8
1
  6
CONTINUOUS
 62
     7
 10
-198.4166666666667
 20
235.1404807450975
 11
-204.9166666666667
 21
235.1404807450975
  0
CIRCLE
  8
1
  6
CONTINUOUS
 62
     7
 10
-188.1666666666667
 20
191.9166666666667
 40
1.473814078430806
  0
CIRCLE
  8
1
  6
CONTINUOUS
 62
     7
 10
-188.1666666666667
 20
191.9166666666667
 40
1.499999999999994
  0
CIRCLE
  8
1
  6
CONTINUOUS
 62
     7
 10
-209.1666666666667
 20
191.9166666666667
 40
1.473814078430808
  0
CIRCLE
  8
1
  6
CONTINUOUS
 62
     7
 10
-209.1666666666667
 20
191.9166666666667
 40
1.499999999999995
  0
ARC
  8
1
  6
CONTINUOUS
 62
     7
 10
-198.4166666666667
 20
232.1666666666667
 40
3.0
 50
359.9999999999999
 51
89.99999999999977
  0
ARC
  8
1
  6
CONTINUOUS
 62
     7
 10
-198.4166666666667
 20
232.1666666666667
 40
2.973814078430809
 50
359.9999999999999
 51
89.99999999999977
  0
CIRCLE
  8
1
  6
CONTINUOUS
 62
     7
 10
-194.1666666666667
 20
226.4166666666667
 40
1.473814078430808
  0
CIRCLE
  8
1
  6
CONTINUOUS
 62
     7
 10
-194.1666666666667
 20
226.4166666666667
 40
1.499999999999995
  0
LINE
  8
1
  6
CONTINUOUS
 62
     9
 10
-207.9166666666667
 20
197.6666666666667
 11
-207.8904807450975
 21
197.6666666666667
  0
ARC
  8
1
  6
CONTINUOUS
 62
     7
 10
-204.9166666666667
 20
197.6666666666667
 40
2.999999999999996
 50
89.99999999999999
 51
180.0
  0
LINE
  8
1
  6
CONTINUOUS
 62
     9
 10
-204.9166666666667
 20
200.6666666666667
 11
-204.9166666666667
 21
200.6404807450974
  0
ARC
  8
1
  6
CONTINUOUS
 62
     7
 10
-204.9166666666667
 20
197.6666666666667
 40
2.973814078430805
 50
89.99999999999999
 51
180.0
  0
CIRCLE
  8
1
  6
CONTINUOUS
 62
     7
 10
-194.1666666666667
 20
191.9166666666667
 40
1.473814078430808
  0
CIRCLE
  8
1
  6
CONTINUOUS
 62
     7
 10
-194.1666666666667
 20
191.9166666666667
 40
1.499999999999995
  0
CIRCLE
  8
1
  6
CONTINUOUS
 62
     7
 10
-215.1666666666667
 20
214.9166666666667
 40
1.473814078430806
  0
CIRCLE
  8
1
  6
CONTINUOUS
 62
     7
 10
-215.1666666666667
 20
214.9166666666667
 40
1.499999999999994
  0
CIRCLE
  8
1
  6
CONTINUOUS
 62
     7
 10
-188.1666666666667
 20
180.4166666666667
 40
1.473814078430806
  0
CIRCLE
  8
1
  6
CONTINUOUS
 62
     7
 10
-188.1666666666667
 20
180.4166666666667
 40
1.499999999999994
  0
LINE
  8
1
  6
CONTINUOUS
 62
     9
 10
-198.4166666666667
 20
200.6666666666667
 11
-198.4166666666667
 21
200.6404807450974
  0
ARC
  8
1
  6
CONTINUOUS
 62
     7
 10
-198.4166666666667
 20
197.6666666666667
 40
3.0
 50
359.9999999999999
 51
89.99999999999977
  0
LINE
  8
1
  6
CONTINUOUS
 62
     9
 10
-195.4166666666667
 20
197.6666666666667
 11
-195.4428525882359
 21
197.6666666666667
  0
ARC
  8
1
  6
CONTINUOUS
 62
     7
 10
-198.4166666666667
 20
197.6666666666667
 40
2.973814078430809
 50
359.9999999999999
 51
89.99999999999977
  0
LINE
  8
1
  6
CONTINUOUS
 62
     9
 10
-207.9166666666667
 20
220.6666666666667
 11
-207.8904807450975
 21
220.6666666666667
  0
ARC
  8
1
  6
CONTINUOUS
 62
     7
 10
-204.9166666666667
 20
220.6666666666667
 40
2.999999999999996
 50
89.99999999999999
 51
180.0
  0
LINE
  8
1
  6
CONTINUOUS
 62
     9
 10
-204.9166666666667
 20
223.6666666666667
 11
-204.9166666666667
 21
223.6404807450974
  0
ARC
  8
1
  6
CONTINUOUS
 62
     7
 10
-204.9166666666667
 20
220.6666666666667
 40
2.973814078430805
 50
89.99999999999999
 51
180.0
  0
LINE
  8
1
  6
CONTINUOUS
 62
     7
 10
-198.4166666666667
 20
223.6666666666667
 11
-204.9166666666667
 21
223.6666666666667
  0
LINE
  8
1
  6
CONTINUOUS
 62
     9
 10
-198.4166666666667
 20
223.6666666666667
 11
-198.4166666666667
 21
223.6404807450974
  0
LINE
  8
1
  6
CONTINUOUS
 62
     7
 10
-198.4166666666667
 20
223.6404807450975
 11
-204.9166666666667
 21
223.6404807450975
  0
ARC
  8
1
  6
CONTINUOUS
 62
     7
 10
-198.4166666666667
 20
220.6666666666667
 40
3.0
 50
359.9999999999999
 51
89.99999999999977
  0
LINE
  8
1
  6
CONTINUOUS
 62
     9
 10
-195.4166666666667
 20
220.6666666666667
 11
-195.4428525882359
 21
220.6666666666667
  0
ARC
  8
1
  6
CONTINUOUS
 62
     7
 10
-198.4166666666667
 20
220.6666666666667
 40
2.973814078430809
 50
359.9999999999999
 51
89.99999999999977
  0
ARC
  8
1
  6
CONTINUOUS
 62
     7
 10
-198.4166666666667
 20
220.6666666666667
 40
2.999999999999996
 50
269.9999999999999
 51
359.9999999999999
  0
LINE
  8
1
  6
CONTINUOUS
 62
     9
 10
-198.4166666666667
 20
217.6666666666667
 11
-198.4166666666667
 21
217.6928525882359
  0
ARC
  8
1
  6
CONTINUOUS
 62
     7
 10
-198.4166666666667
 20
220.6666666666667
 40
2.973814078430805
 50
269.9999999999999
 51
359.9999999999999
  0
CIRCLE
  8
1
  6
CONTINUOUS
 62
     7
 10
-194.1666666666667
 20
214.9166666666667
 40
1.473814078430808
  0
CIRCLE
  8
1
  6
CONTINUOUS
 62
     7
 10
-194.1666666666667
 20
214.9166666666667
 40
1.499999999999995
  0
CIRCLE
  8
1
  6
CONTINUOUS
 62
     7
 10
-188.1666666666667
 20
237.9166666666667
 40
1.473814078430806
  0
CIRCLE
  8
1
  6
CONTINUOUS
 62
     7
 10
-188.1666666666667
 20
237.9166666666667
 40
1.499999999999994
  0
CIRCLE
  8
1
  6
CONTINUOUS
 62
     7
 10
-194.1666666666667
 20
203.4166666666667
 40
1.473814078430808
  0
CIRCLE
  8
1
  6
CONTINUOUS
 62
     7
 10
-194.1666666666667
 20
203.4166666666667
 40
1.499999999999995
  0
LINE
  8
1
  6
CONTINUOUS
 62
     7
 10
-204.9166666666667
 20
183.1666666666667
 11
-198.4166666666667
 21
183.1666666666667
  0
ARC
  8
1
  6
CONTINUOUS
 62
     7
 10
-198.4166666666667
 20
186.1666666666667
 40
2.999999999999996
 50
269.9999999999999
 51
359.9999999999999
  0
ARC
  8
1
  6
CONTINUOUS
 62
     7
 10
-198.4166666666667
 20
186.1666666666667
 40
3.0
 50
359.9999999999999
 51
89.99999999999977
  0
LINE
  8
1
  6
CONTINUOUS
 62
     7
 10
-198.4166666666667
 20
189.1666666666667
 11
-204.9166666666667
 21
189.1666666666667
  0
ARC
  8
1
  6
CONTINUOUS
 62
     7
 10
-204.9166666666667
 20
186.1666666666667
 40
2.999999999999996
 50
89.99999999999999
 51
180.0
  0
ARC
  8
1
  6
CONTINUOUS
 62
     7
 10
-204.9166666666667
 20
186.1666666666667
 40
3.0
 50
180.0
 51
270.0000000000002
  0
LINE
  8
1
  6
CONTINUOUS
 62
     7
 10
-204.9166666666667
 20
194.6666666666667
 11
-198.4166666666667
 21
194.6666666666667
  0
ARC
  8
1
  6
CONTINUOUS
 62
     7
 10
-198.4166666666667
 20
197.6666666666667
 40
2.999999999999996
 50
269.9999999999999
 51
359.9999999999999
  0
LINE
  8
1
  6
CONTINUOUS
 62
     7
 10
-198.4166666666667
 20
200.6666666666667
 11
-204.9166666666667
 21
200.6666666666667
  0
ARC
  8
1
  6
CONTINUOUS
 62
     7
 10
-204.9166666666667
 20
197.6666666666667
 40
3.0
 50
180.0
 51
270.0000000000002
  0
LINE
  8
1
  6
CONTINUOUS
 62
     7
 10
-204.9166666666667
 20
206.1666666666667
 11
-198.4166666666667
 21
206.1666666666667
  0
ARC
  8
1
  6
CONTINUOUS
 62
     7
 10
-198.4166666666667
 20
209.1666666666667
 40
2.999999999999995
 50
269.9999999999999
 51
359.9999999999999
  0
ARC
  8
1
  6
CONTINUOUS
 62
     7
 10
-198.4166666666667
 20
209.1666666666667
 40
3.0
 50
359.9999999999999
 51
89.99999999999977
  0
LINE
  8
1
  6
CONTINUOUS
 62
     7
 10
-198.4166666666667
 20
212.1666666666667
 11
-204.9166666666667
 21
212.1666666666667
  0
ARC
  8
1
  6
CONTINUOUS
 62
     7
 10
-204.9166666666667
 20
209.1666666666667
 40
2.999999999999995
 50
89.99999999999999
 51
180.0
  0
ARC
  8
1
  6
CONTINUOUS
 62
     7
 10
-204.9166666666667
 20
209.1666666666667
 40
3.0
 50
180.0
 51
270.0000000000002
  0
LINE
  8
1
  6
CONTINUOUS
 62
     7
 10
-204.9166666666667
 20
217.6666666666667
 11
-198.4166666666667
 21
217.6666666666667
  0
ARC
  8
1
  6
CONTINUOUS
 62
     7
 10
-204.9166666666667
 20
220.6666666666667
 40
3.0
 50
180.0
 51
270.0000000000002
  0
CIRCLE
  8
1
  6
CONTINUOUS
 62
     7
 10
-215.1666666666667
 20
237.9166666666667
 40
1.499999999999994
  0
CIRCLE
  8
1
  6
CONTINUOUS
 62
     7
 10
-215.1666666666667
 20
226.4166666666667
 40
1.499999999999994
  0
CIRCLE
  8
1
  6
CONTINUOUS
 62
     7
 10
-215.1666666666667
 20
203.4166666666667
 40
1.499999999999994
  0
CIRCLE
  8
1
  6
CONTINUOUS
 62
     7
 10
-215.1666666666667
 20
191.9166666666667
 40
1.499999999999994
  0
CIRCLE
  8
1
  6
CONTINUOUS
 62
     7
 10
-215.1666666666667
 20
180.4166666666667
 40
1.499999999999994
  0
CIRCLE
  8
1
  6
CONTINUOUS
 62
     7
 10
-188.1666666666667
 20
226.4166666666667
 40
1.499999999999994
  0
CIRCLE
  8
1
  6
CONTINUOUS
 62
     7
 10
-188.1666666666667
 20
214.9166666666667
 40
1.499999999999994
  0
CIRCLE
  8
1
  6
CONTINUOUS
 62
     7
 10
-188.1666666666667
 20
203.4166666666667
 40
1.499999999999994
  0
CIRCLE
  8
1
  6
CONTINUOUS
 62
     7
 10
-209.1666666666667
 20
226.4166666666667
 40
1.499999999999995
  0
CIRCLE
  8
1
  6
CONTINUOUS
 62
     7
 10
-209.1666666666667
 20
214.9166666666667
 40
1.499999999999995
  0
CIRCLE
  8
1
  6
CONTINUOUS
 62
     7
 10
-209.1666666666667
 20
203.4166666666667
 40
1.499999999999995
  0
CIRCLE
  8
1
  6
CONTINUOUS
 62
     7
 10
-215.1666666666667
 20
226.4166666666667
 40
1.473814078430806
  0
LINE
  8
1
  6
CONTINUOUS
 62
     9
 10
-198.4166666666667
 20
194.6666666666667
 11
-198.4166666666667
 21
194.6928525882359
  0
ARC
  8
1
  6
CONTINUOUS
 62
     7
 10
-198.4166666666667
 20
197.6666666666667
 40
2.973814078430805
 50
269.9999999999999
 51
359.9999999999999
  0
CIRCLE
  8
1
  6
CONTINUOUS
 62
     7
 10
-188.1666666666667
 20
203.4166666666667
 40
1.473814078430806
  0
LINE
  8
1
  6
CONTINUOUS
 62
     9
 10
-198.4166666666667
 20
212.1666666666667
 11
-198.4166666666667
 21
212.1404807450975
  0
LINE
  8
1
  6
CONTINUOUS
 62
     9
 10
-195.4166666666667
 20
209.1666666666667
 11
-195.4428525882359
 21
209.1666666666667
  0
ARC
  8
1
  6
CONTINUOUS
 62
     7
 10
-198.4166666666667
 20
209.1666666666667
 40
2.973814078430809
 50
359.9999999999999
 51
89.99999999999977
  0
LINE
  8
1
  6
CONTINUOUS
 62
     9
 10
-198.4166666666667
 20
206.1666666666667
 11
-198.4166666666667
 21
206.1928525882359
  0
ARC
  8
1
  6
CONTINUOUS
 62
     7
 10
-198.4166666666667
 20
209.1666666666667
 40
2.973814078430805
 50
269.9999999999999
 51
359.9999999999999
  0
LINE
  8
1
  6
CONTINUOUS
 62
     9
 10
-204.9166666666667
 20
206.1666666666667
 11
-204.9166666666667
 21
206.1928525882359
  0
LINE
  8
1
  6
CONTINUOUS
 62
     7
 10
-204.9166666666667
 20
206.1928525882359
 11
-198.4166666666667
 21
206.1928525882359
  0
LINE
  8
1
  6
CONTINUOUS
 62
     9
 10
-207.9166666666667
 20
209.1666666666667
 11
-207.8904807450975
 21
209.1666666666667
  0
ARC
  8
1
  6
CONTINUOUS
 62
     7
 10
-204.9166666666667
 20
209.1666666666667
 40
2.973814078430809
 50
180.0
 51
270.0000000000002
  0
CIRCLE
  8
1
  6
CONTINUOUS
 62
     7
 10
-215.1666666666667
 20
237.9166666666667
 40
1.473814078430806
  0
LINE
  8
1
  6
CONTINUOUS
 62
     9
 10
-198.4166666666667
 20
189.1666666666667
 11
-198.4166666666667
 21
189.1404807450974
  0
LINE
  8
1
  6
CONTINUOUS
 62
     9
 10
-195.4166666666667
 20
186.1666666666667
 11
-195.4428525882359
 21
186.1666666666667
  0
ARC
  8
1
  6
CONTINUOUS
 62
     7
 10
-198.4166666666667
 20
186.1666666666667
 40
2.973814078430809
 50
359.9999999999999
 51
89.99999999999977
  0
LINE
  8
1
  6
CONTINUOUS
 62
     7
 10
-198.4166666666667
 20
200.6404807450974
 11
-204.9166666666667
 21
200.6404807450974
  0
LINE
  8
1
  6
CONTINUOUS
 62
     9
 10
-204.9166666666667
 20
217.6666666666667
 11
-204.9166666666667
 21
217.6928525882359
  0
ARC
  8
1
  6
CONTINUOUS
 62
     7
 10
-204.9166666666667
 20
220.6666666666667
 40
2.973814078430809
 50
180.0
 51
270.0000000000002
  0
LINE
  8
1
  6
CONTINUOUS
 62
     9
 10
-204.9166666666667
 20
183.1666666666667
 11
-204.9166666666667
 21
183.1928525882359
  0
LINE
  8
1
  6
CONTINUOUS
 62
     9
 10
-207.9166666666667
 20
186.1666666666667
 11
-207.8904807450975
 21
186.1666666666667
  0
ARC
  8
1
  6
CONTINUOUS
 62
     7
 10
-204.9166666666667
 20
186.1666666666667
 40
2.973814078430809
 50
180.0
 51
270.0000000000002
  0
LINE
  8
1
  6
CONTINUOUS
 62
     9
 10
-204.9166666666667
 20
212.1666666666667
 11
-204.9166666666667
 21
212.1404807450975
  0
ARC
  8
1
  6
CONTINUOUS
 62
     7
 10
-204.9166666666667
 20
209.1666666666667
 40
2.973814078430805
 50
89.99999999999999
 51
180.0
  0
LINE
  8
1
  6
CONTINUOUS
 62
     9
 10
-204.9166666666667
 20
194.6666666666667
 11
-204.9166666666667
 21
194.6928525882358
  0
LINE
  8
1
  6
CONTINUOUS
 62
     7
 10
-204.9166666666667
 20
194.6928525882358
 11
-198.4166666666667
 21
194.6928525882358
  0
ARC
  8
1
  6
CONTINUOUS
 62
     7
 10
-204.9166666666667
 20
197.6666666666667
 40
2.973814078430809
 50
180.0
 51
270.0000000000002
  0
CIRCLE
  8
1
  6
CONTINUOUS
 62
     7
 10
-215.1666666666667
 20
191.9166666666667
 40
1.473814078430806
  0
LINE
  8
1
  6
CONTINUOUS
 62
     9
 10
-204.9166666666667
 20
189.1666666666667
 11
-204.9166666666667
 21
189.1404807450974
  0
ARC
  8
1
  6
CONTINUOUS
 62
     7
 10
-204.9166666666667
 20
186.1666666666667
 40
2.973814078430805
 50
89.99999999999999
 51
180.0
  0
LINE
  8
1
  6
CONTINUOUS
 62
     7
 10
-198.4166666666667
 20
189.1404807450975
 11
-204.9166666666667
 21
189.1404807450975
  0
LINE
  8
1
  6
CONTINUOUS
 62
     7
 10
-198.4166666666667
 20
212.1404807450975
 11
-204.9166666666667
 21
212.1404807450975
  0
LINE
  8
1
  6
CONTINUOUS
 62
     7
 10
-204.9166666666667
 20
217.6928525882359
 11
-198.4166666666667
 21
217.6928525882359
  0
LINE
  8
1
  6
CONTINUOUS
 62
     9
 10
-198.4166666666667
 20
183.1666666666667
 11
-198.4166666666667
 21
183.1928525882359
  0
ARC
  8
1
  6
CONTINUOUS
 62
     7
 10
-198.4166666666667
 20
186.1666666666667
 40
2.973814078430805
 50
269.9999999999999
 51
359.9999999999999
  0
LINE
  8
1
  6
CONTINUOUS
 62
     7
 10
-204.9166666666667
 20
183.1928525882359
 11
-198.4166666666667
 21
183.1928525882359
  0
CIRCLE
  8
1
  6
CONTINUOUS
 62
     7
 10
-209.1666666666667
 20
214.9166666666667
 40
1.473814078430808
  0
CIRCLE
  8
1
  6
CONTINUOUS
 62
     7
 10
-209.1666666666667
 20
226.4166666666667
 40
1.473814078430808
  0
CIRCLE
  8
1
  6
CONTINUOUS
 62
     7
 10
-209.1666666666667
 20
203.4166666666667
 40
1.473814078430808
  0
CIRCLE
  8
1
  6
CONTINUOUS
 62
     7
 10
-215.1666666666667
 20
203.4166666666667
 40
1.473814078430806
  0
CIRCLE
  8
1
  6
CONTINUOUS
 62
     7
 10
-188.1666666666667
 20
214.9166666666667
 40
1.473814078430806
  0
CIRCLE
  8
1
  6
CONTINUOUS
 62
     7
 10
-215.1666666666667
 20
180.4166666666667
 40
1.473814078430806
  0
CIRCLE
  8
1
  6
CONTINUOUS
 62
     7
 10
-188.1666666666667
 20
226.4166666666667
 40
1.473814078430806
  0
ENDBLK
  8
0
  0
BLOCK
  8
0
  2
D_FRAME_VIEW_2227
 70
     0
 10
0.0
 20
0.0
  0
LINE
  8
1
  6
CONTINUOUS
 62
     7
 10
-223.9430238082817
 20
99.3403887862011
 11
-225.442509795745
 21
99.3403887862011
  0
ARC
  8
1
  6
CONTINUOUS
 62
     7
 10
-225.442509795745
 20
100.3403887862011
 40
0.999999999999987
 50
181.5
 51
270.0
  0
LINE
  8
1
  6
CONTINUOUS
 62
     7
 10
-179.3903095250517
 20
99.3403887862011
 11
-223.9430238082817
 21
99.3403887862011
  0
LINE
  8
1
  6
CONTINUOUS
 62
     7
 10
-177.8908235375884
 20
99.3403887862011
 11
-179.3903095250517
 21
99.3403887862011
  0
ARC
  8
1
  6
CONTINUOUS
 62
     7
 10
-177.8908235375884
 20
100.3403887862011
 40
0.999999999999987
 50
270.0000000000002
 51
358.4999999999999
  0
LINE
  8
1
  6
CONTINUOUS
 62
     7
 10
-225.7733979194333
 20
74.77494641543143
 11
-226.4166666666667
 21
99.34038878620109
  0
LINE
  8
1
  6
CONTINUOUS
 62
     7
 10
-226.4166666666667
 20
99.3403887862011
 11
-226.4421671207206
 21
100.3142118378932
  0
LINE
  8
1
  6
CONTINUOUS
 62
     7
 10
-176.8911662126128
 20
100.3142118378932
 11
-176.9166666666667
 21
99.3403887862011
  0
LINE
  8
1
  6
CONTINUOUS
 62
     7
 10
-176.9166666666667
 20
99.3403887862011
 11
-177.5599354139
 21
74.77494641543143
  0
LINE
  8
1
  6
CONTINUOUS
 62
     7
 10
-213.350996318924
 20
79.37965420866288
 11
-213.2304178018014
 21
74.77494641543144
  0
ARC
  8
1
  6
CONTINUOUS
 62
     7
 10
-214.8504823063874
 20
79.34038878620107
 40
1.500000000000001
 50
1.500000000000057
 51
90.0
  0
LINE
  8
1
  6
CONTINUOUS
 62
     7
 10
-215.4828510269461
 20
80.84038878620107
 11
-214.8504823063874
 21
80.84038878620107
  0
ARC
  8
1
  6
CONTINUOUS
 62
     7
 10
-215.4828510269461
 20
79.34038878620107
 40
1.500000000000001
 50
90.0
 51
178.4999999999999
  0
LINE
  8
1
  6
CONTINUOUS
 62
     7
 10
-217.102915531532
 20
74.77494641543144
 11
-216.9823370144095
 21
79.37965420866288
  0
LINE
  8
1
  6
CONTINUOUS
 62
     7
 10
-186.3509963189239
 20
79.37965420866288
 11
-186.2304178018013
 21
74.77494641543144
  0
ARC
  8
1
  6
CONTINUOUS
 62
     7
 10
-187.8504823063872
 20
79.34038878620107
 40
1.500000000000001
 50
1.500000000000114
 51
90.0
  0
LINE
  8
1
  6
CONTINUOUS
 62
     7
 10
-188.482851026946
 20
80.84038878620107
 11
-187.8504823063872
 21
80.84038878620107
  0
ARC
  8
1
  6
CONTINUOUS
 62
     7
 10
-188.482851026946
 20
79.34038878620107
 40
1.500000000000001
 50
90.0
 51
178.4999999999999
  0
LINE
  8
1
  6
CONTINUOUS
 62
     7
 10
-190.1029155315319
 20
74.77494641543144
 11
-189.9823370144094
 21
79.37965420866288
  0
LINE
  8
1
  6
CONTINUOUS
 62
     7
 10
-196.7999954108163
 20
77.43200810527864
 11
-196.7304178018015
 21
74.77494641543144
  0
ARC
  8
1
  6
CONTINUOUS
 62
     7
 10
-200.2987960482307
 20
77.34038878620109
 40
3.500000000000002
 50
1.5
 51
90.0
  0
LINE
  8
1
  6
CONTINUOUS
 62
     7
 10
-203.0345372851027
 20
80.84038878620107
 11
-200.2987960482307
 21
80.84038878620107
  0
ARC
  8
1
  6
CONTINUOUS
 62
     7
 10
-203.0345372851027
 20
77.34038878620109
 40
3.500000000000002
 50
90.0
 51
178.5
  0
LINE
  8
1
  6
CONTINUOUS
 62
     7
 10
-206.602915531532
 20
74.77494641543144
 11
-206.5333379225172
 21
77.43200810527864
  0
POLYLINE
  8
1
  6
CONTINUOUS
 62
     7
 66
     1
  0
VERTEX
  8
1
  6
CONTINUOUS
 62
     7
 10
-206.1503489033252
 20
72.97008214299927
  0
VERTEX
  8
1
  6
CONTINUOUS
 62
     7
 10
-206.1665019073896
 20
72.97032049839407
  0
VERTEX
  8
1
  6
CONTINUOUS
 62
     7
 10
-206.1826389849812
 20
72.97103384145854
  0
VERTEX
  8
1
  6
CONTINUOUS
 62
     7
 10
-206.1987131094407
 20
72.97221958751255
  0
VERTEX
  8
1
  6
CONTINUOUS
 62
     7
 10
-206.2146772541086
 20
72.97387515187617
  0
VERTEX
  8
1
  6
CONTINUOUS
 62
     7
 10
-206.2310295621431
 20
72.97607755067277
  0
VERTEX
  8
1
  6
CONTINUOUS
 62
     7
 10
-206.2472325165784
 20
72.97877528204272
  0
VERTEX
  8
1
  6
CONTINUOUS
 62
     7
 10
-206.2632399274746
 20
72.98195778179878
  0
VERTEX
  8
1
  6
CONTINUOUS
 62
     7
 10
-206.279005604892
 20
72.98561448575371
  0
VERTEX
  8
1
  6
CONTINUOUS
 62
     7
 10
-206.2940212136679
 20
72.98960120881718
  0
VERTEX
  8
1
  6
CONTINUOUS
 62
     7
 10
-206.3087890357606
 20
72.99402027554628
  0
VERTEX
  8
1
  6
CONTINUOUS
 62
     7
 10
-206.3232768092205
 20
72.99885702713051
  0
VERTEX
  8
1
  6
CONTINUOUS
 62
     7
 10
-206.3374522720982
 20
73.00409680475947
  0
VERTEX
  8
1
  6
CONTINUOUS
 62
     7
 10
-206.3563400015875
 20
73.01191147391475
  0
VERTEX
  8
1
  6
CONTINUOUS
 62
     7
 10
-206.3746106322099
 20
73.02044091839441
  0
VERTEX
  8
1
  6
CONTINUOUS
 62
     7
 10
-206.3922099540758
 20
73.02964118755361
  0
VERTEX
  8
1
  6
CONTINUOUS
 62
     7
 10
-206.4080432543699
 20
73.03882772541928
  0
VERTEX
  8
1
  6
CONTINUOUS
 62
     7
 10
-206.4232807777021
 20
73.04855938293802
  0
VERTEX
  8
1
  6
CONTINUOUS
 62
     7
 10
-206.4379017930009
 20
73.05880013033084
  0
VERTEX
  8
1
  6
CONTINUOUS
 62
     7
 10
-206.4518855691946
 20
73.06951393781877
  0
VERTEX
  8
1
  6
CONTINUOUS
 62
     7
 10
-206.4700474516125
 20
73.08495006546596
  0
VERTEX
  8
1
  6
CONTINUOUS
 62
     7
 10
-206.4870562897147
 20
73.10119308064267
  0
VERTEX
  8
1
  6
CONTINUOUS
 62
     7
 10
-206.5029066946952
 20
73.11816106825862
  0
VERTEX
  8
1
  6
CONTINUOUS
 62
     7
 10
-206.5178376342865
 20
73.13607368353988
  0
VERTEX
  8
1
  6
CONTINUOUS
 62
     7
 10
-206.5316568590464
 20
73.15464867780152
  0
VERTEX
  8
1
  6
CONTINUOUS
 62
     7
 10
-206.5443899998154
 20
73.17381940978063
  0
VERTEX
  8
1
  6
CONTINUOUS
 62
     7
 10
-206.5560626874341
 20
73.19351923821426
  0
VERTEX
  8
1
  6
CONTINUOUS
 62
     7
 10
-206.570425970683
 20
73.2213192076893
  0
VERTEX
  8
1
  6
CONTINUOUS
 62
     7
 10
-206.5830200793303
 20
73.24998597306654
  0
VERTEX
  8
1
  6
CONTINUOUS
 62
     7
 10
-206.5939418048727
 20
73.279399588894
  0
VERTEX
  8
1
  6
CONTINUOUS
 62
     7
 10
-206.6054428592061
 20
73.31720657973655
  0
VERTEX
  8
1
  6
CONTINUOUS
 62
     7
 10
-206.6147190731146
 20
73.3560064702382
  0
VERTEX
  8
1
  6
CONTINUOUS
 62
     7
 10
-206.6219526939962
 20
73.39565704721379
  0
VERTEX
  8
1
  6
CONTINUOUS
 62
     7
 10
-206.6273259692487
 20
73.43601609747816
  0
VERTEX
  8
1
  6
CONTINUOUS
 62
     7
 10
-206.6320057284493
 20
73.49245472312637
  0
VERTEX
  8
1
  6
CONTINUOUS
 62
     7
 10
-206.6339279554505
 20
73.55003137131015
  0
VERTEX
  8
1
  6
CONTINUOUS
 62
     7
 10
-206.6334586541507
 20
73.60855162050272
  0
SEQEND
  8
1
  6
CONTINUOUS
 62
     7
  0
LINE
  8
1
  6
CONTINUOUS
 62
     7
 10
-206.1503489033252
 20
72.97008214299927
 11
-197.1829844300083
 21
72.97008214299927
  0
POLYLINE
  8
1
  6
CONTINUOUS
 62
     7
 66
     1
  0
VERTEX
  8
1
  6
CONTINUOUS
 62
     7
 10
-196.6998746791827
 20
73.60855162050272
  0
VERTEX
  8
1
  6
CONTINUOUS
 62
     7
 10
-196.69936269691
 20
73.55234195300544
  0
VERTEX
  8
1
  6
CONTINUOUS
 62
     7
 10
-196.7010314965839
 20
73.49685478116392
  0
VERTEX
  8
1
  6
CONTINUOUS
 62
     7
 10
-196.7052503439719
 20
73.44232804523199
  0
VERTEX
  8
1
  6
CONTINUOUS
 62
     7
 10
-196.7123885048416
 20
73.38899968546355
  0
VERTEX
  8
1
  6
CONTINUOUS
 62
     7
 10
-196.7228152449605
 20
73.33710764211246
  0
VERTEX
  8
1
  6
CONTINUOUS
 62
     7
 10
-196.7368998300962
 20
73.28688985543263
  0
VERTEX
  8
1
  6
CONTINUOUS
 62
     7
 10
-196.7462760101053
 20
73.26029163991763
  0
VERTEX
  8
1
  6
CONTINUOUS
 62
     7
 10
-196.7569925198949
 20
73.23422597093662
  0
VERTEX
  8
1
  6
CONTINUOUS
 62
     7
 10
-196.769114501213
 20
73.20879128210181
  0
VERTEX
  8
1
  6
CONTINUOUS
 62
     7
 10
-196.782707095808
 20
73.18408600702527
  0
VERTEX
  8
1
  6
CONTINUOUS
 62
     7
 10
-196.7978354454279
 20
73.16020857931916
  0
VERTEX
  8
1
  6
CONTINUOUS
 62
     7
 10
-196.8145646918211
 20
73.1372574325956
  0
VERTEX
  8
1
  6
CONTINUOUS
 62
     7
 10
-196.8293556574369
 20
73.11938174044575
  0
VERTEX
  8
1
  6
CONTINUOUS
 62
     7
 10
-196.8452995840634
 20
73.10218485613156
  0
VERTEX
  8
1
  6
CONTINUOUS
 62
     7
 10
-196.8624031185726
 20
73.08574571483344
  0
VERTEX
  8
1
  6
CONTINUOUS
 62
     7
 10
-196.8763718703778
 20
73.07364858297629
  0
VERTEX
  8
1
  6
CONTINUOUS
 62
     7
 10
-196.8910634363584
 20
73.06204856822328
  0
VERTEX
  8
1
  6
CONTINUOUS
 62
     7
 10
-196.9064611630464
 20
73.05098804206577
  0
VERTEX
  8
1
  6
CONTINUOUS
 62
     7
 10
-196.9225483969736
 20
73.04050937599513
  0
VERTEX
  8
1
  6
CONTINUOUS
 62
     7
 10
-196.9399288939477
 20
73.03030482179216
  0
VERTEX
  8
1
  6
CONTINUOUS
 62
     7
 10
-196.9580474217779
 20
73.02077560267831
  0
VERTEX
  8
1
  6
CONTINUOUS
 62
     7
 10
-196.976855247648
 20
73.011970697336
  0
VERTEX
  8
1
  6
CONTINUOUS
 62
     7
 10
-196.9918039157676
 20
73.0057027114434
  0
VERTEX
  8
1
  6
CONTINUOUS
 62
     7
 10
-197.0071471952076
 20
72.99989242734323
  0
VERTEX
  8
1
  6
CONTINUOUS
 62
     7
 10
-197.0228478425169
 20
72.99455996940952
  0
VERTEX
  8
1
  6
CONTINUOUS
 62
     7
 10
-197.0388686142447
 20
72.9897254620164
  0
VERTEX
  8
1
  6
CONTINUOUS
 62
     7
 10
-197.0557362993171
 20
72.98526799798255
  0
VERTEX
  8
1
  6
CONTINUOUS
 62
     7
 10
-197.0729198353915
 20
72.98135935731402
  0
VERTEX
  8
1
  6
CONTINUOUS
 62
     7
 10
-197.0903624482223
 20
72.978014858085
  0
VERTEX
  8
1
  6
CONTINUOUS
 62
     7
 10
-197.1080073635638
 20
72.97524981836968
  0
VERTEX
  8
1
  6
CONTINUOUS
 62
     7
 10
-197.1265645697978
 20
72.97299659557734
  0
VERTEX
  8
1
  6
CONTINUOUS
 62
     7
 10
-197.1452961238182
 20
72.9713808486705
  0
VERTEX
  8
1
  6
CONTINUOUS
 62
     7
 10
-197.1641275643225
 20
72.97040766777066
  0
VERTEX
  8
1
  6
CONTINUOUS
 62
     7
 10
-197.1829844300083
 20
72.97008214299927
  0
SEQEND
  8
1
  6
CONTINUOUS
 62
     7
  0
POLYLINE
  8
1
  6
CONTINUOUS
 62
     7
 66
     1
  0
VERTEX
  8
1
  6
CONTINUOUS
 62
     7
 10
-189.6503489033251
 20
72.9700821429993
  0
VERTEX
  8
1
  6
CONTINUOUS
 62
     7
 10
-189.6665019073895
 20
72.9703204983941
  0
VERTEX
  8
1
  6
CONTINUOUS
 62
     7
 10
-189.6826389849811
 20
72.97103384145854
  0
VERTEX
  8
1
  6
CONTINUOUS
 62
     7
 10
-189.6987131094406
 20
72.97221958751257
  0
VERTEX
  8
1
  6
CONTINUOUS
 62
     7
 10
-189.7146772541085
 20
72.97387515187617
  0
VERTEX
  8
1
  6
CONTINUOUS
 62
     7
 10
-189.731029562143
 20
72.97607755067278
  0
VERTEX
  8
1
  6
CONTINUOUS
 62
     7
 10
-189.7472325165783
 20
72.97877528204272
  0
VERTEX
  8
1
  6
CONTINUOUS
 62
     7
 10
-189.7632399274745
 20
72.98195778179878
  0
VERTEX
  8
1
  6
CONTINUOUS
 62
     7
 10
-189.7790056048919
 20
72.98561448575374
  0
VERTEX
  8
1
  6
CONTINUOUS
 62
     7
 10
-189.7940212136678
 20
72.9896012088172
  0
VERTEX
  8
1
  6
CONTINUOUS
 62
     7
 10
-189.8087890357605
 20
72.9940202755463
  0
VERTEX
  8
1
  6
CONTINUOUS
 62
     7
 10
-189.8232768092204
 20
72.99885702713054
  0
VERTEX
  8
1
  6
CONTINUOUS
 62
     7
 10
-189.8374522720981
 20
73.0040968047595
  0
VERTEX
  8
1
  6
CONTINUOUS
 62
     7
 10
-189.8563400015874
 20
73.01191147391478
  0
VERTEX
  8
1
  6
CONTINUOUS
 62
     7
 10
-189.8746106322098
 20
73.02044091839441
  0
VERTEX
  8
1
  6
CONTINUOUS
 62
     7
 10
-189.8922099540757
 20
73.02964118755362
  0
VERTEX
  8
1
  6
CONTINUOUS
 62
     7
 10
-189.9080432543698
 20
73.03882772541931
  0
VERTEX
  8
1
  6
CONTINUOUS
 62
     7
 10
-189.9232807777021
 20
73.04855938293804
  0
VERTEX
  8
1
  6
CONTINUOUS
 62
     7
 10
-189.9379017930009
 20
73.05880013033087
  0
VERTEX
  8
1
  6
CONTINUOUS
 62
     7
 10
-189.9518855691945
 20
73.06951393781878
  0
VERTEX
  8
1
  6
CONTINUOUS
 62
     7
 10
-189.9700474516124
 20
73.08495006546597
  0
VERTEX
  8
1
  6
CONTINUOUS
 62
     7
 10
-189.9870562897146
 20
73.1011930806427
  0
VERTEX
  8
1
  6
CONTINUOUS
 62
     7
 10
-190.0029066946952
 20
73.11816106825864
  0
VERTEX
  8
1
  6
CONTINUOUS
 62
     7
 10
-190.0178376342864
 20
73.13607368353992
  0
VERTEX
  8
1
  6
CONTINUOUS
 62
     7
 10
-190.0316568590463
 20
73.15464867780155
  0
VERTEX
  8
1
  6
CONTINUOUS
 62
     7
 10
-190.0443899998153
 20
73.17381940978068
  0
VERTEX
  8
1
  6
CONTINUOUS
 62
     7
 10
-190.056062687434
 20
73.1935192382143
  0
VERTEX
  8
1
  6
CONTINUOUS
 62
     7
 10
-190.0704259706829
 20
73.22131920768933
  0
VERTEX
  8
1
  6
CONTINUOUS
 62
     7
 10
-190.0830200793302
 20
73.24998597306657
  0
VERTEX
  8
1
  6
CONTINUOUS
 62
     7
 10
-190.0939418048726
 20
73.27939958889404
  0
VERTEX
  8
1
  6
CONTINUOUS
 62
     7
 10
-190.105442859206
 20
73.31720657973659
  0
VERTEX
  8
1
  6
CONTINUOUS
 62
     7
 10
-190.1147190731145
 20
73.35600647023824
  0
VERTEX
  8
1
  6
CONTINUOUS
 62
     7
 10
-190.1219526939961
 20
73.39565704721382
  0
VERTEX
  8
1
  6
CONTINUOUS
 62
     7
 10
-190.1273259692486
 20
73.43601609747819
  0
VERTEX
  8
1
  6
CONTINUOUS
 62
     7
 10
-190.1320057284492
 20
73.4924547231264
  0
VERTEX
  8
1
  6
CONTINUOUS
 62
     7
 10
-190.1339279554505
 20
73.5500313713102
  0
VERTEX
  8
1
  6
CONTINUOUS
 62
     7
 10
-190.1334586541506
 20
73.60855162050275
  0
SEQEND
  8
1
  6
CONTINUOUS
 62
     7
  0
LINE
  8
1
  6
CONTINUOUS
 62
     7
 10
-189.6503489033251
 20
72.9700821429993
 11
-186.6829844300082
 21
72.9700821429993
  0
POLYLINE
  8
1
  6
CONTINUOUS
 62
     7
 66
     1
  0
VERTEX
  8
1
  6
CONTINUOUS
 62
     7
 10
-186.1998746791826
 20
73.60855162050278
  0
VERTEX
  8
1
  6
CONTINUOUS
 62
     7
 10
-186.1993626969099
 20
73.5523419530055
  0
VERTEX
  8
1
  6
CONTINUOUS
 62
     7
 10
-186.2010314965838
 20
73.49685478116396
  0
VERTEX
  8
1
  6
CONTINUOUS
 62
     7
 10
-186.2052503439718
 20
73.44232804523205
  0
VERTEX
  8
1
  6
CONTINUOUS
 62
     7
 10
-186.2123885048415
 20
73.38899968546359
  0
VERTEX
  8
1
  6
CONTINUOUS
 62
     7
 10
-186.2228152449604
 20
73.33710764211251
  0
VERTEX
  8
1
  6
CONTINUOUS
 62
     7
 10
-186.2368998300961
 20
73.28688985543268
  0
VERTEX
  8
1
  6
CONTINUOUS
 62
     7
 10
-186.2462760101052
 20
73.26029163991765
  0
VERTEX
  8
1
  6
CONTINUOUS
 62
     7
 10
-186.2569925198947
 20
73.23422597093668
  0
VERTEX
  8
1
  6
CONTINUOUS
 62
     7
 10
-186.2691145012129
 20
73.20879128210186
  0
VERTEX
  8
1
  6
CONTINUOUS
 62
     7
 10
-186.2827070958078
 20
73.1840860070253
  0
VERTEX
  8
1
  6
CONTINUOUS
 62
     7
 10
-186.2978354454278
 20
73.1602085793192
  0
VERTEX
  8
1
  6
CONTINUOUS
 62
     7
 10
-186.314564691821
 20
73.13725743259563
  0
VERTEX
  8
1
  6
CONTINUOUS
 62
     7
 10
-186.3293556574368
 20
73.11938174044577
  0
VERTEX
  8
1
  6
CONTINUOUS
 62
     7
 10
-186.3452995840633
 20
73.1021848561316
  0
VERTEX
  8
1
  6
CONTINUOUS
 62
     7
 10
-186.3624031185724
 20
73.08574571483348
  0
VERTEX
  8
1
  6
CONTINUOUS
 62
     7
 10
-186.3763718703777
 20
73.07364858297633
  0
VERTEX
  8
1
  6
CONTINUOUS
 62
     7
 10
-186.3910634363583
 20
73.06204856822332
  0
VERTEX
  8
1
  6
CONTINUOUS
 62
     7
 10
-186.4064611630463
 20
73.05098804206581
  0
VERTEX
  8
1
  6
CONTINUOUS
 62
     7
 10
-186.4225483969735
 20
73.04050937599517
  0
VERTEX
  8
1
  6
CONTINUOUS
 62
     7
 10
-186.4399288939476
 20
73.03030482179219
  0
VERTEX
  8
1
  6
CONTINUOUS
 62
     7
 10
-186.4580474217777
 20
73.02077560267834
  0
VERTEX
  8
1
  6
CONTINUOUS
 62
     7
 10
-186.4768552476479
 20
73.01197069733603
  0
VERTEX
  8
1
  6
CONTINUOUS
 62
     7
 10
-186.4918039157675
 20
73.00570271144345
  0
VERTEX
  8
1
  6
CONTINUOUS
 62
     7
 10
-186.5071471952075
 20
72.99989242734326
  0
VERTEX
  8
1
  6
CONTINUOUS
 62
     7
 10
-186.5228478425168
 20
72.99455996940956
  0
VERTEX
  8
1
  6
CONTINUOUS
 62
     7
 10
-186.5388686142446
 20
72.98972546201642
  0
VERTEX
  8
1
  6
CONTINUOUS
 62
     7
 10
-186.5557362993169
 20
72.98526799798256
  0
VERTEX
  8
1
  6
CONTINUOUS
 62
     7
 10
-186.5729198353914
 20
72.98135935731403
  0
VERTEX
  8
1
  6
CONTINUOUS
 62
     7
 10
-186.5903624482222
 20
72.97801485808503
  0
VERTEX
  8
1
  6
CONTINUOUS
 62
     7
 10
-186.6080073635637
 20
72.97524981836969
  0
VERTEX
  8
1
  6
CONTINUOUS
 62
     7
 10
-186.6265645697978
 20
72.97299659557736
  0
VERTEX
  8
1
  6
CONTINUOUS
 62
     7
 10
-186.6452961238181
 20
72.97138084867053
  0
VERTEX
  8
1
  6
CONTINUOUS
 62
     7
 10
-186.6641275643223
 20
72.97040766777069
  0
VERTEX
  8
1
  6
CONTINUOUS
 62
     7
 10
-186.6829844300082
 20
72.9700821429993
  0
SEQEND
  8
1
  6
CONTINUOUS
 62
     7
  0
LINE
  8
1
  6
CONTINUOUS
 62
     7
 10
-180.0590787263389
 20
72.3403887862011
 11
-223.2742546069944
 21
72.3403887862011
  0
POLYLINE
  8
1
  6
CONTINUOUS
 62
     7
 66
     1
  0
VERTEX
  8
1
  6
CONTINUOUS
 62
     7
 10
-216.6503489033252
 20
72.9700821429993
  0
VERTEX
  8
1
  6
CONTINUOUS
 62
     7
 10
-216.6665019073896
 20
72.9703204983941
  0
VERTEX
  8
1
  6
CONTINUOUS
 62
     7
 10
-216.6826389849813
 20
72.97103384145854
  0
VERTEX
  8
1
  6
CONTINUOUS
 62
     7
 10
-216.6987131094407
 20
72.97221958751257
  0
VERTEX
  8
1
  6
CONTINUOUS
 62
     7
 10
-216.7146772541086
 20
72.97387515187617
  0
VERTEX
  8
1
  6
CONTINUOUS
 62
     7
 10
-216.7310295621432
 20
72.97607755067278
  0
VERTEX
  8
1
  6
CONTINUOUS
 62
     7
 10
-216.7472325165784
 20
72.97877528204272
  0
VERTEX
  8
1
  6
CONTINUOUS
 62
     7
 10
-216.7632399274746
 20
72.98195778179878
  0
VERTEX
  8
1
  6
CONTINUOUS
 62
     7
 10
-216.779005604892
 20
72.98561448575374
  0
VERTEX
  8
1
  6
CONTINUOUS
 62
     7
 10
-216.7940212136679
 20
72.9896012088172
  0
VERTEX
  8
1
  6
CONTINUOUS
 62
     7
 10
-216.8087890357606
 20
72.9940202755463
  0
VERTEX
  8
1
  6
CONTINUOUS
 62
     7
 10
-216.8232768092205
 20
72.99885702713054
  0
VERTEX
  8
1
  6
CONTINUOUS
 62
     7
 10
-216.8374522720982
 20
73.0040968047595
  0
VERTEX
  8
1
  6
CONTINUOUS
 62
     7
 10
-216.8563400015875
 20
73.01191147391478
  0
VERTEX
  8
1
  6
CONTINUOUS
 62
     7
 10
-216.8746106322099
 20
73.02044091839441
  0
VERTEX
  8
1
  6
CONTINUOUS
 62
     7
 10
-216.8922099540758
 20
73.02964118755362
  0
VERTEX
  8
1
  6
CONTINUOUS
 62
     7
 10
-216.9080432543699
 20
73.03882772541931
  0
VERTEX
  8
1
  6
CONTINUOUS
 62
     7
 10
-216.9232807777022
 20
73.04855938293804
  0
VERTEX
  8
1
  6
CONTINUOUS
 62
     7
 10
-216.9379017930009
 20
73.05880013033087
  0
VERTEX
  8
1
  6
CONTINUOUS
 62
     7
 10
-216.9518855691946
 20
73.06951393781878
  0
VERTEX
  8
1
  6
CONTINUOUS
 62
     7
 10
-216.9700474516125
 20
73.08495006546597
  0
VERTEX
  8
1
  6
CONTINUOUS
 62
     7
 10
-216.9870562897148
 20
73.1011930806427
  0
VERTEX
  8
1
  6
CONTINUOUS
 62
     7
 10
-217.0029066946953
 20
73.11816106825864
  0
VERTEX
  8
1
  6
CONTINUOUS
 62
     7
 10
-217.0178376342865
 20
73.13607368353992
  0
VERTEX
  8
1
  6
CONTINUOUS
 62
     7
 10
-217.0316568590464
 20
73.15464867780155
  0
VERTEX
  8
1
  6
CONTINUOUS
 62
     7
 10
-217.0443899998154
 20
73.17381940978068
  0
VERTEX
  8
1
  6
CONTINUOUS
 62
     7
 10
-217.0560626874341
 20
73.1935192382143
  0
VERTEX
  8
1
  6
CONTINUOUS
 62
     7
 10
-217.070425970683
 20
73.22131920768933
  0
VERTEX
  8
1
  6
CONTINUOUS
 62
     7
 10
-217.0830200793303
 20
73.24998597306657
  0
VERTEX
  8
1
  6
CONTINUOUS
 62
     7
 10
-217.0939418048727
 20
73.27939958889404
  0
VERTEX
  8
1
  6
CONTINUOUS
 62
     7
 10
-217.1054428592061
 20
73.31720657973659
  0
VERTEX
  8
1
  6
CONTINUOUS
 62
     7
 10
-217.1147190731146
 20
73.35600647023824
  0
VERTEX
  8
1
  6
CONTINUOUS
 62
     7
 10
-217.1219526939962
 20
73.39565704721382
  0
VERTEX
  8
1
  6
CONTINUOUS
 62
     7
 10
-217.1273259692487
 20
73.43601609747819
  0
VERTEX
  8
1
  6
CONTINUOUS
 62
     7
 10
-217.1320057284493
 20
73.4924547231264
  0
VERTEX
  8
1
  6
CONTINUOUS
 62
     7
 10
-217.1339279554506
 20
73.5500313713102
  0
VERTEX
  8
1
  6
CONTINUOUS
 62
     7
 10
-217.1334586541508
 20
73.60855162050277
  0
SEQEND
  8
1
  6
CONTINUOUS
 62
     7
  0
LINE
  8
1
  6
CONTINUOUS
 62
     7
 10
-216.6503489033252
 20
72.9700821429993
 11
-213.6829844300083
 21
72.9700821429993
  0
POLYLINE
  8
1
  6
CONTINUOUS
 62
     7
 66
     1
  0
VERTEX
  8
1
  6
CONTINUOUS
 62
     7
 10
-213.1998746791827
 20
73.60855162050275
  0
VERTEX
  8
1
  6
CONTINUOUS
 62
     7
 10
-213.19936269691
 20
73.5523419530055
  0
VERTEX
  8
1
  6
CONTINUOUS
 62
     7
 10
-213.2010314965839
 20
73.49685478116395
  0
VERTEX
  8
1
  6
CONTINUOUS
 62
     7
 10
-213.2052503439719
 20
73.44232804523203
  0
VERTEX
  8
1
  6
CONTINUOUS
 62
     7
 10
-213.2123885048416
 20
73.38899968546357
  0
VERTEX
  8
1
  6
CONTINUOUS
 62
     7
 10
-213.2228152449605
 20
73.33710764211249
  0
VERTEX
  8
1
  6
CONTINUOUS
 62
     7
 10
-213.2368998300962
 20
73.28688985543266
  0
VERTEX
  8
1
  6
CONTINUOUS
 62
     7
 10
-213.2462760101053
 20
73.26029163991765
  0
VERTEX
  8
1
  6
CONTINUOUS
 62
     7
 10
-213.2569925198949
 20
73.23422597093665
  0
VERTEX
  8
1
  6
CONTINUOUS
 62
     7
 10
-213.269114501213
 20
73.20879128210184
  0
VERTEX
  8
1
  6
CONTINUOUS
 62
     7
 10
-213.282707095808
 20
73.1840860070253
  0
VERTEX
  8
1
  6
CONTINUOUS
 62
     7
 10
-213.2978354454279
 20
73.16020857931919
  0
VERTEX
  8
1
  6
CONTINUOUS
 62
     7
 10
-213.3145646918211
 20
73.13725743259563
  0
VERTEX
  8
1
  6
CONTINUOUS
 62
     7
 10
-213.3293556574369
 20
73.11938174044576
  0
VERTEX
  8
1
  6
CONTINUOUS
 62
     7
 10
-213.3452995840634
 20
73.10218485613159
  0
VERTEX
  8
1
  6
CONTINUOUS
 62
     7
 10
-213.3624031185726
 20
73.08574571483345
  0
VERTEX
  8
1
  6
CONTINUOUS
 62
     7
 10
-213.3763718703777
 20
73.07364858297632
  0
VERTEX
  8
1
  6
CONTINUOUS
 62
     7
 10
-213.3910634363584
 20
73.06204856822329
  0
VERTEX
  8
1
  6
CONTINUOUS
 62
     7
 10
-213.4064611630464
 20
73.05098804206578
  0
VERTEX
  8
1
  6
CONTINUOUS
 62
     7
 10
-213.4225483969736
 20
73.04050937599516
  0
VERTEX
  8
1
  6
CONTINUOUS
 62
     7
 10
-213.4399288939477
 20
73.03030482179217
  0
VERTEX
  8
1
  6
CONTINUOUS
 62
     7
 10
-213.4580474217779
 20
73.02077560267833
  0
VERTEX
  8
1
  6
CONTINUOUS
 62
     7
 10
-213.476855247648
 20
73.01197069733601
  0
VERTEX
  8
1
  6
CONTINUOUS
 62
     7
 10
-213.4918039157676
 20
73.00570271144343
  0
VERTEX
  8
1
  6
CONTINUOUS
 62
     7
 10
-213.5071471952076
 20
72.99989242734326
  0
VERTEX
  8
1
  6
CONTINUOUS
 62
     7
 10
-213.522847842517
 20
72.99455996940954
  0
VERTEX
  8
1
  6
CONTINUOUS
 62
     7
 10
-213.5388686142447
 20
72.9897254620164
  0
VERTEX
  8
1
  6
CONTINUOUS
 62
     7
 10
-213.5557362993171
 20
72.98526799798255
  0
VERTEX
  8
1
  6
CONTINUOUS
 62
     7
 10
-213.5729198353915
 20
72.98135935731403
  0
VERTEX
  8
1
  6
CONTINUOUS
 62
     7
 10
-213.5903624482223
 20
72.97801485808503
  0
VERTEX
  8
1
  6
CONTINUOUS
 62
     7
 10
-213.6080073635638
 20
72.97524981836969
  0
VERTEX
  8
1
  6
CONTINUOUS
 62
     7
 10
-213.6265645697979
 20
72.97299659557736
  0
VERTEX
  8
1
  6
CONTINUOUS
 62
     7
 10
-213.6452961238182
 20
72.97138084867053
  0
VERTEX
  8
1
  6
CONTINUOUS
 62
     7
 10
-213.6641275643225
 20
72.97040766777069
  0
VERTEX
  8
1
  6
CONTINUOUS
 62
     7
 10
-213.6829844300083
 20
72.9700821429993
  0
SEQEND
  8
1
  6
CONTINUOUS
 62
     7
  0
LINE
  8
1
  6
CONTINUOUS
 62
     7
 10
-206.602915531532
 20
74.77494641543144
 11
-206.6334586541507
 21
73.60855162050272
  0
LINE
  8
1
  6
CONTINUOUS
 62
     7
 10
-196.6998746791827
 20
73.60855162050272
 11
-196.7304178018015
 21
74.77494641543144
  0
LINE
  8
1
  6
CONTINUOUS
 62
     7
 10
-186.1998746791826
 20
73.60855162050278
 11
-186.2304178018013
 21
74.77494641543144
  0
LINE
  8
1
  6
CONTINUOUS
 62
     7
 10
-217.102915531532
 20
74.77494641543144
 11
-217.1334586541508
 21
73.60855162050277
  0
LINE
  8
1
  6
CONTINUOUS
 62
     7
 10
-190.1029155315319
 20
74.77494641543144
 11
-190.1334586541506
 21
73.60855162050275
  0
LINE
  8
1
  6
CONTINUOUS
 62
     7
 10
-213.1998746791827
 20
73.60855162050275
 11
-213.2304178018014
 21
74.77494641543144
  0
ARC
  8
1
  6
CONTINUOUS
 62
     7
 10
-180.0590787263389
 20
74.8403887862011
 40
2.500000000000002
 50
270.0
 51
358.5
  0
ARC
  8
1
  6
CONTINUOUS
 62
     7
 10
-223.2742546069944
 20
74.8403887862011
 40
2.500000000000002
 50
181.5
 51
270.0
  0
LINE
  8
1
  6
CONTINUOUS
 62
     7
 10
-188.6666666666667
 20
70.34038878620119
 11
-214.6666666666667
 21
70.34038878620119
  0
LINE
  8
1
  6
CONTINUOUS
 62
     7
 10
-184.6666666666667
 20
70.34038878620119
 11
-188.6666666666667
 21
70.34038878620119
  0
ARC
  8
1
  6
CONTINUOUS
 62
     7
 10
-184.6666666666667
 20
71.34038878620119
 40
1.000000000000001
 50
270.0
 51
0.0000000000079581
  0
LINE
  8
1
  6
CONTINUOUS
 62
     7
 10
-219.6666666666667
 20
72.3403887862011
 11
-219.6666666666667
 21
71.34038878620133
  0
LINE
  8
1
  6
CONTINUOUS
 62
     7
 10
-183.6666666666667
 20
72.3403887862011
 11
-183.6666666666667
 21
71.34038878620133
  0
LINE
  8
1
  6
CONTINUOUS
 62
     7
 10
-214.6666666666667
 20
70.34038878620119
 11
-218.6666666666667
 21
70.34038878620119
  0
ARC
  8
1
  6
CONTINUOUS
 62
     7
 10
-218.6666666666667
 20
71.34038878620119
 40
1.000000000000001
 50
179.999999999992
 51
270.0
  0
ENDBLK
  8
0
  0
BLOCK
  8
0
  2
D_FRAME_VIEW_2084
 70
     0
 10
0.0
 20
0.0
  0
LINE
  8
1
  6
CONTINUOUS
 62
     7
 10
-121.0070554528677
 20
245.6666666666666
 11
-96.44161308209809
 21
245.0233979194333
  0
LINE
  8
1
  6
CONTINUOUS
 62
     7
 10
-96.44161308209809
 20
173.3099354139
 11
-121.0070554528677
 21
172.6666666666667
  0
ARC
  8
1
  6
CONTINUOUS
 62
     7
 10
-122.0070554528677
 20
246.692509795745
 40
1.000000000000001
 50
0.0
 51
88.50000000000004
  0
ARC
  8
1
  6
CONTINUOUS
 62
     7
 10
-122.0070554528677
 20
171.6408235375884
 40
1.000000000000001
 50
271.4999999999999
 51
0.0
  0
LINE
  8
1
  6
CONTINUOUS
 62
     7
 10
-99.09867477194531
 20
237.0333379225173
 11
-96.44161308209809
 21
237.1029155315322
  0
ARC
  8
1
  6
CONTINUOUS
 62
     7
 10
-99.00705545286773
 20
233.5345372851029
 40
3.500000000000002
 50
91.50000000000023
 51
180.0
  0
LINE
  8
1
  6
CONTINUOUS
 62
     7
 10
-102.5070554528677
 20
230.7987960482309
 11
-102.5070554528677
 21
233.5345372851029
  0
ARC
  8
1
  6
CONTINUOUS
 62
     7
 10
-99.00705545286773
 20
230.7987960482309
 40
3.500000000000002
 50
180.0
 51
268.5
  0
LINE
  8
1
  6
CONTINUOUS
 62
     7
 10
-96.44161308209809
 20
227.2304178018016
 11
-99.0986747719453
 21
227.2999954108165
  0
LINE
  8
1
  6
CONTINUOUS
 62
     7
 10
-99.09867477194531
 20
214.0333379225173
 11
-96.44161308209809
 21
214.1029155315322
  0
ARC
  8
1
  6
CONTINUOUS
 62
     7
 10
-99.00705545286773
 20
210.5345372851029
 40
3.500000000000002
 50
91.50000000000023
 51
180.0
  0
LINE
  8
1
  6
CONTINUOUS
 62
     7
 10
-102.5070554528677
 20
207.7987960482309
 11
-102.5070554528677
 21
210.5345372851029
  0
ARC
  8
1
  6
CONTINUOUS
 62
     7
 10
-99.00705545286773
 20
207.7987960482309
 40
3.500000000000002
 50
180.0
 51
268.5
  0
LINE
  8
1
  6
CONTINUOUS
 62
     7
 10
-96.44161308209809
 20
204.2304178018016
 11
-99.0986747719453
 21
204.2999954108164
  0
LINE
  8
1
  6
CONTINUOUS
 62
     7
 10
-99.09867477194531
 20
191.0333379225174
 11
-96.44161308209809
 21
191.1029155315322
  0
ARC
  8
1
  6
CONTINUOUS
 62
     7
 10
-99.00705545286773
 20
187.5345372851029
 40
3.500000000000002
 50
91.50000000000023
 51
180.0
  0
LINE
  8
1
  6
CONTINUOUS
 62
     7
 10
-102.5070554528677
 20
184.7987960482309
 11
-102.5070554528677
 21
187.5345372851029
  0
ARC
  8
1
  6
CONTINUOUS
 62
     7
 10
-99.00705545286773
 20
184.7987960482309
 40
3.500000000000002
 50
180.0
 51
268.5
  0
LINE
  8
1
  6
CONTINUOUS
 62
     7
 10
-96.44161308209809
 20
181.2304178018016
 11
-99.09867477194531
 21
181.2999954108164
  0
POLYLINE
  8
1
  6
CONTINUOUS
 62
     7
 66
     1
  0
VERTEX
  8
1
  6
CONTINUOUS
 62
     7
 10
-94.43833339483456
 20
204.6777887395175
  0
VERTEX
  8
1
  6
CONTINUOUS
 62
     7
 10
-94.43854432683172
 20
204.6603574873004
  0
VERTEX
  8
1
  6
CONTINUOUS
 62
     7
 10
-94.43917616364436
 20
204.6429423792517
  0
VERTEX
  8
1
  6
CONTINUOUS
 62
     7
 10
-94.44022746650428
 20
204.625591358641
  0
VERTEX
  8
1
  6
CONTINUOUS
 62
     7
 10
-94.44169679664326
 20
204.608352368738
  0
VERTEX
  8
1
  6
CONTINUOUS
 62
     7
 10
-94.44364998098229
 20
204.5907161518953
  0
VERTEX
  8
1
  6
CONTINUOUS
 62
     7
 10
-94.44604599209693
 20
204.5732323235309
  0
VERTEX
  8
1
  6
CONTINUOUS
 62
     7
 10
-94.44887828912512
 20
204.5559494250751
  0
VERTEX
  8
1
  6
CONTINUOUS
 62
     7
 10
-94.45214033120484
 20
204.5389159979584
  0
VERTEX
  8
1
  6
CONTINUOUS
 62
     7
 10
-94.4557132960089
 20
204.5226508652048
  0
VERTEX
  8
1
  6
CONTINUOUS
 62
     7
 10
-94.4596858246271
 20
204.5066453941434
  0
VERTEX
  8
1
  6
CONTINUOUS
 62
     7
 10
-94.46404799046236
 20
204.4909362856708
  0
VERTEX
  8
1
  6
CONTINUOUS
 62
     7
 10
-94.46878986691756
 20
204.4755602406839
  0
VERTEX
  8
1
  6
CONTINUOUS
 62
     7
 10
-94.47405338064485
 20
204.4601237603472
  0
VERTEX
  8
1
  6
CONTINUOUS
 62
     7
 10
-94.4797096998844
 20
204.4450550938953
  0
VERTEX
  8
1
  6
CONTINUOUS
 62
     7
 10
-94.48574495946526
 20
204.4303833437855
  0
VERTEX
  8
1
  6
CONTINUOUS
 62
     7
 10
-94.49214529421651
 20
204.4161376124752
  0
VERTEX
  8
1
  6
CONTINUOUS
 62
     7
 10
-94.5014457444486
 20
204.3974356030096
  0
VERTEX
  8
1
  6
CONTINUOUS
 62
     7
 10
-94.51141438107247
 20
204.3795221581916
  0
VERTEX
  8
1
  6
CONTINUOUS
 62
     7
 10
-94.52201139869895
 20
204.3624295859738
  0
VERTEX
  8
1
  6
CONTINUOUS
 62
     7
 10
-94.53319699193891
 20
204.3461901943091
  0
VERTEX
  8
1
  6
CONTINUOUS
 62
     7
 10
-94.54493135540318
 20
204.3308362911502
  0
VERTEX
  8
1
  6
CONTINUOUS
 62
     7
 10
-94.5571746837026
 20
204.3164001844499
  0
VERTEX
  8
1
  6
CONTINUOUS
 62
     7
 10
-94.57066991071083
 20
204.3021043845203
  0
VERTEX
  8
1
  6
CONTINUOUS
 62
     7
 10
-94.58471409728583
 20
204.288763659625
  0
VERTEX
  8
1
  6
CONTINUOUS
 62
     7
 10
-94.59926396924361
 20
204.2763763411388
  0
VERTEX
  8
1
  6
CONTINUOUS
 62
     7
 10
-94.61427625240007
 20
204.2649407604364
  0
VERTEX
  8
1
  6
CONTINUOUS
 62
     7
 10
-94.6355906222237
 20
204.2507550467274
  0
VERTEX
  8
1
  6
CONTINUOUS
 62
     7
 10
-94.65769379503402
 20
204.2382337712585
  0
VERTEX
  8
1
  6
CONTINUOUS
 62
     7
 10
-94.68049272238098
 20
204.2273297635847
  0
VERTEX
  8
1
  6
CONTINUOUS
 62
     7
 10
-94.70558496037121
 20
204.2173810416982
  0
VERTEX
  8
1
  6
CONTINUOUS
 62
     7
 10
-94.73138132188693
 20
204.2091014006853
  0
VERTEX
  8
1
  6
CONTINUOUS
 62
     7
 10
-94.75779690426062
 20
204.2024128984754
  0
VERTEX
  8
1
  6
CONTINUOUS
 62
     7
 10
-94.78474680482468
 20
204.1972375929982
  0
VERTEX
  8
1
  6
CONTINUOUS
 62
     7
 10
-94.82257864923417
 20
204.1924342800324
  0
VERTEX
  8
1
  6
CONTINUOUS
 62
     7
 10
-94.8612861080969
 20
204.1901076368845
  0
VERTEX
  8
1
  6
CONTINUOUS
 62
     7
 10
-94.90071949918091
 20
204.1900680832929
  0
SEQEND
  8
1
  6
CONTINUOUS
 62
     7
  0
LINE
  8
1
  6
CONTINUOUS
 62
     7
 10
-94.43833339483456
 20
213.6555445938162
 11
-94.43833339483456
 21
204.6777887395175
  0
POLYLINE
  8
1
  6
CONTINUOUS
 62
     7
 66
     1
  0
VERTEX
  8
1
  6
CONTINUOUS
 62
     7
 10
-94.90071949918092
 20
214.1432652500409
  0
VERTEX
  8
1
  6
CONTINUOUS
 62
     7
 10
-94.86028714425709
 20
214.1431955284559
  0
VERTEX
  8
1
  6
CONTINUOUS
 62
     7
 10
-94.8206202238819
 20
214.140715036779
  0
VERTEX
  8
1
  6
CONTINUOUS
 62
     7
 10
-94.78188103911747
 20
214.1356188754627
  0
VERTEX
  8
1
  6
CONTINUOUS
 62
     7
 10
-94.75264786178016
 20
214.1297476845561
  0
VERTEX
  8
1
  6
CONTINUOUS
 62
     7
 10
-94.72405577914108
 20
214.1220642128524
  0
VERTEX
  8
1
  6
CONTINUOUS
 62
     7
 10
-94.69621705620852
 20
214.1124689361569
  0
VERTEX
  8
1
  6
CONTINUOUS
 62
     7
 10
-94.66924395799079
 20
214.1008623302752
  0
VERTEX
  8
1
  6
CONTINUOUS
 62
     7
 10
-94.64860761679716
 20
214.0901884820841
  0
VERTEX
  8
1
  6
CONTINUOUS
 62
     7
 10
-94.6285386613608
 20
214.0780921243153
  0
VERTEX
  8
1
  6
CONTINUOUS
 62
     7
 10
-94.6091179628332
 20
214.0645545796582
  0
VERTEX
  8
1
  6
CONTINUOUS
 62
     7
 10
-94.59042639236573
 20
214.0495571708026
  0
VERTEX
  8
1
  6
CONTINUOUS
 62
     7
 10
-94.57254482110989
 20
214.0330812204378
  0
VERTEX
  8
1
  6
CONTINUOUS
 62
     7
 10
-94.5555541202171
 20
214.0151080512535
  0
VERTEX
  8
1
  6
CONTINUOUS
 62
     7
 10
-94.54209214826491
 20
213.9989430819284
  0
VERTEX
  8
1
  6
CONTINUOUS
 62
     7
 10
-94.52928493732878
 20
213.9816954220182
  0
VERTEX
  8
1
  6
CONTINUOUS
 62
     7
 10
-94.5171866340884
 20
213.9633953671548
  0
VERTEX
  8
1
  6
CONTINUOUS
 62
     7
 10
-94.5083695911845
 20
213.9485774200438
  0
VERTEX
  8
1
  6
CONTINUOUS
 62
     7
 10
-94.49999896498554
 20
213.9331324974834
  0
VERTEX
  8
1
  6
CONTINUOUS
 62
     7
 10
-94.49209878633569
 20
213.9170924169531
  0
VERTEX
  8
1
  6
CONTINUOUS
 62
     7
 10
-94.4846930860791
 20
213.9004889959323
  0
VERTEX
  8
1
  6
CONTINUOUS
 62
     7
 10
-94.47795803441436
 20
213.8837603762009
  0
VERTEX
  8
1
  6
CONTINUOUS
 62
     7
 10
-94.47170736000595
 20
213.8665085998048
  0
VERTEX
  8
1
  6
CONTINUOUS
 62
     7
 10
-94.46595983948116
 20
213.8487819341502
  0
VERTEX
  8
1
  6
CONTINUOUS
 62
     7
 10
-94.46073424946718
 20
213.8306286466428
  0
VERTEX
  8
1
  6
CONTINUOUS
 62
     7
 10
-94.4558701780949
 20
213.8113470441192
  0
VERTEX
  8
1
  6
CONTINUOUS
 62
     7
 10
-94.45157915430143
 20
213.7916400403656
  0
VERTEX
  8
1
  6
CONTINUOUS
 62
     7
 10
-94.44787514879648
 20
213.7715802428429
  0
VERTEX
  8
1
  6
CONTINUOUS
 62
     7
 10
-94.44477213228981
 20
213.751240259012
  0
VERTEX
  8
1
  6
CONTINUOUS
 62
     7
 10
-94.44246255286988
 20
213.7323818531544
  0
VERTEX
  8
1
  6
CONTINUOUS
 62
     7
 10
-94.44066075214042
 20
213.7133186146808
  0
VERTEX
  8
1
  6
CONTINUOUS
 62
     7
 10
-94.43936986737538
 20
213.6941150126163
  0
VERTEX
  8
1
  6
CONTINUOUS
 62
     7
 10
-94.43859303584875
 20
213.6748355159863
  0
VERTEX
  8
1
  6
CONTINUOUS
 62
     7
 10
-94.43833339483456
 20
213.6555445938162
  0
SEQEND
  8
1
  6
CONTINUOUS
 62
     7
  0
POLYLINE
  8
1
  6
CONTINUOUS
 62
     7
 66
     1
  0
VERTEX
  8
1
  6
CONTINUOUS
 62
     7
 10
-94.43833339483456
 20
227.6777887395176
  0
VERTEX
  8
1
  6
CONTINUOUS
 62
     7
 10
-94.43854432683172
 20
227.6603574873004
  0
VERTEX
  8
1
  6
CONTINUOUS
 62
     7
 10
-94.43917616364436
 20
227.6429423792517
  0
VERTEX
  8
1
  6
CONTINUOUS
 62
     7
 10
-94.44022746650428
 20
227.625591358641
  0
VERTEX
  8
1
  6
CONTINUOUS
 62
     7
 10
-94.44169679664326
 20
227.608352368738
  0
VERTEX
  8
1
  6
CONTINUOUS
 62
     7
 10
-94.44364998098229
 20
227.5907161518954
  0
VERTEX
  8
1
  6
CONTINUOUS
 62
     7
 10
-94.44604599209693
 20
227.5732323235309
  0
VERTEX
  8
1
  6
CONTINUOUS
 62
     7
 10
-94.44887828912512
 20
227.5559494250751
  0
VERTEX
  8
1
  6
CONTINUOUS
 62
     7
 10
-94.45214033120484
 20
227.5389159979584
  0
VERTEX
  8
1
  6
CONTINUOUS
 62
     7
 10
-94.4557132960089
 20
227.5226508652048
  0
VERTEX
  8
1
  6
CONTINUOUS
 62
     7
 10
-94.4596858246271
 20
227.5066453941434
  0
VERTEX
  8
1
  6
CONTINUOUS
 62
     7
 10
-94.46404799046236
 20
227.4909362856708
  0
VERTEX
  8
1
  6
CONTINUOUS
 62
     7
 10
-94.46878986691756
 20
227.4755602406839
  0
VERTEX
  8
1
  6
CONTINUOUS
 62
     7
 10
-94.47405338064485
 20
227.4601237603472
  0
VERTEX
  8
1
  6
CONTINUOUS
 62
     7
 10
-94.4797096998844
 20
227.4450550938953
  0
VERTEX
  8
1
  6
CONTINUOUS
 62
     7
 10
-94.48574495946526
 20
227.4303833437855
  0
VERTEX
  8
1
  6
CONTINUOUS
 62
     7
 10
-94.49214529421651
 20
227.4161376124752
  0
VERTEX
  8
1
  6
CONTINUOUS
 62
     7
 10
-94.5014457444486
 20
227.3974356030096
  0
VERTEX
  8
1
  6
CONTINUOUS
 62
     7
 10
-94.51141438107247
 20
227.3795221581916
  0
VERTEX
  8
1
  6
CONTINUOUS
 62
     7
 10
-94.52201139869895
 20
227.3624295859738
  0
VERTEX
  8
1
  6
CONTINUOUS
 62
     7
 10
-94.53319699193891
 20
227.3461901943091
  0
VERTEX
  8
1
  6
CONTINUOUS
 62
     7
 10
-94.54493135540318
 20
227.3308362911502
  0
VERTEX
  8
1
  6
CONTINUOUS
 62
     7
 10
-94.5571746837026
 20
227.3164001844499
  0
VERTEX
  8
1
  6
CONTINUOUS
 62
     7
 10
-94.57066991071083
 20
227.3021043845203
  0
VERTEX
  8
1
  6
CONTINUOUS
 62
     7
 10
-94.58471409728583
 20
227.288763659625
  0
VERTEX
  8
1
  6
CONTINUOUS
 62
     7
 10
-94.59926396924361
 20
227.2763763411388
  0
VERTEX
  8
1
  6
CONTINUOUS
 62
     7
 10
-94.61427625240007
 20
227.2649407604364
  0
VERTEX
  8
1
  6
CONTINUOUS
 62
     7
 10
-94.6355906222237
 20
227.2507550467274
  0
VERTEX
  8
1
  6
CONTINUOUS
 62
     7
 10
-94.65769379503402
 20
227.2382337712585
  0
VERTEX
  8
1
  6
CONTINUOUS
 62
     7
 10
-94.68049272238096
 20
227.2273297635847
  0
VERTEX
  8
1
  6
CONTINUOUS
 62
     7
 10
-94.7055849603712
 20
227.2173810416982
  0
VERTEX
  8
1
  6
CONTINUOUS
 62
     7
 10
-94.73138132188691
 20
227.2091014006853
  0
VERTEX
  8
1
  6
CONTINUOUS
 62
     7
 10
-94.7577969042606
 20
227.2024128984754
  0
VERTEX
  8
1
  6
CONTINUOUS
 62
     7
 10
-94.78474680482468
 20
227.1972375929981
  0
VERTEX
  8
1
  6
CONTINUOUS
 62
     7
 10
-94.82257864923416
 20
227.1924342800324
  0
VERTEX
  8
1
  6
CONTINUOUS
 62
     7
 10
-94.8612861080969
 20
227.1901076368845
  0
VERTEX
  8
1
  6
CONTINUOUS
 62
     7
 10
-94.90071949918091
 20
227.1900680832929
  0
SEQEND
  8
1
  6
CONTINUOUS
 62
     7
  0
LINE
  8
1
  6
CONTINUOUS
 62
     7
 10
-94.43833339483456
 20
236.6555445938162
 11
-94.43833339483456
 21
227.6777887395176
  0
POLYLINE
  8
1
  6
CONTINUOUS
 62
     7
 66
     1
  0
VERTEX
  8
1
  6
CONTINUOUS
 62
     7
 10
-94.90071949918092
 20
237.1432652500409
  0
VERTEX
  8
1
  6
CONTINUOUS
 62
     7
 10
-94.86028714425709
 20
237.1431955284559
  0
VERTEX
  8
1
  6
CONTINUOUS
 62
     7
 10
-94.8206202238819
 20
237.140715036779
  0
VERTEX
  8
1
  6
CONTINUOUS
 62
     7
 10
-94.78188103911747
 20
237.1356188754626
  0
VERTEX
  8
1
  6
CONTINUOUS
 62
     7
 10
-94.75264786178016
 20
237.1297476845561
  0
VERTEX
  8
1
  6
CONTINUOUS
 62
     7
 10
-94.72405577914108
 20
237.1220642128524
  0
VERTEX
  8
1
  6
CONTINUOUS
 62
     7
 10
-94.69621705620852
 20
237.1124689361569
  0
VERTEX
  8
1
  6
CONTINUOUS
 62
     7
 10
-94.66924395799079
 20
237.1008623302753
  0
VERTEX
  8
1
  6
CONTINUOUS
 62
     7
 10
-94.64860761679716
 20
237.0901884820842
  0
VERTEX
  8
1
  6
CONTINUOUS
 62
     7
 10
-94.6285386613608
 20
237.0780921243153
  0
VERTEX
  8
1
  6
CONTINUOUS
 62
     7
 10
-94.6091179628332
 20
237.0645545796582
  0
VERTEX
  8
1
  6
CONTINUOUS
 62
     7
 10
-94.59042639236573
 20
237.0495571708026
  0
VERTEX
  8
1
  6
CONTINUOUS
 62
     7
 10
-94.57254482110989
 20
237.0330812204379
  0
VERTEX
  8
1
  6
CONTINUOUS
 62
     7
 10
-94.5555541202171
 20
237.0151080512535
  0
VERTEX
  8
1
  6
CONTINUOUS
 62
     7
 10
-94.54209214826491
 20
236.9989430819284
  0
VERTEX
  8
1
  6
CONTINUOUS
 62
     7
 10
-94.52928493732878
 20
236.9816954220182
  0
VERTEX
  8
1
  6
CONTINUOUS
 62
     7
 10
-94.5171866340884
 20
236.9633953671548
  0
VERTEX
  8
1
  6
CONTINUOUS
 62
     7
 10
-94.5083695911845
 20
236.9485774200438
  0
VERTEX
  8
1
  6
CONTINUOUS
 62
     7
 10
-94.49999896498554
 20
236.9331324974834
  0
VERTEX
  8
1
  6
CONTINUOUS
 62
     7
 10
-94.49209878633569
 20
236.9170924169531
  0
VERTEX
  8
1
  6
CONTINUOUS
 62
     7
 10
-94.4846930860791
 20
236.9004889959323
  0
VERTEX
  8
1
  6
CONTINUOUS
 62
     7
 10
-94.47795803441436
 20
236.8837603762009
  0
VERTEX
  8
1
  6
CONTINUOUS
 62
     7
 10
-94.47170736000595
 20
236.8665085998048
  0
VERTEX
  8
1
  6
CONTINUOUS
 62
     7
 10
-94.46595983948116
 20
236.8487819341501
  0
VERTEX
  8
1
  6
CONTINUOUS
 62
     7
 10
-94.46073424946718
 20
236.8306286466428
  0
VERTEX
  8
1
  6
CONTINUOUS
 62
     7
 10
-94.4558701780949
 20
236.8113470441191
  0
VERTEX
  8
1
  6
CONTINUOUS
 62
     7
 10
-94.45157915430143
 20
236.7916400403656
  0
VERTEX
  8
1
  6
CONTINUOUS
 62
     7
 10
-94.44787514879648
 20
236.7715802428429
  0
VERTEX
  8
1
  6
CONTINUOUS
 62
     7
 10
-94.44477213228981
 20
236.751240259012
  0
VERTEX
  8
1
  6
CONTINUOUS
 62
     7
 10
-94.44246255286988
 20
236.7323818531544
  0
VERTEX
  8
1
  6
CONTINUOUS
 62
     7
 10
-94.44066075214042
 20
236.7133186146808
  0
VERTEX
  8
1
  6
CONTINUOUS
 62
     7
 10
-94.43936986737538
 20
236.6941150126163
  0
VERTEX
  8
1
  6
CONTINUOUS
 62
     7
 10
-94.43859303584875
 20
236.6748355159863
  0
VERTEX
  8
1
  6
CONTINUOUS
 62
     7
 10
-94.43833339483456
 20
236.6555445938162
  0
SEQEND
  8
1
  6
CONTINUOUS
 62
     7
  0
LINE
  8
1
  6
CONTINUOUS
 62
     7
 10
-94.00705545286777
 20
242.5242546069944
 11
-94.00705545286777
 21
175.8090787263389
  0
POLYLINE
  8
1
  6
CONTINUOUS
 62
     7
 66
     1
  0
VERTEX
  8
1
  6
CONTINUOUS
 62
     7
 10
-94.43833339483456
 20
181.6777887395175
  0
VERTEX
  8
1
  6
CONTINUOUS
 62
     7
 10
-94.43854432683172
 20
181.6603574873004
  0
VERTEX
  8
1
  6
CONTINUOUS
 62
     7
 10
-94.43917616364436
 20
181.6429423792517
  0
VERTEX
  8
1
  6
CONTINUOUS
 62
     7
 10
-94.44022746650428
 20
181.625591358641
  0
VERTEX
  8
1
  6
CONTINUOUS
 62
     7
 10
-94.44169679664326
 20
181.6083523687379
  0
VERTEX
  8
1
  6
CONTINUOUS
 62
     7
 10
-94.44364998098229
 20
181.5907161518954
  0
VERTEX
  8
1
  6
CONTINUOUS
 62
     7
 10
-94.44604599209693
 20
181.5732323235309
  0
VERTEX
  8
1
  6
CONTINUOUS
 62
     7
 10
-94.44887828912512
 20
181.5559494250751
  0
VERTEX
  8
1
  6
CONTINUOUS
 62
     7
 10
-94.45214033120484
 20
181.5389159979584
  0
VERTEX
  8
1
  6
CONTINUOUS
 62
     7
 10
-94.4557132960089
 20
181.5226508652048
  0
VERTEX
  8
1
  6
CONTINUOUS
 62
     7
 10
-94.4596858246271
 20
181.5066453941434
  0
VERTEX
  8
1
  6
CONTINUOUS
 62
     7
 10
-94.46404799046236
 20
181.4909362856708
  0
VERTEX
  8
1
  6
CONTINUOUS
 62
     7
 10
-94.46878986691756
 20
181.4755602406839
  0
VERTEX
  8
1
  6
CONTINUOUS
 62
     7
 10
-94.47405338064485
 20
181.4601237603472
  0
VERTEX
  8
1
  6
CONTINUOUS
 62
     7
 10
-94.4797096998844
 20
181.4450550938953
  0
VERTEX
  8
1
  6
CONTINUOUS
 62
     7
 10
-94.48574495946526
 20
181.4303833437855
  0
VERTEX
  8
1
  6
CONTINUOUS
 62
     7
 10
-94.49214529421651
 20
181.4161376124752
  0
VERTEX
  8
1
  6
CONTINUOUS
 62
     7
 10
-94.5014457444486
 20
181.3974356030096
  0
VERTEX
  8
1
  6
CONTINUOUS
 62
     7
 10
-94.51141438107247
 20
181.3795221581916
  0
VERTEX
  8
1
  6
CONTINUOUS
 62
     7
 10
-94.52201139869895
 20
181.3624295859738
  0
VERTEX
  8
1
  6
CONTINUOUS
 62
     7
 10
-94.53319699193891
 20
181.3461901943091
  0
VERTEX
  8
1
  6
CONTINUOUS
 62
     7
 10
-94.54493135540318
 20
181.3308362911502
  0
VERTEX
  8
1
  6
CONTINUOUS
 62
     7
 10
-94.5571746837026
 20
181.3164001844499
  0
VERTEX
  8
1
  6
CONTINUOUS
 62
     7
 10
-94.57066991071083
 20
181.3021043845203
  0
VERTEX
  8
1
  6
CONTINUOUS
 62
     7
 10
-94.58471409728583
 20
181.288763659625
  0
VERTEX
  8
1
  6
CONTINUOUS
 62
     7
 10
-94.59926396924361
 20
181.2763763411388
  0
VERTEX
  8
1
  6
CONTINUOUS
 62
     7
 10
-94.61427625240007
 20
181.2649407604364
  0
VERTEX
  8
1
  6
CONTINUOUS
 62
     7
 10
-94.6355906222237
 20
181.2507550467274
  0
VERTEX
  8
1
  6
CONTINUOUS
 62
     7
 10
-94.65769379503402
 20
181.2382337712586
  0
VERTEX
  8
1
  6
CONTINUOUS
 62
     7
 10
-94.68049272238096
 20
181.2273297635848
  0
VERTEX
  8
1
  6
CONTINUOUS
 62
     7
 10
-94.7055849603712
 20
181.2173810416982
  0
VERTEX
  8
1
  6
CONTINUOUS
 62
     7
 10
-94.73138132188691
 20
181.2091014006853
  0
VERTEX
  8
1
  6
CONTINUOUS
 62
     7
 10
-94.7577969042606
 20
181.2024128984754
  0
VERTEX
  8
1
  6
CONTINUOUS
 62
     7
 10
-94.78474680482468
 20
181.1972375929982
  0
VERTEX
  8
1
  6
CONTINUOUS
 62
     7
 10
-94.82257864923416
 20
181.1924342800324
  0
VERTEX
  8
1
  6
CONTINUOUS
 62
     7
 10
-94.8612861080969
 20
181.1901076368845
  0
VERTEX
  8
1
  6
CONTINUOUS
 62
     7
 10
-94.90071949918091
 20
181.1900680832929
  0
SEQEND
  8
1
  6
CONTINUOUS
 62
     7
  0
LINE
  8
1
  6
CONTINUOUS
 62
     7
 10
-94.43833339483456
 20
190.6555445938162
 11
-94.43833339483456
 21
181.6777887395175
  0
POLYLINE
  8
1
  6
CONTINUOUS
 62
     7
 66
     1
  0
VERTEX
  8
1
  6
CONTINUOUS
 62
     7
 10
-94.90071949918092
 20
191.1432652500409
  0
VERTEX
  8
1
  6
CONTINUOUS
 62
     7
 10
-94.86028714425709
 20
191.1431955284559
  0
VERTEX
  8
1
  6
CONTINUOUS
 62
     7
 10
-94.8206202238819
 20
191.140715036779
  0
VERTEX
  8
1
  6
CONTINUOUS
 62
     7
 10
-94.78188103911747
 20
191.1356188754626
  0
VERTEX
  8
1
  6
CONTINUOUS
 62
     7
 10
-94.75264786178016
 20
191.1297476845561
  0
VERTEX
  8
1
  6
CONTINUOUS
 62
     7
 10
-94.72405577914108
 20
191.1220642128524
  0
VERTEX
  8
1
  6
CONTINUOUS
 62
     7
 10
-94.69621705620852
 20
191.1124689361569
  0
VERTEX
  8
1
  6
CONTINUOUS
 62
     7
 10
-94.66924395799079
 20
191.1008623302752
  0
VERTEX
  8
1
  6
CONTINUOUS
 62
     7
 10
-94.64860761679716
 20
191.0901884820841
  0
VERTEX
  8
1
  6
CONTINUOUS
 62
     7
 10
-94.6285386613608
 20
191.0780921243153
  0
VERTEX
  8
1
  6
CONTINUOUS
 62
     7
 10
-94.6091179628332
 20
191.0645545796582
  0
VERTEX
  8
1
  6
CONTINUOUS
 62
     7
 10
-94.59042639236573
 20
191.0495571708026
  0
VERTEX
  8
1
  6
CONTINUOUS
 62
     7
 10
-94.57254482110989
 20
191.0330812204378
  0
VERTEX
  8
1
  6
CONTINUOUS
 62
     7
 10
-94.5555541202171
 20
191.0151080512535
  0
VERTEX
  8
1
  6
CONTINUOUS
 62
     7
 10
-94.54209214826491
 20
190.9989430819284
  0
VERTEX
  8
1
  6
CONTINUOUS
 62
     7
 10
-94.52928493732878
 20
190.9816954220182
  0
VERTEX
  8
1
  6
CONTINUOUS
 62
     7
 10
-94.5171866340884
 20
190.9633953671548
  0
VERTEX
  8
1
  6
CONTINUOUS
 62
     7
 10
-94.5083695911845
 20
190.9485774200438
  0
VERTEX
  8
1
  6
CONTINUOUS
 62
     7
 10
-94.49999896498554
 20
190.9331324974834
  0
VERTEX
  8
1
  6
CONTINUOUS
 62
     7
 10
-94.49209878633569
 20
190.9170924169531
  0
VERTEX
  8
1
  6
CONTINUOUS
 62
     7
 10
-94.4846930860791
 20
190.9004889959323
  0
VERTEX
  8
1
  6
CONTINUOUS
 62
     7
 10
-94.47795803441436
 20
190.8837603762008
  0
VERTEX
  8
1
  6
CONTINUOUS
 62
     7
 10
-94.47170736000595
 20
190.8665085998048
  0
VERTEX
  8
1
  6
CONTINUOUS
 62
     7
 10
-94.46595983948116
 20
190.8487819341502
  0
VERTEX
  8
1
  6
CONTINUOUS
 62
     7
 10
-94.46073424946718
 20
190.8306286466428
  0
VERTEX
  8
1
  6
CONTINUOUS
 62
     7
 10
-94.4558701780949
 20
190.8113470441192
  0
VERTEX
  8
1
  6
CONTINUOUS
 62
     7
 10
-94.45157915430143
 20
190.7916400403656
  0
VERTEX
  8
1
  6
CONTINUOUS
 62
     7
 10
-94.44787514879648
 20
190.7715802428429
  0
VERTEX
  8
1
  6
CONTINUOUS
 62
     7
 10
-94.44477213228981
 20
190.7512402590119
  0
VERTEX
  8
1
  6
CONTINUOUS
 62
     7
 10
-94.44246255286988
 20
190.7323818531544
  0
VERTEX
  8
1
  6
CONTINUOUS
 62
     7
 10
-94.44066075214042
 20
190.7133186146808
  0
VERTEX
  8
1
  6
CONTINUOUS
 62
     7
 10
-94.43936986737538
 20
190.6941150126163
  0
VERTEX
  8
1
  6
CONTINUOUS
 62
     7
 10
-94.43859303584875
 20
190.6748355159863
  0
VERTEX
  8
1
  6
CONTINUOUS
 62
     7
 10
-94.43833339483456
 20
190.6555445938162
  0
SEQEND
  8
1
  6
CONTINUOUS
 62
     7
  0
LINE
  8
1
  6
CONTINUOUS
 62
     7
 10
-94.90071949918091
 20
227.1900680832929
 11
-96.44161308209809
 21
227.2304178018016
  0
LINE
  8
1
  6
CONTINUOUS
 62
     7
 10
-94.90071949918091
 20
204.1900680832929
 11
-96.44161308209809
 21
204.2304178018016
  0
LINE
  8
1
  6
CONTINUOUS
 62
     7
 10
-96.44161308209809
 20
191.1029155315322
 11
-94.90071949918092
 21
191.1432652500409
  0
LINE
  8
1
  6
CONTINUOUS
 62
     7
 10
-94.90071949918091
 20
181.1900680832929
 11
-96.44161308209809
 21
181.2304178018016
  0
LINE
  8
1
  6
CONTINUOUS
 62
     7
 10
-96.44161308209809
 20
237.1029155315322
 11
-94.90071949918092
 21
237.1432652500409
  0
LINE
  8
1
  6
CONTINUOUS
 62
     7
 10
-96.44161308209809
 20
214.1029155315322
 11
-94.90071949918092
 21
214.1432652500409
  0
ARC
  8
1
  6
CONTINUOUS
 62
     7
 10
-96.50705545286777
 20
242.5242546069944
 40
2.499999999999996
 50
0.0
 51
88.5
  0
ARC
  8
1
  6
CONTINUOUS
 62
     7
 10
-96.50705545286777
 20
175.8090787263389
 40
2.500000000000002
 50
271.5
 51
359.9999999999998
  0
LINE
  8
1
  6
CONTINUOUS
 62
     7
 10
-94.00705545286777
 20
242.4166666666665
 11
-93.007055452868
 21
242.4166666666665
  0
LINE
  8
1
  6
CONTINUOUS
 62
     7
 10
-92.00705545286786
 20
237.4166666666665
 11
-92.00705545286786
 21
180.9166666666667
  0
LINE
  8
1
  6
CONTINUOUS
 62
     7
 10
-92.00705545286786
 20
180.9166666666667
 11
-92.00705545286786
 21
176.9166666666667
  0
ARC
  8
1
  6
CONTINUOUS
 62
     7
 10
-93.00705545286786
 20
176.9166666666667
 40
1.000000000000001
 50
269.9999999999936
 51
0.0
  0
ARC
  8
1
  6
CONTINUOUS
 62
     7
 10
-93.00705545286785
 20
241.4166666666665
 40
1.000000000000001
 50
359.9999999999993
 51
90.00000000000836
  0
LINE
  8
1
  6
CONTINUOUS
 62
     7
 10
-92.00705545286786
 20
241.4166666666665
 11
-92.00705545286786
 21
237.4166666666665
  0
LINE
  8
1
  6
CONTINUOUS
 62
     7
 10
-94.00705545286777
 20
175.9166666666667
 11
-93.00705545286797
 21
175.9166666666667
  0
ENDBLK
  8
0
  0
ENDSEC
  0
SECTION
  2
ENTITIES
  0
TEXT
  8
1
  6
CONTINUOUS
 62
     7
 10
-124.427437372348
 20
97.49508669917886
 40
3.0
  1
BZ-1CRS
  0
LINE
  8
1
  6
CONTINUOUS
 62
     2
 10
-124.2856060606061
 20
96.93712121212121
 11
-112.3810606060606
 21
96.93712121212121
  0
INSERT
  8
1
  6
CONTINUOUS
 62
     7
  2
D_FRAME_VIEW_1491
 10
0.0
 20
0.0
 30
0.0
  0
INSERT
  8
1
  6
CONTINUOUS
 62
     7
  2
D_FRAME_VIEW_2227
 10
0.0
 20
0.0
 30
0.0
  0
INSERT
  8
1
  6
CONTINUOUS
 62
     7
  2
D_FRAME_VIEW_2084
 10
0.0
 20
0.0
 30
0.0
  0
LINE
  8
1
  6
CONTINUOUS
 62
     7
 10
-121.0070554528677
 20
172.6666666666667
 11
-121.0070554528677
 21
171.6408235375884
  0
LINE
  8
1
  6
CONTINUOUS
 62
     7
 10
-129.0070554528679
 20
247.8761540392202
 11
-121.9808785045599
 21
247.6921671207206
  0
LINE
  8
1
  6
CONTINUOUS
 62
     7
 10
-129.0070554528679
 20
269.1666666666667
 11
-129.0070554528679
 21
149.1666666666667
  0
LINE
  8
1
  6
CENTER
 62
     1
 10
-83.33333333333334
 20
209.1666666666667
 11
-138.3333333333333
 21
209.1666666666667
  0
LINE
  8
1
  6
CONTINUOUS
 62
     7
 10
-129.0070554528679
 20
149.1666666666667
 11
-132.0070554528679
 21
149.1666666666667
  0
LINE
  8
1
  6
CONTINUOUS
 62
     7
 10
-129.0070554528679
 20
269.1666666666667
 11
-132.0070554528679
 21
269.1666666666667
  0
LINE
  8
1
  6
CENTER
 62
     1
 10
-201.6666666666667
 20
144.1666666666667
 11
-201.6666666666667
 21
274.1666666666667
  0
LINE
  8
1
  6
CONTINUOUS
 62
     7
 10
-132.0070554528679
 20
269.1666666666667
 11
-132.0070554528679
 21
149.1666666666667
  0
LINE
  8
1
  6
CENTER
 62
     1
 10
-201.6666666666667
 20
61.66666666666667
 11
-201.6666666666667
 21
116.6666666666667
  0
LINE
  8
1
  6
CONTINUOUS
 62
     7
 10
-121.9808785045599
 20
170.6411662126128
 11
-129.0070554528679
 21
170.4571792941132
  0
LINE
  8
1
  6
CONTINUOUS
 62
     7
 10
-121.0070554528677
 20
246.692509795745
 11
-121.0070554528677
 21
245.6666666666666
  0
LINE
  8
1
  6
CONTINUOUS
 62
     7
 10
-226.4421671207206
 20
100.3142118378932
 11
-226.6261540392202
 21
107.3403887862012
  0
LINE
  8
1
  6
CONTINUOUS
 62
     7
 10
-166.6666666666667
 20
110.3403887862012
 11
-236.6666666666667
 21
110.3403887862012
  0
LINE
  8
1
  6
CONTINUOUS
 62
     7
 10
-236.6666666666667
 20
107.3403887862012
 11
-236.6666666666667
 21
110.3403887862012
  0
LINE
  8
1
  6
CONTINUOUS
 62
     7
 10
-176.7071792941132
 20
107.3403887862012
 11
-176.8911662126128
 21
100.3142118378932
  0
LINE
  8
1
  6
CONTINUOUS
 62
     7
 10
-166.6666666666667
 20
107.3403887862012
 11
-166.6666666666667
 21
110.3403887862012
  0
LINE
  8
1
  6
CONTINUOUS
 62
     7
 10
-166.6666666666667
 20
107.3403887862012
 11
-236.6666666666667
 21
107.3403887862012
  0
ENDSEC
  0
EOF
