  0
SECTION
  2
HEADER
  9
$ACADVER
  1
AC1004
  9
$INSBASE
 10
0.0
 20
0.0
  9
$EXTMIN
 10
-291.3333333333333
 20
54.16666666666666
  9
$EXTMAX
 10
-71.66666666666669
 20
269.1666666666667
  9
$LIMMIN
 10
0.0
 20
0.0
  9
$LIMMAX
 10
12.0
 20
9.0
  9
$ORTHOMODE
 70
     0
  9
$REGENMODE
 70
     1
  9
$FILLMODE
 70
     1
  9
$QTEXTMODE
 70
     0
  9
$DRAGMODE
 70
     2
  9
$LTSCALE
 40
1.0
  9
$OSMODE
 70
    37
  9
$ATTMODE
 70
     1
  9
$TEXTSIZE
 40
0.2
  9
$TRACEWID
 40
0.05
  9
$TEXTSTYLE
  7
STANDARD
  9
$CLAYER
  8
0
  9
$CELTYPE
  6
BYLAYER
  9
$CECOLOR
 62
   256
  9
$DIMSCALE
 40
1.0
  9
$DIMASZ
 40
3.0
  9
$DIMEXO
 40
0.0625
  9
$DIMDLI
 40
0.38
  9
$DIMRND
 40
0.0
  9
$DIMDLE
 40
0.0
  9
$DIMEXE
 40
1.5
  9
$DIMTP
 40
0.0
  9
$DIMTM
 40
0.0
  9
$DIMTXT
 40
3.0
  9
$DIMCEN
 40
0.09
  9
$DIMTSZ
 40
0.0
  9
$DIMTOL
 70
     0
  9
$DIMLIM
 70
     0
  9
$DIMTIH
 70
     1
  9
$DIMTOH
 70
     1
  9
$DIMSE1
 70
     0
  9
$DIMSE2
 70
     0
  9
$DIMTAD
 70
     1
  9
$DIMZIN
 70
     0
  9
$DIMBLK
  1

  9
$DIMASO
 70
     1
  9
$DIMSHO
 70
     1
  9
$DIMPOST
  1

  9
$DIMAPOST
  1

  9
$DIMALT
 70
     0
  9
$DIMALTD
 70
     2
  9
$DIMALTF
 40
25.4
  9
$DIMLFAC
 40
1.0
  9
$DIMTOFL
 70
     0
  9
$DIMTVP
 40
0.0
  9
$DIMTIX
 70
     0
  9
$DIMSOXD
 70
     0
  9
$DIMSAH
 70
     0
  9
$DIMBLK1
  1

  9
$DIMBLK2
  1

  9
$LUNITS
 70
     2
  9
$LUPREC
 70
     4
  9
$SKETCHINC
 40
0.1
  9
$FILLETRAD
 40
0.5
  9
$AUNITS
 70
     0
  9
$AUPREC
 70
     0
  9
$MENU
  1
.
  9
$ELEVATION
 40
0.0
  9
$THICKNESS
 40
0.0
  9
$LIMCHECK
 70
     0
  9
$CHAMFERA
 40
0.0
  9
$CHAMFERB
 40
0.0
  9
$SKPOLY
 70
     0
  9
$TDCREATE
 40
2459984.620731516
  9
$TDUPDATE
 40
2459984.620731829
  9
$TDINDWG
 40
0.0000000116
  9
$TDUSRTIMER
 40
0.0000000116
  9
$USRTIMER
 70
     1
  9
$ANGBASE
 50
0.0
  9
$ANGDIR
 70
     0
  9
$PDMODE
 70
     0
  9
$PDSIZE
 40
0.0
  9
$PLINEWID
 40
0.0
  9
$COORDS
 70
     1
  9
$SPLFRAME
 70
     0
  9
$SPLINETYPE
 70
     6
  9
$SPLINESEGS
 70
     8
  9
$ATTDIA
 70
     0
  9
$ATTREQ
 70
     1
  9
$SURFTAB1
 70
     6
  9
$SURFTAB2
 70
     6
  9
$SURFTYPE
 70
     6
  9
$SURFU
 70
     6
  9
$SURFV
 70
     6
  9
$UCSNAME
  2

  9
$UCSORG
 10
0.0
 20
0.0
 30
0.0
  9
$UCSXDIR
 10
1.0
 20
0.0
 30
0.0
  9
$UCSYDIR
 10
0.0
 20
1.0
 30
0.0
  9
$USERI1
 70
     0
  9
$USERI2
 70
     0
  9
$USERI3
 70
     0
  9
$USERI4
 70
     0
  9
$USERI5
 70
     0
  9
$USERR1
 40
0.0
  9
$USERR2
 40
0.0
  9
$USERR3
 40
0.0
  9
$USERR4
 40
0.0
  9
$USERR5
 40
0.0
  9
$WORLDVIEW
 70
     1
  0
ENDSEC
  0
SECTION
  2
TABLES
  0
TABLE
  2
LTYPE
 70
     2
  0
LTYPE
  2
CONTINUOUS
 70
     0
  3
Solid line
 72
    65
 73
     0
 40
0.0
  0
LTYPE
  2
CENTER
 70
     0
  3

 72
    65
 73
     0
 40
0.0
  0
ENDTAB
  0
TABLE
  2
LAYER
 70
     2
  0
LAYER
  2
0
 70
     0
 62
     7
  6
CONTINUOUS
  0
LAYER
  2
1
 70
     0
 62
     7
  6
CONTINUOUS
  0
ENDTAB
  0
TABLE
  2
STYLE
 70
     2
  0
STYLE
  2
STANDARD
 70
     0
 40
0.0
 41
1.0
 50
0.0
 71
     0
 42
0.2
  3
txt
  4

  0
STYLE
  2
ＭＳ_ゴシック
 70
     0
 40
0.0
 41
1.0
 50
0.0
 71
     0
 42
0.2
  3
ＭＳ ゴシック.shx
  4

  0
ENDTAB
  0
TABLE
  2
VIEW
 70
     0
  0
ENDTAB
  0
ENDSEC
  0
SECTION
  2
BLOCKS
  0
BLOCK
  8
0
  2
D_FRAME_VIEW_2295
 70
     0
 10
0.0
 20
0.0
  0
LINE
  8
1
  6
CONTINUOUS
 62
     7
 10
-89.77494641543146
 20
168.3099354139001
 11
-114.3403887862011
 21
167.6666666666667
  0
LINE
  8
1
  6
CONTINUOUS
 62
     7
 10
-114.3403887862011
 20
240.6666666666667
 11
-89.77494641543146
 21
240.0233979194334
  0
ARC
  8
1
  6
CONTINUOUS
 62
     7
 10
-115.3403887862011
 20
166.6408235375884
 40
1.000000000000001
 50
271.4999999999999
 51
359.9999999999996
  0
ARC
  8
1
  6
CONTINUOUS
 62
     7
 10
-115.3403887862011
 20
241.692509795745
 40
1.000000000000001
 50
359.9999999999993
 51
88.50000000000011
  0
LINE
  8
1
  6
CONTINUOUS
 62
     7
 10
-89.77494641543146
 20
232.102915531532
 11
-92.43200810527871
 21
232.0333379225172
  0
ARC
  8
1
  6
CONTINUOUS
 62
     7
 10
-92.34038878620116
 20
228.5345372851027
 40
3.500000000000002
 50
91.5
 51
180.0
  0
LINE
  8
1
  6
CONTINUOUS
 62
     7
 10
-95.84038878620115
 20
228.5345372851027
 11
-95.84038878620115
 21
225.7987960482307
  0
ARC
  8
1
  6
CONTINUOUS
 62
     7
 10
-92.34038878620116
 20
225.7987960482307
 40
3.500000000000002
 50
180.0
 51
268.5
  0
LINE
  8
1
  6
CONTINUOUS
 62
     7
 10
-92.43200810527871
 20
222.2999954108163
 11
-89.77494641543146
 21
222.2304178018014
  0
LINE
  8
1
  6
CONTINUOUS
 62
     7
 10
-89.77494641543146
 20
209.102915531532
 11
-92.43200810527871
 21
209.0333379225172
  0
ARC
  8
1
  6
CONTINUOUS
 62
     7
 10
-92.34038878620116
 20
205.5345372851027
 40
3.500000000000002
 50
91.5
 51
180.0
  0
LINE
  8
1
  6
CONTINUOUS
 62
     7
 10
-95.84038878620115
 20
205.5345372851027
 11
-95.84038878620115
 21
202.7987960482307
  0
ARC
  8
1
  6
CONTINUOUS
 62
     7
 10
-92.34038878620116
 20
202.7987960482307
 40
3.500000000000002
 50
180.0
 51
268.5
  0
LINE
  8
1
  6
CONTINUOUS
 62
     7
 10
-92.43200810527871
 20
199.2999954108163
 11
-89.77494641543146
 21
199.2304178018014
  0
LINE
  8
1
  6
CONTINUOUS
 62
     7
 10
-89.77494641543146
 20
186.102915531532
 11
-92.43200810527871
 21
186.0333379225172
  0
ARC
  8
1
  6
CONTINUOUS
 62
     7
 10
-92.34038878620116
 20
182.5345372851027
 40
3.500000000000002
 50
91.5
 51
180.0
  0
LINE
  8
1
  6
CONTINUOUS
 62
     7
 10
-95.84038878620115
 20
182.5345372851027
 11
-95.84038878620115
 21
179.7987960482307
  0
ARC
  8
1
  6
CONTINUOUS
 62
     7
 10
-92.34038878620116
 20
179.7987960482307
 40
3.500000000000002
 50
180.0
 51
268.5
  0
LINE
  8
1
  6
CONTINUOUS
 62
     7
 10
-92.43200810527871
 20
176.2999954108162
 11
-89.77494641543146
 21
176.2304178018014
  0
ARC
  8
1
  6
CONTINUOUS
 62
     7
 10
-89.84038878620115
 20
170.809078726339
 40
2.500000000000002
 50
271.5
 51
0.0
  0
ARC
  8
1
  6
CONTINUOUS
 62
     7
 10
-89.84038878620115
 20
237.5242546069945
 40
2.499999999999996
 50
0.0
 51
88.5
  0
POLYLINE
  8
1
  6
CONTINUOUS
 62
     7
 66
     1
  0
VERTEX
  8
1
  6
CONTINUOUS
 62
     7
 10
-87.77166672816786
 20
176.6777887395173
  0
VERTEX
  8
1
  6
CONTINUOUS
 62
     7
 10
-87.771877660165
 20
176.6603574873002
  0
VERTEX
  8
1
  6
CONTINUOUS
 62
     7
 10
-87.77250949697765
 20
176.6429423792515
  0
VERTEX
  8
1
  6
CONTINUOUS
 62
     7
 10
-87.77356079983758
 20
176.6255913586408
  0
VERTEX
  8
1
  6
CONTINUOUS
 62
     7
 10
-87.77503012997656
 20
176.6083523687378
  0
VERTEX
  8
1
  6
CONTINUOUS
 62
     7
 10
-87.77698331431557
 20
176.5907161518952
  0
VERTEX
  8
1
  6
CONTINUOUS
 62
     7
 10
-87.77937932543023
 20
176.5732323235307
  0
VERTEX
  8
1
  6
CONTINUOUS
 62
     7
 10
-87.78221162245842
 20
176.5559494250749
  0
VERTEX
  8
1
  6
CONTINUOUS
 62
     7
 10
-87.78547366453815
 20
176.5389159979582
  0
VERTEX
  8
1
  6
CONTINUOUS
 62
     7
 10
-87.7890466293422
 20
176.5226508652046
  0
VERTEX
  8
1
  6
CONTINUOUS
 62
     7
 10
-87.79301915796039
 20
176.5066453941432
  0
VERTEX
  8
1
  6
CONTINUOUS
 62
     7
 10
-87.79738132379566
 20
176.4909362856706
  0
VERTEX
  8
1
  6
CONTINUOUS
 62
     7
 10
-87.80212320025086
 20
176.4755602406837
  0
VERTEX
  8
1
  6
CONTINUOUS
 62
     7
 10
-87.80738671397813
 20
176.460123760347
  0
VERTEX
  8
1
  6
CONTINUOUS
 62
     7
 10
-87.81304303321768
 20
176.4450550938951
  0
VERTEX
  8
1
  6
CONTINUOUS
 62
     7
 10
-87.81907829279857
 20
176.4303833437853
  0
VERTEX
  8
1
  6
CONTINUOUS
 62
     7
 10
-87.82547862754981
 20
176.416137612475
  0
VERTEX
  8
1
  6
CONTINUOUS
 62
     7
 10
-87.8347790777819
 20
176.3974356030094
  0
VERTEX
  8
1
  6
CONTINUOUS
 62
     7
 10
-87.84474771440576
 20
176.3795221581914
  0
VERTEX
  8
1
  6
CONTINUOUS
 62
     7
 10
-87.85534473203224
 20
176.3624295859736
  0
VERTEX
  8
1
  6
CONTINUOUS
 62
     7
 10
-87.8665303252722
 20
176.3461901943089
  0
VERTEX
  8
1
  6
CONTINUOUS
 62
     7
 10
-87.87826468873646
 20
176.33083629115
  0
VERTEX
  8
1
  6
CONTINUOUS
 62
     7
 10
-87.89050801703588
 20
176.3164001844497
  0
VERTEX
  8
1
  6
CONTINUOUS
 62
     7
 10
-87.90400324404412
 20
176.3021043845201
  0
VERTEX
  8
1
  6
CONTINUOUS
 62
     7
 10
-87.91804743061913
 20
176.2887636596248
  0
VERTEX
  8
1
  6
CONTINUOUS
 62
     7
 10
-87.93259730257688
 20
176.2763763411386
  0
VERTEX
  8
1
  6
CONTINUOUS
 62
     7
 10
-87.94760958573336
 20
176.2649407604362
  0
VERTEX
  8
1
  6
CONTINUOUS
 62
     7
 10
-87.968923955557
 20
176.2507550467272
  0
VERTEX
  8
1
  6
CONTINUOUS
 62
     7
 10
-87.99102712836732
 20
176.2382337712584
  0
VERTEX
  8
1
  6
CONTINUOUS
 62
     7
 10
-88.01382605571425
 20
176.2273297635846
  0
VERTEX
  8
1
  6
CONTINUOUS
 62
     7
 10
-88.03891829370447
 20
176.217381041698
  0
VERTEX
  8
1
  6
CONTINUOUS
 62
     7
 10
-88.0647146552202
 20
176.2091014006851
  0
VERTEX
  8
1
  6
CONTINUOUS
 62
     7
 10
-88.09113023759387
 20
176.2024128984752
  0
VERTEX
  8
1
  6
CONTINUOUS
 62
     7
 10
-88.11808013815795
 20
176.197237592998
  0
VERTEX
  8
1
  6
CONTINUOUS
 62
     7
 10
-88.15591198256742
 20
176.1924342800322
  0
VERTEX
  8
1
  6
CONTINUOUS
 62
     7
 10
-88.19461944143018
 20
176.1901076368843
  0
VERTEX
  8
1
  6
CONTINUOUS
 62
     7
 10
-88.23405283251417
 20
176.1900680832927
  0
SEQEND
  8
1
  6
CONTINUOUS
 62
     7
  0
LINE
  8
1
  6
CONTINUOUS
 62
     7
 10
-87.77166672816786
 20
176.6777887395173
 11
-87.77166672816786
 21
185.6555445938161
  0
POLYLINE
  8
1
  6
CONTINUOUS
 62
     7
 66
     1
  0
VERTEX
  8
1
  6
CONTINUOUS
 62
     7
 10
-88.23405283251415
 20
186.1432652500408
  0
VERTEX
  8
1
  6
CONTINUOUS
 62
     7
 10
-88.19362047759034
 20
186.1431955284557
  0
VERTEX
  8
1
  6
CONTINUOUS
 62
     7
 10
-88.15395355721516
 20
186.1407150367789
  0
VERTEX
  8
1
  6
CONTINUOUS
 62
     7
 10
-88.11521437245072
 20
186.1356188754625
  0
VERTEX
  8
1
  6
CONTINUOUS
 62
     7
 10
-88.08598119511343
 20
186.129747684556
  0
VERTEX
  8
1
  6
CONTINUOUS
 62
     7
 10
-88.05738911247435
 20
186.1220642128522
  0
VERTEX
  8
1
  6
CONTINUOUS
 62
     7
 10
-88.0295503895418
 20
186.1124689361568
  0
VERTEX
  8
1
  6
CONTINUOUS
 62
     7
 10
-88.00257729132407
 20
186.1008623302751
  0
VERTEX
  8
1
  6
CONTINUOUS
 62
     7
 10
-87.98194095013045
 20
186.090188482084
  0
VERTEX
  8
1
  6
CONTINUOUS
 62
     7
 10
-87.9618719946941
 20
186.0780921243152
  0
VERTEX
  8
1
  6
CONTINUOUS
 62
     7
 10
-87.94245129616647
 20
186.0645545796581
  0
VERTEX
  8
1
  6
CONTINUOUS
 62
     7
 10
-87.92375972569901
 20
186.0495571708024
  0
VERTEX
  8
1
  6
CONTINUOUS
 62
     7
 10
-87.90587815444316
 20
186.0330812204377
  0
VERTEX
  8
1
  6
CONTINUOUS
 62
     7
 10
-87.88888745355038
 20
186.0151080512534
  0
VERTEX
  8
1
  6
CONTINUOUS
 62
     7
 10
-87.87542548159819
 20
185.9989430819283
  0
VERTEX
  8
1
  6
CONTINUOUS
 62
     7
 10
-87.86261827066208
 20
185.981695422018
  0
VERTEX
  8
1
  6
CONTINUOUS
 62
     7
 10
-87.85051996742169
 20
185.9633953671547
  0
VERTEX
  8
1
  6
CONTINUOUS
 62
     7
 10
-87.84170292451778
 20
185.9485774200437
  0
VERTEX
  8
1
  6
CONTINUOUS
 62
     7
 10
-87.83333229831882
 20
185.9331324974833
  0
VERTEX
  8
1
  6
CONTINUOUS
 62
     7
 10
-87.82543211966897
 20
185.9170924169529
  0
VERTEX
  8
1
  6
CONTINUOUS
 62
     7
 10
-87.8180264194124
 20
185.9004889959321
  0
VERTEX
  8
1
  6
CONTINUOUS
 62
     7
 10
-87.81129136774764
 20
185.8837603762007
  0
VERTEX
  8
1
  6
CONTINUOUS
 62
     7
 10
-87.80504069333925
 20
185.8665085998047
  0
VERTEX
  8
1
  6
CONTINUOUS
 62
     7
 10
-87.79929317281444
 20
185.84878193415
  0
VERTEX
  8
1
  6
CONTINUOUS
 62
     7
 10
-87.79406758280048
 20
185.8306286466427
  0
VERTEX
  8
1
  6
CONTINUOUS
 62
     7
 10
-87.78920351142818
 20
185.811347044119
  0
VERTEX
  8
1
  6
CONTINUOUS
 62
     7
 10
-87.78491248763471
 20
185.7916400403655
  0
VERTEX
  8
1
  6
CONTINUOUS
 62
     7
 10
-87.78120848212978
 20
185.7715802428428
  0
VERTEX
  8
1
  6
CONTINUOUS
 62
     7
 10
-87.77810546562311
 20
185.7512402590118
  0
VERTEX
  8
1
  6
CONTINUOUS
 62
     7
 10
-87.77579588620318
 20
185.7323818531543
  0
VERTEX
  8
1
  6
CONTINUOUS
 62
     7
 10
-87.77399408547372
 20
185.7133186146806
  0
VERTEX
  8
1
  6
CONTINUOUS
 62
     7
 10
-87.77270320070868
 20
185.6941150126162
  0
VERTEX
  8
1
  6
CONTINUOUS
 62
     7
 10
-87.77192636918205
 20
185.6748355159862
  0
VERTEX
  8
1
  6
CONTINUOUS
 62
     7
 10
-87.77166672816786
 20
185.6555445938161
  0
SEQEND
  8
1
  6
CONTINUOUS
 62
     7
  0
POLYLINE
  8
1
  6
CONTINUOUS
 62
     7
 66
     1
  0
VERTEX
  8
1
  6
CONTINUOUS
 62
     7
 10
-87.77166672816786
 20
199.6777887395174
  0
VERTEX
  8
1
  6
CONTINUOUS
 62
     7
 10
-87.771877660165
 20
199.6603574873002
  0
VERTEX
  8
1
  6
CONTINUOUS
 62
     7
 10
-87.77250949697765
 20
199.6429423792515
  0
VERTEX
  8
1
  6
CONTINUOUS
 62
     7
 10
-87.77356079983758
 20
199.6255913586408
  0
VERTEX
  8
1
  6
CONTINUOUS
 62
     7
 10
-87.77503012997656
 20
199.6083523687378
  0
VERTEX
  8
1
  6
CONTINUOUS
 62
     7
 10
-87.77698331431557
 20
199.5907161518951
  0
VERTEX
  8
1
  6
CONTINUOUS
 62
     7
 10
-87.77937932543023
 20
199.5732323235307
  0
VERTEX
  8
1
  6
CONTINUOUS
 62
     7
 10
-87.78221162245842
 20
199.5559494250749
  0
VERTEX
  8
1
  6
CONTINUOUS
 62
     7
 10
-87.78547366453815
 20
199.5389159979582
  0
VERTEX
  8
1
  6
CONTINUOUS
 62
     7
 10
-87.7890466293422
 20
199.5226508652046
  0
VERTEX
  8
1
  6
CONTINUOUS
 62
     7
 10
-87.79301915796039
 20
199.5066453941432
  0
VERTEX
  8
1
  6
CONTINUOUS
 62
     7
 10
-87.79738132379566
 20
199.4909362856706
  0
VERTEX
  8
1
  6
CONTINUOUS
 62
     7
 10
-87.80212320025086
 20
199.4755602406837
  0
VERTEX
  8
1
  6
CONTINUOUS
 62
     7
 10
-87.80738671397813
 20
199.460123760347
  0
VERTEX
  8
1
  6
CONTINUOUS
 62
     7
 10
-87.81304303321768
 20
199.4450550938951
  0
VERTEX
  8
1
  6
CONTINUOUS
 62
     7
 10
-87.81907829279857
 20
199.4303833437853
  0
VERTEX
  8
1
  6
CONTINUOUS
 62
     7
 10
-87.82547862754981
 20
199.416137612475
  0
VERTEX
  8
1
  6
CONTINUOUS
 62
     7
 10
-87.8347790777819
 20
199.3974356030094
  0
VERTEX
  8
1
  6
CONTINUOUS
 62
     7
 10
-87.84474771440576
 20
199.3795221581914
  0
VERTEX
  8
1
  6
CONTINUOUS
 62
     7
 10
-87.85534473203224
 20
199.3624295859736
  0
VERTEX
  8
1
  6
CONTINUOUS
 62
     7
 10
-87.8665303252722
 20
199.3461901943089
  0
VERTEX
  8
1
  6
CONTINUOUS
 62
     7
 10
-87.87826468873646
 20
199.33083629115
  0
VERTEX
  8
1
  6
CONTINUOUS
 62
     7
 10
-87.89050801703588
 20
199.3164001844497
  0
VERTEX
  8
1
  6
CONTINUOUS
 62
     7
 10
-87.90400324404412
 20
199.30210438452
  0
VERTEX
  8
1
  6
CONTINUOUS
 62
     7
 10
-87.91804743061913
 20
199.2887636596248
  0
VERTEX
  8
1
  6
CONTINUOUS
 62
     7
 10
-87.93259730257688
 20
199.2763763411386
  0
VERTEX
  8
1
  6
CONTINUOUS
 62
     7
 10
-87.94760958573336
 20
199.2649407604362
  0
VERTEX
  8
1
  6
CONTINUOUS
 62
     7
 10
-87.968923955557
 20
199.2507550467272
  0
VERTEX
  8
1
  6
CONTINUOUS
 62
     7
 10
-87.99102712836732
 20
199.2382337712583
  0
VERTEX
  8
1
  6
CONTINUOUS
 62
     7
 10
-88.01382605571425
 20
199.2273297635845
  0
VERTEX
  8
1
  6
CONTINUOUS
 62
     7
 10
-88.03891829370447
 20
199.217381041698
  0
VERTEX
  8
1
  6
CONTINUOUS
 62
     7
 10
-88.0647146552202
 20
199.2091014006851
  0
VERTEX
  8
1
  6
CONTINUOUS
 62
     7
 10
-88.09113023759387
 20
199.2024128984752
  0
VERTEX
  8
1
  6
CONTINUOUS
 62
     7
 10
-88.11808013815795
 20
199.197237592998
  0
VERTEX
  8
1
  6
CONTINUOUS
 62
     7
 10
-88.15591198256742
 20
199.1924342800322
  0
VERTEX
  8
1
  6
CONTINUOUS
 62
     7
 10
-88.19461944143018
 20
199.1901076368844
  0
VERTEX
  8
1
  6
CONTINUOUS
 62
     7
 10
-88.23405283251417
 20
199.1900680832927
  0
SEQEND
  8
1
  6
CONTINUOUS
 62
     7
  0
LINE
  8
1
  6
CONTINUOUS
 62
     7
 10
-87.77166672816786
 20
199.6777887395174
 11
-87.77166672816786
 21
208.6555445938161
  0
POLYLINE
  8
1
  6
CONTINUOUS
 62
     7
 66
     1
  0
VERTEX
  8
1
  6
CONTINUOUS
 62
     7
 10
-88.23405283251415
 20
209.1432652500408
  0
VERTEX
  8
1
  6
CONTINUOUS
 62
     7
 10
-88.19362047759036
 20
209.1431955284558
  0
VERTEX
  8
1
  6
CONTINUOUS
 62
     7
 10
-88.15395355721517
 20
209.1407150367789
  0
VERTEX
  8
1
  6
CONTINUOUS
 62
     7
 10
-88.11521437245074
 20
209.1356188754625
  0
VERTEX
  8
1
  6
CONTINUOUS
 62
     7
 10
-88.08598119511343
 20
209.129747684556
  0
VERTEX
  8
1
  6
CONTINUOUS
 62
     7
 10
-88.05738911247435
 20
209.1220642128522
  0
VERTEX
  8
1
  6
CONTINUOUS
 62
     7
 10
-88.0295503895418
 20
209.1124689361568
  0
VERTEX
  8
1
  6
CONTINUOUS
 62
     7
 10
-88.00257729132407
 20
209.1008623302751
  0
VERTEX
  8
1
  6
CONTINUOUS
 62
     7
 10
-87.98194095013045
 20
209.090188482084
  0
VERTEX
  8
1
  6
CONTINUOUS
 62
     7
 10
-87.9618719946941
 20
209.0780921243152
  0
VERTEX
  8
1
  6
CONTINUOUS
 62
     7
 10
-87.94245129616647
 20
209.0645545796581
  0
VERTEX
  8
1
  6
CONTINUOUS
 62
     7
 10
-87.92375972569901
 20
209.0495571708024
  0
VERTEX
  8
1
  6
CONTINUOUS
 62
     7
 10
-87.90587815444316
 20
209.0330812204377
  0
VERTEX
  8
1
  6
CONTINUOUS
 62
     7
 10
-87.88888745355038
 20
209.0151080512534
  0
VERTEX
  8
1
  6
CONTINUOUS
 62
     7
 10
-87.87542548159819
 20
208.9989430819283
  0
VERTEX
  8
1
  6
CONTINUOUS
 62
     7
 10
-87.86261827066208
 20
208.981695422018
  0
VERTEX
  8
1
  6
CONTINUOUS
 62
     7
 10
-87.85051996742169
 20
208.9633953671547
  0
VERTEX
  8
1
  6
CONTINUOUS
 62
     7
 10
-87.84170292451778
 20
208.9485774200437
  0
VERTEX
  8
1
  6
CONTINUOUS
 62
     7
 10
-87.83333229831882
 20
208.9331324974833
  0
VERTEX
  8
1
  6
CONTINUOUS
 62
     7
 10
-87.82543211966897
 20
208.9170924169529
  0
VERTEX
  8
1
  6
CONTINUOUS
 62
     7
 10
-87.8180264194124
 20
208.9004889959321
  0
VERTEX
  8
1
  6
CONTINUOUS
 62
     7
 10
-87.81129136774764
 20
208.8837603762007
  0
VERTEX
  8
1
  6
CONTINUOUS
 62
     7
 10
-87.80504069333925
 20
208.8665085998047
  0
VERTEX
  8
1
  6
CONTINUOUS
 62
     7
 10
-87.79929317281444
 20
208.84878193415
  0
VERTEX
  8
1
  6
CONTINUOUS
 62
     7
 10
-87.79406758280048
 20
208.8306286466427
  0
VERTEX
  8
1
  6
CONTINUOUS
 62
     7
 10
-87.78920351142818
 20
208.811347044119
  0
VERTEX
  8
1
  6
CONTINUOUS
 62
     7
 10
-87.78491248763471
 20
208.7916400403654
  0
VERTEX
  8
1
  6
CONTINUOUS
 62
     7
 10
-87.78120848212978
 20
208.7715802428428
  0
VERTEX
  8
1
  6
CONTINUOUS
 62
     7
 10
-87.77810546562311
 20
208.7512402590118
  0
VERTEX
  8
1
  6
CONTINUOUS
 62
     7
 10
-87.77579588620318
 20
208.7323818531543
  0
VERTEX
  8
1
  6
CONTINUOUS
 62
     7
 10
-87.77399408547372
 20
208.7133186146806
  0
VERTEX
  8
1
  6
CONTINUOUS
 62
     7
 10
-87.77270320070868
 20
208.6941150126162
  0
VERTEX
  8
1
  6
CONTINUOUS
 62
     7
 10
-87.77192636918205
 20
208.6748355159862
  0
VERTEX
  8
1
  6
CONTINUOUS
 62
     7
 10
-87.77166672816786
 20
208.6555445938161
  0
SEQEND
  8
1
  6
CONTINUOUS
 62
     7
  0
POLYLINE
  8
1
  6
CONTINUOUS
 62
     7
 66
     1
  0
VERTEX
  8
1
  6
CONTINUOUS
 62
     7
 10
-87.77166672816786
 20
222.6777887395174
  0
VERTEX
  8
1
  6
CONTINUOUS
 62
     7
 10
-87.771877660165
 20
222.6603574873002
  0
VERTEX
  8
1
  6
CONTINUOUS
 62
     7
 10
-87.77250949697765
 20
222.6429423792515
  0
VERTEX
  8
1
  6
CONTINUOUS
 62
     7
 10
-87.77356079983758
 20
222.6255913586408
  0
VERTEX
  8
1
  6
CONTINUOUS
 62
     7
 10
-87.77503012997656
 20
222.6083523687378
  0
VERTEX
  8
1
  6
CONTINUOUS
 62
     7
 10
-87.77698331431557
 20
222.5907161518951
  0
VERTEX
  8
1
  6
CONTINUOUS
 62
     7
 10
-87.77937932543023
 20
222.5732323235307
  0
VERTEX
  8
1
  6
CONTINUOUS
 62
     7
 10
-87.78221162245842
 20
222.5559494250749
  0
VERTEX
  8
1
  6
CONTINUOUS
 62
     7
 10
-87.78547366453815
 20
222.5389159979582
  0
VERTEX
  8
1
  6
CONTINUOUS
 62
     7
 10
-87.7890466293422
 20
222.5226508652046
  0
VERTEX
  8
1
  6
CONTINUOUS
 62
     7
 10
-87.79301915796039
 20
222.5066453941432
  0
VERTEX
  8
1
  6
CONTINUOUS
 62
     7
 10
-87.79738132379566
 20
222.4909362856706
  0
VERTEX
  8
1
  6
CONTINUOUS
 62
     7
 10
-87.80212320025086
 20
222.4755602406837
  0
VERTEX
  8
1
  6
CONTINUOUS
 62
     7
 10
-87.80738671397813
 20
222.460123760347
  0
VERTEX
  8
1
  6
CONTINUOUS
 62
     7
 10
-87.81304303321768
 20
222.4450550938951
  0
VERTEX
  8
1
  6
CONTINUOUS
 62
     7
 10
-87.81907829279857
 20
222.4303833437853
  0
VERTEX
  8
1
  6
CONTINUOUS
 62
     7
 10
-87.82547862754981
 20
222.416137612475
  0
VERTEX
  8
1
  6
CONTINUOUS
 62
     7
 10
-87.8347790777819
 20
222.3974356030094
  0
VERTEX
  8
1
  6
CONTINUOUS
 62
     7
 10
-87.84474771440576
 20
222.3795221581914
  0
VERTEX
  8
1
  6
CONTINUOUS
 62
     7
 10
-87.85534473203224
 20
222.3624295859736
  0
VERTEX
  8
1
  6
CONTINUOUS
 62
     7
 10
-87.8665303252722
 20
222.3461901943089
  0
VERTEX
  8
1
  6
CONTINUOUS
 62
     7
 10
-87.87826468873646
 20
222.33083629115
  0
VERTEX
  8
1
  6
CONTINUOUS
 62
     7
 10
-87.89050801703588
 20
222.3164001844496
  0
VERTEX
  8
1
  6
CONTINUOUS
 62
     7
 10
-87.90400324404412
 20
222.30210438452
  0
VERTEX
  8
1
  6
CONTINUOUS
 62
     7
 10
-87.91804743061913
 20
222.2887636596248
  0
VERTEX
  8
1
  6
CONTINUOUS
 62
     7
 10
-87.93259730257688
 20
222.2763763411386
  0
VERTEX
  8
1
  6
CONTINUOUS
 62
     7
 10
-87.94760958573336
 20
222.2649407604362
  0
VERTEX
  8
1
  6
CONTINUOUS
 62
     7
 10
-87.968923955557
 20
222.2507550467272
  0
VERTEX
  8
1
  6
CONTINUOUS
 62
     7
 10
-87.99102712836732
 20
222.2382337712583
  0
VERTEX
  8
1
  6
CONTINUOUS
 62
     7
 10
-88.01382605571425
 20
222.2273297635845
  0
VERTEX
  8
1
  6
CONTINUOUS
 62
     7
 10
-88.03891829370447
 20
222.217381041698
  0
VERTEX
  8
1
  6
CONTINUOUS
 62
     7
 10
-88.0647146552202
 20
222.2091014006851
  0
VERTEX
  8
1
  6
CONTINUOUS
 62
     7
 10
-88.09113023759387
 20
222.2024128984752
  0
VERTEX
  8
1
  6
CONTINUOUS
 62
     7
 10
-88.11808013815795
 20
222.1972375929979
  0
VERTEX
  8
1
  6
CONTINUOUS
 62
     7
 10
-88.15591198256742
 20
222.1924342800322
  0
VERTEX
  8
1
  6
CONTINUOUS
 62
     7
 10
-88.19461944143018
 20
222.1901076368843
  0
VERTEX
  8
1
  6
CONTINUOUS
 62
     7
 10
-88.23405283251417
 20
222.1900680832927
  0
SEQEND
  8
1
  6
CONTINUOUS
 62
     7
  0
LINE
  8
1
  6
CONTINUOUS
 62
     7
 10
-87.77166672816786
 20
222.6777887395174
 11
-87.77166672816786
 21
231.6555445938161
  0
POLYLINE
  8
1
  6
CONTINUOUS
 62
     7
 66
     1
  0
VERTEX
  8
1
  6
CONTINUOUS
 62
     7
 10
-88.23405283251415
 20
232.1432652500408
  0
VERTEX
  8
1
  6
CONTINUOUS
 62
     7
 10
-88.19362047759034
 20
232.1431955284558
  0
VERTEX
  8
1
  6
CONTINUOUS
 62
     7
 10
-88.15395355721516
 20
232.1407150367789
  0
VERTEX
  8
1
  6
CONTINUOUS
 62
     7
 10
-88.11521437245072
 20
232.1356188754625
  0
VERTEX
  8
1
  6
CONTINUOUS
 62
     7
 10
-88.08598119511343
 20
232.129747684556
  0
VERTEX
  8
1
  6
CONTINUOUS
 62
     7
 10
-88.05738911247435
 20
232.1220642128522
  0
VERTEX
  8
1
  6
CONTINUOUS
 62
     7
 10
-88.0295503895418
 20
232.1124689361568
  0
VERTEX
  8
1
  6
CONTINUOUS
 62
     7
 10
-88.00257729132407
 20
232.1008623302751
  0
VERTEX
  8
1
  6
CONTINUOUS
 62
     7
 10
-87.98194095013045
 20
232.090188482084
  0
VERTEX
  8
1
  6
CONTINUOUS
 62
     7
 10
-87.9618719946941
 20
232.0780921243152
  0
VERTEX
  8
1
  6
CONTINUOUS
 62
     7
 10
-87.94245129616647
 20
232.0645545796581
  0
VERTEX
  8
1
  6
CONTINUOUS
 62
     7
 10
-87.92375972569901
 20
232.0495571708024
  0
VERTEX
  8
1
  6
CONTINUOUS
 62
     7
 10
-87.90587815444316
 20
232.0330812204377
  0
VERTEX
  8
1
  6
CONTINUOUS
 62
     7
 10
-87.88888745355038
 20
232.0151080512534
  0
VERTEX
  8
1
  6
CONTINUOUS
 62
     7
 10
-87.87542548159819
 20
231.9989430819283
  0
VERTEX
  8
1
  6
CONTINUOUS
 62
     7
 10
-87.86261827066208
 20
231.981695422018
  0
VERTEX
  8
1
  6
CONTINUOUS
 62
     7
 10
-87.85051996742169
 20
231.9633953671547
  0
VERTEX
  8
1
  6
CONTINUOUS
 62
     7
 10
-87.84170292451778
 20
231.9485774200437
  0
VERTEX
  8
1
  6
CONTINUOUS
 62
     7
 10
-87.83333229831882
 20
231.9331324974833
  0
VERTEX
  8
1
  6
CONTINUOUS
 62
     7
 10
-87.82543211966897
 20
231.9170924169529
  0
VERTEX
  8
1
  6
CONTINUOUS
 62
     7
 10
-87.8180264194124
 20
231.9004889959322
  0
VERTEX
  8
1
  6
CONTINUOUS
 62
     7
 10
-87.81129136774764
 20
231.8837603762007
  0
VERTEX
  8
1
  6
CONTINUOUS
 62
     7
 10
-87.80504069333925
 20
231.8665085998047
  0
VERTEX
  8
1
  6
CONTINUOUS
 62
     7
 10
-87.79929317281444
 20
231.84878193415
  0
VERTEX
  8
1
  6
CONTINUOUS
 62
     7
 10
-87.79406758280048
 20
231.8306286466426
  0
VERTEX
  8
1
  6
CONTINUOUS
 62
     7
 10
-87.78920351142818
 20
231.811347044119
  0
VERTEX
  8
1
  6
CONTINUOUS
 62
     7
 10
-87.78491248763471
 20
231.7916400403654
  0
VERTEX
  8
1
  6
CONTINUOUS
 62
     7
 10
-87.78120848212978
 20
231.7715802428428
  0
VERTEX
  8
1
  6
CONTINUOUS
 62
     7
 10
-87.77810546562311
 20
231.7512402590118
  0
VERTEX
  8
1
  6
CONTINUOUS
 62
     7
 10
-87.77579588620318
 20
231.7323818531543
  0
VERTEX
  8
1
  6
CONTINUOUS
 62
     7
 10
-87.77399408547372
 20
231.7133186146806
  0
VERTEX
  8
1
  6
CONTINUOUS
 62
     7
 10
-87.77270320070868
 20
231.6941150126161
  0
VERTEX
  8
1
  6
CONTINUOUS
 62
     7
 10
-87.77192636918205
 20
231.6748355159862
  0
VERTEX
  8
1
  6
CONTINUOUS
 62
     7
 10
-87.77166672816786
 20
231.6555445938161
  0
SEQEND
  8
1
  6
CONTINUOUS
 62
     7
  0
LINE
  8
1
  6
CONTINUOUS
 62
     7
 10
-87.34038878620115
 20
237.5242546069945
 11
-87.34038878620115
 21
170.809078726339
  0
LINE
  8
1
  6
CONTINUOUS
 62
     7
 10
-89.77494641543146
 20
199.2304178018014
 11
-88.23405283251417
 21
199.1900680832927
  0
LINE
  8
1
  6
CONTINUOUS
 62
     7
 10
-89.77494641543146
 20
222.2304178018014
 11
-88.23405283251417
 21
222.1900680832927
  0
LINE
  8
1
  6
CONTINUOUS
 62
     7
 10
-89.77494641543146
 20
176.2304178018014
 11
-88.23405283251417
 21
176.1900680832927
  0
LINE
  8
1
  6
CONTINUOUS
 62
     7
 10
-88.23405283251415
 20
232.1432652500408
 11
-89.77494641543146
 21
232.102915531532
  0
LINE
  8
1
  6
CONTINUOUS
 62
     7
 10
-88.23405283251415
 20
209.1432652500408
 11
-89.77494641543146
 21
209.102915531532
  0
LINE
  8
1
  6
CONTINUOUS
 62
     7
 10
-88.23405283251415
 20
186.1432652500408
 11
-89.77494641543146
 21
186.102915531532
  0
LINE
  8
1
  6
CONTINUOUS
 62
     7
 10
-85.34038878620115
 20
232.4166666666667
 11
-85.34038878620115
 21
175.9166666666667
  0
LINE
  8
1
  6
CONTINUOUS
 62
     7
 10
-85.34038878620115
 20
236.4166666666667
 11
-85.34038878620115
 21
232.4166666666667
  0
ARC
  8
1
  6
CONTINUOUS
 62
     7
 10
-86.34038878620115
 20
236.4166666666667
 40
1.000000000000001
 50
0.0
 51
90.0
  0
LINE
  8
1
  6
CONTINUOUS
 62
     7
 10
-87.34038878620115
 20
237.4166666666667
 11
-86.34038878620115
 21
237.4166666666667
  0
LINE
  8
1
  6
CONTINUOUS
 62
     7
 10
-87.34038878620115
 20
170.9166666666667
 11
-86.34038878620115
 21
170.9166666666667
  0
LINE
  8
1
  6
CONTINUOUS
 62
     7
 10
-85.34038878620115
 20
175.9166666666667
 11
-85.34038878620115
 21
171.9166666666667
  0
ARC
  8
1
  6
CONTINUOUS
 62
     7
 10
-86.34038878620115
 20
171.9166666666667
 40
1.000000000000001
 50
270.0
 51
0.0
  0
ENDBLK
  8
0
  0
BLOCK
  8
0
  2
D_FRAME_VIEW_2507
 70
     0
 10
0.0
 20
0.0
  0
LINE
  8
1
  6
CONTINUOUS
 62
     7
 10
-278.6096904749483
 20
96.84038878620113
 11
-280.1091764624117
 21
96.84038878620113
  0
ARC
  8
1
  6
CONTINUOUS
 62
     7
 10
-280.1091764624117
 20
97.84038878620113
 40
1.000000000000001
 50
181.5
 51
270.0
  0
LINE
  8
1
  6
CONTINUOUS
 62
     7
 10
-188.0569761917183
 20
96.84038878620113
 11
-278.6096904749483
 21
96.84038878620113
  0
LINE
  8
1
  6
CONTINUOUS
 62
     7
 10
-186.557490204255
 20
96.84038878620113
 11
-188.0569761917183
 21
96.84038878620113
  0
ARC
  8
1
  6
CONTINUOUS
 62
     7
 10
-186.557490204255
 20
97.84038878620113
 40
1.000000000000001
 50
270.0
 51
358.5000000000001
  0
LINE
  8
1
  6
CONTINUOUS
 62
     7
 10
-241.0176629855906
 20
76.87965420866296
 11
-240.897084468468
 21
72.27494641543146
  0
ARC
  8
1
  6
CONTINUOUS
 62
     7
 10
-242.5171489730539
 20
76.84038878620113
 40
1.500000000000001
 50
1.500000000000625
 51
90.0
  0
LINE
  8
1
  6
CONTINUOUS
 62
     7
 10
-243.1495176936127
 20
78.34038878620113
 11
-242.5171489730539
 21
78.34038878620113
  0
ARC
  8
1
  6
CONTINUOUS
 62
     7
 10
-243.1495176936127
 20
76.84038878620113
 40
1.500000000000001
 50
90.0
 51
178.4999999999999
  0
LINE
  8
1
  6
CONTINUOUS
 62
     7
 10
-244.7695821981986
 20
72.27494641543146
 11
-244.6490036810761
 21
76.87965420866294
  0
LINE
  8
1
  6
CONTINUOUS
 62
     7
 10
-251.4666620774829
 20
74.9320081052787
 11
-251.397084468468
 21
72.27494641543146
  0
ARC
  8
1
  6
CONTINUOUS
 62
     7
 10
-254.9654627148973
 20
74.84038878620113
 40
3.500000000000002
 50
1.499999999999773
 51
90.0
  0
LINE
  8
1
  6
CONTINUOUS
 62
     7
 10
-257.7012039517693
 20
78.34038878620113
 11
-254.9654627148973
 21
78.34038878620113
  0
ARC
  8
1
  6
CONTINUOUS
 62
     7
 10
-257.7012039517693
 20
74.84038878620113
 40
3.500000000000002
 50
90.0
 51
178.5
  0
LINE
  8
1
  6
CONTINUOUS
 62
     7
 10
-261.2695821981986
 20
72.27494641543146
 11
-261.2000045891838
 21
74.9320081052787
  0
LINE
  8
1
  6
CONTINUOUS
 62
     7
 10
-268.0176629855906
 20
76.87965420866294
 11
-267.8970844684681
 21
72.27494641543146
  0
ARC
  8
1
  6
CONTINUOUS
 62
     7
 10
-269.517148973054
 20
76.84038878620113
 40
1.500000000000001
 50
1.500000000000057
 51
90.0
  0
LINE
  8
1
  6
CONTINUOUS
 62
     7
 10
-270.1495176936127
 20
78.34038878620113
 11
-269.517148973054
 21
78.34038878620113
  0
ARC
  8
1
  6
CONTINUOUS
 62
     7
 10
-270.1495176936127
 20
76.84038878620113
 40
1.500000000000001
 50
90.0
 51
178.4999999999999
  0
LINE
  8
1
  6
CONTINUOUS
 62
     7
 10
-271.7695821981986
 20
72.27494641543146
 11
-271.6490036810761
 21
76.87965420866294
  0
LINE
  8
1
  6
CONTINUOUS
 62
     7
 10
-195.0176629855906
 20
76.87965420866294
 11
-194.897084468468
 21
72.27494641543146
  0
ARC
  8
1
  6
CONTINUOUS
 62
     7
 10
-196.5171489730539
 20
76.84038878620113
 40
1.500000000000001
 50
1.500000000000057
 51
90.0
  0
LINE
  8
1
  6
CONTINUOUS
 62
     7
 10
-197.1495176936127
 20
78.34038878620113
 11
-196.5171489730539
 21
78.34038878620113
  0
ARC
  8
1
  6
CONTINUOUS
 62
     7
 10
-197.1495176936127
 20
76.84038878620113
 40
1.500000000000001
 50
90.0
 51
178.4999999999999
  0
LINE
  8
1
  6
CONTINUOUS
 62
     7
 10
-198.7695821981986
 20
72.27494641543146
 11
-198.6490036810761
 21
76.87965420866294
  0
LINE
  8
1
  6
CONTINUOUS
 62
     7
 10
-205.4666620774829
 20
74.9320081052787
 11
-205.3970844684681
 21
72.27494641543146
  0
ARC
  8
1
  6
CONTINUOUS
 62
     7
 10
-208.9654627148973
 20
74.84038878620113
 40
3.500000000000002
 50
1.5
 51
90.0
  0
LINE
  8
1
  6
CONTINUOUS
 62
     7
 10
-211.7012039517693
 20
78.34038878620113
 11
-208.9654627148973
 21
78.34038878620113
  0
ARC
  8
1
  6
CONTINUOUS
 62
     7
 10
-211.7012039517693
 20
74.84038878620113
 40
3.500000000000002
 50
90.0
 51
178.5
  0
LINE
  8
1
  6
CONTINUOUS
 62
     7
 10
-215.2695821981986
 20
72.27494641543146
 11
-215.2000045891838
 21
74.9320081052787
  0
LINE
  8
1
  6
CONTINUOUS
 62
     7
 10
-222.0176629855906
 20
76.87965420866294
 11
-221.897084468468
 21
72.27494641543146
  0
ARC
  8
1
  6
CONTINUOUS
 62
     7
 10
-223.5171489730539
 20
76.84038878620113
 40
1.500000000000001
 50
1.500000000000114
 51
90.0
  0
LINE
  8
1
  6
CONTINUOUS
 62
     7
 10
-224.1495176936128
 20
78.34038878620113
 11
-223.5171489730539
 21
78.34038878620113
  0
ARC
  8
1
  6
CONTINUOUS
 62
     7
 10
-224.1495176936128
 20
76.84038878620113
 40
1.500000000000001
 50
90.0
 51
178.4999999999999
  0
LINE
  8
1
  6
CONTINUOUS
 62
     7
 10
-225.7695821981986
 20
72.27494641543146
 11
-225.6490036810761
 21
76.87965420866294
  0
LINE
  8
1
  6
CONTINUOUS
 62
     7
 10
-185.5578328792795
 20
97.81421183789327
 11
-185.5833333333333
 21
96.84038878620113
  0
LINE
  8
1
  6
CONTINUOUS
 62
     7
 10
-185.5833333333333
 20
96.84038878620113
 11
-186.2266020805667
 21
72.27494641543144
  0
LINE
  8
1
  6
CONTINUOUS
 62
     7
 10
-280.4400645861
 20
72.27494641543144
 11
-281.0833333333334
 21
96.84038878620113
  0
LINE
  8
1
  6
CONTINUOUS
 62
     7
 10
-281.0833333333334
 20
96.84038878620113
 11
-281.1088337873872
 21
97.81421183789327
  0
ARC
  8
1
  6
CONTINUOUS
 62
     7
 10
-277.9409212736611
 20
72.34038878620113
 40
2.500000000000002
 50
181.5
 51
269.9999999999998
  0
ARC
  8
1
  6
CONTINUOUS
 62
     7
 10
-188.7257453930056
 20
72.34038878620113
 40
2.500000000000002
 50
270.0
 51
358.5
  0
POLYLINE
  8
1
  6
CONTINUOUS
 62
     7
 66
     1
  0
VERTEX
  8
1
  6
CONTINUOUS
 62
     7
 10
-214.8170155699918
 20
70.47008214299916
  0
VERTEX
  8
1
  6
CONTINUOUS
 62
     7
 10
-214.8331685740562
 20
70.47032049839396
  0
VERTEX
  8
1
  6
CONTINUOUS
 62
     7
 10
-214.8493056516479
 20
70.47103384145841
  0
VERTEX
  8
1
  6
CONTINUOUS
 62
     7
 10
-214.8653797761073
 20
70.47221958751243
  0
VERTEX
  8
1
  6
CONTINUOUS
 62
     7
 10
-214.8813439207752
 20
70.47387515187604
  0
VERTEX
  8
1
  6
CONTINUOUS
 62
     7
 10
-214.8976962288098
 20
70.47607755067264
  0
VERTEX
  8
1
  6
CONTINUOUS
 62
     7
 10
-214.913899183245
 20
70.47877528204259
  0
VERTEX
  8
1
  6
CONTINUOUS
 62
     7
 10
-214.9299065941412
 20
70.48195778179866
  0
VERTEX
  8
1
  6
CONTINUOUS
 62
     7
 10
-214.9456722715586
 20
70.4856144857536
  0
VERTEX
  8
1
  6
CONTINUOUS
 62
     7
 10
-214.9606878803345
 20
70.48960120881706
  0
VERTEX
  8
1
  6
CONTINUOUS
 62
     7
 10
-214.9754557024272
 20
70.49402027554616
  0
VERTEX
  8
1
  6
CONTINUOUS
 62
     7
 10
-214.9899434758871
 20
70.49885702713041
  0
VERTEX
  8
1
  6
CONTINUOUS
 62
     7
 10
-215.0041189387648
 20
70.50409680475936
  0
VERTEX
  8
1
  6
CONTINUOUS
 62
     7
 10
-215.0230066682541
 20
70.51191147391464
  0
VERTEX
  8
1
  6
CONTINUOUS
 62
     7
 10
-215.0412772988766
 20
70.52044091839427
  0
VERTEX
  8
1
  6
CONTINUOUS
 62
     7
 10
-215.0588766207424
 20
70.52964118755348
  0
VERTEX
  8
1
  6
CONTINUOUS
 62
     7
 10
-215.0747099210365
 20
70.53882772541917
  0
VERTEX
  8
1
  6
CONTINUOUS
 62
     7
 10
-215.0899474443688
 20
70.5485593829379
  0
VERTEX
  8
1
  6
CONTINUOUS
 62
     7
 10
-215.1045684596676
 20
70.55880013033072
  0
VERTEX
  8
1
  6
CONTINUOUS
 62
     7
 10
-215.1185522358612
 20
70.56951393781863
  0
VERTEX
  8
1
  6
CONTINUOUS
 62
     7
 10
-215.1367141182791
 20
70.58495006546583
  0
VERTEX
  8
1
  6
CONTINUOUS
 62
     7
 10
-215.1537229563814
 20
70.60119308064256
  0
VERTEX
  8
1
  6
CONTINUOUS
 62
     7
 10
-215.1695733613619
 20
70.61816106825849
  0
VERTEX
  8
1
  6
CONTINUOUS
 62
     7
 10
-215.1845043009531
 20
70.63607368353975
  0
VERTEX
  8
1
  6
CONTINUOUS
 62
     7
 10
-215.198323525713
 20
70.6546486778014
  0
VERTEX
  8
1
  6
CONTINUOUS
 62
     7
 10
-215.2110566664821
 20
70.6738194097805
  0
VERTEX
  8
1
  6
CONTINUOUS
 62
     7
 10
-215.2227293541007
 20
70.69351923821412
  0
VERTEX
  8
1
  6
CONTINUOUS
 62
     7
 10
-215.2370926373496
 20
70.72131920768916
  0
VERTEX
  8
1
  6
CONTINUOUS
 62
     7
 10
-215.2496867459969
 20
70.74998597306639
  0
VERTEX
  8
1
  6
CONTINUOUS
 62
     7
 10
-215.2606084715393
 20
70.77939958889384
  0
VERTEX
  8
1
  6
CONTINUOUS
 62
     7
 10
-215.2721095258727
 20
70.81720657973639
  0
VERTEX
  8
1
  6
CONTINUOUS
 62
     7
 10
-215.2813857397813
 20
70.85600647023803
  0
VERTEX
  8
1
  6
CONTINUOUS
 62
     7
 10
-215.2886193606628
 20
70.8956570472136
  0
VERTEX
  8
1
  6
CONTINUOUS
 62
     7
 10
-215.2939926359153
 20
70.93601609747796
  0
VERTEX
  8
1
  6
CONTINUOUS
 62
     7
 10
-215.2986723951159
 20
70.99245472312614
  0
VERTEX
  8
1
  6
CONTINUOUS
 62
     7
 10
-215.3005946221172
 20
71.05003137130991
  0
VERTEX
  8
1
  6
CONTINUOUS
 62
     7
 10
-215.3001253208174
 20
71.10855162050245
  0
SEQEND
  8
1
  6
CONTINUOUS
 62
     7
  0
LINE
  8
1
  6
CONTINUOUS
 62
     7
 10
-214.8170155699918
 20
70.47008214299916
 11
-205.8496510966748
 21
70.47008214299916
  0
POLYLINE
  8
1
  6
CONTINUOUS
 62
     7
 66
     1
  0
VERTEX
  8
1
  6
CONTINUOUS
 62
     7
 10
-205.3665413458493
 20
71.10855162050247
  0
VERTEX
  8
1
  6
CONTINUOUS
 62
     7
 10
-205.3660293635766
 20
71.05234195300523
  0
VERTEX
  8
1
  6
CONTINUOUS
 62
     7
 10
-205.3676981632505
 20
70.99685478116369
  0
VERTEX
  8
1
  6
CONTINUOUS
 62
     7
 10
-205.3719170106385
 20
70.94232804523178
  0
VERTEX
  8
1
  6
CONTINUOUS
 62
     7
 10
-205.3790551715082
 20
70.88899968546335
  0
VERTEX
  8
1
  6
CONTINUOUS
 62
     7
 10
-205.3894819116271
 20
70.83710764211227
  0
VERTEX
  8
1
  6
CONTINUOUS
 62
     7
 10
-205.4035664967628
 20
70.78688985543246
  0
VERTEX
  8
1
  6
CONTINUOUS
 62
     7
 10
-205.4129426767719
 20
70.76029163991745
  0
VERTEX
  8
1
  6
CONTINUOUS
 62
     7
 10
-205.4236591865614
 20
70.73422597093645
  0
VERTEX
  8
1
  6
CONTINUOUS
 62
     7
 10
-205.4357811678796
 20
70.70879128210164
  0
VERTEX
  8
1
  6
CONTINUOUS
 62
     7
 10
-205.4493737624745
 20
70.68408600702512
  0
VERTEX
  8
1
  6
CONTINUOUS
 62
     7
 10
-205.4645021120945
 20
70.66020857931899
  0
VERTEX
  8
1
  6
CONTINUOUS
 62
     7
 10
-205.4812313584877
 20
70.63725743259545
  0
VERTEX
  8
1
  6
CONTINUOUS
 62
     7
 10
-205.4960223241034
 20
70.61938174044559
  0
VERTEX
  8
1
  6
CONTINUOUS
 62
     7
 10
-205.51196625073
 20
70.60218485613142
  0
VERTEX
  8
1
  6
CONTINUOUS
 62
     7
 10
-205.5290697852392
 20
70.5857457148333
  0
VERTEX
  8
1
  6
CONTINUOUS
 62
     7
 10
-205.5430385370443
 20
70.57364858297615
  0
VERTEX
  8
1
  6
CONTINUOUS
 62
     7
 10
-205.557730103025
 20
70.56204856822313
  0
VERTEX
  8
1
  6
CONTINUOUS
 62
     7
 10
-205.5731278297129
 20
70.55098804206563
  0
VERTEX
  8
1
  6
CONTINUOUS
 62
     7
 10
-205.5892150636402
 20
70.540509375995
  0
VERTEX
  8
1
  6
CONTINUOUS
 62
     7
 10
-205.6065955606143
 20
70.53030482179201
  0
VERTEX
  8
1
  6
CONTINUOUS
 62
     7
 10
-205.6247140884444
 20
70.52077560267819
  0
VERTEX
  8
1
  6
CONTINUOUS
 62
     7
 10
-205.6435219143146
 20
70.51197069733585
  0
VERTEX
  8
1
  6
CONTINUOUS
 62
     7
 10
-205.6584705824342
 20
70.50570271144329
  0
VERTEX
  8
1
  6
CONTINUOUS
 62
     7
 10
-205.6738138618742
 20
70.49989242734311
  0
VERTEX
  8
1
  6
CONTINUOUS
 62
     7
 10
-205.6895145091835
 20
70.4945599694094
  0
VERTEX
  8
1
  6
CONTINUOUS
 62
     7
 10
-205.7055352809113
 20
70.48972546201627
  0
VERTEX
  8
1
  6
CONTINUOUS
 62
     7
 10
-205.7224029659837
 20
70.4852679979824
  0
VERTEX
  8
1
  6
CONTINUOUS
 62
     7
 10
-205.7395865020581
 20
70.48135935731389
  0
VERTEX
  8
1
  6
CONTINUOUS
 62
     7
 10
-205.7570291148889
 20
70.47801485808489
  0
VERTEX
  8
1
  6
CONTINUOUS
 62
     7
 10
-205.7746740302304
 20
70.47524981836955
  0
VERTEX
  8
1
  6
CONTINUOUS
 62
     7
 10
-205.7932312364644
 20
70.47299659557723
  0
VERTEX
  8
1
  6
CONTINUOUS
 62
     7
 10
-205.8119627904848
 20
70.47138084867038
  0
VERTEX
  8
1
  6
CONTINUOUS
 62
     7
 10
-205.830794230989
 20
70.47040766777054
  0
VERTEX
  8
1
  6
CONTINUOUS
 62
     7
 10
-205.8496510966748
 20
70.47008214299916
  0
SEQEND
  8
1
  6
CONTINUOUS
 62
     7
  0
POLYLINE
  8
1
  6
CONTINUOUS
 62
     7
 66
     1
  0
VERTEX
  8
1
  6
CONTINUOUS
 62
     7
 10
-198.3170155699918
 20
70.47008214299916
  0
VERTEX
  8
1
  6
CONTINUOUS
 62
     7
 10
-198.3331685740562
 20
70.47032049839396
  0
VERTEX
  8
1
  6
CONTINUOUS
 62
     7
 10
-198.3493056516479
 20
70.47103384145841
  0
VERTEX
  8
1
  6
CONTINUOUS
 62
     7
 10
-198.3653797761073
 20
70.47221958751243
  0
VERTEX
  8
1
  6
CONTINUOUS
 62
     7
 10
-198.3813439207752
 20
70.47387515187604
  0
VERTEX
  8
1
  6
CONTINUOUS
 62
     7
 10
-198.3976962288098
 20
70.47607755067264
  0
VERTEX
  8
1
  6
CONTINUOUS
 62
     7
 10
-198.413899183245
 20
70.47877528204259
  0
VERTEX
  8
1
  6
CONTINUOUS
 62
     7
 10
-198.4299065941412
 20
70.48195778179866
  0
VERTEX
  8
1
  6
CONTINUOUS
 62
     7
 10
-198.4456722715586
 20
70.4856144857536
  0
VERTEX
  8
1
  6
CONTINUOUS
 62
     7
 10
-198.4606878803345
 20
70.48960120881706
  0
VERTEX
  8
1
  6
CONTINUOUS
 62
     7
 10
-198.4754557024272
 20
70.49402027554616
  0
VERTEX
  8
1
  6
CONTINUOUS
 62
     7
 10
-198.4899434758872
 20
70.49885702713041
  0
VERTEX
  8
1
  6
CONTINUOUS
 62
     7
 10
-198.5041189387648
 20
70.50409680475936
  0
VERTEX
  8
1
  6
CONTINUOUS
 62
     7
 10
-198.5230066682541
 20
70.51191147391464
  0
VERTEX
  8
1
  6
CONTINUOUS
 62
     7
 10
-198.5412772988765
 20
70.52044091839427
  0
VERTEX
  8
1
  6
CONTINUOUS
 62
     7
 10
-198.5588766207424
 20
70.52964118755348
  0
VERTEX
  8
1
  6
CONTINUOUS
 62
     7
 10
-198.5747099210365
 20
70.53882772541915
  0
VERTEX
  8
1
  6
CONTINUOUS
 62
     7
 10
-198.5899474443688
 20
70.54855938293788
  0
VERTEX
  8
1
  6
CONTINUOUS
 62
     7
 10
-198.6045684596675
 20
70.55880013033071
  0
VERTEX
  8
1
  6
CONTINUOUS
 62
     7
 10
-198.6185522358612
 20
70.56951393781863
  0
VERTEX
  8
1
  6
CONTINUOUS
 62
     7
 10
-198.6367141182791
 20
70.58495006546582
  0
VERTEX
  8
1
  6
CONTINUOUS
 62
     7
 10
-198.6537229563814
 20
70.60119308064256
  0
VERTEX
  8
1
  6
CONTINUOUS
 62
     7
 10
-198.6695733613619
 20
70.61816106825849
  0
VERTEX
  8
1
  6
CONTINUOUS
 62
     7
 10
-198.6845043009531
 20
70.63607368353975
  0
VERTEX
  8
1
  6
CONTINUOUS
 62
     7
 10
-198.698323525713
 20
70.6546486778014
  0
VERTEX
  8
1
  6
CONTINUOUS
 62
     7
 10
-198.711056666482
 20
70.6738194097805
  0
VERTEX
  8
1
  6
CONTINUOUS
 62
     7
 10
-198.7227293541007
 20
70.69351923821412
  0
VERTEX
  8
1
  6
CONTINUOUS
 62
     7
 10
-198.7370926373496
 20
70.72131920768916
  0
VERTEX
  8
1
  6
CONTINUOUS
 62
     7
 10
-198.7496867459969
 20
70.74998597306639
  0
VERTEX
  8
1
  6
CONTINUOUS
 62
     7
 10
-198.7606084715393
 20
70.77939958889384
  0
VERTEX
  8
1
  6
CONTINUOUS
 62
     7
 10
-198.7721095258727
 20
70.81720657973639
  0
VERTEX
  8
1
  6
CONTINUOUS
 62
     7
 10
-198.7813857397813
 20
70.85600647023803
  0
VERTEX
  8
1
  6
CONTINUOUS
 62
     7
 10
-198.7886193606628
 20
70.8956570472136
  0
VERTEX
  8
1
  6
CONTINUOUS
 62
     7
 10
-198.7939926359153
 20
70.93601609747796
  0
VERTEX
  8
1
  6
CONTINUOUS
 62
     7
 10
-198.7986723951159
 20
70.99245472312614
  0
VERTEX
  8
1
  6
CONTINUOUS
 62
     7
 10
-198.8005946221172
 20
71.05003137130991
  0
VERTEX
  8
1
  6
CONTINUOUS
 62
     7
 10
-198.8001253208174
 20
71.10855162050245
  0
SEQEND
  8
1
  6
CONTINUOUS
 62
     7
  0
LINE
  8
1
  6
CONTINUOUS
 62
     7
 10
-198.3170155699918
 20
70.47008214299916
 11
-195.3496510966748
 21
70.47008214299916
  0
POLYLINE
  8
1
  6
CONTINUOUS
 62
     7
 66
     1
  0
VERTEX
  8
1
  6
CONTINUOUS
 62
     7
 10
-194.8665413458493
 20
71.10855162050247
  0
VERTEX
  8
1
  6
CONTINUOUS
 62
     7
 10
-194.8660293635766
 20
71.05234195300523
  0
VERTEX
  8
1
  6
CONTINUOUS
 62
     7
 10
-194.8676981632505
 20
70.99685478116369
  0
VERTEX
  8
1
  6
CONTINUOUS
 62
     7
 10
-194.8719170106385
 20
70.94232804523178
  0
VERTEX
  8
1
  6
CONTINUOUS
 62
     7
 10
-194.8790551715082
 20
70.88899968546335
  0
VERTEX
  8
1
  6
CONTINUOUS
 62
     7
 10
-194.8894819116271
 20
70.83710764211227
  0
VERTEX
  8
1
  6
CONTINUOUS
 62
     7
 10
-194.9035664967628
 20
70.78688985543246
  0
VERTEX
  8
1
  6
CONTINUOUS
 62
     7
 10
-194.9129426767719
 20
70.76029163991745
  0
VERTEX
  8
1
  6
CONTINUOUS
 62
     7
 10
-194.9236591865615
 20
70.73422597093645
  0
VERTEX
  8
1
  6
CONTINUOUS
 62
     7
 10
-194.9357811678796
 20
70.70879128210164
  0
VERTEX
  8
1
  6
CONTINUOUS
 62
     7
 10
-194.9493737624745
 20
70.68408600702512
  0
VERTEX
  8
1
  6
CONTINUOUS
 62
     7
 10
-194.9645021120945
 20
70.66020857931899
  0
VERTEX
  8
1
  6
CONTINUOUS
 62
     7
 10
-194.9812313584877
 20
70.63725743259545
  0
VERTEX
  8
1
  6
CONTINUOUS
 62
     7
 10
-194.9960223241035
 20
70.61938174044559
  0
VERTEX
  8
1
  6
CONTINUOUS
 62
     7
 10
-195.01196625073
 20
70.60218485613142
  0
VERTEX
  8
1
  6
CONTINUOUS
 62
     7
 10
-195.0290697852392
 20
70.5857457148333
  0
VERTEX
  8
1
  6
CONTINUOUS
 62
     7
 10
-195.0430385370443
 20
70.57364858297615
  0
VERTEX
  8
1
  6
CONTINUOUS
 62
     7
 10
-195.057730103025
 20
70.56204856822313
  0
VERTEX
  8
1
  6
CONTINUOUS
 62
     7
 10
-195.073127829713
 20
70.55098804206561
  0
VERTEX
  8
1
  6
CONTINUOUS
 62
     7
 10
-195.0892150636402
 20
70.54050937599499
  0
VERTEX
  8
1
  6
CONTINUOUS
 62
     7
 10
-195.1065955606143
 20
70.53030482179201
  0
VERTEX
  8
1
  6
CONTINUOUS
 62
     7
 10
-195.1247140884445
 20
70.52077560267817
  0
VERTEX
  8
1
  6
CONTINUOUS
 62
     7
 10
-195.1435219143146
 20
70.51197069733585
  0
VERTEX
  8
1
  6
CONTINUOUS
 62
     7
 10
-195.1584705824342
 20
70.50570271144329
  0
VERTEX
  8
1
  6
CONTINUOUS
 62
     7
 10
-195.1738138618742
 20
70.49989242734311
  0
VERTEX
  8
1
  6
CONTINUOUS
 62
     7
 10
-195.1895145091835
 20
70.4945599694094
  0
VERTEX
  8
1
  6
CONTINUOUS
 62
     7
 10
-195.2055352809113
 20
70.48972546201627
  0
VERTEX
  8
1
  6
CONTINUOUS
 62
     7
 10
-195.2224029659837
 20
70.4852679979824
  0
VERTEX
  8
1
  6
CONTINUOUS
 62
     7
 10
-195.2395865020581
 20
70.48135935731389
  0
VERTEX
  8
1
  6
CONTINUOUS
 62
     7
 10
-195.2570291148889
 20
70.47801485808489
  0
VERTEX
  8
1
  6
CONTINUOUS
 62
     7
 10
-195.2746740302304
 20
70.47524981836955
  0
VERTEX
  8
1
  6
CONTINUOUS
 62
     7
 10
-195.2932312364644
 20
70.47299659557723
  0
VERTEX
  8
1
  6
CONTINUOUS
 62
     7
 10
-195.3119627904848
 20
70.47138084867038
  0
VERTEX
  8
1
  6
CONTINUOUS
 62
     7
 10
-195.330794230989
 20
70.47040766777054
  0
VERTEX
  8
1
  6
CONTINUOUS
 62
     7
 10
-195.3496510966748
 20
70.47008214299916
  0
SEQEND
  8
1
  6
CONTINUOUS
 62
     7
  0
LINE
  8
1
  6
CONTINUOUS
 62
     7
 10
-188.7257453930056
 20
69.84038878620113
 11
-277.9409212736611
 21
69.84038878620113
  0
POLYLINE
  8
1
  6
CONTINUOUS
 62
     7
 66
     1
  0
VERTEX
  8
1
  6
CONTINUOUS
 62
     7
 10
-271.3170155699918
 20
70.47008214299916
  0
VERTEX
  8
1
  6
CONTINUOUS
 62
     7
 10
-271.3331685740562
 20
70.47032049839396
  0
VERTEX
  8
1
  6
CONTINUOUS
 62
     7
 10
-271.3493056516479
 20
70.47103384145841
  0
VERTEX
  8
1
  6
CONTINUOUS
 62
     7
 10
-271.3653797761073
 20
70.47221958751243
  0
VERTEX
  8
1
  6
CONTINUOUS
 62
     7
 10
-271.3813439207752
 20
70.47387515187604
  0
VERTEX
  8
1
  6
CONTINUOUS
 62
     7
 10
-271.3976962288098
 20
70.47607755067264
  0
VERTEX
  8
1
  6
CONTINUOUS
 62
     7
 10
-271.413899183245
 20
70.47877528204259
  0
VERTEX
  8
1
  6
CONTINUOUS
 62
     7
 10
-271.4299065941412
 20
70.48195778179866
  0
VERTEX
  8
1
  6
CONTINUOUS
 62
     7
 10
-271.4456722715586
 20
70.4856144857536
  0
VERTEX
  8
1
  6
CONTINUOUS
 62
     7
 10
-271.4606878803345
 20
70.48960120881706
  0
VERTEX
  8
1
  6
CONTINUOUS
 62
     7
 10
-271.4754557024272
 20
70.49402027554616
  0
VERTEX
  8
1
  6
CONTINUOUS
 62
     7
 10
-271.4899434758872
 20
70.49885702713041
  0
VERTEX
  8
1
  6
CONTINUOUS
 62
     7
 10
-271.5041189387648
 20
70.50409680475936
  0
VERTEX
  8
1
  6
CONTINUOUS
 62
     7
 10
-271.5230066682541
 20
70.51191147391464
  0
VERTEX
  8
1
  6
CONTINUOUS
 62
     7
 10
-271.5412772988765
 20
70.52044091839427
  0
VERTEX
  8
1
  6
CONTINUOUS
 62
     7
 10
-271.5588766207424
 20
70.52964118755348
  0
VERTEX
  8
1
  6
CONTINUOUS
 62
     7
 10
-271.5747099210365
 20
70.53882772541915
  0
VERTEX
  8
1
  6
CONTINUOUS
 62
     7
 10
-271.5899474443688
 20
70.54855938293788
  0
VERTEX
  8
1
  6
CONTINUOUS
 62
     7
 10
-271.6045684596676
 20
70.55880013033071
  0
VERTEX
  8
1
  6
CONTINUOUS
 62
     7
 10
-271.6185522358612
 20
70.56951393781863
  0
VERTEX
  8
1
  6
CONTINUOUS
 62
     7
 10
-271.6367141182791
 20
70.58495006546582
  0
VERTEX
  8
1
  6
CONTINUOUS
 62
     7
 10
-271.6537229563813
 20
70.60119308064256
  0
VERTEX
  8
1
  6
CONTINUOUS
 62
     7
 10
-271.6695733613619
 20
70.61816106825849
  0
VERTEX
  8
1
  6
CONTINUOUS
 62
     7
 10
-271.6845043009532
 20
70.63607368353975
  0
VERTEX
  8
1
  6
CONTINUOUS
 62
     7
 10
-271.698323525713
 20
70.6546486778014
  0
VERTEX
  8
1
  6
CONTINUOUS
 62
     7
 10
-271.711056666482
 20
70.6738194097805
  0
VERTEX
  8
1
  6
CONTINUOUS
 62
     7
 10
-271.7227293541007
 20
70.69351923821412
  0
VERTEX
  8
1
  6
CONTINUOUS
 62
     7
 10
-271.7370926373496
 20
70.72131920768916
  0
VERTEX
  8
1
  6
CONTINUOUS
 62
     7
 10
-271.7496867459969
 20
70.74998597306639
  0
VERTEX
  8
1
  6
CONTINUOUS
 62
     7
 10
-271.7606084715393
 20
70.77939958889384
  0
VERTEX
  8
1
  6
CONTINUOUS
 62
     7
 10
-271.7721095258727
 20
70.81720657973639
  0
VERTEX
  8
1
  6
CONTINUOUS
 62
     7
 10
-271.7813857397813
 20
70.85600647023803
  0
VERTEX
  8
1
  6
CONTINUOUS
 62
     7
 10
-271.7886193606628
 20
70.8956570472136
  0
VERTEX
  8
1
  6
CONTINUOUS
 62
     7
 10
-271.7939926359153
 20
70.93601609747796
  0
VERTEX
  8
1
  6
CONTINUOUS
 62
     7
 10
-271.7986723951159
 20
70.99245472312614
  0
VERTEX
  8
1
  6
CONTINUOUS
 62
     7
 10
-271.8005946221172
 20
71.05003137130991
  0
VERTEX
  8
1
  6
CONTINUOUS
 62
     7
 10
-271.8001253208174
 20
71.10855162050247
  0
SEQEND
  8
1
  6
CONTINUOUS
 62
     7
  0
LINE
  8
1
  6
CONTINUOUS
 62
     7
 10
-271.3170155699918
 20
70.47008214299916
 11
-268.3496510966748
 21
70.47008214299916
  0
POLYLINE
  8
1
  6
CONTINUOUS
 62
     7
 66
     1
  0
VERTEX
  8
1
  6
CONTINUOUS
 62
     7
 10
-267.8665413458493
 20
71.10855162050245
  0
VERTEX
  8
1
  6
CONTINUOUS
 62
     7
 10
-267.8660293635766
 20
71.05234195300523
  0
VERTEX
  8
1
  6
CONTINUOUS
 62
     7
 10
-267.8676981632505
 20
70.99685478116369
  0
VERTEX
  8
1
  6
CONTINUOUS
 62
     7
 10
-267.8719170106385
 20
70.94232804523178
  0
VERTEX
  8
1
  6
CONTINUOUS
 62
     7
 10
-267.8790551715082
 20
70.88899968546335
  0
VERTEX
  8
1
  6
CONTINUOUS
 62
     7
 10
-267.8894819116271
 20
70.83710764211227
  0
VERTEX
  8
1
  6
CONTINUOUS
 62
     7
 10
-267.9035664967628
 20
70.78688985543246
  0
VERTEX
  8
1
  6
CONTINUOUS
 62
     7
 10
-267.9129426767719
 20
70.76029163991745
  0
VERTEX
  8
1
  6
CONTINUOUS
 62
     7
 10
-267.9236591865615
 20
70.73422597093645
  0
VERTEX
  8
1
  6
CONTINUOUS
 62
     7
 10
-267.9357811678796
 20
70.70879128210164
  0
VERTEX
  8
1
  6
CONTINUOUS
 62
     7
 10
-267.9493737624745
 20
70.68408600702512
  0
VERTEX
  8
1
  6
CONTINUOUS
 62
     7
 10
-267.9645021120945
 20
70.66020857931899
  0
VERTEX
  8
1
  6
CONTINUOUS
 62
     7
 10
-267.9812313584877
 20
70.63725743259545
  0
VERTEX
  8
1
  6
CONTINUOUS
 62
     7
 10
-267.9960223241035
 20
70.61938174044559
  0
VERTEX
  8
1
  6
CONTINUOUS
 62
     7
 10
-268.01196625073
 20
70.60218485613142
  0
VERTEX
  8
1
  6
CONTINUOUS
 62
     7
 10
-268.0290697852391
 20
70.5857457148333
  0
VERTEX
  8
1
  6
CONTINUOUS
 62
     7
 10
-268.0430385370444
 20
70.57364858297615
  0
VERTEX
  8
1
  6
CONTINUOUS
 62
     7
 10
-268.057730103025
 20
70.56204856822313
  0
VERTEX
  8
1
  6
CONTINUOUS
 62
     7
 10
-268.073127829713
 20
70.55098804206561
  0
VERTEX
  8
1
  6
CONTINUOUS
 62
     7
 10
-268.0892150636402
 20
70.54050937599499
  0
VERTEX
  8
1
  6
CONTINUOUS
 62
     7
 10
-268.1065955606143
 20
70.53030482179201
  0
VERTEX
  8
1
  6
CONTINUOUS
 62
     7
 10
-268.1247140884445
 20
70.52077560267817
  0
VERTEX
  8
1
  6
CONTINUOUS
 62
     7
 10
-268.1435219143145
 20
70.51197069733585
  0
VERTEX
  8
1
  6
CONTINUOUS
 62
     7
 10
-268.1584705824342
 20
70.50570271144329
  0
VERTEX
  8
1
  6
CONTINUOUS
 62
     7
 10
-268.1738138618742
 20
70.49989242734311
  0
VERTEX
  8
1
  6
CONTINUOUS
 62
     7
 10
-268.1895145091835
 20
70.4945599694094
  0
VERTEX
  8
1
  6
CONTINUOUS
 62
     7
 10
-268.2055352809113
 20
70.48972546201627
  0
VERTEX
  8
1
  6
CONTINUOUS
 62
     7
 10
-268.2224029659836
 20
70.4852679979824
  0
VERTEX
  8
1
  6
CONTINUOUS
 62
     7
 10
-268.2395865020581
 20
70.48135935731389
  0
VERTEX
  8
1
  6
CONTINUOUS
 62
     7
 10
-268.2570291148889
 20
70.47801485808489
  0
VERTEX
  8
1
  6
CONTINUOUS
 62
     7
 10
-268.2746740302304
 20
70.47524981836955
  0
VERTEX
  8
1
  6
CONTINUOUS
 62
     7
 10
-268.2932312364644
 20
70.47299659557723
  0
VERTEX
  8
1
  6
CONTINUOUS
 62
     7
 10
-268.3119627904848
 20
70.47138084867038
  0
VERTEX
  8
1
  6
CONTINUOUS
 62
     7
 10
-268.3307942309891
 20
70.47040766777054
  0
VERTEX
  8
1
  6
CONTINUOUS
 62
     7
 10
-268.3496510966748
 20
70.47008214299916
  0
SEQEND
  8
1
  6
CONTINUOUS
 62
     7
  0
POLYLINE
  8
1
  6
CONTINUOUS
 62
     7
 66
     1
  0
VERTEX
  8
1
  6
CONTINUOUS
 62
     7
 10
-260.8170155699918
 20
70.47008214299916
  0
VERTEX
  8
1
  6
CONTINUOUS
 62
     7
 10
-260.8331685740562
 20
70.47032049839396
  0
VERTEX
  8
1
  6
CONTINUOUS
 62
     7
 10
-260.8493056516479
 20
70.47103384145841
  0
VERTEX
  8
1
  6
CONTINUOUS
 62
     7
 10
-260.8653797761073
 20
70.47221958751243
  0
VERTEX
  8
1
  6
CONTINUOUS
 62
     7
 10
-260.8813439207752
 20
70.47387515187604
  0
VERTEX
  8
1
  6
CONTINUOUS
 62
     7
 10
-260.8976962288098
 20
70.47607755067264
  0
VERTEX
  8
1
  6
CONTINUOUS
 62
     7
 10
-260.913899183245
 20
70.47877528204259
  0
VERTEX
  8
1
  6
CONTINUOUS
 62
     7
 10
-260.9299065941412
 20
70.48195778179866
  0
VERTEX
  8
1
  6
CONTINUOUS
 62
     7
 10
-260.9456722715586
 20
70.4856144857536
  0
VERTEX
  8
1
  6
CONTINUOUS
 62
     7
 10
-260.9606878803345
 20
70.48960120881706
  0
VERTEX
  8
1
  6
CONTINUOUS
 62
     7
 10
-260.9754557024272
 20
70.49402027554616
  0
VERTEX
  8
1
  6
CONTINUOUS
 62
     7
 10
-260.9899434758872
 20
70.49885702713041
  0
VERTEX
  8
1
  6
CONTINUOUS
 62
     7
 10
-261.0041189387648
 20
70.50409680475936
  0
VERTEX
  8
1
  6
CONTINUOUS
 62
     7
 10
-261.0230066682541
 20
70.51191147391464
  0
VERTEX
  8
1
  6
CONTINUOUS
 62
     7
 10
-261.0412772988765
 20
70.52044091839427
  0
VERTEX
  8
1
  6
CONTINUOUS
 62
     7
 10
-261.0588766207424
 20
70.52964118755348
  0
VERTEX
  8
1
  6
CONTINUOUS
 62
     7
 10
-261.0747099210365
 20
70.53882772541917
  0
VERTEX
  8
1
  6
CONTINUOUS
 62
     7
 10
-261.0899474443688
 20
70.5485593829379
  0
VERTEX
  8
1
  6
CONTINUOUS
 62
     7
 10
-261.1045684596676
 20
70.55880013033072
  0
VERTEX
  8
1
  6
CONTINUOUS
 62
     7
 10
-261.1185522358612
 20
70.56951393781863
  0
VERTEX
  8
1
  6
CONTINUOUS
 62
     7
 10
-261.1367141182791
 20
70.58495006546583
  0
VERTEX
  8
1
  6
CONTINUOUS
 62
     7
 10
-261.1537229563814
 20
70.60119308064256
  0
VERTEX
  8
1
  6
CONTINUOUS
 62
     7
 10
-261.1695733613619
 20
70.61816106825849
  0
VERTEX
  8
1
  6
CONTINUOUS
 62
     7
 10
-261.1845043009531
 20
70.63607368353975
  0
VERTEX
  8
1
  6
CONTINUOUS
 62
     7
 10
-261.198323525713
 20
70.6546486778014
  0
VERTEX
  8
1
  6
CONTINUOUS
 62
     7
 10
-261.211056666482
 20
70.6738194097805
  0
VERTEX
  8
1
  6
CONTINUOUS
 62
     7
 10
-261.2227293541007
 20
70.69351923821412
  0
VERTEX
  8
1
  6
CONTINUOUS
 62
     7
 10
-261.2370926373496
 20
70.72131920768916
  0
VERTEX
  8
1
  6
CONTINUOUS
 62
     7
 10
-261.2496867459969
 20
70.74998597306639
  0
VERTEX
  8
1
  6
CONTINUOUS
 62
     7
 10
-261.2606084715393
 20
70.77939958889384
  0
VERTEX
  8
1
  6
CONTINUOUS
 62
     7
 10
-261.2721095258727
 20
70.81720657973639
  0
VERTEX
  8
1
  6
CONTINUOUS
 62
     7
 10
-261.2813857397813
 20
70.85600647023803
  0
VERTEX
  8
1
  6
CONTINUOUS
 62
     7
 10
-261.2886193606628
 20
70.8956570472136
  0
VERTEX
  8
1
  6
CONTINUOUS
 62
     7
 10
-261.2939926359153
 20
70.93601609747796
  0
VERTEX
  8
1
  6
CONTINUOUS
 62
     7
 10
-261.2986723951159
 20
70.99245472312614
  0
VERTEX
  8
1
  6
CONTINUOUS
 62
     7
 10
-261.3005946221172
 20
71.05003137130991
  0
VERTEX
  8
1
  6
CONTINUOUS
 62
     7
 10
-261.3001253208174
 20
71.10855162050247
  0
SEQEND
  8
1
  6
CONTINUOUS
 62
     7
  0
LINE
  8
1
  6
CONTINUOUS
 62
     7
 10
-260.8170155699918
 20
70.47008214299916
 11
-251.8496510966748
 21
70.47008214299916
  0
POLYLINE
  8
1
  6
CONTINUOUS
 62
     7
 66
     1
  0
VERTEX
  8
1
  6
CONTINUOUS
 62
     7
 10
-251.3665413458493
 20
71.10855162050245
  0
VERTEX
  8
1
  6
CONTINUOUS
 62
     7
 10
-251.3660293635766
 20
71.05234195300523
  0
VERTEX
  8
1
  6
CONTINUOUS
 62
     7
 10
-251.3676981632504
 20
70.99685478116369
  0
VERTEX
  8
1
  6
CONTINUOUS
 62
     7
 10
-251.3719170106385
 20
70.94232804523178
  0
VERTEX
  8
1
  6
CONTINUOUS
 62
     7
 10
-251.3790551715082
 20
70.88899968546335
  0
VERTEX
  8
1
  6
CONTINUOUS
 62
     7
 10
-251.3894819116271
 20
70.83710764211227
  0
VERTEX
  8
1
  6
CONTINUOUS
 62
     7
 10
-251.4035664967627
 20
70.78688985543246
  0
VERTEX
  8
1
  6
CONTINUOUS
 62
     7
 10
-251.4129426767719
 20
70.76029163991745
  0
VERTEX
  8
1
  6
CONTINUOUS
 62
     7
 10
-251.4236591865615
 20
70.73422597093645
  0
VERTEX
  8
1
  6
CONTINUOUS
 62
     7
 10
-251.4357811678796
 20
70.70879128210164
  0
VERTEX
  8
1
  6
CONTINUOUS
 62
     7
 10
-251.4493737624746
 20
70.68408600702512
  0
VERTEX
  8
1
  6
CONTINUOUS
 62
     7
 10
-251.4645021120945
 20
70.66020857931899
  0
VERTEX
  8
1
  6
CONTINUOUS
 62
     7
 10
-251.4812313584877
 20
70.63725743259545
  0
VERTEX
  8
1
  6
CONTINUOUS
 62
     7
 10
-251.4960223241034
 20
70.61938174044559
  0
VERTEX
  8
1
  6
CONTINUOUS
 62
     7
 10
-251.51196625073
 20
70.60218485613142
  0
VERTEX
  8
1
  6
CONTINUOUS
 62
     7
 10
-251.5290697852391
 20
70.5857457148333
  0
VERTEX
  8
1
  6
CONTINUOUS
 62
     7
 10
-251.5430385370443
 20
70.57364858297615
  0
VERTEX
  8
1
  6
CONTINUOUS
 62
     7
 10
-251.557730103025
 20
70.56204856822313
  0
VERTEX
  8
1
  6
CONTINUOUS
 62
     7
 10
-251.573127829713
 20
70.55098804206561
  0
VERTEX
  8
1
  6
CONTINUOUS
 62
     7
 10
-251.5892150636402
 20
70.54050937599499
  0
VERTEX
  8
1
  6
CONTINUOUS
 62
     7
 10
-251.6065955606143
 20
70.53030482179201
  0
VERTEX
  8
1
  6
CONTINUOUS
 62
     7
 10
-251.6247140884444
 20
70.52077560267817
  0
VERTEX
  8
1
  6
CONTINUOUS
 62
     7
 10
-251.6435219143146
 20
70.51197069733585
  0
VERTEX
  8
1
  6
CONTINUOUS
 62
     7
 10
-251.6584705824342
 20
70.50570271144329
  0
VERTEX
  8
1
  6
CONTINUOUS
 62
     7
 10
-251.6738138618742
 20
70.49989242734311
  0
VERTEX
  8
1
  6
CONTINUOUS
 62
     7
 10
-251.6895145091835
 20
70.4945599694094
  0
VERTEX
  8
1
  6
CONTINUOUS
 62
     7
 10
-251.7055352809113
 20
70.48972546201627
  0
VERTEX
  8
1
  6
CONTINUOUS
 62
     7
 10
-251.7224029659836
 20
70.4852679979824
  0
VERTEX
  8
1
  6
CONTINUOUS
 62
     7
 10
-251.7395865020581
 20
70.48135935731389
  0
VERTEX
  8
1
  6
CONTINUOUS
 62
     7
 10
-251.7570291148889
 20
70.47801485808489
  0
VERTEX
  8
1
  6
CONTINUOUS
 62
     7
 10
-251.7746740302304
 20
70.47524981836955
  0
VERTEX
  8
1
  6
CONTINUOUS
 62
     7
 10
-251.7932312364645
 20
70.47299659557723
  0
VERTEX
  8
1
  6
CONTINUOUS
 62
     7
 10
-251.8119627904848
 20
70.47138084867038
  0
VERTEX
  8
1
  6
CONTINUOUS
 62
     7
 10
-251.830794230989
 20
70.47040766777054
  0
VERTEX
  8
1
  6
CONTINUOUS
 62
     7
 10
-251.8496510966748
 20
70.47008214299916
  0
SEQEND
  8
1
  6
CONTINUOUS
 62
     7
  0
POLYLINE
  8
1
  6
CONTINUOUS
 62
     7
 66
     1
  0
VERTEX
  8
1
  6
CONTINUOUS
 62
     7
 10
-244.3170155699918
 20
70.47008214299916
  0
VERTEX
  8
1
  6
CONTINUOUS
 62
     7
 10
-244.3331685740562
 20
70.47032049839396
  0
VERTEX
  8
1
  6
CONTINUOUS
 62
     7
 10
-244.3493056516479
 20
70.47103384145841
  0
VERTEX
  8
1
  6
CONTINUOUS
 62
     7
 10
-244.3653797761073
 20
70.47221958751243
  0
VERTEX
  8
1
  6
CONTINUOUS
 62
     7
 10
-244.3813439207752
 20
70.47387515187604
  0
VERTEX
  8
1
  6
CONTINUOUS
 62
     7
 10
-244.3976962288098
 20
70.47607755067264
  0
VERTEX
  8
1
  6
CONTINUOUS
 62
     7
 10
-244.413899183245
 20
70.47877528204259
  0
VERTEX
  8
1
  6
CONTINUOUS
 62
     7
 10
-244.4299065941412
 20
70.48195778179866
  0
VERTEX
  8
1
  6
CONTINUOUS
 62
     7
 10
-244.4456722715586
 20
70.4856144857536
  0
VERTEX
  8
1
  6
CONTINUOUS
 62
     7
 10
-244.4606878803345
 20
70.48960120881706
  0
VERTEX
  8
1
  6
CONTINUOUS
 62
     7
 10
-244.4754557024272
 20
70.49402027554616
  0
VERTEX
  8
1
  6
CONTINUOUS
 62
     7
 10
-244.4899434758871
 20
70.49885702713041
  0
VERTEX
  8
1
  6
CONTINUOUS
 62
     7
 10
-244.5041189387648
 20
70.50409680475936
  0
VERTEX
  8
1
  6
CONTINUOUS
 62
     7
 10
-244.5230066682541
 20
70.51191147391464
  0
VERTEX
  8
1
  6
CONTINUOUS
 62
     7
 10
-244.5412772988765
 20
70.52044091839427
  0
VERTEX
  8
1
  6
CONTINUOUS
 62
     7
 10
-244.5588766207424
 20
70.52964118755348
  0
VERTEX
  8
1
  6
CONTINUOUS
 62
     7
 10
-244.5747099210365
 20
70.53882772541917
  0
VERTEX
  8
1
  6
CONTINUOUS
 62
     7
 10
-244.5899474443688
 20
70.5485593829379
  0
VERTEX
  8
1
  6
CONTINUOUS
 62
     7
 10
-244.6045684596676
 20
70.55880013033072
  0
VERTEX
  8
1
  6
CONTINUOUS
 62
     7
 10
-244.6185522358612
 20
70.56951393781863
  0
VERTEX
  8
1
  6
CONTINUOUS
 62
     7
 10
-244.6367141182791
 20
70.58495006546583
  0
VERTEX
  8
1
  6
CONTINUOUS
 62
     7
 10
-244.6537229563814
 20
70.60119308064256
  0
VERTEX
  8
1
  6
CONTINUOUS
 62
     7
 10
-244.6695733613619
 20
70.61816106825849
  0
VERTEX
  8
1
  6
CONTINUOUS
 62
     7
 10
-244.6845043009531
 20
70.63607368353975
  0
VERTEX
  8
1
  6
CONTINUOUS
 62
     7
 10
-244.698323525713
 20
70.6546486778014
  0
VERTEX
  8
1
  6
CONTINUOUS
 62
     7
 10
-244.7110566664821
 20
70.6738194097805
  0
VERTEX
  8
1
  6
CONTINUOUS
 62
     7
 10
-244.7227293541007
 20
70.69351923821412
  0
VERTEX
  8
1
  6
CONTINUOUS
 62
     7
 10
-244.7370926373496
 20
70.72131920768918
  0
VERTEX
  8
1
  6
CONTINUOUS
 62
     7
 10
-244.7496867459969
 20
70.7499859730664
  0
VERTEX
  8
1
  6
CONTINUOUS
 62
     7
 10
-244.7606084715393
 20
70.77939958889387
  0
VERTEX
  8
1
  6
CONTINUOUS
 62
     7
 10
-244.7721095258727
 20
70.81720657973639
  0
VERTEX
  8
1
  6
CONTINUOUS
 62
     7
 10
-244.7813857397813
 20
70.85600647023804
  0
VERTEX
  8
1
  6
CONTINUOUS
 62
     7
 10
-244.7886193606628
 20
70.8956570472136
  0
VERTEX
  8
1
  6
CONTINUOUS
 62
     7
 10
-244.7939926359153
 20
70.93601609747796
  0
VERTEX
  8
1
  6
CONTINUOUS
 62
     7
 10
-244.7986723951159
 20
70.99245472312614
  0
VERTEX
  8
1
  6
CONTINUOUS
 62
     7
 10
-244.8005946221172
 20
71.05003137130991
  0
VERTEX
  8
1
  6
CONTINUOUS
 62
     7
 10
-244.8001253208174
 20
71.10855162050245
  0
SEQEND
  8
1
  6
CONTINUOUS
 62
     7
  0
LINE
  8
1
  6
CONTINUOUS
 62
     7
 10
-244.3170155699918
 20
70.47008214299916
 11
-241.3496510966748
 21
70.47008214299916
  0
POLYLINE
  8
1
  6
CONTINUOUS
 62
     7
 66
     1
  0
VERTEX
  8
1
  6
CONTINUOUS
 62
     7
 10
-240.8665413458493
 20
71.10855162050247
  0
VERTEX
  8
1
  6
CONTINUOUS
 62
     7
 10
-240.8660293635766
 20
71.05234195300523
  0
VERTEX
  8
1
  6
CONTINUOUS
 62
     7
 10
-240.8676981632505
 20
70.99685478116369
  0
VERTEX
  8
1
  6
CONTINUOUS
 62
     7
 10
-240.8719170106385
 20
70.94232804523178
  0
VERTEX
  8
1
  6
CONTINUOUS
 62
     7
 10
-240.8790551715082
 20
70.88899968546335
  0
VERTEX
  8
1
  6
CONTINUOUS
 62
     7
 10
-240.8894819116271
 20
70.83710764211227
  0
VERTEX
  8
1
  6
CONTINUOUS
 62
     7
 10
-240.9035664967627
 20
70.78688985543246
  0
VERTEX
  8
1
  6
CONTINUOUS
 62
     7
 10
-240.9129426767719
 20
70.76029163991745
  0
VERTEX
  8
1
  6
CONTINUOUS
 62
     7
 10
-240.9236591865615
 20
70.73422597093645
  0
VERTEX
  8
1
  6
CONTINUOUS
 62
     7
 10
-240.9357811678796
 20
70.70879128210164
  0
VERTEX
  8
1
  6
CONTINUOUS
 62
     7
 10
-240.9493737624745
 20
70.68408600702512
  0
VERTEX
  8
1
  6
CONTINUOUS
 62
     7
 10
-240.9645021120945
 20
70.66020857931899
  0
VERTEX
  8
1
  6
CONTINUOUS
 62
     7
 10
-240.9812313584877
 20
70.63725743259545
  0
VERTEX
  8
1
  6
CONTINUOUS
 62
     7
 10
-240.9960223241035
 20
70.61938174044559
  0
VERTEX
  8
1
  6
CONTINUOUS
 62
     7
 10
-241.01196625073
 20
70.60218485613142
  0
VERTEX
  8
1
  6
CONTINUOUS
 62
     7
 10
-241.0290697852392
 20
70.5857457148333
  0
VERTEX
  8
1
  6
CONTINUOUS
 62
     7
 10
-241.0430385370443
 20
70.57364858297615
  0
VERTEX
  8
1
  6
CONTINUOUS
 62
     7
 10
-241.057730103025
 20
70.56204856822313
  0
VERTEX
  8
1
  6
CONTINUOUS
 62
     7
 10
-241.0731278297129
 20
70.55098804206563
  0
VERTEX
  8
1
  6
CONTINUOUS
 62
     7
 10
-241.0892150636402
 20
70.540509375995
  0
VERTEX
  8
1
  6
CONTINUOUS
 62
     7
 10
-241.1065955606143
 20
70.53030482179201
  0
VERTEX
  8
1
  6
CONTINUOUS
 62
     7
 10
-241.1247140884444
 20
70.52077560267819
  0
VERTEX
  8
1
  6
CONTINUOUS
 62
     7
 10
-241.1435219143146
 20
70.51197069733585
  0
VERTEX
  8
1
  6
CONTINUOUS
 62
     7
 10
-241.1584705824342
 20
70.50570271144329
  0
VERTEX
  8
1
  6
CONTINUOUS
 62
     7
 10
-241.1738138618742
 20
70.49989242734311
  0
VERTEX
  8
1
  6
CONTINUOUS
 62
     7
 10
-241.1895145091835
 20
70.4945599694094
  0
VERTEX
  8
1
  6
CONTINUOUS
 62
     7
 10
-241.2055352809112
 20
70.48972546201627
  0
VERTEX
  8
1
  6
CONTINUOUS
 62
     7
 10
-241.2224029659837
 20
70.4852679979824
  0
VERTEX
  8
1
  6
CONTINUOUS
 62
     7
 10
-241.2395865020581
 20
70.48135935731389
  0
VERTEX
  8
1
  6
CONTINUOUS
 62
     7
 10
-241.2570291148889
 20
70.47801485808489
  0
VERTEX
  8
1
  6
CONTINUOUS
 62
     7
 10
-241.2746740302304
 20
70.47524981836955
  0
VERTEX
  8
1
  6
CONTINUOUS
 62
     7
 10
-241.2932312364645
 20
70.47299659557723
  0
VERTEX
  8
1
  6
CONTINUOUS
 62
     7
 10
-241.3119627904848
 20
70.47138084867038
  0
VERTEX
  8
1
  6
CONTINUOUS
 62
     7
 10
-241.3307942309891
 20
70.47040766777054
  0
VERTEX
  8
1
  6
CONTINUOUS
 62
     7
 10
-241.3496510966748
 20
70.47008214299916
  0
SEQEND
  8
1
  6
CONTINUOUS
 62
     7
  0
POLYLINE
  8
1
  6
CONTINUOUS
 62
     7
 66
     1
  0
VERTEX
  8
1
  6
CONTINUOUS
 62
     7
 10
-225.3170155699918
 20
70.47008214299916
  0
VERTEX
  8
1
  6
CONTINUOUS
 62
     7
 10
-225.3331685740562
 20
70.47032049839396
  0
VERTEX
  8
1
  6
CONTINUOUS
 62
     7
 10
-225.3493056516479
 20
70.47103384145841
  0
VERTEX
  8
1
  6
CONTINUOUS
 62
     7
 10
-225.3653797761073
 20
70.47221958751243
  0
VERTEX
  8
1
  6
CONTINUOUS
 62
     7
 10
-225.3813439207752
 20
70.47387515187604
  0
VERTEX
  8
1
  6
CONTINUOUS
 62
     7
 10
-225.3976962288098
 20
70.47607755067264
  0
VERTEX
  8
1
  6
CONTINUOUS
 62
     7
 10
-225.413899183245
 20
70.47877528204259
  0
VERTEX
  8
1
  6
CONTINUOUS
 62
     7
 10
-225.4299065941412
 20
70.48195778179866
  0
VERTEX
  8
1
  6
CONTINUOUS
 62
     7
 10
-225.4456722715586
 20
70.4856144857536
  0
VERTEX
  8
1
  6
CONTINUOUS
 62
     7
 10
-225.4606878803345
 20
70.48960120881706
  0
VERTEX
  8
1
  6
CONTINUOUS
 62
     7
 10
-225.4754557024272
 20
70.49402027554616
  0
VERTEX
  8
1
  6
CONTINUOUS
 62
     7
 10
-225.4899434758871
 20
70.49885702713041
  0
VERTEX
  8
1
  6
CONTINUOUS
 62
     7
 10
-225.5041189387648
 20
70.50409680475936
  0
VERTEX
  8
1
  6
CONTINUOUS
 62
     7
 10
-225.5230066682541
 20
70.51191147391464
  0
VERTEX
  8
1
  6
CONTINUOUS
 62
     7
 10
-225.5412772988766
 20
70.52044091839427
  0
VERTEX
  8
1
  6
CONTINUOUS
 62
     7
 10
-225.5588766207424
 20
70.52964118755348
  0
VERTEX
  8
1
  6
CONTINUOUS
 62
     7
 10
-225.5747099210365
 20
70.53882772541917
  0
VERTEX
  8
1
  6
CONTINUOUS
 62
     7
 10
-225.5899474443688
 20
70.5485593829379
  0
VERTEX
  8
1
  6
CONTINUOUS
 62
     7
 10
-225.6045684596676
 20
70.55880013033072
  0
VERTEX
  8
1
  6
CONTINUOUS
 62
     7
 10
-225.6185522358612
 20
70.56951393781863
  0
VERTEX
  8
1
  6
CONTINUOUS
 62
     7
 10
-225.6367141182791
 20
70.58495006546583
  0
VERTEX
  8
1
  6
CONTINUOUS
 62
     7
 10
-225.6537229563814
 20
70.60119308064256
  0
VERTEX
  8
1
  6
CONTINUOUS
 62
     7
 10
-225.6695733613619
 20
70.61816106825849
  0
VERTEX
  8
1
  6
CONTINUOUS
 62
     7
 10
-225.6845043009531
 20
70.63607368353975
  0
VERTEX
  8
1
  6
CONTINUOUS
 62
     7
 10
-225.698323525713
 20
70.6546486778014
  0
VERTEX
  8
1
  6
CONTINUOUS
 62
     7
 10
-225.7110566664821
 20
70.6738194097805
  0
VERTEX
  8
1
  6
CONTINUOUS
 62
     7
 10
-225.7227293541007
 20
70.69351923821412
  0
VERTEX
  8
1
  6
CONTINUOUS
 62
     7
 10
-225.7370926373496
 20
70.72131920768918
  0
VERTEX
  8
1
  6
CONTINUOUS
 62
     7
 10
-225.7496867459969
 20
70.7499859730664
  0
VERTEX
  8
1
  6
CONTINUOUS
 62
     7
 10
-225.7606084715393
 20
70.77939958889387
  0
VERTEX
  8
1
  6
CONTINUOUS
 62
     7
 10
-225.7721095258727
 20
70.81720657973639
  0
VERTEX
  8
1
  6
CONTINUOUS
 62
     7
 10
-225.7813857397813
 20
70.85600647023804
  0
VERTEX
  8
1
  6
CONTINUOUS
 62
     7
 10
-225.7886193606628
 20
70.8956570472136
  0
VERTEX
  8
1
  6
CONTINUOUS
 62
     7
 10
-225.7939926359153
 20
70.93601609747796
  0
VERTEX
  8
1
  6
CONTINUOUS
 62
     7
 10
-225.7986723951159
 20
70.99245472312614
  0
VERTEX
  8
1
  6
CONTINUOUS
 62
     7
 10
-225.8005946221172
 20
71.05003137130991
  0
VERTEX
  8
1
  6
CONTINUOUS
 62
     7
 10
-225.8001253208174
 20
71.10855162050247
  0
SEQEND
  8
1
  6
CONTINUOUS
 62
     7
  0
LINE
  8
1
  6
CONTINUOUS
 62
     7
 10
-225.3170155699918
 20
70.47008214299916
 11
-222.3496510966749
 21
70.47008214299916
  0
POLYLINE
  8
1
  6
CONTINUOUS
 62
     7
 66
     1
  0
VERTEX
  8
1
  6
CONTINUOUS
 62
     7
 10
-221.8665413458493
 20
71.10855162050245
  0
VERTEX
  8
1
  6
CONTINUOUS
 62
     7
 10
-221.8660293635766
 20
71.05234195300523
  0
VERTEX
  8
1
  6
CONTINUOUS
 62
     7
 10
-221.8676981632505
 20
70.99685478116369
  0
VERTEX
  8
1
  6
CONTINUOUS
 62
     7
 10
-221.8719170106385
 20
70.94232804523178
  0
VERTEX
  8
1
  6
CONTINUOUS
 62
     7
 10
-221.8790551715082
 20
70.88899968546335
  0
VERTEX
  8
1
  6
CONTINUOUS
 62
     7
 10
-221.8894819116271
 20
70.83710764211227
  0
VERTEX
  8
1
  6
CONTINUOUS
 62
     7
 10
-221.9035664967627
 20
70.78688985543246
  0
VERTEX
  8
1
  6
CONTINUOUS
 62
     7
 10
-221.9129426767719
 20
70.76029163991745
  0
VERTEX
  8
1
  6
CONTINUOUS
 62
     7
 10
-221.9236591865615
 20
70.73422597093645
  0
VERTEX
  8
1
  6
CONTINUOUS
 62
     7
 10
-221.9357811678796
 20
70.70879128210164
  0
VERTEX
  8
1
  6
CONTINUOUS
 62
     7
 10
-221.9493737624745
 20
70.68408600702512
  0
VERTEX
  8
1
  6
CONTINUOUS
 62
     7
 10
-221.9645021120945
 20
70.66020857931899
  0
VERTEX
  8
1
  6
CONTINUOUS
 62
     7
 10
-221.9812313584877
 20
70.63725743259545
  0
VERTEX
  8
1
  6
CONTINUOUS
 62
     7
 10
-221.9960223241035
 20
70.61938174044559
  0
VERTEX
  8
1
  6
CONTINUOUS
 62
     7
 10
-222.01196625073
 20
70.60218485613142
  0
VERTEX
  8
1
  6
CONTINUOUS
 62
     7
 10
-222.0290697852391
 20
70.5857457148333
  0
VERTEX
  8
1
  6
CONTINUOUS
 62
     7
 10
-222.0430385370443
 20
70.57364858297615
  0
VERTEX
  8
1
  6
CONTINUOUS
 62
     7
 10
-222.057730103025
 20
70.56204856822313
  0
VERTEX
  8
1
  6
CONTINUOUS
 62
     7
 10
-222.073127829713
 20
70.55098804206561
  0
VERTEX
  8
1
  6
CONTINUOUS
 62
     7
 10
-222.0892150636402
 20
70.54050937599499
  0
VERTEX
  8
1
  6
CONTINUOUS
 62
     7
 10
-222.1065955606143
 20
70.53030482179201
  0
VERTEX
  8
1
  6
CONTINUOUS
 62
     7
 10
-222.1247140884445
 20
70.52077560267817
  0
VERTEX
  8
1
  6
CONTINUOUS
 62
     7
 10
-222.1435219143146
 20
70.51197069733585
  0
VERTEX
  8
1
  6
CONTINUOUS
 62
     7
 10
-222.1584705824342
 20
70.50570271144329
  0
VERTEX
  8
1
  6
CONTINUOUS
 62
     7
 10
-222.1738138618742
 20
70.49989242734311
  0
VERTEX
  8
1
  6
CONTINUOUS
 62
     7
 10
-222.1895145091836
 20
70.4945599694094
  0
VERTEX
  8
1
  6
CONTINUOUS
 62
     7
 10
-222.2055352809113
 20
70.48972546201627
  0
VERTEX
  8
1
  6
CONTINUOUS
 62
     7
 10
-222.2224029659837
 20
70.4852679979824
  0
VERTEX
  8
1
  6
CONTINUOUS
 62
     7
 10
-222.2395865020581
 20
70.48135935731389
  0
VERTEX
  8
1
  6
CONTINUOUS
 62
     7
 10
-222.2570291148889
 20
70.47801485808489
  0
VERTEX
  8
1
  6
CONTINUOUS
 62
     7
 10
-222.2746740302304
 20
70.47524981836955
  0
VERTEX
  8
1
  6
CONTINUOUS
 62
     7
 10
-222.2932312364644
 20
70.47299659557723
  0
VERTEX
  8
1
  6
CONTINUOUS
 62
     7
 10
-222.3119627904848
 20
70.47138084867038
  0
VERTEX
  8
1
  6
CONTINUOUS
 62
     7
 10
-222.3307942309891
 20
70.47040766777054
  0
VERTEX
  8
1
  6
CONTINUOUS
 62
     7
 10
-222.3496510966749
 20
70.47008214299916
  0
SEQEND
  8
1
  6
CONTINUOUS
 62
     7
  0
LINE
  8
1
  6
CONTINUOUS
 62
     7
 10
-215.2695821981986
 20
72.27494641543146
 11
-215.3001253208174
 21
71.10855162050245
  0
LINE
  8
1
  6
CONTINUOUS
 62
     7
 10
-261.2695821981986
 20
72.27494641543146
 11
-261.3001253208174
 21
71.10855162050247
  0
LINE
  8
1
  6
CONTINUOUS
 62
     7
 10
-251.3665413458493
 20
71.10855162050245
 11
-251.397084468468
 21
72.27494641543146
  0
LINE
  8
1
  6
CONTINUOUS
 62
     7
 10
-205.3665413458493
 20
71.10855162050247
 11
-205.397084468468
 21
72.27494641543146
  0
LINE
  8
1
  6
CONTINUOUS
 62
     7
 10
-244.7695821981986
 20
72.27494641543146
 11
-244.8001253208174
 21
71.10855162050245
  0
LINE
  8
1
  6
CONTINUOUS
 62
     7
 10
-240.8665413458493
 20
71.10855162050247
 11
-240.897084468468
 21
72.27494641543146
  0
LINE
  8
1
  6
CONTINUOUS
 62
     7
 10
-271.7695821981986
 20
72.27494641543146
 11
-271.8001253208174
 21
71.10855162050247
  0
LINE
  8
1
  6
CONTINUOUS
 62
     7
 10
-198.7695821981986
 20
72.27494641543146
 11
-198.8001253208174
 21
71.10855162050245
  0
LINE
  8
1
  6
CONTINUOUS
 62
     7
 10
-267.8665413458493
 20
71.10855162050245
 11
-267.8970844684681
 21
72.27494641543146
  0
LINE
  8
1
  6
CONTINUOUS
 62
     7
 10
-221.8665413458493
 20
71.10855162050245
 11
-221.897084468468
 21
72.27494641543146
  0
LINE
  8
1
  6
CONTINUOUS
 62
     7
 10
-194.8665413458493
 20
71.10855162050247
 11
-194.897084468468
 21
72.27494641543146
  0
LINE
  8
1
  6
CONTINUOUS
 62
     7
 10
-225.7695821981986
 20
72.27494641543146
 11
-225.8001253208174
 21
71.10855162050247
  0
LINE
  8
1
  6
CONTINUOUS
 62
     7
 10
-228.3333333333333
 20
69.84038878620113
 11
-228.3333333333333
 21
68.84038878620113
  0
LINE
  8
1
  6
CONTINUOUS
 62
     7
 10
-269.3333333333333
 20
67.84038878620113
 11
-273.3333333333333
 21
67.84038878620113
  0
ARC
  8
1
  6
CONTINUOUS
 62
     7
 10
-273.3333333333333
 20
68.84038878620113
 40
1.000000000000001
 50
180.0
 51
270.0
  0
LINE
  8
1
  6
CONTINUOUS
 62
     7
 10
-239.3333333333333
 20
67.84038878620113
 11
-243.3333333333333
 21
67.84038878620113
  0
ARC
  8
1
  6
CONTINUOUS
 62
     7
 10
-239.3333333333333
 20
68.84038878620113
 40
1.000000000000001
 50
270.0
 51
0.0
  0
LINE
  8
1
  6
CONTINUOUS
 62
     7
 10
-238.3333333333333
 20
69.84038878620113
 11
-238.3333333333333
 21
68.84038878620113
  0
LINE
  8
1
  6
CONTINUOUS
 62
     7
 10
-223.3333333333333
 20
67.84038878620113
 11
-227.3333333333333
 21
67.84038878620113
  0
ARC
  8
1
  6
CONTINUOUS
 62
     7
 10
-227.3333333333333
 20
68.84038878620113
 40
1.000000000000001
 50
180.0
 51
270.0000000000001
  0
LINE
  8
1
  6
CONTINUOUS
 62
     7
 10
-197.3333333333333
 20
67.84038878620113
 11
-223.3333333333333
 21
67.84038878620113
  0
LINE
  8
1
  6
CONTINUOUS
 62
     7
 10
-192.3333333333333
 20
69.84038878620113
 11
-192.3333333333333
 21
68.84038878620113
  0
LINE
  8
1
  6
CONTINUOUS
 62
     7
 10
-193.3333333333333
 20
67.84038878620113
 11
-197.3333333333333
 21
67.84038878620113
  0
ARC
  8
1
  6
CONTINUOUS
 62
     7
 10
-193.3333333333333
 20
68.84038878620113
 40
1.000000000000001
 50
270.0
 51
0.0
  0
LINE
  8
1
  6
CONTINUOUS
 62
     7
 10
-243.3333333333333
 20
67.84038878620113
 11
-269.3333333333333
 21
67.84038878620113
  0
LINE
  8
1
  6
CONTINUOUS
 62
     7
 10
-274.3333333333333
 20
69.84038878620113
 11
-274.3333333333333
 21
68.84038878620113
  0
ENDBLK
  8
0
  0
BLOCK
  8
0
  2
D_FRAME_VIEW_1491
 70
     0
 10
0.0
 20
0.0
  0
ARC
  8
1
  6
CONTINUOUS
 62
     7
 10
-208.9333333333333
 20
151.3666666666667
 40
1.000000000000001
 50
180.0
 51
270.0
  0
ARC
  8
1
  6
CONTINUOUS
 62
     7
 10
-210.4333333333333
 20
153.6666666666667
 40
1.249999999999998
 50
293.5781784782023
 51
66.42182152179775
  0
ARC
  8
1
  6
CONTINUOUS
 62
     7
 10
-208.9333333333333
 20
157.9666666666667
 40
1.000000000000001
 50
89.99999999999977
 51
180.0
  0
LINE
  8
1
  6
CONTINUOUS
 62
     7
 10
-208.9333333333333
 20
158.9666666666667
 11
-199.6333333333333
 21
158.9666666666667
  0
LINE
  8
1
  6
CONTINUOUS
 62
     7
 10
-199.6333333333333
 20
158.9666666666667
 11
-199.6333333333333
 21
163.9666666666667
  0
ARC
  8
1
  6
CONTINUOUS
 62
     7
 10
-198.6333333333333
 20
163.9666666666667
 40
1.000000000000001
 50
90.0
 51
180.0
  0
LINE
  8
1
  6
CONTINUOUS
 62
     7
 10
-198.6333333333333
 20
164.9666666666667
 11
-185.2333333333333
 21
164.9666666666667
  0
LINE
  8
1
  6
CONTINUOUS
 62
     7
 10
-185.2333333333333
 20
164.9666666666667
 11
-185.2333333333333
 21
243.3666666666667
  0
LINE
  8
1
  6
CONTINUOUS
 62
     7
 10
-185.2333333333333
 20
243.3666666666667
 11
-198.6333333333333
 21
243.3666666666667
  0
ARC
  8
1
  6
CONTINUOUS
 62
     7
 10
-198.6333333333333
 20
244.3666666666667
 40
1.000000000000001
 50
180.0
 51
270.0
  0
LINE
  8
1
  6
CONTINUOUS
 62
     7
 10
-199.6333333333333
 20
244.3666666666667
 11
-199.6333333333333
 21
249.3666666666667
  0
LINE
  8
1
  6
CONTINUOUS
 62
     7
 10
-199.6333333333333
 20
249.3666666666667
 11
-208.9333333333333
 21
249.3666666666667
  0
ARC
  8
1
  6
CONTINUOUS
 62
     7
 10
-208.9333333333333
 20
250.3666666666667
 40
1.000000000000001
 50
180.0
 51
270.0
  0
ARC
  8
1
  6
CONTINUOUS
 62
     7
 10
-208.9333333333333
 20
256.9666666666667
 40
1.000000000000001
 50
90.0
 51
180.0
  0
LINE
  8
1
  6
CONTINUOUS
 62
     7
 10
-206.4333333333333
 20
257.9666666666667
 11
-208.9333333333333
 21
257.9666666666667
  0
LINE
  8
1
  6
CONTINUOUS
 62
     7
 10
-206.4333333333333
 20
260.4666666666667
 11
-206.4333333333333
 21
257.9666666666667
  0
ARC
  8
1
  6
CONTINUOUS
 62
     7
 10
-205.4333333333333
 20
260.4666666666667
 40
1.000000000000001
 50
90.0
 51
180.0
  0
LINE
  8
1
  6
CONTINUOUS
 62
     7
 10
-200.6333333333333
 20
261.4666666666667
 11
-205.4333333333333
 21
261.4666666666667
  0
ARC
  8
1
  6
CONTINUOUS
 62
     7
 10
-200.6333333333333
 20
260.4666666666667
 40
1.000000000000001
 50
0.0
 51
90.0
  0
LINE
  8
1
  6
CONTINUOUS
 62
     7
 10
-199.6333333333333
 20
257.9666666666667
 11
-199.6333333333333
 21
260.4666666666667
  0
LINE
  8
1
  6
CONTINUOUS
 62
     7
 10
-191.6333333333333
 20
257.9666666666667
 11
-199.6333333333333
 21
257.9666666666667
  0
ARC
  8
1
  6
CONTINUOUS
 62
     7
 10
-191.6333333333333
 20
256.9666666666667
 40
1.000000000000001
 50
0.0
 51
90.0
  0
LINE
  8
1
  6
CONTINUOUS
 62
     7
 10
-190.6333333333333
 20
252.9666666666667
 11
-190.6333333333333
 21
256.9666666666667
  0
LINE
  8
1
  6
CONTINUOUS
 62
     7
 10
-185.2333333333333
 20
252.9666666666667
 11
-190.6333333333333
 21
252.9666666666667
  0
LINE
  8
1
  6
CONTINUOUS
 62
     7
 10
-185.2333333333333
 20
260.4666666666667
 11
-185.2333333333333
 21
252.9666666666667
  0
ARC
  8
1
  6
CONTINUOUS
 62
     7
 10
-184.2333333333333
 20
260.4666666666667
 40
1.000000000000001
 50
90.0
 51
180.0
  0
LINE
  8
1
  6
CONTINUOUS
 62
     7
 10
-183.1333333333333
 20
261.4666666666667
 11
-184.2333333333333
 21
261.4666666666667
  0
ARC
  8
1
  6
CONTINUOUS
 62
     7
 10
-183.1333333333333
 20
256.4666666666667
 40
4.999999999999997
 50
18.0
 51
90.0
  0
ARC
  8
1
  6
CONTINUOUS
 62
     7
 10
-183.1333333333333
 20
256.4666666666667
 40
5.000000000000002
 50
2.638732881323164
 51
18.0
  0
ARC
  8
1
  6
CONTINUOUS
 62
     7
 10
-183.1333333333333
 20
256.4666666666667
 40
4.999999999999997
 50
0.0
 51
2.638732881322994
  0
LINE
  8
1
  6
CONTINUOUS
 62
     7
 10
-178.1333333333333
 20
151.8666666666667
 11
-178.1333333333333
 21
256.4666666666667
  0
ARC
  8
1
  6
CONTINUOUS
 62
     7
 10
-183.1333333333333
 20
151.8666666666667
 40
4.999999999999997
 50
357.3615917173227
 51
0.0
  0
ARC
  8
1
  6
CONTINUOUS
 62
     7
 10
-183.1333333333333
 20
151.8666666666667
 40
4.999999999999998
 50
269.9999999999999
 51
357.3615917173227
  0
LINE
  8
1
  6
CONTINUOUS
 62
     7
 10
-184.2333333333333
 20
146.8666666666667
 11
-183.1333333333333
 21
146.8666666666667
  0
ARC
  8
1
  6
CONTINUOUS
 62
     7
 10
-184.2333333333333
 20
147.8666666666667
 40
1.000000000000001
 50
180.0
 51
270.0
  0
LINE
  8
1
  6
CONTINUOUS
 62
     7
 10
-185.2333333333333
 20
155.3666666666667
 11
-185.2333333333333
 21
147.8666666666667
  0
LINE
  8
1
  6
CONTINUOUS
 62
     7
 10
-190.6333333333333
 20
155.3666666666667
 11
-185.2333333333333
 21
155.3666666666667
  0
LINE
  8
1
  6
CONTINUOUS
 62
     7
 10
-190.6333333333333
 20
151.3666666666667
 11
-190.6333333333333
 21
155.3666666666667
  0
ARC
  8
1
  6
CONTINUOUS
 62
     7
 10
-191.6333333333333
 20
151.3666666666667
 40
1.000000000000001
 50
270.0
 51
0.0
  0
LINE
  8
1
  6
CONTINUOUS
 62
     7
 10
-199.6333333333333
 20
150.3666666666667
 11
-191.6333333333333
 21
150.3666666666667
  0
LINE
  8
1
  6
CONTINUOUS
 62
     7
 10
-199.6333333333333
 20
147.8666666666667
 11
-199.6333333333333
 21
150.3666666666667
  0
ARC
  8
1
  6
CONTINUOUS
 62
     7
 10
-200.6333333333333
 20
147.8666666666667
 40
1.000000000000001
 50
270.0
 51
0.0
  0
LINE
  8
1
  6
CONTINUOUS
 62
     7
 10
-205.4333333333333
 20
146.8666666666667
 11
-200.6333333333333
 21
146.8666666666667
  0
ARC
  8
1
  6
CONTINUOUS
 62
     7
 10
-205.4333333333333
 20
147.8666666666667
 40
1.000000000000001
 50
180.0
 51
270.0
  0
LINE
  8
1
  6
CONTINUOUS
 62
     7
 10
-206.4333333333333
 20
150.3666666666667
 11
-206.4333333333333
 21
147.8666666666667
  0
LINE
  8
1
  6
CONTINUOUS
 62
     7
 10
-208.9333333333333
 20
150.3666666666667
 11
-206.4333333333333
 21
150.3666666666667
  0
LINE
  8
1
  6
CONTINUOUS
 62
     7
 10
-209.9333333333333
 20
253.5210227429278
 11
-209.9333333333333
 21
250.3666666666667
  0
LINE
  8
1
  6
CONTINUOUS
 62
     7
 10
-209.9333333333333
 20
157.9666666666667
 11
-209.9333333333333
 21
154.8123105904056
  0
LINE
  8
1
  6
CONTINUOUS
 62
     7
 10
-209.9333333333333
 20
152.5210227429277
 11
-209.9333333333333
 21
151.3666666666667
  0
ARC
  8
1
  6
CONTINUOUS
 62
     7
 10
-210.4333333333333
 20
254.6666666666667
 40
1.250000000000002
 50
293.5781784782018
 51
66.42182152179817
  0
LINE
  8
1
  6
CONTINUOUS
 62
     7
 10
-209.9333333333333
 20
256.9666666666667
 11
-209.9333333333333
 21
255.8123105904056
  0
ARC
  8
1
  6
CONTINUOUS
 62
     7
 10
-261.2333333333333
 20
147.8666666666667
 40
1.000000000000001
 50
270.0
 51
0.0
  0
LINE
  8
1
  6
CONTINUOUS
 62
     7
 10
-261.2333333333333
 20
146.8666666666667
 11
-266.0333333333334
 21
146.8666666666667
  0
ARC
  8
1
  6
CONTINUOUS
 62
     7
 10
-266.0333333333334
 20
147.8666666666667
 40
1.000000000000001
 50
180.0
 51
270.0
  0
LINE
  8
1
  6
CONTINUOUS
 62
     7
 10
-267.0333333333334
 20
147.8666666666667
 11
-267.0333333333334
 21
150.3666666666667
  0
LINE
  8
1
  6
CONTINUOUS
 62
     7
 10
-267.0333333333334
 20
150.3666666666667
 11
-275.0333333333334
 21
150.3666666666667
  0
ARC
  8
1
  6
CONTINUOUS
 62
     7
 10
-275.0333333333334
 20
151.3666666666667
 40
1.000000000000001
 50
180.0
 51
270.0
  0
LINE
  8
1
  6
CONTINUOUS
 62
     7
 10
-276.0333333333334
 20
151.3666666666667
 11
-276.0333333333334
 21
155.3666666666667
  0
LINE
  8
1
  6
CONTINUOUS
 62
     7
 10
-276.0333333333334
 20
155.3666666666667
 11
-281.4333333333333
 21
155.3666666666667
  0
LINE
  8
1
  6
CONTINUOUS
 62
     7
 10
-281.4333333333333
 20
155.3666666666667
 11
-281.4333333333333
 21
147.8666666666667
  0
ARC
  8
1
  6
CONTINUOUS
 62
     7
 10
-282.4333333333333
 20
147.8666666666667
 40
1.000000000000001
 50
270.0
 51
0.0
  0
LINE
  8
1
  6
CONTINUOUS
 62
     7
 10
-282.4333333333333
 20
146.8666666666667
 11
-283.5333333333333
 21
146.8666666666667
  0
ARC
  8
1
  6
CONTINUOUS
 62
     7
 10
-283.5333333333334
 20
151.8666666666667
 40
4.999999999999997
 50
180.0
 51
182.6387328813234
  0
ARC
  8
1
  6
CONTINUOUS
 62
     7
 10
-283.5333333333334
 20
151.8666666666667
 40
4.999999999999998
 50
182.6387328813234
 51
270.0000000000002
  0
LINE
  8
1
  6
CONTINUOUS
 62
     7
 10
-288.5333333333334
 20
151.8666666666667
 11
-288.5333333333334
 21
256.4666666666667
  0
ARC
  8
1
  6
CONTINUOUS
 62
     7
 10
-283.5333333333334
 20
256.4666666666667
 40
4.999999999999997
 50
90.0
 51
177.3615917173229
  0
ARC
  8
1
  6
CONTINUOUS
 62
     7
 10
-283.5333333333334
 20
256.4666666666667
 40
4.999999999999998
 50
177.3615917173228
 51
180.0
  0
LINE
  8
1
  6
CONTINUOUS
 62
     7
 10
-283.5333333333334
 20
261.4666666666667
 11
-282.4333333333333
 21
261.4666666666667
  0
ARC
  8
1
  6
CONTINUOUS
 62
     7
 10
-282.4333333333333
 20
260.4666666666667
 40
1.000000000000001
 50
0.0
 51
90.0
  0
LINE
  8
1
  6
CONTINUOUS
 62
     7
 10
-281.4333333333333
 20
260.4666666666667
 11
-281.4333333333333
 21
252.9666666666667
  0
LINE
  8
1
  6
CONTINUOUS
 62
     7
 10
-281.4333333333333
 20
252.9666666666667
 11
-276.0333333333333
 21
252.9666666666667
  0
LINE
  8
1
  6
CONTINUOUS
 62
     7
 10
-276.0333333333334
 20
252.9666666666667
 11
-276.0333333333334
 21
256.9666666666667
  0
ARC
  8
1
  6
CONTINUOUS
 62
     7
 10
-275.0333333333334
 20
256.9666666666667
 40
1.000000000000001
 50
90.0
 51
180.0
  0
LINE
  8
1
  6
CONTINUOUS
 62
     7
 10
-275.0333333333334
 20
257.9666666666667
 11
-267.0333333333334
 21
257.9666666666667
  0
LINE
  8
1
  6
CONTINUOUS
 62
     7
 10
-267.0333333333334
 20
257.9666666666667
 11
-267.0333333333334
 21
260.4666666666667
  0
ARC
  8
1
  6
CONTINUOUS
 62
     7
 10
-266.0333333333334
 20
260.4666666666667
 40
1.000000000000001
 50
90.0
 51
180.0
  0
LINE
  8
1
  6
CONTINUOUS
 62
     7
 10
-266.0333333333334
 20
261.4666666666667
 11
-261.2333333333333
 21
261.4666666666667
  0
ARC
  8
1
  6
CONTINUOUS
 62
     7
 10
-261.2333333333333
 20
260.4666666666667
 40
1.000000000000001
 50
0.0
 51
90.0
  0
LINE
  8
1
  6
CONTINUOUS
 62
     7
 10
-260.2333333333333
 20
257.9666666666667
 11
-257.7333333333333
 21
257.9666666666667
  0
ARC
  8
1
  6
CONTINUOUS
 62
     7
 10
-257.7333333333333
 20
256.9666666666667
 40
1.000000000000001
 50
0.0
 51
90.0
  0
LINE
  8
1
  6
CONTINUOUS
 62
     7
 10
-256.7333333333333
 20
253.5210227429278
 11
-256.7333333333333
 21
250.3666666666667
  0
ARC
  8
1
  6
CONTINUOUS
 62
     7
 10
-257.7333333333333
 20
250.3666666666667
 40
1.000000000000001
 50
270.0
 51
0.0
  0
LINE
  8
1
  6
CONTINUOUS
 62
     7
 10
-267.0333333333334
 20
249.3666666666667
 11
-257.7333333333333
 21
249.3666666666667
  0
LINE
  8
1
  6
CONTINUOUS
 62
     7
 10
-267.0333333333334
 20
244.3666666666667
 11
-267.0333333333334
 21
249.3666666666667
  0
ARC
  8
1
  6
CONTINUOUS
 62
     7
 10
-268.0333333333334
 20
244.3666666666667
 40
1.000000000000001
 50
270.0
 51
0.0
  0
LINE
  8
1
  6
CONTINUOUS
 62
     7
 10
-281.4333333333333
 20
243.3666666666667
 11
-268.0333333333333
 21
243.3666666666667
  0
LINE
  8
1
  6
CONTINUOUS
 62
     7
 10
-281.4333333333333
 20
164.9666666666667
 11
-281.4333333333333
 21
243.3666666666667
  0
LINE
  8
1
  6
CONTINUOUS
 62
     7
 10
-268.0333333333334
 20
164.9666666666667
 11
-281.4333333333333
 21
164.9666666666667
  0
ARC
  8
1
  6
CONTINUOUS
 62
     7
 10
-268.0333333333334
 20
163.9666666666667
 40
1.000000000000001
 50
0.0
 51
90.0
  0
LINE
  8
1
  6
CONTINUOUS
 62
     7
 10
-267.0333333333334
 20
158.9666666666667
 11
-267.0333333333334
 21
163.9666666666667
  0
LINE
  8
1
  6
CONTINUOUS
 62
     7
 10
-257.7333333333333
 20
158.9666666666667
 11
-267.0333333333334
 21
158.9666666666667
  0
ARC
  8
1
  6
CONTINUOUS
 62
     7
 10
-257.7333333333333
 20
157.9666666666667
 40
1.000000000000001
 50
0.0
 51
90.0000000000002
  0
ARC
  8
1
  6
CONTINUOUS
 62
     7
 10
-257.7333333333333
 20
151.3666666666667
 40
1.000000000000001
 50
270.0
 51
0.0
  0
ARC
  8
1
  6
CONTINUOUS
 62
     7
 10
-256.2333333333333
 20
153.6666666666667
 40
1.249999999999998
 50
113.5781784782022
 51
246.4218215217977
  0
ARC
  8
1
  6
CONTINUOUS
 62
     7
 10
-256.2333333333333
 20
254.6666666666667
 40
1.250000000000002
 50
113.5781784782018
 51
246.4218215217982
  0
LINE
  8
1
  6
CONTINUOUS
 62
     7
 10
-256.7333333333333
 20
256.9666666666667
 11
-256.7333333333333
 21
255.8123105904056
  0
LINE
  8
1
  6
CONTINUOUS
 62
     7
 10
-257.7333333333333
 20
150.3666666666667
 11
-260.2333333333333
 21
150.3666666666667
  0
LINE
  8
1
  6
CONTINUOUS
 62
     7
 10
-256.7333333333333
 20
157.9666666666667
 11
-256.7333333333333
 21
154.8123105904056
  0
LINE
  8
1
  6
CONTINUOUS
 62
     7
 10
-260.2333333333333
 20
150.3666666666667
 11
-260.2333333333333
 21
147.8666666666667
  0
LINE
  8
1
  6
CONTINUOUS
 62
     7
 10
-256.7333333333333
 20
152.5210227429277
 11
-256.7333333333333
 21
151.3666666666667
  0
LINE
  8
1
  6
CONTINUOUS
 62
     7
 10
-260.2333333333333
 20
260.4666666666667
 11
-260.2333333333333
 21
257.9666666666667
  0
LINE
  8
1
  6
CONTINUOUS
 62
     7
 10
-197.3333333333333
 20
148.1666666666667
 11
-197.3333333333333
 21
150.1666666666667
  0
LINE
  8
1
  6
CONTINUOUS
 62
     7
 10
-197.3333333333333
 20
148.1666666666667
 11
-185.3333333333333
 21
148.1666666666667
  0
LINE
  8
1
  6
CONTINUOUS
 62
     7
 10
-185.3333333333333
 20
148.1666666666667
 11
-185.3333333333333
 21
147.6666666666667
  0
POLYLINE
  8
1
  6
CONTINUOUS
 62
     7
 66
     1
  0
VERTEX
  8
1
  6
CONTINUOUS
 62
     7
 10
-184.3333333333333
 20
146.6666666666667
  0
VERTEX
  8
1
  6
CONTINUOUS
 62
     7
 10
-184.3812750748802
 20
146.6678406736724
  0
VERTEX
  8
1
  6
CONTINUOUS
 62
     7
 10
-184.4292412973683
 20
146.6713439098469
  0
VERTEX
  8
1
  6
CONTINUOUS
 62
     7
 10
-184.4770678751303
 20
146.6771481979261
  0
VERTEX
  8
1
  6
CONTINUOUS
 62
     7
 10
-184.524590682499
 20
146.6852253606459
  0
VERTEX
  8
1
  6
CONTINUOUS
 62
     7
 10
-184.5716455938072
 20
146.6955472207422
  0
VERTEX
  8
1
  6
CONTINUOUS
 62
     7
 10
-184.6180684833876
 20
146.7080856009509
  0
VERTEX
  8
1
  6
CONTINUOUS
 62
     7
 10
-184.6636952255729
 20
146.7228123240079
  0
VERTEX
  8
1
  6
CONTINUOUS
 62
     7
 10
-184.7085408761423
 20
146.7397516734825
  0
VERTEX
  8
1
  6
CONTINUOUS
 62
     7
 10
-184.7526370724713
 20
146.7588941110528
  0
VERTEX
  8
1
  6
CONTINUOUS
 62
     7
 10
-184.7958389832978
 20
146.7801587742456
  0
VERTEX
  8
1
  6
CONTINUOUS
 62
     7
 10
-184.8380017773596
 20
146.8034648005878
  0
VERTEX
  8
1
  6
CONTINUOUS
 62
     7
 10
-184.8789806233945
 20
146.8287313276061
  0
VERTEX
  8
1
  6
CONTINUOUS
 62
     7
 10
-184.9186306901405
 20
146.8558774928273
  0
VERTEX
  8
1
  6
CONTINUOUS
 62
     7
 10
-184.9568071463353
 20
146.8848224337783
  0
VERTEX
  8
1
  6
CONTINUOUS
 62
     7
 10
-184.9935606739335
 20
146.915632568483
  0
VERTEX
  8
1
  6
CONTINUOUS
 62
     7
 10
-185.0288766263821
 20
146.9482748040567
  0
VERTEX
  8
1
  6
CONTINUOUS
 62
     7
 10
-185.0626453302175
 20
146.9826251912375
  0
VERTEX
  8
1
  6
CONTINUOUS
 62
     7
 10
-185.0947571119765
 20
147.0185597807631
  0
VERTEX
  8
1
  6
CONTINUOUS
 62
     7
 10
-185.1251022981958
 20
147.0559546233716
  0
VERTEX
  8
1
  6
CONTINUOUS
 62
     7
 10
-185.1535712154117
 20
147.0946857698008
  0
VERTEX
  8
1
  6
CONTINUOUS
 62
     7
 10
-185.1800541901612
 20
147.1346292707886
  0
VERTEX
  8
1
  6
CONTINUOUS
 62
     7
 10
-185.2046073593866
 20
147.1759183823092
  0
VERTEX
  8
1
  6
CONTINUOUS
 62
     7
 10
-185.2271923635483
 20
147.2184666698809
  0
VERTEX
  8
1
  6
CONTINUOUS
 62
     7
 10
-185.2477462917583
 20
147.2621206520226
  0
VERTEX
  8
1
  6
CONTINUOUS
 62
     7
 10
-185.2662062331287
 20
147.3067268472534
  0
VERTEX
  8
1
  6
CONTINUOUS
 62
     7
 10
-185.2825092767717
 20
147.3521317740922
  0
VERTEX
  8
1
  6
CONTINUOUS
 62
     7
 10
-185.2965925117996
 20
147.3981819510579
  0
VERTEX
  8
1
  6
CONTINUOUS
 62
     7
 10
-185.3083930273244
 20
147.4447238966694
  0
VERTEX
  8
1
  6
CONTINUOUS
 62
     7
 10
-185.3173321322925
 20
147.488536050886
  0
VERTEX
  8
1
  6
CONTINUOUS
 62
     7
 10
-185.3243104923257
 20
147.5327690288835
  0
VERTEX
  8
1
  6
CONTINUOUS
 62
     7
 10
-185.3293133304756
 20
147.5772902067725
  0
VERTEX
  8
1
  6
CONTINUOUS
 62
     7
 10
-185.3323258697942
 20
147.6219669606634
  0
VERTEX
  8
1
  6
CONTINUOUS
 62
     7
 10
-185.3333333333333
 20
147.6666666666667
  0
SEQEND
  8
1
  6
CONTINUOUS
 62
     7
  0
LINE
  8
1
  6
CONTINUOUS
 62
     7
 10
-183.0833333333333
 20
146.6666666666667
 11
-184.3333333333333
 21
146.6666666666667
  0
ARC
  8
1
  6
CONTINUOUS
 62
     7
 10
-183.0841500797745
 20
151.6674834131078
 40
5.000816813137702
 50
270.0093576961456
 51
359.9906423038544
  0
LINE
  8
1
  6
CONTINUOUS
 62
     7
 10
-178.0833333333333
 20
151.6666666666672
 11
-178.0833333333333
 21
256.6666666666667
  0
ARC
  8
1
  6
CONTINUOUS
 62
     7
 10
-183.0833333333333
 20
256.6666666666667
 40
5.000000000000012
 50
14.96647508027962
 51
89.99999999999994
  0
LINE
  8
1
  6
CONTINUOUS
 62
     7
 10
-178.252947827384
 20
257.9579357571026
 11
-178.0833333333333
 21
256.6666666666666
  0
LINE
  8
1
  6
CONTINUOUS
 62
     7
 10
-184.3333333333333
 20
261.6666666666667
 11
-183.0833333333333
 21
261.6666666666667
  0
POLYLINE
  8
1
  6
CONTINUOUS
 62
     7
 66
     1
  0
VERTEX
  8
1
  6
CONTINUOUS
 62
     7
 10
-185.3333333333333
 20
260.6666666666667
  0
VERTEX
  8
1
  6
CONTINUOUS
 62
     7
 10
-185.3321504682104
 20
260.7147940841205
  0
VERTEX
  8
1
  6
CONTINUOUS
 62
     7
 10
-185.328620432519
 20
260.7629460627322
  0
VERTEX
  8
1
  6
CONTINUOUS
 62
     7
 10
-185.3227710657755
 20
260.8109579954149
  0
VERTEX
  8
1
  6
CONTINUOUS
 62
     7
 10
-185.3146302074963
 20
260.8586652750816
  0
VERTEX
  8
1
  6
CONTINUOUS
 62
     7
 10
-185.3042256971977
 20
260.9059032946454
  0
VERTEX
  8
1
  6
CONTINUOUS
 62
     7
 10
-185.2915853743961
 20
260.9525074470193
  0
VERTEX
  8
1
  6
CONTINUOUS
 62
     7
 10
-185.2767370786077
 20
260.9983131251164
  0
VERTEX
  8
1
  6
CONTINUOUS
 62
     7
 10
-185.2596536666444
 20
261.043339276379
  0
VERTEX
  8
1
  6
CONTINUOUS
 62
     7
 10
-185.2403444853024
 20
261.0876133004934
  0
VERTEX
  8
1
  6
CONTINUOUS
 62
     7
 10
-185.2188903029269
 20
261.1309884065212
  0
VERTEX
  8
1
  6
CONTINUOUS
 62
     7
 10
-185.1953718878629
 20
261.1733178035232
  0
VERTEX
  8
1
  6
CONTINUOUS
 62
     7
 10
-185.1698700084553
 20
261.2144547005606
  0
VERTEX
  8
1
  6
CONTINUOUS
 62
     7
 10
-185.1424654330494
 20
261.2542523066948
  0
VERTEX
  8
1
  6
CONTINUOUS
 62
     7
 10
-185.1132389299899
 20
261.2925638309867
  0
VERTEX
  8
1
  6
CONTINUOUS
 62
     7
 10
-185.0821950310403
 20
261.3293562688089
  0
VERTEX
  8
1
  6
CONTINUOUS
 62
     7
 10
-185.0493007191875
 20
261.3647033915625
  0
VERTEX
  8
1
  6
CONTINUOUS
 62
     7
 10
-185.0146810939904
 20
261.3984931509283
  0
VERTEX
  8
1
  6
CONTINUOUS
 62
     7
 10
-184.9784612550081
 20
261.4306134985871
  0
VERTEX
  8
1
  6
CONTINUOUS
 62
     7
 10
-184.9407663017994
 20
261.4609523862196
  0
VERTEX
  8
1
  6
CONTINUOUS
 62
     7
 10
-184.9017213339235
 20
261.4893977655065
  0
VERTEX
  8
1
  6
CONTINUOUS
 62
     7
 10
-184.8614514509392
 20
261.5158375881286
  0
VERTEX
  8
1
  6
CONTINUOUS
 62
     7
 10
-184.8200276123028
 20
261.5402112025866
  0
VERTEX
  8
1
  6
CONTINUOUS
 62
     7
 10
-184.7773420049909
 20
261.562613616006
  0
VERTEX
  8
1
  6
CONTINUOUS
 62
     7
 10
-184.7335495887557
 20
261.5829809234729
  0
VERTEX
  8
1
  6
CONTINUOUS
 62
     7
 10
-184.6888053233493
 20
261.6012492200733
  0
VERTEX
  8
1
  6
CONTINUOUS
 62
     7
 10
-184.6432641685238
 20
261.6173546008935
  0
VERTEX
  8
1
  6
CONTINUOUS
 62
     7
 10
-184.5970810840314
 20
261.6312331610196
  0
VERTEX
  8
1
  6
CONTINUOUS
 62
     7
 10
-184.5504110296242
 20
261.6428209955374
  0
VERTEX
  8
1
  6
CONTINUOUS
 62
     7
 10
-184.5075394233075
 20
261.6513683784696
  0
VERTEX
  8
1
  6
CONTINUOUS
 62
     7
 10
-184.4642706309287
 20
261.6580405340515
  0
VERTEX
  8
1
  6
CONTINUOUS
 62
     7
 10
-184.4207298720791
 20
261.6628235652802
  0
VERTEX
  8
1
  6
CONTINUOUS
 62
     7
 10
-184.3770423663501
 20
261.665703575153
  0
VERTEX
  8
1
  6
CONTINUOUS
 62
     7
 10
-184.3333333333333
 20
261.6666666666667
  0
SEQEND
  8
1
  6
CONTINUOUS
 62
     7
  0
LINE
  8
1
  6
CONTINUOUS
 62
     7
 10
-185.3333333333333
 20
260.6666666666666
 11
-185.3333333333333
 21
260.1666666666666
  0
LINE
  8
1
  6
CONTINUOUS
 62
     7
 10
-185.3333333333333
 20
260.1666666666667
 11
-197.3333333333333
 21
260.1666666666667
  0
LINE
  8
1
  6
CONTINUOUS
 62
     7
 10
-197.3333333333333
 20
258.1666666666666
 11
-197.3333333333333
 21
260.1666666666666
  0
LINE
  8
1
  6
CONTINUOUS
 62
     7
 10
-198.8333333333333
 20
258.1666666666667
 11
-197.3333333333333
 21
258.1666666666667
  0
POLYLINE
  8
1
  6
CONTINUOUS
 62
     7
 66
     1
  0
VERTEX
  8
1
  6
CONTINUOUS
 62
     7
 10
-199.3333333333333
 20
258.6666666666667
  0
VERTEX
  8
1
  6
CONTINUOUS
 62
     7
 10
-199.3327421445957
 20
258.642608047226
  0
VERTEX
  8
1
  6
CONTINUOUS
 62
     7
 10
-199.3309778485249
 20
258.6185369899388
  0
VERTEX
  8
1
  6
CONTINUOUS
 62
     7
 10
-199.3280543503342
 20
258.5945357880424
  0
VERTEX
  8
1
  6
CONTINUOUS
 62
     7
 10
-199.3239855552365
 20
258.5706867347734
  0
VERTEX
  8
1
  6
CONTINUOUS
 62
     7
 10
-199.3187853684451
 20
258.5470721233689
  0
VERTEX
  8
1
  6
CONTINUOUS
 62
     7
 10
-199.3124676951732
 20
258.5237742470659
  0
VERTEX
  8
1
  6
CONTINUOUS
 62
     7
 10
-199.3050464406338
 20
258.5008753991014
  0
VERTEX
  8
1
  6
CONTINUOUS
 62
     7
 10
-199.2965080418081
 20
258.4783661284184
  0
VERTEX
  8
1
  6
CONTINUOUS
 62
     7
 10
-199.2868571868655
 20
258.4562327399533
  0
VERTEX
  8
1
  6
CONTINUOUS
 62
     7
 10
-199.2761342613395
 20
258.4345486102977
  0
VERTEX
  8
1
  6
CONTINUOUS
 62
     7
 10
-199.2643796507638
 20
258.4133871160433
  0
VERTEX
  8
1
  6
CONTINUOUS
 62
     7
 10
-199.2516337406719
 20
258.392821633782
  0
VERTEX
  8
1
  6
CONTINUOUS
 62
     7
 10
-199.2379369165974
 20
258.3729255401054
  0
VERTEX
  8
1
  6
CONTINUOUS
 62
     7
 10
-199.2233295640739
 20
258.3537722116052
  0
VERTEX
  8
1
  6
CONTINUOUS
 62
     7
 10
-199.2078134559728
 20
258.3353775409989
  0
VERTEX
  8
1
  6
CONTINUOUS
 62
     7
 10
-199.1913726031885
 20
258.317705281361
  0
VERTEX
  8
1
  6
CONTINUOUS
 62
     7
 10
-199.1740695328406
 20
258.3008114055999
  0
VERTEX
  8
1
  6
CONTINUOUS
 62
     7
 10
-199.1559667720487
 20
258.2847518866231
  0
VERTEX
  8
1
  6
CONTINUOUS
 62
     7
 10
-199.1371268479325
 20
258.2695826973388
  0
VERTEX
  8
1
  6
CONTINUOUS
 62
     7
 10
-199.1176122876116
 20
258.2553598106547
  0
VERTEX
  8
1
  6
CONTINUOUS
 62
     7
 10
-199.0974856182056
 20
258.2421391994791
  0
VERTEX
  8
1
  6
CONTINUOUS
 62
     7
 10
-199.0767777373583
 20
258.2299485883957
  0
VERTEX
  8
1
  6
CONTINUOUS
 62
     7
 10
-199.0554391196223
 20
258.2187434413276
  0
VERTEX
  8
1
  6
CONTINUOUS
 62
     7
 10
-199.0335472005063
 20
258.2085556786677
  0
VERTEX
  8
1
  6
CONTINUOUS
 62
     7
 10
-199.0111794155188
 20
258.1994172208089
  0
VERTEX
  8
1
  6
CONTINUOUS
 62
     7
 10
-198.9884132001685
 20
258.1913599881442
  0
VERTEX
  8
1
  6
CONTINUOUS
 62
     7
 10
-198.965325989964
 20
258.1844159010664
  0
VERTEX
  8
1
  6
CONTINUOUS
 62
     7
 10
-198.9419952204139
 20
258.1786168799686
  0
VERTEX
  8
1
  6
CONTINUOUS
 62
     7
 10
-198.9205355856906
 20
258.1743333849571
  0
VERTEX
  8
1
  6
CONTINUOUS
 62
     7
 10
-198.8988767905335
 20
258.1709896479547
  0
VERTEX
  8
1
  6
CONTINUOUS
 62
     7
 10
-198.8770816240299
 20
258.1685926371279
  0
VERTEX
  8
1
  6
CONTINUOUS
 62
     7
 10
-198.8552128752674
 20
258.167149320643
  0
VERTEX
  8
1
  6
CONTINUOUS
 62
     7
 10
-198.8333333333333
 20
258.1666666666667
  0
SEQEND
  8
1
  6
CONTINUOUS
 62
     7
  0
LINE
  8
1
  6
CONTINUOUS
 62
     7
 10
-199.3333333333333
 20
258.6666666666667
 11
-199.3333333333333
 21
260.6666666666667
  0
POLYLINE
  8
1
  6
CONTINUOUS
 62
     7
 66
     1
  0
VERTEX
  8
1
  6
CONTINUOUS
 62
     7
 10
-200.3333333333333
 20
261.6666666666667
  0
VERTEX
  8
1
  6
CONTINUOUS
 62
     7
 10
-200.2853915917865
 20
261.6654926596609
  0
VERTEX
  8
1
  6
CONTINUOUS
 62
     7
 10
-200.2374253692984
 20
261.6619894234864
  0
VERTEX
  8
1
  6
CONTINUOUS
 62
     7
 10
-200.1895987915364
 20
261.6561851354072
  0
VERTEX
  8
1
  6
CONTINUOUS
 62
     7
 10
-200.1420759841677
 20
261.6481079726875
  0
VERTEX
  8
1
  6
CONTINUOUS
 62
     7
 10
-200.0950210728595
 20
261.6377861125912
  0
VERTEX
  8
1
  6
CONTINUOUS
 62
     7
 10
-200.0485981832791
 20
261.6252477323825
  0
VERTEX
  8
1
  6
CONTINUOUS
 62
     7
 10
-200.0029714410937
 20
261.6105210093255
  0
VERTEX
  8
1
  6
CONTINUOUS
 62
     7
 10
-199.9581257905243
 20
261.5935816598509
  0
VERTEX
  8
1
  6
CONTINUOUS
 62
     7
 10
-199.9140295941953
 20
261.5744392222805
  0
VERTEX
  8
1
  6
CONTINUOUS
 62
     7
 10
-199.8708276833689
 20
261.5531745590877
  0
VERTEX
  8
1
  6
CONTINUOUS
 62
     7
 10
-199.8286648893071
 20
261.5298685327456
  0
VERTEX
  8
1
  6
CONTINUOUS
 62
     7
 10
-199.7876860432721
 20
261.5046020057273
  0
VERTEX
  8
1
  6
CONTINUOUS
 62
     7
 10
-199.7480359765262
 20
261.477455840506
  0
VERTEX
  8
1
  6
CONTINUOUS
 62
     7
 10
-199.7098595203314
 20
261.4485108995551
  0
VERTEX
  8
1
  6
CONTINUOUS
 62
     7
 10
-199.6731059927331
 20
261.4177007648504
  0
VERTEX
  8
1
  6
CONTINUOUS
 62
     7
 10
-199.6377900402846
 20
261.3850585292766
  0
VERTEX
  8
1
  6
CONTINUOUS
 62
     7
 10
-199.6040213364492
 20
261.3507081420959
  0
VERTEX
  8
1
  6
CONTINUOUS
 62
     7
 10
-199.5719095546901
 20
261.3147735525703
  0
VERTEX
  8
1
  6
CONTINUOUS
 62
     7
 10
-199.5415643684709
 20
261.2773787099618
  0
VERTEX
  8
1
  6
CONTINUOUS
 62
     7
 10
-199.5130954512549
 20
261.2386475635326
  0
VERTEX
  8
1
  6
CONTINUOUS
 62
     7
 10
-199.4866124765055
 20
261.1987040625448
  0
VERTEX
  8
1
  6
CONTINUOUS
 62
     7
 10
-199.46205930728
 20
261.1574149510242
  0
VERTEX
  8
1
  6
CONTINUOUS
 62
     7
 10
-199.4394743031184
 20
261.1148666634525
  0
VERTEX
  8
1
  6
CONTINUOUS
 62
     7
 10
-199.4189203749084
 20
261.0712126813107
  0
VERTEX
  8
1
  6
CONTINUOUS
 62
     7
 10
-199.400460433538
 20
261.02660648608
  0
VERTEX
  8
1
  6
CONTINUOUS
 62
     7
 10
-199.3841573898949
 20
260.9812015592412
  0
VERTEX
  8
1
  6
CONTINUOUS
 62
     7
 10
-199.3700741548671
 20
260.9351513822755
  0
VERTEX
  8
1
  6
CONTINUOUS
 62
     7
 10
-199.3582736393423
 20
260.8886094366639
  0
VERTEX
  8
1
  6
CONTINUOUS
 62
     7
 10
-199.3493345343742
 20
260.8447972824474
  0
VERTEX
  8
1
  6
CONTINUOUS
 62
     7
 10
-199.342356174341
 20
260.8005643044498
  0
VERTEX
  8
1
  6
CONTINUOUS
 62
     7
 10
-199.3373533361911
 20
260.7560431265609
  0
VERTEX
  8
1
  6
CONTINUOUS
 62
     7
 10
-199.3343407968725
 20
260.7113663726699
  0
VERTEX
  8
1
  6
CONTINUOUS
 62
     7
 10
-199.3333333333333
 20
260.6666666666667
  0
SEQEND
  8
1
  6
CONTINUOUS
 62
     7
  0
LINE
  8
1
  6
CONTINUOUS
 62
     7
 10
-209.3333333333333
 20
261.6666666666667
 11
-200.3333333333333
 21
261.6666666666667
  0
POLYLINE
  8
1
  6
CONTINUOUS
 62
     7
 66
     1
  0
VERTEX
  8
1
  6
CONTINUOUS
 62
     7
 10
-210.3333333333333
 20
260.6666666666667
  0
VERTEX
  8
1
  6
CONTINUOUS
 62
     7
 10
-210.3321504682104
 20
260.7147940841205
  0
VERTEX
  8
1
  6
CONTINUOUS
 62
     7
 10
-210.328620432519
 20
260.7629460627322
  0
VERTEX
  8
1
  6
CONTINUOUS
 62
     7
 10
-210.3227710657755
 20
260.8109579954149
  0
VERTEX
  8
1
  6
CONTINUOUS
 62
     7
 10
-210.3146302074963
 20
260.8586652750816
  0
VERTEX
  8
1
  6
CONTINUOUS
 62
     7
 10
-210.3042256971977
 20
260.9059032946454
  0
VERTEX
  8
1
  6
CONTINUOUS
 62
     7
 10
-210.2915853743961
 20
260.9525074470193
  0
VERTEX
  8
1
  6
CONTINUOUS
 62
     7
 10
-210.2767370786077
 20
260.9983131251164
  0
VERTEX
  8
1
  6
CONTINUOUS
 62
     7
 10
-210.2596536666444
 20
261.043339276379
  0
VERTEX
  8
1
  6
CONTINUOUS
 62
     7
 10
-210.2403444853024
 20
261.0876133004934
  0
VERTEX
  8
1
  6
CONTINUOUS
 62
     7
 10
-210.2188903029269
 20
261.1309884065211
  0
VERTEX
  8
1
  6
CONTINUOUS
 62
     7
 10
-210.1953718878629
 20
261.1733178035232
  0
VERTEX
  8
1
  6
CONTINUOUS
 62
     7
 10
-210.1698700084554
 20
261.2144547005606
  0
VERTEX
  8
1
  6
CONTINUOUS
 62
     7
 10
-210.1424654330494
 20
261.2542523066948
  0
VERTEX
  8
1
  6
CONTINUOUS
 62
     7
 10
-210.1132389299899
 20
261.2925638309867
  0
VERTEX
  8
1
  6
CONTINUOUS
 62
     7
 10
-210.0821950310403
 20
261.3293562688089
  0
VERTEX
  8
1
  6
CONTINUOUS
 62
     7
 10
-210.0493007191875
 20
261.3647033915625
  0
VERTEX
  8
1
  6
CONTINUOUS
 62
     7
 10
-210.0146810939904
 20
261.3984931509283
  0
VERTEX
  8
1
  6
CONTINUOUS
 62
     7
 10
-209.9784612550081
 20
261.4306134985871
  0
VERTEX
  8
1
  6
CONTINUOUS
 62
     7
 10
-209.9407663017994
 20
261.4609523862195
  0
VERTEX
  8
1
  6
CONTINUOUS
 62
     7
 10
-209.9017213339235
 20
261.4893977655065
  0
VERTEX
  8
1
  6
CONTINUOUS
 62
     7
 10
-209.8614514509392
 20
261.5158375881286
  0
VERTEX
  8
1
  6
CONTINUOUS
 62
     7
 10
-209.8200276123028
 20
261.5402112025866
  0
VERTEX
  8
1
  6
CONTINUOUS
 62
     7
 10
-209.7773420049909
 20
261.562613616006
  0
VERTEX
  8
1
  6
CONTINUOUS
 62
     7
 10
-209.7335495887557
 20
261.5829809234729
  0
VERTEX
  8
1
  6
CONTINUOUS
 62
     7
 10
-209.6888053233493
 20
261.6012492200733
  0
VERTEX
  8
1
  6
CONTINUOUS
 62
     7
 10
-209.6432641685238
 20
261.6173546008935
  0
VERTEX
  8
1
  6
CONTINUOUS
 62
     7
 10
-209.5970810840314
 20
261.6312331610196
  0
VERTEX
  8
1
  6
CONTINUOUS
 62
     7
 10
-209.5504110296242
 20
261.6428209955374
  0
VERTEX
  8
1
  6
CONTINUOUS
 62
     7
 10
-209.5075394233075
 20
261.6513683784696
  0
VERTEX
  8
1
  6
CONTINUOUS
 62
     7
 10
-209.4642706309287
 20
261.6580405340515
  0
VERTEX
  8
1
  6
CONTINUOUS
 62
     7
 10
-209.4207298720791
 20
261.6628235652802
  0
VERTEX
  8
1
  6
CONTINUOUS
 62
     7
 10
-209.3770423663501
 20
261.665703575153
  0
VERTEX
  8
1
  6
CONTINUOUS
 62
     7
 10
-209.3333333333333
 20
261.6666666666667
  0
SEQEND
  8
1
  6
CONTINUOUS
 62
     7
  0
LINE
  8
1
  6
CONTINUOUS
 62
     7
 10
-210.3333333333333
 20
260.6666666666666
 11
-210.3333333333333
 21
255.9166666666666
  0
ARC
  8
1
  6
CONTINUOUS
 62
     7
 10
-210.3332496478191
 20
254.6666666666667
 40
1.250000002801307
 50
90.0038358614093
 51
269.9961641385907
  0
LINE
  8
1
  6
CONTINUOUS
 62
     7
 10
-210.3333333333333
 20
253.4166666666667
 11
-210.3333333333333
 21
250.1666666666667
  0
POLYLINE
  8
1
  6
CONTINUOUS
 62
     7
 66
     1
  0
VERTEX
  8
1
  6
CONTINUOUS
 62
     7
 10
-209.3333333333333
 20
249.1666666666667
  0
VERTEX
  8
1
  6
CONTINUOUS
 62
     7
 10
-209.3813103970371
 20
249.1678423555125
  0
VERTEX
  8
1
  6
CONTINUOUS
 62
     7
 10
-209.4293120027442
 20
249.1713506850381
  0
VERTEX
  8
1
  6
CONTINUOUS
 62
     7
 10
-209.4771739348673
 20
249.1771635497256
  0
VERTEX
  8
1
  6
CONTINUOUS
 62
     7
 10
-209.5247319778192
 20
249.1852528440569
  0
VERTEX
  8
1
  6
CONTINUOUS
 62
     7
 10
-209.5718219160124
 20
249.1955904625143
  0
VERTEX
  8
1
  6
CONTINUOUS
 62
     7
 10
-209.6182795338597
 20
249.2081482995797
  0
VERTEX
  8
1
  6
CONTINUOUS
 62
     7
 10
-209.6639406157738
 20
249.2228982497352
  0
VERTEX
  8
1
  6
CONTINUOUS
 62
     7
 10
-209.7088210252088
 20
249.2398651831193
  0
VERTEX
  8
1
  6
CONTINUOUS
 62
     7
 10
-209.7529515030106
 20
249.2590395772124
  0
VERTEX
  8
1
  6
CONTINUOUS
 62
     7
 10
-209.7961868236005
 20
249.2803405723659
  0
VERTEX
  8
1
  6
CONTINUOUS
 62
     7
 10
-209.8383817613998
 20
249.303687308931
  0
VERTEX
  8
1
  6
CONTINUOUS
 62
     7
 10
-209.87939109083
 20
249.3289989272592
  0
VERTEX
  8
1
  6
CONTINUOUS
 62
     7
 10
-209.9190695863124
 20
249.3561945677016
  0
VERTEX
  8
1
  6
CONTINUOUS
 62
     7
 10
-209.9572720222684
 20
249.3851933706098
  0
VERTEX
  8
1
  6
CONTINUOUS
 62
     7
 10
-209.9940317867216
 20
249.4160471171747
  0
VERTEX
  8
1
  6
CONTINUOUS
 62
     7
 10
-210.0293525122192
 20
249.4487362509786
  0
VERTEX
  8
1
  6
CONTINUOUS
 62
     7
 10
-210.0631240849363
 20
249.4831365754053
  0
VERTEX
  8
1
  6
CONTINUOUS
 62
     7
 10
-210.095236391048
 20
249.5191238938385
  0
VERTEX
  8
1
  6
CONTINUOUS
 62
     7
 10
-210.1255793167295
 20
249.5565740096618
  0
VERTEX
  8
1
  6
CONTINUOUS
 62
     7
 10
-210.1540427481562
 20
249.5953627262589
  0
VERTEX
  8
1
  6
CONTINUOUS
 62
     7
 10
-210.1805165715031
 20
249.6353658470134
  0
VERTEX
  8
1
  6
CONTINUOUS
 62
     7
 10
-210.205034354442
 20
249.6766774108652
  0
VERTEX
  8
1
  6
CONTINUOUS
 62
     7
 10
-210.2275835438389
 20
249.7192481770092
  0
VERTEX
  8
1
  6
CONTINUOUS
 62
     7
 10
-210.2481010951289
 20
249.7629243958532
  0
VERTEX
  8
1
  6
CONTINUOUS
 62
     7
 10
-210.2665239637469
 20
249.807552317805
  0
VERTEX
  8
1
  6
CONTINUOUS
 62
     7
 10
-210.2827891051283
 20
249.8529781932725
  0
VERTEX
  8
1
  6
CONTINUOUS
 62
     7
 10
-210.296833474708
 20
249.8990482726635
  0
VERTEX
  8
1
  6
CONTINUOUS
 62
     7
 10
-210.3085940279212
 20
249.9456088063859
  0
VERTEX
  8
1
  6
CONTINUOUS
 62
     7
 10
-210.3174613145887
 20
249.9892505762183
  0
VERTEX
  8
1
  6
CONTINUOUS
 62
     7
 10
-210.324383462194
 20
250.0333085024682
  0
VERTEX
  8
1
  6
CONTINUOUS
 62
     7
 10
-210.3293458970067
 20
250.07765132983
  0
VERTEX
  8
1
  6
CONTINUOUS
 62
     7
 10
-210.3323340452966
 20
250.1221478029981
  0
VERTEX
  8
1
  6
CONTINUOUS
 62
     7
 10
-210.3333333333333
 20
250.1666666666667
  0
SEQEND
  8
1
  6
CONTINUOUS
 62
     7
  0
LINE
  8
1
  6
CONTINUOUS
 62
     7
 10
-200.7333333333333
 20
249.1666666666667
 11
-209.3333333333333
 21
249.1666666666667
  0
POLYLINE
  8
1
  6
CONTINUOUS
 62
     7
 66
     1
  0
VERTEX
  8
1
  6
CONTINUOUS
 62
     7
 10
-199.7333333333333
 20
248.1666666666667
  0
VERTEX
  8
1
  6
CONTINUOUS
 62
     7
 10
-199.7345144650141
 20
248.2147578069314
  0
VERTEX
  8
1
  6
CONTINUOUS
 62
     7
 10
-199.7380392569574
 20
248.2628734993596
  0
VERTEX
  8
1
  6
CONTINUOUS
 62
     7
 10
-199.743879804515
 20
248.3108492319237
  0
VERTEX
  8
1
  6
CONTINUOUS
 62
     7
 10
-199.7520082030382
 20
248.3585204925959
  0
VERTEX
  8
1
  6
CONTINUOUS
 62
     7
 10
-199.7623965478788
 20
248.4057227693484
  0
VERTEX
  8
1
  6
CONTINUOUS
 62
     7
 10
-199.7750169343882
 20
248.4522915501534
  0
VERTEX
  8
1
  6
CONTINUOUS
 62
     7
 10
-199.7898414579182
 20
248.4980623229833
  0
VERTEX
  8
1
  6
CONTINUOUS
 62
     7
 10
-199.8068967057998
 20
248.5430532815107
  0
VERTEX
  8
1
  6
CONTINUOUS
 62
     7
 10
-199.8261732907723
 20
248.5872926430628
  0
VERTEX
  8
1
  6
CONTINUOUS
 62
     7
 10
-199.8475904237
 20
248.630633998482
  0
VERTEX
  8
1
  6
CONTINUOUS
 62
     7
 10
-199.8710673154474
 20
248.6729309386106
  0
VERTEX
  8
1
  6
CONTINUOUS
 62
     7
 10
-199.8965231768789
 20
248.7140370542909
  0
VERTEX
  8
1
  6
CONTINUOUS
 62
     7
 10
-199.923877218859
 20
248.7538059363654
  0
VERTEX
  8
1
  6
CONTINUOUS
 62
     7
 10
-199.9530486522522
 20
248.7920911756764
  0
VERTEX
  8
1
  6
CONTINUOUS
 62
     7
 10
-199.9840468158265
 20
248.8288760455304
  0
VERTEX
  8
1
  6
CONTINUOUS
 62
     7
 10
-200.0168917947055
 20
248.8642171147543
  0
VERTEX
  8
1
  6
CONTINUOUS
 62
     7
 10
-200.051458711237
 20
248.8980028014221
  0
VERTEX
  8
1
  6
CONTINUOUS
 62
     7
 10
-200.0876226877688
 20
248.9301215236073
  0
VERTEX
  8
1
  6
CONTINUOUS
 62
     7
 10
-200.1252588466489
 20
248.9604616993837
  0
VERTEX
  8
1
  6
CONTINUOUS
 62
     7
 10
-200.1642423102251
 20
248.988911746825
  0
VERTEX
  8
1
  6
CONTINUOUS
 62
     7
 10
-200.2044482008454
 20
249.0153600840049
  0
VERTEX
  8
1
  6
CONTINUOUS
 62
     7
 10
-200.2458455487065
 20
249.0397687339856
  0
VERTEX
  8
1
  6
CONTINUOUS
 62
     7
 10
-200.2885041182884
 20
249.0622067887809
  0
VERTEX
  8
1
  6
CONTINUOUS
 62
     7
 10
-200.3322692406435
 20
249.0826105419406
  0
VERTEX
  8
1
  6
CONTINUOUS
 62
     7
 10
-200.3769862468239
 20
249.1009162870144
  0
VERTEX
  8
1
  6
CONTINUOUS
 62
     7
 10
-200.4225004678817
 20
249.1170603175518
  0
VERTEX
  8
1
  6
CONTINUOUS
 62
     7
 10
-200.4686572348692
 20
249.1309789271026
  0
VERTEX
  8
1
  6
CONTINUOUS
 62
     7
 10
-200.5153018788385
 20
249.1426084092164
  0
VERTEX
  8
1
  6
CONTINUOUS
 62
     7
 10
-200.5583580257127
 20
249.1512318795228
  0
VERTEX
  8
1
  6
CONTINUOUS
 62
     7
 10
-200.6018158966852
 20
249.1579635038119
  0
VERTEX
  8
1
  6
CONTINUOUS
 62
     7
 10
-200.6455488396701
 20
249.1627892186929
  0
VERTEX
  8
1
  6
CONTINUOUS
 62
     7
 10
-200.6894302025815
 20
249.1656949607747
  0
VERTEX
  8
1
  6
CONTINUOUS
 62
     7
 10
-200.7333333333333
 20
249.1666666666667
  0
SEQEND
  8
1
  6
CONTINUOUS
 62
     7
  0
LINE
  8
1
  6
CONTINUOUS
 62
     7
 10
-199.7333333333333
 20
248.1666666666666
 11
-199.7333333333333
 21
244.1666666666666
  0
POLYLINE
  8
1
  6
CONTINUOUS
 62
     7
 66
     1
  0
VERTEX
  8
1
  6
CONTINUOUS
 62
     7
 10
-198.7333333333333
 20
243.1666666666667
  0
VERTEX
  8
1
  6
CONTINUOUS
 62
     7
 10
-198.7813246441873
 20
243.1678430345253
  0
VERTEX
  8
1
  6
CONTINUOUS
 62
     7
 10
-198.8293405199262
 20
243.171353419884
  0
VERTEX
  8
1
  6
CONTINUOUS
 62
     7
 10
-198.8772167076826
 20
243.1771697454175
  0
VERTEX
  8
1
  6
CONTINUOUS
 62
     7
 10
-198.924788954589
 20
243.1852639338001
  0
VERTEX
  8
1
  6
CONTINUOUS
 62
     7
 10
-198.971893007778
 20
243.1956079077062
  0
VERTEX
  8
1
  6
CONTINUOUS
 62
     7
 10
-199.0183646143823
 20
243.2081735898105
  0
VERTEX
  8
1
  6
CONTINUOUS
 62
     7
 10
-199.0640395215343
 20
243.2229329027875
  0
VERTEX
  8
1
  6
CONTINUOUS
 62
     7
 10
-199.10893389402
 20
243.2399109396189
  0
VERTEX
  8
1
  6
CONTINUOUS
 62
     7
 10
-199.1530781421216
 20
243.2590981933183
  0
VERTEX
  8
1
  6
CONTINUOUS
 62
     7
 10
-199.1963268883109
 20
243.2804138130362
  0
VERTEX
  8
1
  6
CONTINUOUS
 62
     7
 10
-199.2385347550601
 20
243.3037769479231
  0
VERTEX
  8
1
  6
CONTINUOUS
 62
     7
 10
-199.279556364841
 20
243.3291067471294
  0
VERTEX
  8
1
  6
CONTINUOUS
 62
     7
 10
-199.3192463401257
 20
243.3563223598057
  0
VERTEX
  8
1
  6
CONTINUOUS
 62
     7
 10
-199.357459303386
 20
243.3853429351023
  0
VERTEX
  8
1
  6
CONTINUOUS
 62
     7
 10
-199.3942221866955
 20
243.4162148021094
  0
VERTEX
  8
1
  6
CONTINUOUS
 62
     7
 10
-199.4295454415126
 20
243.4489234898609
  0
VERTEX
  8
1
  6
CONTINUOUS
 62
     7
 10
-199.4633187691833
 20
243.4833447158503
  0
VERTEX
  8
1
  6
CONTINUOUS
 62
     7
 10
-199.4954318710537
 20
243.5193541975712
  0
VERTEX
  8
1
  6
CONTINUOUS
 62
     7
 10
-199.5257744484701
 20
243.5568276525169
  0
VERTEX
  8
1
  6
CONTINUOUS
 62
     7
 10
-199.5542362027786
 20
243.5956407981813
  0
VERTEX
  8
1
  6
CONTINUOUS
 62
     7
 10
-199.5807068353252
 20
243.6356693520576
  0
VERTEX
  8
1
  6
CONTINUOUS
 62
     7
 10
-199.6052108776313
 20
243.6769916557577
  0
VERTEX
  8
1
  6
CONTINUOUS
 62
     7
 10
-199.62774608142
 20
243.7195734101266
  0
VERTEX
  8
1
  6
CONTINUOUS
 62
     7
 10
-199.648249319223
 20
243.7632607514026
  0
VERTEX
  8
1
  6
CONTINUOUS
 62
     7
 10
-199.6666574635724
 20
243.8078998158242
  0
VERTEX
  8
1
  6
CONTINUOUS
 62
     7
 10
-199.6829073870001
 20
243.8533367396299
  0
VERTEX
  8
1
  6
CONTINUOUS
 62
     7
 10
-199.6969359620378
 20
243.8994176590581
  0
VERTEX
  8
1
  6
CONTINUOUS
 62
     7
 10
-199.7086800612177
 20
243.9459887103472
  0
VERTEX
  8
1
  6
CONTINUOUS
 62
     7
 10
-199.71751654756
 20
243.9895569891945
  0
VERTEX
  8
1
  6
CONTINUOUS
 62
     7
 10
-199.7244146273
 20
244.0335395959862
  0
VERTEX
  8
1
  6
CONTINUOUS
 62
     7
 10
-199.7293597910804
 20
244.0778058589861
  0
VERTEX
  8
1
  6
CONTINUOUS
 62
     7
 10
-199.7323375295439
 20
244.1222251064583
  0
VERTEX
  8
1
  6
CONTINUOUS
 62
     7
 10
-199.7333333333333
 20
244.1666666666667
  0
SEQEND
  8
1
  6
CONTINUOUS
 62
     7
  0
LINE
  8
1
  6
CONTINUOUS
 62
     7
 10
-186.3333333333333
 20
243.1666666666667
 11
-198.7333333333333
 21
243.1666666666667
  0
POLYLINE
  8
1
  6
CONTINUOUS
 62
     7
 66
     1
  0
VERTEX
  8
1
  6
CONTINUOUS
 62
     7
 10
-185.3333333333333
 20
242.1666666666667
  0
VERTEX
  8
1
  6
CONTINUOUS
 62
     7
 10
-185.3345137862151
 20
242.2147435939086
  0
VERTEX
  8
1
  6
CONTINUOUS
 62
     7
 10
-185.3380365251859
 20
242.2628450740495
  0
VERTEX
  8
1
  6
CONTINUOUS
 62
     7
 10
-185.3438736207333
 20
242.3108066320745
  0
VERTEX
  8
1
  6
CONTINUOUS
 62
     7
 10
-185.3519971433454
 20
242.3584637929688
  0
VERTEX
  8
1
  6
CONTINUOUS
 62
     7
 10
-185.3623791635102
 20
242.4056520817175
  0
VERTEX
  8
1
  6
CONTINUOUS
 62
     7
 10
-185.3749917517153
 20
242.4522070233058
  0
VERTEX
  8
1
  6
CONTINUOUS
 62
     7
 10
-185.3898069784489
 20
242.4979641427188
  0
VERTEX
  8
1
  6
CONTINUOUS
 62
     7
 10
-185.4068512154973
 20
242.5429413407919
  0
VERTEX
  8
1
  6
CONTINUOUS
 62
     7
 10
-185.4261150595712
 20
242.5871671518555
  0
VERTEX
  8
1
  6
CONTINUOUS
 62
     7
 10
-185.4475177134986
 20
242.6304953151447
  0
VERTEX
  8
1
  6
CONTINUOUS
 62
     7
 10
-185.4709783801074
 20
242.6727795698945
  0
VERTEX
  8
1
  6
CONTINUOUS
 62
     7
 10
-185.4964162622256
 20
242.7138736553402
  0
VERTEX
  8
1
  6
CONTINUOUS
 62
     7
 10
-185.5237505626813
 20
242.7536313107168
  0
VERTEX
  8
1
  6
CONTINUOUS
 62
     7
 10
-185.5529004843023
 20
242.7919062752595
  0
VERTEX
  8
1
  6
CONTINUOUS
 62
     7
 10
-185.5838807367983
 20
242.8286881381426
  0
VERTEX
  8
1
  6
CONTINUOUS
 62
     7
 10
-185.6167063953287
 20
242.8640267945682
  0
VERTEX
  8
1
  6
CONTINUOUS
 62
     7
 10
-185.651252668872
 20
242.8978108448336
  0
VERTEX
  8
1
  6
CONTINUOUS
 62
     7
 10
-185.6873947664066
 20
242.929928889236
  0
VERTEX
  8
1
  6
CONTINUOUS
 62
     7
 10
-185.7250078969107
 20
242.9602695280726
  0
VERTEX
  8
1
  6
CONTINUOUS
 62
     7
 10
-185.7639672693627
 20
242.9887213616406
  0
VERTEX
  8
1
  6
CONTINUOUS
 62
     7
 10
-185.804148092741
 20
243.0151729902373
  0
VERTEX
  8
1
  6
CONTINUOUS
 62
     7
 10
-185.8455350192878
 20
243.0395953215934
  0
VERTEX
  8
1
  6
CONTINUOUS
 62
     7
 10
-185.8881829487895
 20
243.062047297363
  0
VERTEX
  8
1
  6
CONTINUOUS
 62
     7
 10
-185.9319373262911
 20
243.0824652893563
  0
VERTEX
  8
1
  6
CONTINUOUS
 62
     7
 10
-185.976643596838
 20
243.1007856693837
  0
VERTEX
  8
1
  6
CONTINUOUS
 62
     7
 10
-186.0221472054752
 20
243.1169448092555
  0
VERTEX
  8
1
  6
CONTINUOUS
 62
     7
 10
-186.0682935972479
 20
243.1308790807821
  0
VERTEX
  8
1
  6
CONTINUOUS
 62
     7
 10
-186.1149282172013
 20
243.1425248557738
  0
VERTEX
  8
1
  6
CONTINUOUS
 62
     7
 10
-186.15805665319
 20
243.1511782312517
  0
VERTEX
  8
1
  6
CONTINUOUS
 62
     7
 10
-186.2015885984154
 20
243.1579332287463
  0
VERTEX
  8
1
  6
CONTINUOUS
 62
     7
 10
-186.2453968372596
 20
243.1627757195912
  0
VERTEX
  8
1
  6
CONTINUOUS
 62
     7
 10
-186.2893541541049
 20
243.1656915751201
  0
VERTEX
  8
1
  6
CONTINUOUS
 62
     7
 10
-186.3333333333333
 20
243.1666666666667
  0
SEQEND
  8
1
  6
CONTINUOUS
 62
     7
  0
LINE
  8
1
  6
CONTINUOUS
 62
     7
 10
-185.3333333333333
 20
242.1666666666648
 11
-185.3333333333333
 21
166.1666666666667
  0
POLYLINE
  8
1
  6
CONTINUOUS
 62
     7
 66
     1
  0
VERTEX
  8
1
  6
CONTINUOUS
 62
     7
 10
-186.3333333333333
 20
165.1666666666667
  0
VERTEX
  8
1
  6
CONTINUOUS
 62
     7
 10
-186.285341416989
 20
165.1678430639102
  0
VERTEX
  8
1
  6
CONTINUOUS
 62
     7
 10
-186.237324937682
 20
165.171353537323
  0
VERTEX
  8
1
  6
CONTINUOUS
 62
     7
 10
-186.1894481514306
 20
165.1771700094287
  0
VERTEX
  8
1
  6
CONTINUOUS
 62
     7
 10
-186.1418753142536
 20
165.1852644027506
  0
VERTEX
  8
1
  6
CONTINUOUS
 62
     7
 10
-186.0947706821695
 20
165.1956086398124
  0
VERTEX
  8
1
  6
CONTINUOUS
 62
     7
 10
-186.0482985111968
 20
165.2081746431376
  0
VERTEX
  8
1
  6
CONTINUOUS
 62
     7
 10
-186.0026230573542
 20
165.2229343352497
  0
VERTEX
  8
1
  6
CONTINUOUS
 62
     7
 10
-185.9577281840479
 20
165.2399127950796
  0
VERTEX
  8
1
  6
CONTINUOUS
 62
     7
 10
-185.9135834433085
 20
165.2591005312129
  0
VERTEX
  8
1
  6
CONTINUOUS
 62
     7
 10
-185.8703342069833
 20
165.2804167055366
  0
VERTEX
  8
1
  6
CONTINUOUS
 62
     7
 10
-185.8281258469192
 20
165.3037804799375
  0
VERTEX
  8
1
  6
CONTINUOUS
 62
     7
 10
-185.7871037349634
 20
165.329111016303
  0
VERTEX
  8
1
  6
CONTINUOUS
 62
     7
 10
-185.7474132429631
 20
165.3563274765199
  0
VERTEX
  8
1
  6
CONTINUOUS
 62
     7
 10
-185.7091997427654
 20
165.3853490224753
  0
VERTEX
  8
1
  6
CONTINUOUS
 62
     7
 10
-185.6724357023807
 20
165.4162225285445
  0
VERTEX
  8
1
  6
CONTINUOUS
 62
     7
 10
-185.6371113136361
 20
165.4489330930805
  0
VERTEX
  8
1
  6
CONTINUOUS
 62
     7
 10
-185.6033368944912
 20
165.4833564530049
  0
VERTEX
  8
1
  6
CONTINUOUS
 62
     7
 10
-185.5712227629058
 20
165.5193683452393
  0
VERTEX
  8
1
  6
CONTINUOUS
 62
     7
 10
-185.5408792368398
 20
165.5568445067053
  0
VERTEX
  8
1
  6
CONTINUOUS
 62
     7
 10
-185.5124166342529
 20
165.5956606743245
  0
VERTEX
  8
1
  6
CONTINUOUS
 62
     7
 10
-185.4859452731048
 20
165.6356925850184
  0
VERTEX
  8
1
  6
CONTINUOUS
 62
     7
 10
-185.4614409138418
 20
165.6770181546779
  0
VERTEX
  8
1
  6
CONTINUOUS
 62
     7
 10
-185.4389055234481
 20
165.719603579284
  0
VERTEX
  8
1
  6
CONTINUOUS
 62
     7
 10
-185.418402281036
 20
165.7632949803649
  0
VERTEX
  8
1
  6
CONTINUOUS
 62
     7
 10
-185.3999943657176
 20
165.807938479449
  0
VERTEX
  8
1
  6
CONTINUOUS
 62
     7
 10
-185.3837449566049
 20
165.8533801980645
  0
VERTEX
  8
1
  6
CONTINUOUS
 62
     7
 10
-185.3697172328102
 20
165.8994662577396
  0
VERTEX
  8
1
  6
CONTINUOUS
 62
     7
 10
-185.3579743734456
 20
165.9460427800027
  0
VERTEX
  8
1
  6
CONTINUOUS
 62
     7
 10
-185.3491423580608
 20
165.9896000927956
  0
VERTEX
  8
1
  6
CONTINUOUS
 62
     7
 10
-185.3422477117114
 20
166.0335717290795
  0
VERTEX
  8
1
  6
CONTINUOUS
 62
     7
 10
-185.337304969043
 20
166.0778270976333
  0
VERTEX
  8
1
  6
CONTINUOUS
 62
     7
 10
-185.3343286647017
 20
166.122235607236
  0
VERTEX
  8
1
  6
CONTINUOUS
 62
     7
 10
-185.3333333333333
 20
166.1666666666667
  0
SEQEND
  8
1
  6
CONTINUOUS
 62
     7
  0
LINE
  8
1
  6
CONTINUOUS
 62
     7
 10
-198.7333333333333
 20
165.1666666666667
 11
-186.3333333333333
 21
165.1666666666667
  0
POLYLINE
  8
1
  6
CONTINUOUS
 62
     7
 66
     1
  0
VERTEX
  8
1
  6
CONTINUOUS
 62
     7
 10
-199.7333333333333
 20
164.1666666666667
  0
VERTEX
  8
1
  6
CONTINUOUS
 62
     7
 10
-199.7321528425021
 20
164.2147444122695
  0
VERTEX
  8
1
  6
CONTINUOUS
 62
     7
 10
-199.7286299580233
 20
164.2628470190838
  0
VERTEX
  8
1
  6
CONTINUOUS
 62
     7
 10
-199.722792561919
 20
164.3108100040886
  0
VERTEX
  8
1
  6
CONTINUOUS
 62
     7
 10
-199.7146685362114
 20
164.3584688842632
  0
VERTEX
  8
1
  6
CONTINUOUS
 62
     7
 10
-199.7042857629228
 20
164.4056591765863
  0
VERTEX
  8
1
  6
CONTINUOUS
 62
     7
 10
-199.6916721240751
 20
164.4522163980373
  0
VERTEX
  8
1
  6
CONTINUOUS
 62
     7
 10
-199.6768555016907
 20
164.4979760655951
  0
VERTEX
  8
1
  6
CONTINUOUS
 62
     7
 10
-199.6598093767072
 20
164.5429562583945
  0
VERTEX
  8
1
  6
CONTINUOUS
 62
     7
 10
-199.6405431690511
 20
164.5871852603013
  0
VERTEX
  8
1
  6
CONTINUOUS
 62
     7
 10
-199.6191376722582
 20
164.6305167346159
  0
VERTEX
  8
1
  6
CONTINUOUS
 62
     7
 10
-199.5956736798647
 20
164.6728043446394
  0
VERTEX
  8
1
  6
CONTINUOUS
 62
     7
 10
-199.5702319854065
 20
164.7139017536723
  0
VERTEX
  8
1
  6
CONTINUOUS
 62
     7
 10
-199.5428933824196
 20
164.7536626250154
  0
VERTEX
  8
1
  6
CONTINUOUS
 62
     7
 10
-199.5137386644401
 20
164.7919406219696
  0
VERTEX
  8
1
  6
CONTINUOUS
 62
     7
 10
-199.4827562517783
 20
164.8287217177558
  0
VERTEX
  8
1
  6
CONTINUOUS
 62
     7
 10
-199.4499282661211
 20
164.8640596393388
  0
VERTEX
  8
1
  6
CONTINUOUS
 62
     7
 10
-199.4153795198899
 20
164.8978429486184
  0
VERTEX
  8
1
  6
CONTINUOUS
 62
     7
 10
-199.379234825506
 20
164.9299602074946
  0
VERTEX
  8
1
  6
CONTINUOUS
 62
     7
 10
-199.3416189953905
 20
164.9602999778672
  0
VERTEX
  8
1
  6
CONTINUOUS
 62
     7
 10
-199.3026568419648
 20
164.9887508216361
  0
VERTEX
  8
1
  6
CONTINUOUS
 62
     7
 10
-199.2624731776503
 20
165.0152013007013
  0
VERTEX
  8
1
  6
CONTINUOUS
 62
     7
 10
-199.2210862734506
 20
165.0396206740848
  0
VERTEX
  8
1
  6
CONTINUOUS
 62
     7
 10
-199.1784384895847
 20
165.062069778557
  0
VERTEX
  8
1
  6
CONTINUOUS
 62
     7
 10
-199.1346843809384
 20
165.0824849893659
  0
VERTEX
  8
1
  6
CONTINUOUS
 62
     7
 10
-199.0899785023976
 20
165.1008026817597
  0
VERTEX
  8
1
  6
CONTINUOUS
 62
     7
 10
-199.044475408848
 20
165.1169592309867
  0
VERTEX
  8
1
  6
CONTINUOUS
 62
     7
 10
-198.9983296551755
 20
165.1308910122951
  0
VERTEX
  8
1
  6
CONTINUOUS
 62
     7
 10
-198.9516957962659
 20
165.142534400933
  0
VERTEX
  8
1
  6
CONTINUOUS
 62
     7
 10
-198.9085755669299
 20
165.1511843692218
  0
VERTEX
  8
1
  6
CONTINUOUS
 62
     7
 10
-198.8650520645433
 20
165.1579366977054
  0
VERTEX
  8
1
  6
CONTINUOUS
 62
     7
 10
-198.8212524305315
 20
165.1627772686178
  0
VERTEX
  8
1
  6
CONTINUOUS
 62
     7
 10
-198.7773038063197
 20
165.1656919641935
  0
VERTEX
  8
1
  6
CONTINUOUS
 62
     7
 10
-198.7333333333333
 20
165.1666666666667
  0
SEQEND
  8
1
  6
CONTINUOUS
 62
     7
  0
LINE
  8
1
  6
CONTINUOUS
 62
     7
 10
-199.7333333333333
 20
164.1666666666667
 11
-199.7333333333333
 21
160.1666666666667
  0
POLYLINE
  8
1
  6
CONTINUOUS
 62
     7
 66
     1
  0
VERTEX
  8
1
  6
CONTINUOUS
 62
     7
 10
-200.7333333333333
 20
159.1666666666667
  0
VERTEX
  8
1
  6
CONTINUOUS
 62
     7
 10
-200.6853555707727
 20
159.16784238942
  0
VERTEX
  8
1
  6
CONTINUOUS
 62
     7
 10
-200.6373532684275
 20
159.1713508205498
  0
VERTEX
  8
1
  6
CONTINUOUS
 62
     7
 10
-200.5894906455229
 20
159.1771638543609
  0
VERTEX
  8
1
  6
CONTINUOUS
 62
     7
 10
-200.5419319212844
 20
159.1852533851582
  0
VERTEX
  8
1
  6
CONTINUOUS
 62
     7
 10
-200.4948413149373
 20
159.1955913072466
  0
VERTEX
  8
1
  6
CONTINUOUS
 62
     7
 10
-200.4483830457071
 20
159.2081495149308
  0
VERTEX
  8
1
  6
CONTINUOUS
 62
     7
 10
-200.4027213328191
 20
159.2228999025158
  0
VERTEX
  8
1
  6
CONTINUOUS
 62
     7
 10
-200.3578403453548
 20
159.2398673239287
  0
VERTEX
  8
1
  6
CONTINUOUS
 62
     7
 10
-200.3137092989744
 20
159.2590422746073
  0
VERTEX
  8
1
  6
CONTINUOUS
 62
     7
 10
-200.2704734127003
 20
159.2803439095794
  0
VERTEX
  8
1
  6
CONTINUOUS
 62
     7
 10
-200.228277905555
 20
159.303691383873
  0
VERTEX
  8
1
  6
CONTINUOUS
 62
     7
 10
-200.1872679965609
 20
159.3290038525158
  0
VERTEX
  8
1
  6
CONTINUOUS
 62
     7
 10
-200.1475889047406
 20
159.3562004705358
  0
VERTEX
  8
1
  6
CONTINUOUS
 62
     7
 10
-200.1093858491166
 20
159.3852003929609
  0
VERTEX
  8
1
  6
CONTINUOUS
 62
     7
 10
-200.0726247491213
 20
159.4160560302472
  0
VERTEX
  8
1
  6
CONTINUOUS
 62
     7
 10
-200.0373027147795
 20
159.4487473288914
  0
VERTEX
  8
1
  6
CONTINUOUS
 62
     7
 10
-200.0035298821464
 20
159.4831501146759
  0
VERTEX
  8
1
  6
CONTINUOUS
 62
     7
 10
-199.971416387277
 20
159.5191402133831
  0
VERTEX
  8
1
  6
CONTINUOUS
 62
     7
 10
-199.9410723662264
 20
159.5565934507955
  0
VERTEX
  8
1
  6
CONTINUOUS
 62
     7
 10
-199.9126079550497
 20
159.5953856526957
  0
VERTEX
  8
1
  6
CONTINUOUS
 62
     7
 10
-199.8861332898019
 20
159.6353926448659
  0
VERTEX
  8
1
  6
CONTINUOUS
 62
     7
 10
-199.8616151384731
 20
159.6767079787987
  0
VERTEX
  8
1
  6
CONTINUOUS
 62
     7
 10
-199.8390657310784
 20
159.7192829815861
  0
VERTEX
  8
1
  6
CONTINUOUS
 62
     7
 10
-199.8185481717635
 20
159.7629638867234
  0
VERTEX
  8
1
  6
CONTINUOUS
 62
     7
 10
-199.8001255646741
 20
159.8075969277059
  0
VERTEX
  8
1
  6
CONTINUOUS
 62
     7
 10
-199.7838610139561
 20
159.8530283380288
  0
VERTEX
  8
1
  6
CONTINUOUS
 62
     7
 10
-199.769817623755
 20
159.8991043511873
  0
VERTEX
  8
1
  6
CONTINUOUS
 62
     7
 10
-199.7580584982167
 20
159.9456712006767
  0
VERTEX
  8
1
  6
CONTINUOUS
 62
     7
 10
-199.7491963805515
 20
159.989300314712
  0
VERTEX
  8
1
  6
CONTINUOUS
 62
     7
 10
-199.7422782020958
 20
160.0333455804782
  0
VERTEX
  8
1
  6
CONTINUOUS
 62
     7
 10
-199.7373185659843
 20
160.0776758358257
  0
VERTEX
  8
1
  6
CONTINUOUS
 62
     7
 10
-199.7343320753519
 20
160.1221599186051
  0
VERTEX
  8
1
  6
CONTINUOUS
 62
     7
 10
-199.7333333333333
 20
160.1666666666667
  0
SEQEND
  8
1
  6
CONTINUOUS
 62
     7
  0
LINE
  8
1
  6
CONTINUOUS
 62
     7
 10
-209.3333333333333
 20
159.1666666666667
 11
-200.7333333333333
 21
159.1666666666667
  0
POLYLINE
  8
1
  6
CONTINUOUS
 62
     7
 66
     1
  0
VERTEX
  8
1
  6
CONTINUOUS
 62
     7
 10
-210.3333333333333
 20
158.1666666666667
  0
VERTEX
  8
1
  6
CONTINUOUS
 62
     7
 10
-210.3321521576003
 20
158.2147587563452
  0
VERTEX
  8
1
  6
CONTINUOUS
 62
     7
 10
-210.328627196912
 20
158.2628757544287
  0
VERTEX
  8
1
  6
CONTINUOUS
 62
     7
 10
-210.3227863010349
 20
158.3108531395885
  0
VERTEX
  8
1
  6
CONTINUOUS
 62
     7
 10
-210.3146573197353
 20
158.3585263904964
  0
VERTEX
  8
1
  6
CONTINUOUS
 62
     7
 10
-210.3042681027796
 20
158.4057309858238
  0
VERTEX
  8
1
  6
CONTINUOUS
 62
     7
 10
-210.291646499934
 20
158.4523024042424
  0
VERTEX
  8
1
  6
CONTINUOUS
 62
     7
 10
-210.276820360965
 20
158.4980761244238
  0
VERTEX
  8
1
  6
CONTINUOUS
 62
     7
 10
-210.2597629282582
 20
158.5430705461261
  0
VERTEX
  8
1
  6
CONTINUOUS
 62
     7
 10
-210.2404836082836
 20
158.5873135972512
  0
VERTEX
  8
1
  6
CONTINUOUS
 62
     7
 10
-210.219063185983
 20
158.6306587808218
  0
VERTEX
  8
1
  6
CONTINUOUS
 62
     7
 10
-210.1955824462982
 20
158.6729595998606
  0
VERTEX
  8
1
  6
CONTINUOUS
 62
     7
 10
-210.1701221741711
 20
158.7140695573902
  0
VERTEX
  8
1
  6
CONTINUOUS
 62
     7
 10
-210.1427631545434
 20
158.7538421564334
  0
VERTEX
  8
1
  6
CONTINUOUS
 62
     7
 10
-210.1135861723571
 20
158.7921309000129
  0
VERTEX
  8
1
  6
CONTINUOUS
 62
     7
 10
-210.0825855113234
 20
158.8289148794769
  0
VERTEX
  8
1
  6
CONTINUOUS
 62
     7
 10
-210.0497378422631
 20
158.8642550953753
  0
VERTEX
  8
1
  6
CONTINUOUS
 62
     7
 10
-210.0151680675834
 20
158.8980399214284
  0
VERTEX
  8
1
  6
CONTINUOUS
 62
     7
 10
-209.9790010896913
 20
158.9301577313567
  0
VERTEX
  8
1
  6
CONTINUOUS
 62
     7
 10
-209.941361810994
 20
158.9604968988806
  0
VERTEX
  8
1
  6
CONTINUOUS
 62
     7
 10
-209.9023751338987
 20
158.9889457977205
  0
VERTEX
  8
1
  6
CONTINUOUS
 62
     7
 10
-209.8621659608124
 20
159.0153928015969
  0
VERTEX
  8
1
  6
CONTINUOUS
 62
     7
 10
-209.8207686394662
 20
159.0397980313697
  0
VERTEX
  8
1
  6
CONTINUOUS
 62
     7
 10
-209.7781102391882
 20
159.0622327659993
  0
VERTEX
  8
1
  6
CONTINUOUS
 62
     7
 10
-209.7343454288307
 20
159.082633303064
  0
VERTEX
  8
1
  6
CONTINUOUS
 62
     7
 10
-209.6896288772461
 20
159.1009359401417
  0
VERTEX
  8
1
  6
CONTINUOUS
 62
     7
 10
-209.6441152532866
 20
159.1170769748107
  0
VERTEX
  8
1
  6
CONTINUOUS
 62
     7
 10
-209.5979592258047
 20
159.1309927046492
  0
VERTEX
  8
1
  6
CONTINUOUS
 62
     7
 10
-209.5513154636526
 20
159.1426194272353
  0
VERTEX
  8
1
  6
CONTINUOUS
 62
     7
 10
-209.5082688079799
 20
159.1512389645743
  0
VERTEX
  8
1
  6
CONTINUOUS
 62
     7
 10
-209.464820700588
 20
159.1579675080081
  0
VERTEX
  8
1
  6
CONTINUOUS
 62
     7
 10
-209.4210977080005
 20
159.1627910067155
  0
VERTEX
  8
1
  6
CONTINUOUS
 62
     7
 10
-209.3772263967411
 20
159.1656954098754
  0
VERTEX
  8
1
  6
CONTINUOUS
 62
     7
 10
-209.3333333333333
 20
159.1666666666667
  0
SEQEND
  8
1
  6
CONTINUOUS
 62
     7
  0
LINE
  8
1
  6
CONTINUOUS
 62
     7
 10
-210.3333333333333
 20
158.1666666666667
 11
-210.3333333333333
 21
154.9166666666667
  0
ARC
  8
1
  6
CONTINUOUS
 62
     7
 10
-210.333249714315
 20
153.6666666666667
 40
1.250000002796857
 50
90.00383281346501
 51
269.996167186535
  0
LINE
  8
1
  6
CONTINUOUS
 62
     7
 10
-210.3333333333333
 20
152.4166666666667
 11
-210.3333333333333
 21
147.6666666666667
  0
POLYLINE
  8
1
  6
CONTINUOUS
 62
     7
 66
     1
  0
VERTEX
  8
1
  6
CONTINUOUS
 62
     7
 10
-209.3333333333333
 20
146.6666666666667
  0
VERTEX
  8
1
  6
CONTINUOUS
 62
     7
 10
-209.3812750748802
 20
146.6678406736724
  0
VERTEX
  8
1
  6
CONTINUOUS
 62
     7
 10
-209.4292412973683
 20
146.6713439098469
  0
VERTEX
  8
1
  6
CONTINUOUS
 62
     7
 10
-209.4770678751303
 20
146.6771481979261
  0
VERTEX
  8
1
  6
CONTINUOUS
 62
     7
 10
-209.524590682499
 20
146.6852253606459
  0
VERTEX
  8
1
  6
CONTINUOUS
 62
     7
 10
-209.5716455938071
 20
146.6955472207422
  0
VERTEX
  8
1
  6
CONTINUOUS
 62
     7
 10
-209.6180684833875
 20
146.7080856009509
  0
VERTEX
  8
1
  6
CONTINUOUS
 62
     7
 10
-209.6636952255729
 20
146.7228123240079
  0
VERTEX
  8
1
  6
CONTINUOUS
 62
     7
 10
-209.7085408761423
 20
146.7397516734825
  0
VERTEX
  8
1
  6
CONTINUOUS
 62
     7
 10
-209.7526370724713
 20
146.7588941110528
  0
VERTEX
  8
1
  6
CONTINUOUS
 62
     7
 10
-209.7958389832978
 20
146.7801587742456
  0
VERTEX
  8
1
  6
CONTINUOUS
 62
     7
 10
-209.8380017773596
 20
146.8034648005878
  0
VERTEX
  8
1
  6
CONTINUOUS
 62
     7
 10
-209.8789806233945
 20
146.8287313276061
  0
VERTEX
  8
1
  6
CONTINUOUS
 62
     7
 10
-209.9186306901405
 20
146.8558774928273
  0
VERTEX
  8
1
  6
CONTINUOUS
 62
     7
 10
-209.9568071463353
 20
146.8848224337783
  0
VERTEX
  8
1
  6
CONTINUOUS
 62
     7
 10
-209.9935606739335
 20
146.915632568483
  0
VERTEX
  8
1
  6
CONTINUOUS
 62
     7
 10
-210.028876626382
 20
146.9482748040567
  0
VERTEX
  8
1
  6
CONTINUOUS
 62
     7
 10
-210.0626453302175
 20
146.9826251912375
  0
VERTEX
  8
1
  6
CONTINUOUS
 62
     7
 10
-210.0947571119765
 20
147.0185597807631
  0
VERTEX
  8
1
  6
CONTINUOUS
 62
     7
 10
-210.1251022981957
 20
147.0559546233716
  0
VERTEX
  8
1
  6
CONTINUOUS
 62
     7
 10
-210.1535712154117
 20
147.0946857698008
  0
VERTEX
  8
1
  6
CONTINUOUS
 62
     7
 10
-210.1800541901612
 20
147.1346292707886
  0
VERTEX
  8
1
  6
CONTINUOUS
 62
     7
 10
-210.2046073593867
 20
147.1759183823092
  0
VERTEX
  8
1
  6
CONTINUOUS
 62
     7
 10
-210.2271923635483
 20
147.2184666698809
  0
VERTEX
  8
1
  6
CONTINUOUS
 62
     7
 10
-210.2477462917583
 20
147.2621206520226
  0
VERTEX
  8
1
  6
CONTINUOUS
 62
     7
 10
-210.2662062331287
 20
147.3067268472534
  0
VERTEX
  8
1
  6
CONTINUOUS
 62
     7
 10
-210.2825092767717
 20
147.3521317740921
  0
VERTEX
  8
1
  6
CONTINUOUS
 62
     7
 10
-210.2965925117996
 20
147.3981819510579
  0
VERTEX
  8
1
  6
CONTINUOUS
 62
     7
 10
-210.3083930273244
 20
147.4447238966694
  0
VERTEX
  8
1
  6
CONTINUOUS
 62
     7
 10
-210.3173321322925
 20
147.488536050886
  0
VERTEX
  8
1
  6
CONTINUOUS
 62
     7
 10
-210.3243104923256
 20
147.5327690288835
  0
VERTEX
  8
1
  6
CONTINUOUS
 62
     7
 10
-210.3293133304756
 20
147.5772902067725
  0
VERTEX
  8
1
  6
CONTINUOUS
 62
     7
 10
-210.3323258697942
 20
147.6219669606634
  0
VERTEX
  8
1
  6
CONTINUOUS
 62
     7
 10
-210.3333333333333
 20
147.6666666666667
  0
SEQEND
  8
1
  6
CONTINUOUS
 62
     7
  0
LINE
  8
1
  6
CONTINUOUS
 62
     7
 10
-200.3333333333333
 20
146.6666666666667
 11
-209.3333333333333
 21
146.6666666666667
  0
POLYLINE
  8
1
  6
CONTINUOUS
 62
     7
 66
     1
  0
VERTEX
  8
1
  6
CONTINUOUS
 62
     7
 10
-199.3333333333333
 20
147.6666666666667
  0
VERTEX
  8
1
  6
CONTINUOUS
 62
     7
 10
-199.3345161984563
 20
147.6185392492129
  0
VERTEX
  8
1
  6
CONTINUOUS
 62
     7
 10
-199.3380462341477
 20
147.5703872706012
  0
VERTEX
  8
1
  6
CONTINUOUS
 62
     7
 10
-199.3438956008912
 20
147.5223753379185
  0
VERTEX
  8
1
  6
CONTINUOUS
 62
     7
 10
-199.3520364591703
 20
147.4746680582517
  0
VERTEX
  8
1
  6
CONTINUOUS
 62
     7
 10
-199.3624409694689
 20
147.4274300386879
  0
VERTEX
  8
1
  6
CONTINUOUS
 62
     7
 10
-199.3750812922706
 20
147.380825886314
  0
VERTEX
  8
1
  6
CONTINUOUS
 62
     7
 10
-199.3899295880589
 20
147.3350202082169
  0
VERTEX
  8
1
  6
CONTINUOUS
 62
     7
 10
-199.4070130000223
 20
147.2899940569544
  0
VERTEX
  8
1
  6
CONTINUOUS
 62
     7
 10
-199.4263221813642
 20
147.2457200328399
  0
VERTEX
  8
1
  6
CONTINUOUS
 62
     7
 10
-199.4477763637398
 20
147.2023449268123
  0
VERTEX
  8
1
  6
CONTINUOUS
 62
     7
 10
-199.4712947788038
 20
147.1600155298102
  0
VERTEX
  8
1
  6
CONTINUOUS
 62
     7
 10
-199.4967966582113
 20
147.1188786327727
  0
VERTEX
  8
1
  6
CONTINUOUS
 62
     7
 10
-199.5242012336173
 20
147.0790810266386
  0
VERTEX
  8
1
  6
CONTINUOUS
 62
     7
 10
-199.5534277366768
 20
147.0407695023467
  0
VERTEX
  8
1
  6
CONTINUOUS
 62
     7
 10
-199.5844716356264
 20
147.0039770645245
  0
VERTEX
  8
1
  6
CONTINUOUS
 62
     7
 10
-199.6173659474792
 20
146.9686299417709
  0
VERTEX
  8
1
  6
CONTINUOUS
 62
     7
 10
-199.6519855726763
 20
146.9348401824051
  0
VERTEX
  8
1
  6
CONTINUOUS
 62
     7
 10
-199.6882054116586
 20
146.9027198347463
  0
VERTEX
  8
1
  6
CONTINUOUS
 62
     7
 10
-199.7259003648672
 20
146.8723809471138
  0
VERTEX
  8
1
  6
CONTINUOUS
 62
     7
 10
-199.7649453327432
 20
146.8439355678269
  0
VERTEX
  8
1
  6
CONTINUOUS
 62
     7
 10
-199.8052152157275
 20
146.8174957452048
  0
VERTEX
  8
1
  6
CONTINUOUS
 62
     7
 10
-199.8466390543639
 20
146.7931221307468
  0
VERTEX
  8
1
  6
CONTINUOUS
 62
     7
 10
-199.8893246616758
 20
146.7707197173274
  0
VERTEX
  8
1
  6
CONTINUOUS
 62
     7
 10
-199.933117077911
 20
146.7503524098605
  0
VERTEX
  8
1
  6
CONTINUOUS
 62
     7
 10
-199.9778613433174
 20
146.73208411326
  0
VERTEX
  8
1
  6
CONTINUOUS
 62
     7
 10
-200.0234024981428
 20
146.7159787324399
  0
VERTEX
  8
1
  6
CONTINUOUS
 62
     7
 10
-200.0695855826353
 20
146.7021001723138
  0
VERTEX
  8
1
  6
CONTINUOUS
 62
     7
 10
-200.1162556370425
 20
146.690512337796
  0
VERTEX
  8
1
  6
CONTINUOUS
 62
     7
 10
-200.1591272433591
 20
146.6819649548638
  0
VERTEX
  8
1
  6
CONTINUOUS
 62
     7
 10
-200.202396035738
 20
146.6752927992819
  0
VERTEX
  8
1
  6
CONTINUOUS
 62
     7
 10
-200.2459367945876
 20
146.6705097680531
  0
VERTEX
  8
1
  6
CONTINUOUS
 62
     7
 10
-200.2896243003165
 20
146.6676297581805
  0
VERTEX
  8
1
  6
CONTINUOUS
 62
     7
 10
-200.3333333333333
 20
146.6666666666667
  0
SEQEND
  8
1
  6
CONTINUOUS
 62
     7
  0
LINE
  8
1
  6
CONTINUOUS
 62
     7
 10
-199.3333333333333
 20
147.6666666666667
 11
-199.3333333333333
 21
149.6666666666667
  0
POLYLINE
  8
1
  6
CONTINUOUS
 62
     7
 66
     1
  0
VERTEX
  8
1
  6
CONTINUOUS
 62
     7
 10
-198.8333333333333
 20
150.1666666666667
  0
VERTEX
  8
1
  6
CONTINUOUS
 62
     7
 10
-198.8573093780371
 20
150.1660794170538
  0
VERTEX
  8
1
  6
CONTINUOUS
 62
     7
 10
-198.881297673167
 20
150.1643270533242
  0
VERTEX
  8
1
  6
CONTINUOUS
 62
     7
 10
-198.9052161432785
 20
150.1614236531413
  0
VERTEX
  8
1
  6
CONTINUOUS
 62
     7
 10
-198.9289827129269
 20
150.1573832941686
  0
VERTEX
  8
1
  6
CONTINUOUS
 62
     7
 10
-198.9525153066674
 20
150.1522200540698
  0
VERTEX
  8
1
  6
CONTINUOUS
 62
     7
 10
-198.9757318490555
 20
150.1459480105083
  0
VERTEX
  8
1
  6
CONTINUOUS
 62
     7
 10
-198.9985502646465
 20
150.1385812411475
  0
VERTEX
  8
1
  6
CONTINUOUS
 62
     7
 10
-199.0209782138618
 20
150.1301075101808
  0
VERTEX
  8
1
  6
CONTINUOUS
 62
     7
 10
-199.0430313660609
 20
150.1205315896764
  0
VERTEX
  8
1
  6
CONTINUOUS
 62
     7
 10
-199.0646372436713
 20
150.109893914788
  0
VERTEX
  8
1
  6
CONTINUOUS
 62
     7
 10
-199.0857233691201
 20
150.0982349206689
  0
VERTEX
  8
1
  6
CONTINUOUS
 62
     7
 10
-199.1062172648348
 20
150.0855950424728
  0
VERTEX
  8
1
  6
CONTINUOUS
 62
     7
 10
-199.1260464532426
 20
150.072014715353
  0
VERTEX
  8
1
  6
CONTINUOUS
 62
     7
 10
-199.1451384567709
 20
150.0575343744632
  0
VERTEX
  8
1
  6
CONTINUOUS
 62
     7
 10
-199.1635157802554
 20
150.0421232218234
  0
VERTEX
  8
1
  6
CONTINUOUS
 62
     7
 10
-199.1811741010989
 20
150.0257955990384
  0
VERTEX
  8
1
  6
CONTINUOUS
 62
     7
 10
-199.1980585220954
 20
150.008613524942
  0
VERTEX
  8
1
  6
CONTINUOUS
 62
     7
 10
-199.2141141460392
 20
149.9906390183685
  0
VERTEX
  8
1
  6
CONTINUOUS
 62
     7
 10
-199.2292860757243
 20
149.9719340981516
  0
VERTEX
  8
1
  6
CONTINUOUS
 62
     7
 10
-199.2435194139449
 20
149.9525607831257
  0
VERTEX
  8
1
  6
CONTINUOUS
 62
     7
 10
-199.2567592634952
 20
149.9325810921246
  0
VERTEX
  8
1
  6
CONTINUOUS
 62
     7
 10
-199.2690303539331
 20
149.9119342193997
  0
VERTEX
  8
1
  6
CONTINUOUS
 62
     7
 10
-199.2803173404174
 20
149.8906578914658
  0
VERTEX
  8
1
  6
CONTINUOUS
 62
     7
 10
-199.2905887646091
 20
149.86882888488
  0
VERTEX
  8
1
  6
CONTINUOUS
 62
     7
 10
-199.2998131681693
 20
149.8465239761996
  0
VERTEX
  8
1
  6
CONTINUOUS
 62
     7
 10
-199.3079590927592
 20
149.8238199419818
  0
VERTEX
  8
1
  6
CONTINUOUS
 62
     7
 10
-199.3149950800398
 20
149.800793558784
  0
VERTEX
  8
1
  6
CONTINUOUS
 62
     7
 10
-199.3208896716721
 20
149.7775216031633
  0
VERTEX
  8
1
  6
CONTINUOUS
 62
     7
 10
-199.3253497932821
 20
149.7556377563925
  0
VERTEX
  8
1
  6
CONTINUOUS
 62
     7
 10
-199.3288315689737
 20
149.7335442088746
  0
VERTEX
  8
1
  6
CONTINUOUS
 62
     7
 10
-199.3313276500265
 20
149.7113070910924
  0
VERTEX
  8
1
  6
CONTINUOUS
 62
     7
 10
-199.3328306877199
 20
149.6889925335288
  0
VERTEX
  8
1
  6
CONTINUOUS
 62
     7
 10
-199.3333333333333
 20
149.6666666666667
  0
SEQEND
  8
1
  6
CONTINUOUS
 62
     7
  0
LINE
  8
1
  6
CONTINUOUS
 62
     7
 10
-197.3333333333333
 20
150.1666666666667
 11
-198.8333333333333
 21
150.1666666666667
  0
LINE
  8
1
  6
CONTINUOUS
 62
     7
 10
-235.3333333333333
 20
150.1666666666667
 11
-243.3333333333333
 21
150.1666666666667
  0
LINE
  8
1
  6
CONTINUOUS
 62
     7
 10
-243.3333333333333
 20
148.1666666666667
 11
-243.3333333333333
 21
150.1666666666667
  0
LINE
  8
1
  6
CONTINUOUS
 62
     7
 10
-243.3333333333333
 20
148.1666666666667
 11
-223.3333333333333
 21
148.1666666666667
  0
LINE
  8
1
  6
CONTINUOUS
 62
     7
 10
-223.3333333333333
 20
150.1666666666667
 11
-223.3333333333333
 21
148.1666666666667
  0
LINE
  8
1
  6
CONTINUOUS
 62
     7
 10
-223.3333333333333
 20
150.1666666666667
 11
-231.3333333333334
 21
150.1666666666667
  0
LINE
  8
1
  6
CONTINUOUS
 62
     7
 10
-231.3333333333334
 20
155.1666666666667
 11
-231.3333333333334
 21
150.1666666666667
  0
LINE
  8
1
  6
CONTINUOUS
 62
     7
 10
-231.3333333333333
 20
155.1666666666667
 11
-235.3333333333333
 21
155.1666666666667
  0
LINE
  8
1
  6
CONTINUOUS
 62
     7
 10
-235.3333333333333
 20
150.1666666666667
 11
-235.3333333333333
 21
155.1666666666667
  0
LINE
  8
1
  6
CONTINUOUS
 62
     7
 10
-235.3333333333333
 20
253.1666666666667
 11
-231.3333333333333
 21
253.1666666666667
  0
LINE
  8
1
  6
CONTINUOUS
 62
     7
 10
-231.3333333333334
 20
258.1666666666667
 11
-231.3333333333334
 21
253.1666666666667
  0
LINE
  8
1
  6
CONTINUOUS
 62
     7
 10
-231.3333333333333
 20
258.1666666666666
 11
-223.3333333333333
 21
258.1666666666666
  0
LINE
  8
1
  6
CONTINUOUS
 62
     7
 10
-223.3333333333333
 20
260.1666666666666
 11
-223.3333333333333
 21
258.1666666666666
  0
LINE
  8
1
  6
CONTINUOUS
 62
     7
 10
-223.3333333333333
 20
260.1666666666667
 11
-243.3333333333333
 21
260.1666666666667
  0
LINE
  8
1
  6
CONTINUOUS
 62
     7
 10
-243.3333333333333
 20
258.1666666666666
 11
-243.3333333333333
 21
260.1666666666666
  0
LINE
  8
1
  6
CONTINUOUS
 62
     7
 10
-243.3333333333333
 20
258.1666666666666
 11
-235.3333333333333
 21
258.1666666666666
  0
LINE
  8
1
  6
CONTINUOUS
 62
     7
 10
-235.3333333333333
 20
253.1666666666667
 11
-235.3333333333333
 21
258.1666666666666
  0
LINE
  8
1
  6
CONTINUOUS
 62
     7
 10
-207.8333333333333
 20
164.9166666666667
 11
-212.8333333333333
 21
164.9166666666667
  0
ARC
  8
1
  6
CONTINUOUS
 62
     7
 10
-212.8329303976993
 20
162.4162637310326
 40
2.500402968100254
 50
90.00923311627832
 51
179.9907668837218
  0
ARC
  8
1
  6
CONTINUOUS
 62
     7
 10
-212.8329262750998
 20
162.4170737249002
 40
2.500407091367449
 50
180.0093275686917
 51
269.9906724313082
  0
LINE
  8
1
  6
CONTINUOUS
 62
     7
 10
-212.8333333333333
 20
159.9166666666667
 11
-207.8333333333333
 21
159.9166666666667
  0
ARC
  8
1
  6
CONTINUOUS
 62
     7
 10
-207.8337356113234
 20
162.4170689446567
 40
2.500402310350376
 50
270.0092180490417
 51
359.9907819509583
  0
ARC
  8
1
  6
CONTINUOUS
 62
     7
 10
-207.8337403427049
 20
162.4162596572952
 40
2.500407042497443
 50
0.0093264492205107
 51
89.99067355077959
  0
ARC
  8
1
  6
CONTINUOUS
 62
     7
 10
-258.8329262750998
 20
162.4170737249002
 40
2.500407091367439
 50
180.0093275686916
 51
269.9906724313086
  0
LINE
  8
1
  6
CONTINUOUS
 62
     7
 10
-258.8333333333334
 20
159.9166666666667
 11
-253.8333333333333
 21
159.9166666666667
  0
ARC
  8
1
  6
CONTINUOUS
 62
     7
 10
-253.8337356113234
 20
162.4170689446567
 40
2.500402310350376
 50
270.009218049042
 51
359.9907819509583
  0
ARC
  8
1
  6
CONTINUOUS
 62
     7
 10
-253.8337403427048
 20
162.4162596572952
 40
2.500407042497418
 50
0.0093264492200338
 51
89.99067355077989
  0
LINE
  8
1
  6
CONTINUOUS
 62
     7
 10
-253.8333333333333
 20
164.9166666666667
 11
-258.8333333333334
 21
164.9166666666667
  0
ARC
  8
1
  6
CONTINUOUS
 62
     7
 10
-258.8329303976993
 20
162.4162637310326
 40
2.500402968100275
 50
90.00923311627832
 51
179.9907668837212
  0
LINE
  8
1
  6
CONTINUOUS
 62
     7
 10
-291.3333333333333
 20
152.0725718355992
 11
-291.3333333333333
 21
256.2607614977344
  0
LINE
  8
1
  6
CONTINUOUS
 62
     7
 10
-175.3333333333333
 20
152.0725718355992
 11
-175.3333333333333
 21
256.2607614977344
  0
LINE
  8
1
  6
CONTINUOUS
 62
     7
 10
-258.8333333333333
 20
243.4166666666667
 11
-253.8333333333333
 21
243.4166666666667
  0
ARC
  8
1
  6
CONTINUOUS
 62
     7
 10
-253.8337362689674
 20
245.9170696023008
 40
2.500402968100254
 50
270.0092331162783
 51
359.9907668837217
  0
ARC
  8
1
  6
CONTINUOUS
 62
     7
 10
-253.8337403915669
 20
245.9162596084331
 40
2.500407091367449
 50
0.0093275686916941
 51
89.99067243130814
  0
LINE
  8
1
  6
CONTINUOUS
 62
     7
 10
-253.8333333333333
 20
248.4166666666667
 11
-258.8333333333334
 21
248.4166666666667
  0
ARC
  8
1
  6
CONTINUOUS
 62
     7
 10
-258.8329310553433
 20
245.9162643886766
 40
2.500402310350376
 50
90.00921804904178
 51
179.9907819509581
  0
ARC
  8
1
  6
CONTINUOUS
 62
     7
 10
-258.8329263239618
 20
245.9170736760382
 40
2.500407042497443
 50
180.0093264492207
 51
269.9906735507798
  0
ARC
  8
1
  6
CONTINUOUS
 62
     7
 10
-207.8337403915669
 20
245.9162596084332
 40
2.500407091367439
 50
0.0093275686915351
 51
89.99067243130862
  0
LINE
  8
1
  6
CONTINUOUS
 62
     7
 10
-207.8333333333333
 20
248.4166666666667
 11
-212.8333333333333
 21
248.4166666666667
  0
ARC
  8
1
  6
CONTINUOUS
 62
     7
 10
-212.8329310553433
 20
245.9162643886766
 40
2.500402310350376
 50
90.00921804904202
 51
179.9907819509582
  0
ARC
  8
1
  6
CONTINUOUS
 62
     7
 10
-212.8329263239619
 20
245.9170736760382
 40
2.500407042497418
 50
180.00932644922
 51
269.9906735507799
  0
LINE
  8
1
  6
CONTINUOUS
 62
     7
 10
-212.8333333333333
 20
243.4166666666667
 11
-207.8333333333333
 21
243.4166666666667
  0
ARC
  8
1
  6
CONTINUOUS
 62
     7
 10
-207.8337362689674
 20
245.9170696023008
 40
2.500402968100275
 50
270.0092331162784
 51
359.9907668837213
  0
LINE
  8
1
  6
CONTINUOUS
 62
     9
 10
-280.8278219581587
 20
167.9669127093047
 11
-280.8278219581587
 21
240.3664206240287
  0
ARC
  8
1
  6
CONTINUOUS
 62
     9
 10
-278.8314081792678
 20
167.9640730389261
 40
1.996415798443209
 50
179.9185033584219
 51
270.0129613949122
  0
LINE
  8
1
  6
CONTINUOUS
 62
     9
 10
-187.8357101146142
 20
165.9676572915663
 11
-278.8309565520524
 21
165.9676572915663
  0
ARC
  8
1
  6
CONTINUOUS
 62
     9
 10
-187.8352648355992
 20
167.9640793795375
 40
1.996422137628382
 50
269.9872208347127
 51
0.0813144119532581
  0
LINE
  8
1
  6
CONTINUOUS
 62
     9
 10
-185.8388447085079
 20
240.3664206240288
 11
-185.8388447085079
 21
167.966912709305
  0
ARC
  8
1
  6
CONTINUOUS
 62
     9
 10
-187.8352584873989
 20
240.3692602944072
 40
1.996415798443223
 50
359.9185033584219
 51
90.012961394912
  0
LINE
  8
1
  6
CONTINUOUS
 62
     9
 10
-278.8309565520524
 20
242.3656760417671
 11
-187.8357101146143
 21
242.3656760417671
  0
ARC
  8
1
  6
CONTINUOUS
 62
     9
 10
-278.8314018310675
 20
240.3692539537959
 40
1.996422137628403
 50
89.98722083471328
 51
180.0813144119529
  0
POLYLINE
  8
1
  6
CONTINUOUS
 62
     7
 66
     1
  0
VERTEX
  8
1
  6
CONTINUOUS
 62
     7
 10
-266.3333333333333
 20
146.6666666666667
  0
VERTEX
  8
1
  6
CONTINUOUS
 62
     7
 10
-266.3812750748803
 20
146.6678406736724
  0
VERTEX
  8
1
  6
CONTINUOUS
 62
     7
 10
-266.4292412973683
 20
146.6713439098469
  0
VERTEX
  8
1
  6
CONTINUOUS
 62
     7
 10
-266.4770678751303
 20
146.6771481979261
  0
VERTEX
  8
1
  6
CONTINUOUS
 62
     7
 10
-266.524590682499
 20
146.6852253606459
  0
VERTEX
  8
1
  6
CONTINUOUS
 62
     7
 10
-266.5716455938072
 20
146.6955472207422
  0
VERTEX
  8
1
  6
CONTINUOUS
 62
     7
 10
-266.6180684833876
 20
146.7080856009509
  0
VERTEX
  8
1
  6
CONTINUOUS
 62
     7
 10
-266.6636952255729
 20
146.7228123240079
  0
VERTEX
  8
1
  6
CONTINUOUS
 62
     7
 10
-266.7085408761423
 20
146.7397516734825
  0
VERTEX
  8
1
  6
CONTINUOUS
 62
     7
 10
-266.7526370724713
 20
146.7588941110528
  0
VERTEX
  8
1
  6
CONTINUOUS
 62
     7
 10
-266.7958389832978
 20
146.7801587742456
  0
VERTEX
  8
1
  6
CONTINUOUS
 62
     7
 10
-266.8380017773596
 20
146.8034648005878
  0
VERTEX
  8
1
  6
CONTINUOUS
 62
     7
 10
-266.8789806233946
 20
146.8287313276061
  0
VERTEX
  8
1
  6
CONTINUOUS
 62
     7
 10
-266.9186306901405
 20
146.8558774928273
  0
VERTEX
  8
1
  6
CONTINUOUS
 62
     7
 10
-266.9568071463353
 20
146.8848224337783
  0
VERTEX
  8
1
  6
CONTINUOUS
 62
     7
 10
-266.9935606739335
 20
146.915632568483
  0
VERTEX
  8
1
  6
CONTINUOUS
 62
     7
 10
-267.0288766263821
 20
146.9482748040567
  0
VERTEX
  8
1
  6
CONTINUOUS
 62
     7
 10
-267.0626453302175
 20
146.9826251912375
  0
VERTEX
  8
1
  6
CONTINUOUS
 62
     7
 10
-267.0947571119765
 20
147.0185597807631
  0
VERTEX
  8
1
  6
CONTINUOUS
 62
     7
 10
-267.1251022981958
 20
147.0559546233716
  0
VERTEX
  8
1
  6
CONTINUOUS
 62
     7
 10
-267.1535712154118
 20
147.0946857698008
  0
VERTEX
  8
1
  6
CONTINUOUS
 62
     7
 10
-267.1800541901612
 20
147.1346292707886
  0
VERTEX
  8
1
  6
CONTINUOUS
 62
     7
 10
-267.2046073593867
 20
147.1759183823092
  0
VERTEX
  8
1
  6
CONTINUOUS
 62
     7
 10
-267.2271923635483
 20
147.2184666698809
  0
VERTEX
  8
1
  6
CONTINUOUS
 62
     7
 10
-267.2477462917583
 20
147.2621206520226
  0
VERTEX
  8
1
  6
CONTINUOUS
 62
     7
 10
-267.2662062331287
 20
147.3067268472534
  0
VERTEX
  8
1
  6
CONTINUOUS
 62
     7
 10
-267.2825092767717
 20
147.3521317740922
  0
VERTEX
  8
1
  6
CONTINUOUS
 62
     7
 10
-267.2965925117996
 20
147.3981819510579
  0
VERTEX
  8
1
  6
CONTINUOUS
 62
     7
 10
-267.3083930273244
 20
147.4447238966694
  0
VERTEX
  8
1
  6
CONTINUOUS
 62
     7
 10
-267.3173321322925
 20
147.488536050886
  0
VERTEX
  8
1
  6
CONTINUOUS
 62
     7
 10
-267.3243104923257
 20
147.5327690288835
  0
VERTEX
  8
1
  6
CONTINUOUS
 62
     7
 10
-267.3293133304756
 20
147.5772902067725
  0
VERTEX
  8
1
  6
CONTINUOUS
 62
     7
 10
-267.3323258697942
 20
147.6219669606634
  0
VERTEX
  8
1
  6
CONTINUOUS
 62
     7
 10
-267.3333333333333
 20
147.6666666666667
  0
SEQEND
  8
1
  6
CONTINUOUS
 62
     7
  0
LINE
  8
1
  6
CONTINUOUS
 62
     7
 10
-257.3333333333333
 20
146.6666666666667
 11
-266.3333333333333
 21
146.6666666666667
  0
POLYLINE
  8
1
  6
CONTINUOUS
 62
     7
 66
     1
  0
VERTEX
  8
1
  6
CONTINUOUS
 62
     7
 10
-256.3333333333334
 20
147.6666666666667
  0
VERTEX
  8
1
  6
CONTINUOUS
 62
     7
 10
-256.3345161984563
 20
147.6185392492129
  0
VERTEX
  8
1
  6
CONTINUOUS
 62
     7
 10
-256.3380462341477
 20
147.5703872706012
  0
VERTEX
  8
1
  6
CONTINUOUS
 62
     7
 10
-256.3438956008911
 20
147.5223753379185
  0
VERTEX
  8
1
  6
CONTINUOUS
 62
     7
 10
-256.3520364591704
 20
147.4746680582517
  0
VERTEX
  8
1
  6
CONTINUOUS
 62
     7
 10
-256.362440969469
 20
147.4274300386879
  0
VERTEX
  8
1
  6
CONTINUOUS
 62
     7
 10
-256.3750812922706
 20
147.380825886314
  0
VERTEX
  8
1
  6
CONTINUOUS
 62
     7
 10
-256.3899295880589
 20
147.3350202082169
  0
VERTEX
  8
1
  6
CONTINUOUS
 62
     7
 10
-256.4070130000223
 20
147.2899940569544
  0
VERTEX
  8
1
  6
CONTINUOUS
 62
     7
 10
-256.4263221813642
 20
147.2457200328399
  0
VERTEX
  8
1
  6
CONTINUOUS
 62
     7
 10
-256.4477763637398
 20
147.2023449268123
  0
VERTEX
  8
1
  6
CONTINUOUS
 62
     7
 10
-256.4712947788038
 20
147.1600155298103
  0
VERTEX
  8
1
  6
CONTINUOUS
 62
     7
 10
-256.4967966582113
 20
147.1188786327727
  0
VERTEX
  8
1
  6
CONTINUOUS
 62
     7
 10
-256.5242012336174
 20
147.0790810266386
  0
VERTEX
  8
1
  6
CONTINUOUS
 62
     7
 10
-256.5534277366768
 20
147.0407695023467
  0
VERTEX
  8
1
  6
CONTINUOUS
 62
     7
 10
-256.5844716356264
 20
147.0039770645245
  0
VERTEX
  8
1
  6
CONTINUOUS
 62
     7
 10
-256.6173659474792
 20
146.9686299417709
  0
VERTEX
  8
1
  6
CONTINUOUS
 62
     7
 10
-256.6519855726763
 20
146.9348401824051
  0
VERTEX
  8
1
  6
CONTINUOUS
 62
     7
 10
-256.6882054116586
 20
146.9027198347463
  0
VERTEX
  8
1
  6
CONTINUOUS
 62
     7
 10
-256.7259003648672
 20
146.8723809471138
  0
VERTEX
  8
1
  6
CONTINUOUS
 62
     7
 10
-256.7649453327432
 20
146.8439355678269
  0
VERTEX
  8
1
  6
CONTINUOUS
 62
     7
 10
-256.8052152157275
 20
146.8174957452048
  0
VERTEX
  8
1
  6
CONTINUOUS
 62
     7
 10
-256.8466390543639
 20
146.7931221307468
  0
VERTEX
  8
1
  6
CONTINUOUS
 62
     7
 10
-256.8893246616758
 20
146.7707197173274
  0
VERTEX
  8
1
  6
CONTINUOUS
 62
     7
 10
-256.933117077911
 20
146.7503524098605
  0
VERTEX
  8
1
  6
CONTINUOUS
 62
     7
 10
-256.9778613433174
 20
146.73208411326
  0
VERTEX
  8
1
  6
CONTINUOUS
 62
     7
 10
-257.0234024981428
 20
146.7159787324399
  0
VERTEX
  8
1
  6
CONTINUOUS
 62
     7
 10
-257.0695855826353
 20
146.7021001723138
  0
VERTEX
  8
1
  6
CONTINUOUS
 62
     7
 10
-257.1162556370425
 20
146.690512337796
  0
VERTEX
  8
1
  6
CONTINUOUS
 62
     7
 10
-257.1591272433591
 20
146.6819649548638
  0
VERTEX
  8
1
  6
CONTINUOUS
 62
     7
 10
-257.202396035738
 20
146.6752927992819
  0
VERTEX
  8
1
  6
CONTINUOUS
 62
     7
 10
-257.2459367945876
 20
146.6705097680532
  0
VERTEX
  8
1
  6
CONTINUOUS
 62
     7
 10
-257.2896243003165
 20
146.6676297581805
  0
VERTEX
  8
1
  6
CONTINUOUS
 62
     7
 10
-257.3333333333333
 20
146.6666666666667
  0
SEQEND
  8
1
  6
CONTINUOUS
 62
     7
  0
LINE
  8
1
  6
CONTINUOUS
 62
     7
 10
-256.3333333333334
 20
147.6666666666668
 11
-256.3333333333334
 21
152.4166666666667
  0
ARC
  8
1
  6
CONTINUOUS
 62
     7
 10
-256.3334170188475
 20
153.6666666666667
 40
1.250000002801307
 50
270.003835861409
 51
89.996164138591
  0
LINE
  8
1
  6
CONTINUOUS
 62
     7
 10
-256.3333333333334
 20
154.9166666666667
 11
-256.3333333333334
 21
158.1666666666667
  0
POLYLINE
  8
1
  6
CONTINUOUS
 62
     7
 66
     1
  0
VERTEX
  8
1
  6
CONTINUOUS
 62
     7
 10
-257.3333333333333
 20
159.1666666666667
  0
VERTEX
  8
1
  6
CONTINUOUS
 62
     7
 10
-257.2853562696296
 20
159.1654909778208
  0
VERTEX
  8
1
  6
CONTINUOUS
 62
     7
 10
-257.2373546639224
 20
159.1619826482952
  0
VERTEX
  8
1
  6
CONTINUOUS
 62
     7
 10
-257.1894927317993
 20
159.1561697836078
  0
VERTEX
  8
1
  6
CONTINUOUS
 62
     7
 10
-257.1419346888475
 20
159.1480804892764
  0
VERTEX
  8
1
  6
CONTINUOUS
 62
     7
 10
-257.0948447506543
 20
159.137742870819
  0
VERTEX
  8
1
  6
CONTINUOUS
 62
     7
 10
-257.048387132807
 20
159.1251850337537
  0
VERTEX
  8
1
  6
CONTINUOUS
 62
     7
 10
-257.0027260508929
 20
159.1104350835981
  0
VERTEX
  8
1
  6
CONTINUOUS
 62
     7
 10
-256.9578456414578
 20
159.0934681502141
  0
VERTEX
  8
1
  6
CONTINUOUS
 62
     7
 10
-256.9137151636561
 20
159.0742937561209
  0
VERTEX
  8
1
  6
CONTINUOUS
 62
     7
 10
-256.8704798430662
 20
159.0529927609675
  0
VERTEX
  8
1
  6
CONTINUOUS
 62
     7
 10
-256.8282849052669
 20
159.0296460244023
  0
VERTEX
  8
1
  6
CONTINUOUS
 62
     7
 10
-256.7872755758367
 20
159.0043344060742
  0
VERTEX
  8
1
  6
CONTINUOUS
 62
     7
 10
-256.7475970803543
 20
158.9771387656317
  0
VERTEX
  8
1
  6
CONTINUOUS
 62
     7
 10
-256.7093946443983
 20
158.9481399627236
  0
VERTEX
  8
1
  6
CONTINUOUS
 62
     7
 10
-256.672634879945
 20
158.9172862161587
  0
VERTEX
  8
1
  6
CONTINUOUS
 62
     7
 10
-256.6373141544474
 20
158.8845970823548
  0
VERTEX
  8
1
  6
CONTINUOUS
 62
     7
 10
-256.6035425817304
 20
158.850196757928
  0
VERTEX
  8
1
  6
CONTINUOUS
 62
     7
 10
-256.5714302756188
 20
158.8142094394949
  0
VERTEX
  8
1
  6
CONTINUOUS
 62
     7
 10
-256.5410873499371
 20
158.7767593236716
  0
VERTEX
  8
1
  6
CONTINUOUS
 62
     7
 10
-256.5126239185105
 20
158.7379706070745
  0
VERTEX
  8
1
  6
CONTINUOUS
 62
     7
 10
-256.4861500951636
 20
158.69796748632
  0
VERTEX
  8
1
  6
CONTINUOUS
 62
     7
 10
-256.4616323122247
 20
158.6566559224681
  0
VERTEX
  8
1
  6
CONTINUOUS
 62
     7
 10
-256.4390831228278
 20
158.6140851563241
  0
VERTEX
  8
1
  6
CONTINUOUS
 62
     7
 10
-256.4185655715378
 20
158.5704089374802
  0
VERTEX
  8
1
  6
CONTINUOUS
 62
     7
 10
-256.4001427029197
 20
158.5257810155283
  0
VERTEX
  8
1
  6
CONTINUOUS
 62
     7
 10
-256.3838775615383
 20
158.4803551400609
  0
VERTEX
  8
1
  6
CONTINUOUS
 62
     7
 10
-256.3698331919587
 20
158.4342850606698
  0
VERTEX
  8
1
  6
CONTINUOUS
 62
     7
 10
-256.3580726387455
 20
158.3877245269475
  0
VERTEX
  8
1
  6
CONTINUOUS
 62
     7
 10
-256.349205352078
 20
158.3440827571151
  0
VERTEX
  8
1
  6
CONTINUOUS
 62
     7
 10
-256.3422832044727
 20
158.3000248308652
  0
VERTEX
  8
1
  6
CONTINUOUS
 62
     7
 10
-256.3373207696599
 20
158.2556820035033
  0
VERTEX
  8
1
  6
CONTINUOUS
 62
     7
 10
-256.33433262137
 20
158.2111855303353
  0
VERTEX
  8
1
  6
CONTINUOUS
 62
     7
 10
-256.3333333333334
 20
158.1666666666667
  0
SEQEND
  8
1
  6
CONTINUOUS
 62
     7
  0
LINE
  8
1
  6
CONTINUOUS
 62
     7
 10
-265.9333333333333
 20
159.1666666666667
 11
-257.3333333333333
 21
159.1666666666667
  0
POLYLINE
  8
1
  6
CONTINUOUS
 62
     7
 66
     1
  0
VERTEX
  8
1
  6
CONTINUOUS
 62
     7
 10
-266.9333333333333
 20
160.1666666666667
  0
VERTEX
  8
1
  6
CONTINUOUS
 62
     7
 10
-266.9321522016526
 20
160.118575526402
  0
VERTEX
  8
1
  6
CONTINUOUS
 62
     7
 10
-266.9286274097092
 20
160.0704598339737
  0
VERTEX
  8
1
  6
CONTINUOUS
 62
     7
 10
-266.9227868621517
 20
160.0224841014096
  0
VERTEX
  8
1
  6
CONTINUOUS
 62
     7
 10
-266.9146584636285
 20
159.9748128407375
  0
VERTEX
  8
1
  6
CONTINUOUS
 62
     7
 10
-266.9042701187879
 20
159.927610563985
  0
VERTEX
  8
1
  6
CONTINUOUS
 62
     7
 10
-266.8916497322784
 20
159.8810417831799
  0
VERTEX
  8
1
  6
CONTINUOUS
 62
     7
 10
-266.8768252087485
 20
159.8352710103501
  0
VERTEX
  8
1
  6
CONTINUOUS
 62
     7
 10
-266.8597699608669
 20
159.7902800518226
  0
VERTEX
  8
1
  6
CONTINUOUS
 62
     7
 10
-266.8404933758944
 20
159.7460406902705
  0
VERTEX
  8
1
  6
CONTINUOUS
 62
     7
 10
-266.8190762429667
 20
159.7026993348514
  0
VERTEX
  8
1
  6
CONTINUOUS
 62
     7
 10
-266.7955993512193
 20
159.6604023947228
  0
VERTEX
  8
1
  6
CONTINUOUS
 62
     7
 10
-266.7701434897878
 20
159.6192962790425
  0
VERTEX
  8
1
  6
CONTINUOUS
 62
     7
 10
-266.7427894478076
 20
159.579527396968
  0
VERTEX
  8
1
  6
CONTINUOUS
 62
     7
 10
-266.7136180144145
 20
159.541242157657
  0
VERTEX
  8
1
  6
CONTINUOUS
 62
     7
 10
-266.6826198508401
 20
159.504457287803
  0
VERTEX
  8
1
  6
CONTINUOUS
 62
     7
 10
-266.6497748719611
 20
159.469116218579
  0
VERTEX
  8
1
  6
CONTINUOUS
 62
     7
 10
-266.6152079554297
 20
159.4353305319113
  0
VERTEX
  8
1
  6
CONTINUOUS
 62
     7
 10
-266.5790439788979
 20
159.4032118097261
  0
VERTEX
  8
1
  6
CONTINUOUS
 62
     7
 10
-266.5414078200178
 20
159.3728716339497
  0
VERTEX
  8
1
  6
CONTINUOUS
 62
     7
 10
-266.5024243564416
 20
159.3444215865084
  0
VERTEX
  8
1
  6
CONTINUOUS
 62
     7
 10
-266.4622184658213
 20
159.3179732493284
  0
VERTEX
  8
1
  6
CONTINUOUS
 62
     7
 10
-266.4208211179602
 20
159.2935645993478
  0
VERTEX
  8
1
  6
CONTINUOUS
 62
     7
 10
-266.3781625483783
 20
159.2711265445525
  0
VERTEX
  8
1
  6
CONTINUOUS
 62
     7
 10
-266.3343974260231
 20
159.2507227913927
  0
VERTEX
  8
1
  6
CONTINUOUS
 62
     7
 10
-266.2896804198428
 20
159.232417046319
  0
VERTEX
  8
1
  6
CONTINUOUS
 62
     7
 10
-266.2441661987849
 20
159.2162730157816
  0
VERTEX
  8
1
  6
CONTINUOUS
 62
     7
 10
-266.1980094317975
 20
159.2023544062308
  0
VERTEX
  8
1
  6
CONTINUOUS
 62
     7
 10
-266.1513647878281
 20
159.190724924117
  0
VERTEX
  8
1
  6
CONTINUOUS
 62
     7
 10
-266.108308640954
 20
159.1821014538106
  0
VERTEX
  8
1
  6
CONTINUOUS
 62
     7
 10
-266.0648507699814
 20
159.1753698295214
  0
VERTEX
  8
1
  6
CONTINUOUS
 62
     7
 10
-266.0211178269965
 20
159.1705441146405
  0
VERTEX
  8
1
  6
CONTINUOUS
 62
     7
 10
-265.9772364640852
 20
159.1676383725586
  0
VERTEX
  8
1
  6
CONTINUOUS
 62
     7
 10
-265.9333333333333
 20
159.1666666666667
  0
SEQEND
  8
1
  6
CONTINUOUS
 62
     7
  0
LINE
  8
1
  6
CONTINUOUS
 62
     7
 10
-266.9333333333333
 20
160.1666666666667
 11
-266.9333333333333
 21
164.1666666666667
  0
POLYLINE
  8
1
  6
CONTINUOUS
 62
     7
 66
     1
  0
VERTEX
  8
1
  6
CONTINUOUS
 62
     7
 10
-267.9333333333333
 20
165.1666666666667
  0
VERTEX
  8
1
  6
CONTINUOUS
 62
     7
 10
-267.8853420224794
 20
165.1654902988081
  0
VERTEX
  8
1
  6
CONTINUOUS
 62
     7
 10
-267.8373261467405
 20
165.1619799134493
  0
VERTEX
  8
1
  6
CONTINUOUS
 62
     7
 10
-267.7894499589841
 20
165.1561635879159
  0
VERTEX
  8
1
  6
CONTINUOUS
 62
     7
 10
-267.7418777120777
 20
165.1480693995333
  0
VERTEX
  8
1
  6
CONTINUOUS
 62
     7
 10
-267.6947736588886
 20
165.1377254256271
  0
VERTEX
  8
1
  6
CONTINUOUS
 62
     7
 10
-267.6483020522844
 20
165.1251597435228
  0
VERTEX
  8
1
  6
CONTINUOUS
 62
     7
 10
-267.6026271451324
 20
165.1104004305459
  0
VERTEX
  8
1
  6
CONTINUOUS
 62
     7
 10
-267.5577327726467
 20
165.0934223937145
  0
VERTEX
  8
1
  6
CONTINUOUS
 62
     7
 10
-267.5135885245451
 20
165.0742351400151
  0
VERTEX
  8
1
  6
CONTINUOUS
 62
     7
 10
-267.4703397783558
 20
165.0529195202972
  0
VERTEX
  8
1
  6
CONTINUOUS
 62
     7
 10
-267.4281319116066
 20
165.0295563854103
  0
VERTEX
  8
1
  6
CONTINUOUS
 62
     7
 10
-267.3871103018257
 20
165.0042265862039
  0
VERTEX
  8
1
  6
CONTINUOUS
 62
     7
 10
-267.347420326541
 20
164.9770109735277
  0
VERTEX
  8
1
  6
CONTINUOUS
 62
     7
 10
-267.3092073632806
 20
164.9479903982311
  0
VERTEX
  8
1
  6
CONTINUOUS
 62
     7
 10
-267.2724444799711
 20
164.9171185312239
  0
VERTEX
  8
1
  6
CONTINUOUS
 62
     7
 10
-267.2371212251541
 20
164.8844098434724
  0
VERTEX
  8
1
  6
CONTINUOUS
 62
     7
 10
-267.2033478974834
 20
164.849988617483
  0
VERTEX
  8
1
  6
CONTINUOUS
 62
     7
 10
-267.1712347956129
 20
164.8139791357622
  0
VERTEX
  8
1
  6
CONTINUOUS
 62
     7
 10
-267.1408922181965
 20
164.7765056808164
  0
VERTEX
  8
1
  6
CONTINUOUS
 62
     7
 10
-267.1124304638881
 20
164.7376925351521
  0
VERTEX
  8
1
  6
CONTINUOUS
 62
     7
 10
-267.0859598313415
 20
164.6976639812758
  0
VERTEX
  8
1
  6
CONTINUOUS
 62
     7
 10
-267.0614557890354
 20
164.6563416775757
  0
VERTEX
  8
1
  6
CONTINUOUS
 62
     7
 10
-267.0389205852467
 20
164.6137599232067
  0
VERTEX
  8
1
  6
CONTINUOUS
 62
     7
 10
-267.0184173474437
 20
164.5700725819308
  0
VERTEX
  8
1
  6
CONTINUOUS
 62
     7
 10
-267.0000092030942
 20
164.5254335175091
  0
VERTEX
  8
1
  6
CONTINUOUS
 62
     7
 10
-266.9837592796666
 20
164.4799965937035
  0
VERTEX
  8
1
  6
CONTINUOUS
 62
     7
 10
-266.9697307046288
 20
164.4339156742753
  0
VERTEX
  8
1
  6
CONTINUOUS
 62
     7
 10
-266.957986605449
 20
164.3873446229862
  0
VERTEX
  8
1
  6
CONTINUOUS
 62
     7
 10
-266.9491501191066
 20
164.3437763441389
  0
VERTEX
  8
1
  6
CONTINUOUS
 62
     7
 10
-266.9422520393667
 20
164.2997937373472
  0
VERTEX
  8
1
  6
CONTINUOUS
 62
     7
 10
-266.9373068755863
 20
164.2555274743473
  0
VERTEX
  8
1
  6
CONTINUOUS
 62
     7
 10
-266.9343291371228
 20
164.2111082268751
  0
VERTEX
  8
1
  6
CONTINUOUS
 62
     7
 10
-266.9333333333333
 20
164.1666666666667
  0
SEQEND
  8
1
  6
CONTINUOUS
 62
     7
  0
LINE
  8
1
  6
CONTINUOUS
 62
     7
 10
-280.3333333333333
 20
165.1666666666667
 11
-267.9333333333333
 21
165.1666666666667
  0
POLYLINE
  8
1
  6
CONTINUOUS
 62
     7
 66
     1
  0
VERTEX
  8
1
  6
CONTINUOUS
 62
     7
 10
-281.3333333333333
 20
166.1666666666667
  0
VERTEX
  8
1
  6
CONTINUOUS
 62
     7
 10
-281.3321528804515
 20
166.1185897394248
  0
VERTEX
  8
1
  6
CONTINUOUS
 62
     7
 10
-281.3286301414809
 20
166.0704882592839
  0
VERTEX
  8
1
  6
CONTINUOUS
 62
     7
 10
-281.3227930459334
 20
166.0225267012589
  0
VERTEX
  8
1
  6
CONTINUOUS
 62
     7
 10
-281.3146695233212
 20
165.9748695403646
  0
VERTEX
  8
1
  6
CONTINUOUS
 62
     7
 10
-281.3042875031565
 20
165.9276812516159
  0
VERTEX
  8
1
  6
CONTINUOUS
 62
     7
 10
-281.2916749149513
 20
165.8811263100276
  0
VERTEX
  8
1
  6
CONTINUOUS
 62
     7
 10
-281.2768596882178
 20
165.8353691906146
  0
VERTEX
  8
1
  6
CONTINUOUS
 62
     7
 10
-281.2598154511693
 20
165.7903919925414
  0
VERTEX
  8
1
  6
CONTINUOUS
 62
     7
 10
-281.2405516070954
 20
165.7461661814779
  0
VERTEX
  8
1
  6
CONTINUOUS
 62
     7
 10
-281.2191489531681
 20
165.7028380181887
  0
VERTEX
  8
1
  6
CONTINUOUS
 62
     7
 10
-281.1956882865593
 20
165.6605537634389
  0
VERTEX
  8
1
  6
CONTINUOUS
 62
     7
 10
-281.170250404441
 20
165.6194596779932
  0
VERTEX
  8
1
  6
CONTINUOUS
 62
     7
 10
-281.1429161039854
 20
165.5797020226166
  0
VERTEX
  8
1
  6
CONTINUOUS
 62
     7
 10
-281.1137661823644
 20
165.5414270580739
  0
VERTEX
  8
1
  6
CONTINUOUS
 62
     7
 10
-281.0827859298684
 20
165.5046451951908
  0
VERTEX
  8
1
  6
CONTINUOUS
 62
     7
 10
-281.0499602713379
 20
165.4693065387652
  0
VERTEX
  8
1
  6
CONTINUOUS
 62
     7
 10
-281.0154139977946
 20
165.4355224884998
  0
VERTEX
  8
1
  6
CONTINUOUS
 62
     7
 10
-280.9792719002601
 20
165.4034044440973
  0
VERTEX
  8
1
  6
CONTINUOUS
 62
     7
 10
-280.941658769756
 20
165.3730638052607
  0
VERTEX
  8
1
  6
CONTINUOUS
 62
     7
 10
-280.902699397304
 20
165.3446119716927
  0
VERTEX
  8
1
  6
CONTINUOUS
 62
     7
 10
-280.8625185739256
 20
165.3181603430961
  0
VERTEX
  8
1
  6
CONTINUOUS
 62
     7
 10
-280.8211316473789
 20
165.29373801174
  0
VERTEX
  8
1
  6
CONTINUOUS
 62
     7
 10
-280.7784837178772
 20
165.2712860359704
  0
VERTEX
  8
1
  6
CONTINUOUS
 62
     7
 10
-280.7347293403755
 20
165.2508680439771
  0
VERTEX
  8
1
  6
CONTINUOUS
 62
     7
 10
-280.6900230698287
 20
165.2325476639497
  0
VERTEX
  8
1
  6
CONTINUOUS
 62
     7
 10
-280.6445194611915
 20
165.2163885240779
  0
VERTEX
  8
1
  6
CONTINUOUS
 62
     7
 10
-280.5983730694188
 20
165.2024542525513
  0
VERTEX
  8
1
  6
CONTINUOUS
 62
     7
 10
-280.5517384494654
 20
165.1908084775596
  0
VERTEX
  8
1
  6
CONTINUOUS
 62
     7
 10
-280.5086100134767
 20
165.1821551020816
  0
VERTEX
  8
1
  6
CONTINUOUS
 62
     7
 10
-280.4650780682513
 20
165.1754001045871
  0
VERTEX
  8
1
  6
CONTINUOUS
 62
     7
 10
-280.421269829407
 20
165.1705576137421
  0
VERTEX
  8
1
  6
CONTINUOUS
 62
     7
 10
-280.3773125125618
 20
165.1676417582133
  0
VERTEX
  8
1
  6
CONTINUOUS
 62
     7
 10
-280.3333333333333
 20
165.1666666666667
  0
SEQEND
  8
1
  6
CONTINUOUS
 62
     7
  0
LINE
  8
1
  6
CONTINUOUS
 62
     7
 10
-281.3333333333333
 20
166.1666666666686
 11
-281.3333333333333
 21
242.1666666666667
  0
POLYLINE
  8
1
  6
CONTINUOUS
 62
     7
 66
     1
  0
VERTEX
  8
1
  6
CONTINUOUS
 62
     7
 10
-280.3333333333333
 20
243.1666666666667
  0
VERTEX
  8
1
  6
CONTINUOUS
 62
     7
 10
-280.3813252496776
 20
243.1654902694232
  0
VERTEX
  8
1
  6
CONTINUOUS
 62
     7
 10
-280.4293417289847
 20
243.1619797960104
  0
VERTEX
  8
1
  6
CONTINUOUS
 62
     7
 10
-280.477218515236
 20
243.1561633239047
  0
VERTEX
  8
1
  6
CONTINUOUS
 62
     7
 10
-280.524791352413
 20
243.1480689305828
  0
VERTEX
  8
1
  6
CONTINUOUS
 62
     7
 10
-280.5718959844971
 20
243.1377246935209
  0
VERTEX
  8
1
  6
CONTINUOUS
 62
     7
 10
-280.6183681554699
 20
243.1251586901957
  0
VERTEX
  8
1
  6
CONTINUOUS
 62
     7
 10
-280.6640436093125
 20
243.1103989980837
  0
VERTEX
  8
1
  6
CONTINUOUS
 62
     7
 10
-280.7089384826188
 20
243.0934205382537
  0
VERTEX
  8
1
  6
CONTINUOUS
 62
     7
 10
-280.7530832233581
 20
243.0742328021205
  0
VERTEX
  8
1
  6
CONTINUOUS
 62
     7
 10
-280.7963324596834
 20
243.0529166277968
  0
VERTEX
  8
1
  6
CONTINUOUS
 62
     7
 10
-280.8385408197474
 20
243.0295528533958
  0
VERTEX
  8
1
  6
CONTINUOUS
 62
     7
 10
-280.8795629317032
 20
243.0042223170304
  0
VERTEX
  8
1
  6
CONTINUOUS
 62
     7
 10
-280.9192534237036
 20
242.9770058568135
  0
VERTEX
  8
1
  6
CONTINUOUS
 62
     7
 10
-280.9574669239013
 20
242.947984310858
  0
VERTEX
  8
1
  6
CONTINUOUS
 62
     7
 10
-280.9942309642859
 20
242.9171108047889
  0
VERTEX
  8
1
  6
CONTINUOUS
 62
     7
 10
-281.0295553530305
 20
242.8844002402529
  0
VERTEX
  8
1
  6
CONTINUOUS
 62
     7
 10
-281.0633297721755
 20
242.8499768803285
  0
VERTEX
  8
1
  6
CONTINUOUS
 62
     7
 10
-281.0954439037608
 20
242.8139649880941
  0
VERTEX
  8
1
  6
CONTINUOUS
 62
     7
 10
-281.1257874298269
 20
242.7764888266281
  0
VERTEX
  8
1
  6
CONTINUOUS
 62
     7
 10
-281.1542500324138
 20
242.7376726590089
  0
VERTEX
  8
1
  6
CONTINUOUS
 62
     7
 10
-281.1807213935618
 20
242.6976407483149
  0
VERTEX
  8
1
  6
CONTINUOUS
 62
     7
 10
-281.2052257528249
 20
242.6563151786555
  0
VERTEX
  8
1
  6
CONTINUOUS
 62
     7
 10
-281.2277611432186
 20
242.6137297540494
  0
VERTEX
  8
1
  6
CONTINUOUS
 62
     7
 10
-281.2482643856306
 20
242.5700383529685
  0
VERTEX
  8
1
  6
CONTINUOUS
 62
     7
 10
-281.2666723009491
 20
242.5253948538844
  0
VERTEX
  8
1
  6
CONTINUOUS
 62
     7
 10
-281.2829217100617
 20
242.4799531352689
  0
VERTEX
  8
1
  6
CONTINUOUS
 62
     7
 10
-281.2969494338564
 20
242.4338670755937
  0
VERTEX
  8
1
  6
CONTINUOUS
 62
     7
 10
-281.3086922932211
 20
242.3872905533307
  0
VERTEX
  8
1
  6
CONTINUOUS
 62
     7
 10
-281.3175243086059
 20
242.3437332405378
  0
VERTEX
  8
1
  6
CONTINUOUS
 62
     7
 10
-281.3244189549553
 20
242.2997616042539
  0
VERTEX
  8
1
  6
CONTINUOUS
 62
     7
 10
-281.3293616976236
 20
242.2555062357001
  0
VERTEX
  8
1
  6
CONTINUOUS
 62
     7
 10
-281.332338001965
 20
242.2110977260973
  0
VERTEX
  8
1
  6
CONTINUOUS
 62
     7
 10
-281.3333333333333
 20
242.1666666666667
  0
SEQEND
  8
1
  6
CONTINUOUS
 62
     7
  0
LINE
  8
1
  6
CONTINUOUS
 62
     7
 10
-267.9333333333333
 20
243.1666666666667
 11
-280.3333333333333
 21
243.1666666666667
  0
POLYLINE
  8
1
  6
CONTINUOUS
 62
     7
 66
     1
  0
VERTEX
  8
1
  6
CONTINUOUS
 62
     7
 10
-266.9333333333333
 20
244.1666666666667
  0
VERTEX
  8
1
  6
CONTINUOUS
 62
     7
 10
-266.9345138241645
 20
244.1185889210639
  0
VERTEX
  8
1
  6
CONTINUOUS
 62
     7
 10
-266.9380367086433
 20
244.0704863142496
  0
VERTEX
  8
1
  6
CONTINUOUS
 62
     7
 10
-266.9438741047476
 20
244.0225233292447
  0
VERTEX
  8
1
  6
CONTINUOUS
 62
     7
 10
-266.9519981304552
 20
243.9748644490702
  0
VERTEX
  8
1
  6
CONTINUOUS
 62
     7
 10
-266.9623809037439
 20
243.927674156747
  0
VERTEX
  8
1
  6
CONTINUOUS
 62
     7
 10
-266.9749945425916
 20
243.8811169352961
  0
VERTEX
  8
1
  6
CONTINUOUS
 62
     7
 10
-266.989811164976
 20
243.8353572677383
  0
VERTEX
  8
1
  6
CONTINUOUS
 62
     7
 10
-267.0068572899594
 20
243.7903770749388
  0
VERTEX
  8
1
  6
CONTINUOUS
 62
     7
 10
-267.0261234976156
 20
243.7461480730321
  0
VERTEX
  8
1
  6
CONTINUOUS
 62
     7
 10
-267.0475289944084
 20
243.7028165987174
  0
VERTEX
  8
1
  6
CONTINUOUS
 62
     7
 10
-267.070992986802
 20
243.660528988694
  0
VERTEX
  8
1
  6
CONTINUOUS
 62
     7
 10
-267.0964346812602
 20
243.6194315796611
  0
VERTEX
  8
1
  6
CONTINUOUS
 62
     7
 10
-267.1237732842471
 20
243.5796707083179
  0
VERTEX
  8
1
  6
CONTINUOUS
 62
     7
 10
-267.1529280022265
 20
243.5413927113638
  0
VERTEX
  8
1
  6
CONTINUOUS
 62
     7
 10
-267.1839104148884
 20
243.5046116155776
  0
VERTEX
  8
1
  6
CONTINUOUS
 62
     7
 10
-267.2167384005455
 20
243.4692736939946
  0
VERTEX
  8
1
  6
CONTINUOUS
 62
     7
 10
-267.2512871467767
 20
243.435490384715
  0
VERTEX
  8
1
  6
CONTINUOUS
 62
     7
 10
-267.2874318411607
 20
243.4033731258388
  0
VERTEX
  8
1
  6
CONTINUOUS
 62
     7
 10
-267.3250476712762
 20
243.3730333554662
  0
VERTEX
  8
1
  6
CONTINUOUS
 62
     7
 10
-267.3640098247018
 20
243.3445825116973
  0
VERTEX
  8
1
  6
CONTINUOUS
 62
     7
 10
-267.4041934890164
 20
243.3181320326321
  0
VERTEX
  8
1
  6
CONTINUOUS
 62
     7
 10
-267.445580393216
 20
243.2937126592485
  0
VERTEX
  8
1
  6
CONTINUOUS
 62
     7
 10
-267.488228177082
 20
243.2712635547764
  0
VERTEX
  8
1
  6
CONTINUOUS
 62
     7
 10
-267.5319822857282
 20
243.2508483439675
  0
VERTEX
  8
1
  6
CONTINUOUS
 62
     7
 10
-267.5766881642691
 20
243.2325306515736
  0
VERTEX
  8
1
  6
CONTINUOUS
 62
     7
 10
-267.6221912578187
 20
243.2163741023466
  0
VERTEX
  8
1
  6
CONTINUOUS
 62
     7
 10
-267.6683370114912
 20
243.2024423210383
  0
VERTEX
  8
1
  6
CONTINUOUS
 62
     7
 10
-267.7149708704007
 20
243.1907989324004
  0
VERTEX
  8
1
  6
CONTINUOUS
 62
     7
 10
-267.7580910997368
 20
243.1821489641115
  0
VERTEX
  8
1
  6
CONTINUOUS
 62
     7
 10
-267.8016146021234
 20
243.175396635628
  0
VERTEX
  8
1
  6
CONTINUOUS
 62
     7
 10
-267.8454142361352
 20
243.1705560647156
  0
VERTEX
  8
1
  6
CONTINUOUS
 62
     7
 10
-267.889362860347
 20
243.1676413691399
  0
VERTEX
  8
1
  6
CONTINUOUS
 62
     7
 10
-267.9333333333333
 20
243.1666666666667
  0
SEQEND
  8
1
  6
CONTINUOUS
 62
     7
  0
LINE
  8
1
  6
CONTINUOUS
 62
     7
 10
-266.9333333333333
 20
244.1666666666667
 11
-266.9333333333333
 21
248.1666666666667
  0
POLYLINE
  8
1
  6
CONTINUOUS
 62
     7
 66
     1
  0
VERTEX
  8
1
  6
CONTINUOUS
 62
     7
 10
-265.9333333333333
 20
249.1666666666667
  0
VERTEX
  8
1
  6
CONTINUOUS
 62
     7
 10
-265.9813110958939
 20
249.1654909439134
  0
VERTEX
  8
1
  6
CONTINUOUS
 62
     7
 10
-266.0293133982392
 20
249.1619825127836
  0
VERTEX
  8
1
  6
CONTINUOUS
 62
     7
 10
-266.0771760211438
 20
249.1561694789725
  0
VERTEX
  8
1
  6
CONTINUOUS
 62
     7
 10
-266.1247347453823
 20
249.1480799481752
  0
VERTEX
  8
1
  6
CONTINUOUS
 62
     7
 10
-266.1718253517294
 20
249.1377420260868
  0
VERTEX
  8
1
  6
CONTINUOUS
 62
     7
 10
-266.2182836209595
 20
249.1251838184026
  0
VERTEX
  8
1
  6
CONTINUOUS
 62
     7
 10
-266.2639453338476
 20
249.1104334308176
  0
VERTEX
  8
1
  6
CONTINUOUS
 62
     7
 10
-266.3088263213118
 20
249.0934660094047
  0
VERTEX
  8
1
  6
CONTINUOUS
 62
     7
 10
-266.3529573676922
 20
249.0742910587261
  0
VERTEX
  8
1
  6
CONTINUOUS
 62
     7
 10
-266.3961932539664
 20
249.0529894237539
  0
VERTEX
  8
1
  6
CONTINUOUS
 62
     7
 10
-266.4383887611117
 20
249.0296419494604
  0
VERTEX
  8
1
  6
CONTINUOUS
 62
     7
 10
-266.4793986701057
 20
249.0043294808175
  0
VERTEX
  8
1
  6
CONTINUOUS
 62
     7
 10
-266.519077761926
 20
248.9771328627975
  0
VERTEX
  8
1
  6
CONTINUOUS
 62
     7
 10
-266.55728081755
 20
248.9481329403725
  0
VERTEX
  8
1
  6
CONTINUOUS
 62
     7
 10
-266.5940419175454
 20
248.9172773030862
  0
VERTEX
  8
1
  6
CONTINUOUS
 62
     7
 10
-266.6293639518872
 20
248.884586004442
  0
VERTEX
  8
1
  6
CONTINUOUS
 62
     7
 10
-266.6631367845203
 20
248.8501832186575
  0
VERTEX
  8
1
  6
CONTINUOUS
 62
     7
 10
-266.6952502793897
 20
248.8141931199503
  0
VERTEX
  8
1
  6
CONTINUOUS
 62
     7
 10
-266.7255943004403
 20
248.7767398825378
  0
VERTEX
  8
1
  6
CONTINUOUS
 62
     7
 10
-266.754058711617
 20
248.7379476806377
  0
VERTEX
  8
1
  6
CONTINUOUS
 62
     7
 10
-266.7805333768648
 20
248.6979406884675
  0
VERTEX
  8
1
  6
CONTINUOUS
 62
     7
 10
-266.8050515281935
 20
248.6566253545347
  0
VERTEX
  8
1
  6
CONTINUOUS
 62
     7
 10
-266.8276009355883
 20
248.6140503517473
  0
VERTEX
  8
1
  6
CONTINUOUS
 62
     7
 10
-266.8481184949032
 20
248.5703694466099
  0
VERTEX
  8
1
  6
CONTINUOUS
 62
     7
 10
-266.8665411019925
 20
248.5257364056275
  0
VERTEX
  8
1
  6
CONTINUOUS
 62
     7
 10
-266.8828056527105
 20
248.4803049953046
  0
VERTEX
  8
1
  6
CONTINUOUS
 62
     7
 10
-266.8968490429116
 20
248.4342289821461
  0
VERTEX
  8
1
  6
CONTINUOUS
 62
     7
 10
-266.90860816845
 20
248.3876621326566
  0
VERTEX
  8
1
  6
CONTINUOUS
 62
     7
 10
-266.9174702861152
 20
248.3440330186214
  0
VERTEX
  8
1
  6
CONTINUOUS
 62
     7
 10
-266.9243884645709
 20
248.2999877528552
  0
VERTEX
  8
1
  6
CONTINUOUS
 62
     7
 10
-266.9293481006824
 20
248.2556574975077
  0
VERTEX
  8
1
  6
CONTINUOUS
 62
     7
 10
-266.9323345913148
 20
248.2111734147283
  0
VERTEX
  8
1
  6
CONTINUOUS
 62
     7
 10
-266.9333333333333
 20
248.1666666666667
  0
SEQEND
  8
1
  6
CONTINUOUS
 62
     7
  0
LINE
  8
1
  6
CONTINUOUS
 62
     7
 10
-257.3333333333333
 20
249.1666666666667
 11
-265.9333333333333
 21
249.1666666666667
  0
POLYLINE
  8
1
  6
CONTINUOUS
 62
     7
 66
     1
  0
VERTEX
  8
1
  6
CONTINUOUS
 62
     7
 10
-256.3333333333334
 20
250.1666666666667
  0
VERTEX
  8
1
  6
CONTINUOUS
 62
     7
 10
-256.3345145090664
 20
250.1185745769882
  0
VERTEX
  8
1
  6
CONTINUOUS
 62
     7
 10
-256.3380394697546
 20
250.0704575789047
  0
VERTEX
  8
1
  6
CONTINUOUS
 62
     7
 10
-256.3438803656317
 20
250.0224801937448
  0
VERTEX
  8
1
  6
CONTINUOUS
 62
     7
 10
-256.3520093469314
 20
249.974806942837
  0
VERTEX
  8
1
  6
CONTINUOUS
 62
     7
 10
-256.3623985638871
 20
249.9276023475095
  0
VERTEX
  8
1
  6
CONTINUOUS
 62
     7
 10
-256.3750201667327
 20
249.8810309290909
  0
VERTEX
  8
1
  6
CONTINUOUS
 62
     7
 10
-256.3898463057017
 20
249.8352572089096
  0
VERTEX
  8
1
  6
CONTINUOUS
 62
     7
 10
-256.4069037384085
 20
249.7902627872072
  0
VERTEX
  8
1
  6
CONTINUOUS
 62
     7
 10
-256.4261830583831
 20
249.7460197360821
  0
VERTEX
  8
1
  6
CONTINUOUS
 62
     7
 10
-256.4476034806837
 20
249.7026745525115
  0
VERTEX
  8
1
  6
CONTINUOUS
 62
     7
 10
-256.4710842203684
 20
249.6603737334728
  0
VERTEX
  8
1
  6
CONTINUOUS
 62
     7
 10
-256.4965444924956
 20
249.6192637759431
  0
VERTEX
  8
1
  6
CONTINUOUS
 62
     7
 10
-256.5239035121232
 20
249.5794911768999
  0
VERTEX
  8
1
  6
CONTINUOUS
 62
     7
 10
-256.5530804943096
 20
249.5412024333204
  0
VERTEX
  8
1
  6
CONTINUOUS
 62
     7
 10
-256.5840811553433
 20
249.5044184538564
  0
VERTEX
  8
1
  6
CONTINUOUS
 62
     7
 10
-256.6169288244035
 20
249.4690782379581
  0
VERTEX
  8
1
  6
CONTINUOUS
 62
     7
 10
-256.6514985990833
 20
249.435293411905
  0
VERTEX
  8
1
  6
CONTINUOUS
 62
     7
 10
-256.6876655769753
 20
249.4031756019767
  0
VERTEX
  8
1
  6
CONTINUOUS
 62
     7
 10
-256.7253048556726
 20
249.3728364344528
  0
VERTEX
  8
1
  6
CONTINUOUS
 62
     7
 10
-256.764291532768
 20
249.3443875356129
  0
VERTEX
  8
1
  6
CONTINUOUS
 62
     7
 10
-256.8045007058543
 20
249.3179405317365
  0
VERTEX
  8
1
  6
CONTINUOUS
 62
     7
 10
-256.8458980272005
 20
249.2935353019637
  0
VERTEX
  8
1
  6
CONTINUOUS
 62
     7
 10
-256.8885564274785
 20
249.271100567334
  0
VERTEX
  8
1
  6
CONTINUOUS
 62
     7
 10
-256.932321237836
 20
249.2507000302694
  0
VERTEX
  8
1
  6
CONTINUOUS
 62
     7
 10
-256.9770377894206
 20
249.2323973931916
  0
VERTEX
  8
1
  6
CONTINUOUS
 62
     7
 10
-257.02255141338
 20
249.2162563585226
  0
VERTEX
  8
1
  6
CONTINUOUS
 62
     7
 10
-257.0687074408619
 20
249.2023406286841
  0
VERTEX
  8
1
  6
CONTINUOUS
 62
     7
 10
-257.115351203014
 20
249.1907139060981
  0
VERTEX
  8
1
  6
CONTINUOUS
 62
     7
 10
-257.1583978586868
 20
249.182094368759
  0
VERTEX
  8
1
  6
CONTINUOUS
 62
     7
 10
-257.2018459660786
 20
249.1753658253253
  0
VERTEX
  8
1
  6
CONTINUOUS
 62
     7
 10
-257.2455689586661
 20
249.1705423266179
  0
VERTEX
  8
1
  6
CONTINUOUS
 62
     7
 10
-257.2894402699255
 20
249.167637923458
  0
VERTEX
  8
1
  6
CONTINUOUS
 62
     7
 10
-257.3333333333333
 20
249.1666666666667
  0
SEQEND
  8
1
  6
CONTINUOUS
 62
     7
  0
LINE
  8
1
  6
CONTINUOUS
 62
     7
 10
-256.3333333333334
 20
250.1666666666667
 11
-256.3333333333334
 21
253.4166666666667
  0
ARC
  8
1
  6
CONTINUOUS
 62
     7
 10
-256.3334169523517
 20
254.6666666666667
 40
1.250000002796857
 50
270.0038328134652
 51
89.99616718653466
  0
LINE
  8
1
  6
CONTINUOUS
 62
     7
 10
-256.3333333333334
 20
255.9166666666667
 11
-256.3333333333334
 21
260.6666666666666
  0
POLYLINE
  8
1
  6
CONTINUOUS
 62
     7
 66
     1
  0
VERTEX
  8
1
  6
CONTINUOUS
 62
     7
 10
-257.3333333333333
 20
261.6666666666667
  0
VERTEX
  8
1
  6
CONTINUOUS
 62
     7
 10
-257.2853915917864
 20
261.6654926596609
  0
VERTEX
  8
1
  6
CONTINUOUS
 62
     7
 10
-257.2374253692984
 20
261.6619894234864
  0
VERTEX
  8
1
  6
CONTINUOUS
 62
     7
 10
-257.1895987915364
 20
261.6561851354072
  0
VERTEX
  8
1
  6
CONTINUOUS
 62
     7
 10
-257.1420759841677
 20
261.6481079726875
  0
VERTEX
  8
1
  6
CONTINUOUS
 62
     7
 10
-257.0950210728595
 20
261.6377861125912
  0
VERTEX
  8
1
  6
CONTINUOUS
 62
     7
 10
-257.0485981832791
 20
261.6252477323825
  0
VERTEX
  8
1
  6
CONTINUOUS
 62
     7
 10
-257.0029714410937
 20
261.6105210093255
  0
VERTEX
  8
1
  6
CONTINUOUS
 62
     7
 10
-256.9581257905243
 20
261.5935816598509
  0
VERTEX
  8
1
  6
CONTINUOUS
 62
     7
 10
-256.9140295941954
 20
261.5744392222805
  0
VERTEX
  8
1
  6
CONTINUOUS
 62
     7
 10
-256.8708276833689
 20
261.5531745590878
  0
VERTEX
  8
1
  6
CONTINUOUS
 62
     7
 10
-256.828664889307
 20
261.5298685327456
  0
VERTEX
  8
1
  6
CONTINUOUS
 62
     7
 10
-256.7876860432721
 20
261.5046020057273
  0
VERTEX
  8
1
  6
CONTINUOUS
 62
     7
 10
-256.7480359765262
 20
261.477455840506
  0
VERTEX
  8
1
  6
CONTINUOUS
 62
     7
 10
-256.7098595203313
 20
261.4485108995551
  0
VERTEX
  8
1
  6
CONTINUOUS
 62
     7
 10
-256.6731059927332
 20
261.4177007648504
  0
VERTEX
  8
1
  6
CONTINUOUS
 62
     7
 10
-256.6377900402846
 20
261.3850585292766
  0
VERTEX
  8
1
  6
CONTINUOUS
 62
     7
 10
-256.6040213364491
 20
261.3507081420959
  0
VERTEX
  8
1
  6
CONTINUOUS
 62
     7
 10
-256.5719095546901
 20
261.3147735525703
  0
VERTEX
  8
1
  6
CONTINUOUS
 62
     7
 10
-256.5415643684709
 20
261.2773787099618
  0
VERTEX
  8
1
  6
CONTINUOUS
 62
     7
 10
-256.5130954512549
 20
261.2386475635326
  0
VERTEX
  8
1
  6
CONTINUOUS
 62
     7
 10
-256.4866124765055
 20
261.1987040625448
  0
VERTEX
  8
1
  6
CONTINUOUS
 62
     7
 10
-256.46205930728
 20
261.1574149510242
  0
VERTEX
  8
1
  6
CONTINUOUS
 62
     7
 10
-256.4394743031183
 20
261.1148666634525
  0
VERTEX
  8
1
  6
CONTINUOUS
 62
     7
 10
-256.4189203749084
 20
261.0712126813107
  0
VERTEX
  8
1
  6
CONTINUOUS
 62
     7
 10
-256.400460433538
 20
261.02660648608
  0
VERTEX
  8
1
  6
CONTINUOUS
 62
     7
 10
-256.3841573898949
 20
260.9812015592412
  0
VERTEX
  8
1
  6
CONTINUOUS
 62
     7
 10
-256.370074154867
 20
260.9351513822755
  0
VERTEX
  8
1
  6
CONTINUOUS
 62
     7
 10
-256.3582736393423
 20
260.8886094366639
  0
VERTEX
  8
1
  6
CONTINUOUS
 62
     7
 10
-256.3493345343741
 20
260.8447972824474
  0
VERTEX
  8
1
  6
CONTINUOUS
 62
     7
 10
-256.342356174341
 20
260.8005643044498
  0
VERTEX
  8
1
  6
CONTINUOUS
 62
     7
 10
-256.3373533361911
 20
260.7560431265609
  0
VERTEX
  8
1
  6
CONTINUOUS
 62
     7
 10
-256.3343407968724
 20
260.7113663726699
  0
VERTEX
  8
1
  6
CONTINUOUS
 62
     7
 10
-256.3333333333334
 20
260.6666666666667
  0
SEQEND
  8
1
  6
CONTINUOUS
 62
     7
  0
LINE
  8
1
  6
CONTINUOUS
 62
     7
 10
-266.3333333333333
 20
261.6666666666667
 11
-257.3333333333333
 21
261.6666666666667
  0
POLYLINE
  8
1
  6
CONTINUOUS
 62
     7
 66
     1
  0
VERTEX
  8
1
  6
CONTINUOUS
 62
     7
 10
-267.3333333333333
 20
260.6666666666667
  0
VERTEX
  8
1
  6
CONTINUOUS
 62
     7
 10
-267.3321504682103
 20
260.7147940841205
  0
VERTEX
  8
1
  6
CONTINUOUS
 62
     7
 10
-267.328620432519
 20
260.7629460627322
  0
VERTEX
  8
1
  6
CONTINUOUS
 62
     7
 10
-267.3227710657755
 20
260.8109579954149
  0
VERTEX
  8
1
  6
CONTINUOUS
 62
     7
 10
-267.3146302074963
 20
260.8586652750816
  0
VERTEX
  8
1
  6
CONTINUOUS
 62
     7
 10
-267.3042256971977
 20
260.9059032946454
  0
VERTEX
  8
1
  6
CONTINUOUS
 62
     7
 10
-267.291585374396
 20
260.9525074470193
  0
VERTEX
  8
1
  6
CONTINUOUS
 62
     7
 10
-267.2767370786077
 20
260.9983131251164
  0
VERTEX
  8
1
  6
CONTINUOUS
 62
     7
 10
-267.2596536666444
 20
261.043339276379
  0
VERTEX
  8
1
  6
CONTINUOUS
 62
     7
 10
-267.2403444853024
 20
261.0876133004934
  0
VERTEX
  8
1
  6
CONTINUOUS
 62
     7
 10
-267.2188903029269
 20
261.1309884065212
  0
VERTEX
  8
1
  6
CONTINUOUS
 62
     7
 10
-267.1953718878629
 20
261.1733178035232
  0
VERTEX
  8
1
  6
CONTINUOUS
 62
     7
 10
-267.1698700084553
 20
261.2144547005606
  0
VERTEX
  8
1
  6
CONTINUOUS
 62
     7
 10
-267.1424654330493
 20
261.2542523066948
  0
VERTEX
  8
1
  6
CONTINUOUS
 62
     7
 10
-267.1132389299898
 20
261.2925638309867
  0
VERTEX
  8
1
  6
CONTINUOUS
 62
     7
 10
-267.0821950310403
 20
261.3293562688089
  0
VERTEX
  8
1
  6
CONTINUOUS
 62
     7
 10
-267.0493007191875
 20
261.3647033915625
  0
VERTEX
  8
1
  6
CONTINUOUS
 62
     7
 10
-267.0146810939904
 20
261.3984931509283
  0
VERTEX
  8
1
  6
CONTINUOUS
 62
     7
 10
-266.9784612550081
 20
261.4306134985871
  0
VERTEX
  8
1
  6
CONTINUOUS
 62
     7
 10
-266.9407663017994
 20
261.4609523862196
  0
VERTEX
  8
1
  6
CONTINUOUS
 62
     7
 10
-266.9017213339235
 20
261.4893977655065
  0
VERTEX
  8
1
  6
CONTINUOUS
 62
     7
 10
-266.8614514509392
 20
261.5158375881286
  0
VERTEX
  8
1
  6
CONTINUOUS
 62
     7
 10
-266.8200276123028
 20
261.5402112025866
  0
VERTEX
  8
1
  6
CONTINUOUS
 62
     7
 10
-266.7773420049909
 20
261.562613616006
  0
VERTEX
  8
1
  6
CONTINUOUS
 62
     7
 10
-266.7335495887557
 20
261.5829809234729
  0
VERTEX
  8
1
  6
CONTINUOUS
 62
     7
 10
-266.6888053233493
 20
261.6012492200733
  0
VERTEX
  8
1
  6
CONTINUOUS
 62
     7
 10
-266.6432641685238
 20
261.6173546008935
  0
VERTEX
  8
1
  6
CONTINUOUS
 62
     7
 10
-266.5970810840314
 20
261.6312331610196
  0
VERTEX
  8
1
  6
CONTINUOUS
 62
     7
 10
-266.5504110296242
 20
261.6428209955374
  0
VERTEX
  8
1
  6
CONTINUOUS
 62
     7
 10
-266.5075394233075
 20
261.6513683784696
  0
VERTEX
  8
1
  6
CONTINUOUS
 62
     7
 10
-266.4642706309287
 20
261.6580405340515
  0
VERTEX
  8
1
  6
CONTINUOUS
 62
     7
 10
-266.4207298720791
 20
261.6628235652802
  0
VERTEX
  8
1
  6
CONTINUOUS
 62
     7
 10
-266.3770423663501
 20
261.665703575153
  0
VERTEX
  8
1
  6
CONTINUOUS
 62
     7
 10
-266.3333333333333
 20
261.6666666666667
  0
SEQEND
  8
1
  6
CONTINUOUS
 62
     7
  0
LINE
  8
1
  6
CONTINUOUS
 62
     7
 10
-267.3333333333333
 20
260.6666666666667
 11
-267.3333333333333
 21
258.6666666666667
  0
POLYLINE
  8
1
  6
CONTINUOUS
 62
     7
 66
     1
  0
VERTEX
  8
1
  6
CONTINUOUS
 62
     7
 10
-267.8333333333333
 20
258.1666666666667
  0
VERTEX
  8
1
  6
CONTINUOUS
 62
     7
 10
-267.8093572886297
 20
258.1672539162796
  0
VERTEX
  8
1
  6
CONTINUOUS
 62
     7
 10
-267.7853689934996
 20
258.1690062800092
  0
VERTEX
  8
1
  6
CONTINUOUS
 62
     7
 10
-267.7614505233882
 20
258.1719096801921
  0
VERTEX
  8
1
  6
CONTINUOUS
 62
     7
 10
-267.7376839537398
 20
258.1759500391647
  0
VERTEX
  8
1
  6
CONTINUOUS
 62
     7
 10
-267.7141513599992
 20
258.1811132792636
  0
VERTEX
  8
1
  6
CONTINUOUS
 62
     7
 10
-267.6909348176112
 20
258.1873853228251
  0
VERTEX
  8
1
  6
CONTINUOUS
 62
     7
 10
-267.6681164020201
 20
258.1947520921858
  0
VERTEX
  8
1
  6
CONTINUOUS
 62
     7
 10
-267.6456884528049
 20
258.2032258231526
  0
VERTEX
  8
1
  6
CONTINUOUS
 62
     7
 10
-267.6236353006057
 20
258.2128017436569
  0
VERTEX
  8
1
  6
CONTINUOUS
 62
     7
 10
-267.6020294229954
 20
258.2234394185454
  0
VERTEX
  8
1
  6
CONTINUOUS
 62
     7
 10
-267.5809432975465
 20
258.2350984126645
  0
VERTEX
  8
1
  6
CONTINUOUS
 62
     7
 10
-267.5604494018319
 20
258.2477382908606
  0
VERTEX
  8
1
  6
CONTINUOUS
 62
     7
 10
-267.5406202134241
 20
258.2613186179803
  0
VERTEX
  8
1
  6
CONTINUOUS
 62
     7
 10
-267.5215282098958
 20
258.2757989588702
  0
VERTEX
  8
1
  6
CONTINUOUS
 62
     7
 10
-267.5031508864113
 20
258.2912101115099
  0
VERTEX
  8
1
  6
CONTINUOUS
 62
     7
 10
-267.4854925655678
 20
258.307537734295
  0
VERTEX
  8
1
  6
CONTINUOUS
 62
     7
 10
-267.4686081445713
 20
258.3247198083913
  0
VERTEX
  8
1
  6
CONTINUOUS
 62
     7
 10
-267.4525525206275
 20
258.3426943149649
  0
VERTEX
  8
1
  6
CONTINUOUS
 62
     7
 10
-267.4373805909424
 20
258.3613992351818
  0
VERTEX
  8
1
  6
CONTINUOUS
 62
     7
 10
-267.4231472527218
 20
258.3807725502077
  0
VERTEX
  8
1
  6
CONTINUOUS
 62
     7
 10
-267.4099074031715
 20
258.4007522412088
  0
VERTEX
  8
1
  6
CONTINUOUS
 62
     7
 10
-267.3976363127336
 20
258.4213991139336
  0
VERTEX
  8
1
  6
CONTINUOUS
 62
     7
 10
-267.3863493262493
 20
258.4426754418676
  0
VERTEX
  8
1
  6
CONTINUOUS
 62
     7
 10
-267.3760779020576
 20
258.4645044484534
  0
VERTEX
  8
1
  6
CONTINUOUS
 62
     7
 10
-267.3668534984973
 20
258.4868093571338
  0
VERTEX
  8
1
  6
CONTINUOUS
 62
     7
 10
-267.3587075739075
 20
258.5095133913515
  0
VERTEX
  8
1
  6
CONTINUOUS
 62
     7
 10
-267.3516715866269
 20
258.5325397745494
  0
VERTEX
  8
1
  6
CONTINUOUS
 62
     7
 10
-267.3457769949945
 20
258.5558117301701
  0
VERTEX
  8
1
  6
CONTINUOUS
 62
     7
 10
-267.3413168733846
 20
258.5776955769409
  0
VERTEX
  8
1
  6
CONTINUOUS
 62
     7
 10
-267.3378350976929
 20
258.5997891244588
  0
VERTEX
  8
1
  6
CONTINUOUS
 62
     7
 10
-267.3353390166401
 20
258.622026242241
  0
VERTEX
  8
1
  6
CONTINUOUS
 62
     7
 10
-267.3338359789468
 20
258.6443407998045
  0
VERTEX
  8
1
  6
CONTINUOUS
 62
     7
 10
-267.3333333333333
 20
258.6666666666667
  0
SEQEND
  8
1
  6
CONTINUOUS
 62
     7
  0
LINE
  8
1
  6
CONTINUOUS
 62
     7
 10
-269.3333333333333
 20
258.1666666666667
 11
-267.8333333333333
 21
258.1666666666667
  0
LINE
  8
1
  6
CONTINUOUS
 62
     7
 10
-269.3333333333333
 20
260.1666666666666
 11
-269.3333333333333
 21
258.1666666666666
  0
LINE
  8
1
  6
CONTINUOUS
 62
     7
 10
-269.3333333333333
 20
260.1666666666667
 11
-281.3333333333333
 21
260.1666666666667
  0
LINE
  8
1
  6
CONTINUOUS
 62
     7
 10
-281.3333333333333
 20
260.1666666666666
 11
-281.3333333333333
 21
260.6666666666666
  0
POLYLINE
  8
1
  6
CONTINUOUS
 62
     7
 66
     1
  0
VERTEX
  8
1
  6
CONTINUOUS
 62
     7
 10
-282.3333333333333
 20
261.6666666666667
  0
VERTEX
  8
1
  6
CONTINUOUS
 62
     7
 10
-282.2853915917864
 20
261.6654926596609
  0
VERTEX
  8
1
  6
CONTINUOUS
 62
     7
 10
-282.2374253692984
 20
261.6619894234864
  0
VERTEX
  8
1
  6
CONTINUOUS
 62
     7
 10
-282.1895987915364
 20
261.6561851354072
  0
VERTEX
  8
1
  6
CONTINUOUS
 62
     7
 10
-282.1420759841677
 20
261.6481079726875
  0
VERTEX
  8
1
  6
CONTINUOUS
 62
     7
 10
-282.0950210728595
 20
261.6377861125912
  0
VERTEX
  8
1
  6
CONTINUOUS
 62
     7
 10
-282.0485981832791
 20
261.6252477323825
  0
VERTEX
  8
1
  6
CONTINUOUS
 62
     7
 10
-282.0029714410937
 20
261.6105210093255
  0
VERTEX
  8
1
  6
CONTINUOUS
 62
     7
 10
-281.9581257905244
 20
261.5935816598509
  0
VERTEX
  8
1
  6
CONTINUOUS
 62
     7
 10
-281.9140295941953
 20
261.5744392222805
  0
VERTEX
  8
1
  6
CONTINUOUS
 62
     7
 10
-281.8708276833689
 20
261.5531745590877
  0
VERTEX
  8
1
  6
CONTINUOUS
 62
     7
 10
-281.828664889307
 20
261.5298685327456
  0
VERTEX
  8
1
  6
CONTINUOUS
 62
     7
 10
-281.7876860432721
 20
261.5046020057273
  0
VERTEX
  8
1
  6
CONTINUOUS
 62
     7
 10
-281.7480359765261
 20
261.477455840506
  0
VERTEX
  8
1
  6
CONTINUOUS
 62
     7
 10
-281.7098595203313
 20
261.4485108995551
  0
VERTEX
  8
1
  6
CONTINUOUS
 62
     7
 10
-281.6731059927332
 20
261.4177007648504
  0
VERTEX
  8
1
  6
CONTINUOUS
 62
     7
 10
-281.6377900402846
 20
261.3850585292766
  0
VERTEX
  8
1
  6
CONTINUOUS
 62
     7
 10
-281.6040213364491
 20
261.3507081420959
  0
VERTEX
  8
1
  6
CONTINUOUS
 62
     7
 10
-281.5719095546901
 20
261.3147735525703
  0
VERTEX
  8
1
  6
CONTINUOUS
 62
     7
 10
-281.5415643684709
 20
261.2773787099618
  0
VERTEX
  8
1
  6
CONTINUOUS
 62
     7
 10
-281.5130954512549
 20
261.2386475635326
  0
VERTEX
  8
1
  6
CONTINUOUS
 62
     7
 10
-281.4866124765055
 20
261.1987040625448
  0
VERTEX
  8
1
  6
CONTINUOUS
 62
     7
 10
-281.46205930728
 20
261.1574149510242
  0
VERTEX
  8
1
  6
CONTINUOUS
 62
     7
 10
-281.4394743031183
 20
261.1148666634525
  0
VERTEX
  8
1
  6
CONTINUOUS
 62
     7
 10
-281.4189203749084
 20
261.0712126813107
  0
VERTEX
  8
1
  6
CONTINUOUS
 62
     7
 10
-281.4004604335379
 20
261.02660648608
  0
VERTEX
  8
1
  6
CONTINUOUS
 62
     7
 10
-281.3841573898949
 20
260.9812015592412
  0
VERTEX
  8
1
  6
CONTINUOUS
 62
     7
 10
-281.3700741548671
 20
260.9351513822755
  0
VERTEX
  8
1
  6
CONTINUOUS
 62
     7
 10
-281.3582736393423
 20
260.8886094366639
  0
VERTEX
  8
1
  6
CONTINUOUS
 62
     7
 10
-281.3493345343742
 20
260.8447972824474
  0
VERTEX
  8
1
  6
CONTINUOUS
 62
     7
 10
-281.342356174341
 20
260.8005643044498
  0
VERTEX
  8
1
  6
CONTINUOUS
 62
     7
 10
-281.3373533361911
 20
260.7560431265609
  0
VERTEX
  8
1
  6
CONTINUOUS
 62
     7
 10
-281.3343407968725
 20
260.7113663726699
  0
VERTEX
  8
1
  6
CONTINUOUS
 62
     7
 10
-281.3333333333333
 20
260.6666666666667
  0
SEQEND
  8
1
  6
CONTINUOUS
 62
     7
  0
LINE
  8
1
  6
CONTINUOUS
 62
     7
 10
-283.5833333333333
 20
261.6666666666667
 11
-282.3333333333333
 21
261.6666666666667
  0
ARC
  8
1
  6
CONTINUOUS
 62
     7
 10
-283.5825165868922
 20
256.6658499202256
 40
5.000816813137723
 50
90.00935769614534
 51
179.9906423038542
  0
LINE
  8
1
  6
CONTINUOUS
 62
     7
 10
-288.5833333333334
 20
256.6666666666662
 11
-288.5833333333334
 21
151.6666666666667
  0
ARC
  8
1
  6
CONTINUOUS
 62
     7
 10
-283.5825323735417
 20
151.6674676264584
 40
5.000801023935094
 50
180.0091768529885
 51
269.990823147012
  0
LINE
  8
1
  6
CONTINUOUS
 62
     7
 10
-282.3333333333333
 20
146.6666666666667
 11
-283.5833333333333
 21
146.6666666666667
  0
POLYLINE
  8
1
  6
CONTINUOUS
 62
     7
 66
     1
  0
VERTEX
  8
1
  6
CONTINUOUS
 62
     7
 10
-281.3333333333333
 20
147.6666666666667
  0
VERTEX
  8
1
  6
CONTINUOUS
 62
     7
 10
-281.3345161984564
 20
147.6185392492129
  0
VERTEX
  8
1
  6
CONTINUOUS
 62
     7
 10
-281.3380462341477
 20
147.5703872706012
  0
VERTEX
  8
1
  6
CONTINUOUS
 62
     7
 10
-281.3438956008912
 20
147.5223753379185
  0
VERTEX
  8
1
  6
CONTINUOUS
 62
     7
 10
-281.3520364591704
 20
147.4746680582517
  0
VERTEX
  8
1
  6
CONTINUOUS
 62
     7
 10
-281.3624409694689
 20
147.4274300386879
  0
VERTEX
  8
1
  6
CONTINUOUS
 62
     7
 10
-281.3750812922706
 20
147.380825886314
  0
VERTEX
  8
1
  6
CONTINUOUS
 62
     7
 10
-281.389929588059
 20
147.3350202082169
  0
VERTEX
  8
1
  6
CONTINUOUS
 62
     7
 10
-281.4070130000223
 20
147.2899940569544
  0
VERTEX
  8
1
  6
CONTINUOUS
 62
     7
 10
-281.4263221813642
 20
147.2457200328399
  0
VERTEX
  8
1
  6
CONTINUOUS
 62
     7
 10
-281.4477763637398
 20
147.2023449268123
  0
VERTEX
  8
1
  6
CONTINUOUS
 62
     7
 10
-281.4712947788038
 20
147.1600155298102
  0
VERTEX
  8
1
  6
CONTINUOUS
 62
     7
 10
-281.4967966582113
 20
147.1188786327727
  0
VERTEX
  8
1
  6
CONTINUOUS
 62
     7
 10
-281.5242012336173
 20
147.0790810266386
  0
VERTEX
  8
1
  6
CONTINUOUS
 62
     7
 10
-281.5534277366768
 20
147.0407695023467
  0
VERTEX
  8
1
  6
CONTINUOUS
 62
     7
 10
-281.5844716356264
 20
147.0039770645245
  0
VERTEX
  8
1
  6
CONTINUOUS
 62
     7
 10
-281.6173659474791
 20
146.9686299417709
  0
VERTEX
  8
1
  6
CONTINUOUS
 62
     7
 10
-281.6519855726762
 20
146.9348401824051
  0
VERTEX
  8
1
  6
CONTINUOUS
 62
     7
 10
-281.6882054116586
 20
146.9027198347463
  0
VERTEX
  8
1
  6
CONTINUOUS
 62
     7
 10
-281.7259003648672
 20
146.8723809471138
  0
VERTEX
  8
1
  6
CONTINUOUS
 62
     7
 10
-281.7649453327432
 20
146.8439355678269
  0
VERTEX
  8
1
  6
CONTINUOUS
 62
     7
 10
-281.8052152157275
 20
146.8174957452048
  0
VERTEX
  8
1
  6
CONTINUOUS
 62
     7
 10
-281.8466390543639
 20
146.7931221307468
  0
VERTEX
  8
1
  6
CONTINUOUS
 62
     7
 10
-281.8893246616757
 20
146.7707197173274
  0
VERTEX
  8
1
  6
CONTINUOUS
 62
     7
 10
-281.9331170779109
 20
146.7503524098605
  0
VERTEX
  8
1
  6
CONTINUOUS
 62
     7
 10
-281.9778613433174
 20
146.73208411326
  0
VERTEX
  8
1
  6
CONTINUOUS
 62
     7
 10
-282.0234024981428
 20
146.7159787324399
  0
VERTEX
  8
1
  6
CONTINUOUS
 62
     7
 10
-282.0695855826353
 20
146.7021001723138
  0
VERTEX
  8
1
  6
CONTINUOUS
 62
     7
 10
-282.1162556370425
 20
146.690512337796
  0
VERTEX
  8
1
  6
CONTINUOUS
 62
     7
 10
-282.1591272433591
 20
146.6819649548638
  0
VERTEX
  8
1
  6
CONTINUOUS
 62
     7
 10
-282.202396035738
 20
146.6752927992819
  0
VERTEX
  8
1
  6
CONTINUOUS
 62
     7
 10
-282.2459367945876
 20
146.6705097680531
  0
VERTEX
  8
1
  6
CONTINUOUS
 62
     7
 10
-282.2896243003166
 20
146.6676297581805
  0
VERTEX
  8
1
  6
CONTINUOUS
 62
     7
 10
-282.3333333333333
 20
146.6666666666667
  0
SEQEND
  8
1
  6
CONTINUOUS
 62
     7
  0
LINE
  8
1
  6
CONTINUOUS
 62
     7
 10
-281.3333333333333
 20
147.6666666666667
 11
-281.3333333333333
 21
148.1666666666667
  0
LINE
  8
1
  6
CONTINUOUS
 62
     7
 10
-281.3333333333333
 20
148.1666666666667
 11
-269.3333333333333
 21
148.1666666666667
  0
LINE
  8
1
  6
CONTINUOUS
 62
     7
 10
-269.3333333333333
 20
150.1666666666667
 11
-269.3333333333333
 21
148.1666666666667
  0
LINE
  8
1
  6
CONTINUOUS
 62
     7
 10
-267.8333333333333
 20
150.1666666666667
 11
-269.3333333333333
 21
150.1666666666667
  0
POLYLINE
  8
1
  6
CONTINUOUS
 62
     7
 66
     1
  0
VERTEX
  8
1
  6
CONTINUOUS
 62
     7
 10
-267.3333333333333
 20
149.6666666666667
  0
VERTEX
  8
1
  6
CONTINUOUS
 62
     7
 10
-267.333924522071
 20
149.6907252861074
  0
VERTEX
  8
1
  6
CONTINUOUS
 62
     7
 10
-267.3356888181417
 20
149.7147963433945
  0
VERTEX
  8
1
  6
CONTINUOUS
 62
     7
 10
-267.3386123163326
 20
149.738797545291
  0
VERTEX
  8
1
  6
CONTINUOUS
 62
     7
 10
-267.3426811114302
 20
149.76264659856
  0
VERTEX
  8
1
  6
CONTINUOUS
 62
     7
 10
-267.3478812982216
 20
149.7862612099645
  0
VERTEX
  8
1
  6
CONTINUOUS
 62
     7
 10
-267.3541989714935
 20
149.8095590862675
  0
VERTEX
  8
1
  6
CONTINUOUS
 62
     7
 10
-267.3616202260329
 20
149.832457934232
  0
VERTEX
  8
1
  6
CONTINUOUS
 62
     7
 10
-267.3701586248586
 20
149.854967204915
  0
VERTEX
  8
1
  6
CONTINUOUS
 62
     7
 10
-267.3798094798012
 20
149.8771005933801
  0
VERTEX
  8
1
  6
CONTINUOUS
 62
     7
 10
-267.3905324053272
 20
149.8987847230357
  0
VERTEX
  8
1
  6
CONTINUOUS
 62
     7
 10
-267.4022870159029
 20
149.91994621729
  0
VERTEX
  8
1
  6
CONTINUOUS
 62
     7
 10
-267.4150329259948
 20
149.9405116995514
  0
VERTEX
  8
1
  6
CONTINUOUS
 62
     7
 10
-267.4287297500692
 20
149.960407793228
  0
VERTEX
  8
1
  6
CONTINUOUS
 62
     7
 10
-267.4433371025928
 20
149.9795611217281
  0
VERTEX
  8
1
  6
CONTINUOUS
 62
     7
 10
-267.4588532106939
 20
149.9979557923345
  0
VERTEX
  8
1
  6
CONTINUOUS
 62
     7
 10
-267.4752940634782
 20
150.0156280519723
  0
VERTEX
  8
1
  6
CONTINUOUS
 62
     7
 10
-267.4925971338261
 20
150.0325219277336
  0
VERTEX
  8
1
  6
CONTINUOUS
 62
     7
 10
-267.510699894618
 20
150.0485814467103
  0
VERTEX
  8
1
  6
CONTINUOUS
 62
     7
 10
-267.5295398187342
 20
150.0637506359947
  0
VERTEX
  8
1
  6
CONTINUOUS
 62
     7
 10
-267.5490543790551
 20
150.0779735226787
  0
VERTEX
  8
1
  6
CONTINUOUS
 62
     7
 10
-267.5691810484611
 20
150.0911941338543
  0
VERTEX
  8
1
  6
CONTINUOUS
 62
     7
 10
-267.5898889293084
 20
150.1033847449377
  0
VERTEX
  8
1
  6
CONTINUOUS
 62
     7
 10
-267.6112275470443
 20
150.1145898920058
  0
VERTEX
  8
1
  6
CONTINUOUS
 62
     7
 10
-267.6331194661604
 20
150.1247776546657
  0
VERTEX
  8
1
  6
CONTINUOUS
 62
     7
 10
-267.6554872511479
 20
150.1339161125245
  0
VERTEX
  8
1
  6
CONTINUOUS
 62
     7
 10
-267.6782534664981
 20
150.1419733451892
  0
VERTEX
  8
1
  6
CONTINUOUS
 62
     7
 10
-267.7013406767027
 20
150.148917432267
  0
VERTEX
  8
1
  6
CONTINUOUS
 62
     7
 10
-267.7246714462527
 20
150.1547164533648
  0
VERTEX
  8
1
  6
CONTINUOUS
 62
     7
 10
-267.7461310809761
 20
150.1589999483763
  0
VERTEX
  8
1
  6
CONTINUOUS
 62
     7
 10
-267.7677898761332
 20
150.1623436853787
  0
VERTEX
  8
1
  6
CONTINUOUS
 62
     7
 10
-267.7895850426368
 20
150.1647406962055
  0
VERTEX
  8
1
  6
CONTINUOUS
 62
     7
 10
-267.8114537913993
 20
150.1661840126903
  0
VERTEX
  8
1
  6
CONTINUOUS
 62
     7
 10
-267.8333333333333
 20
150.1666666666667
  0
SEQEND
  8
1
  6
CONTINUOUS
 62
     7
  0
LINE
  8
1
  6
CONTINUOUS
 62
     7
 10
-267.3333333333333
 20
149.6666666666667
 11
-267.3333333333333
 21
147.6666666666667
  0
ARC
  8
1
  6
CONTINUOUS
 62
     7
 10
-283.8435545048843
 20
151.8564429343368
 40
7.489783241997221
 50
180.0622009418435
 51
270.078190536949
  0
LINE
  8
1
  6
CONTINUOUS
 62
     7
 10
-291.3333333333333
 20
151.8483119431136
 11
-291.3333333333333
 21
152.0725718355989
  0
LINE
  8
1
  6
CONTINUOUS
 62
     7
 10
-175.3333333333333
 20
256.4850213902197
 11
-175.3333333333333
 21
256.2607614977344
  0
ARC
  8
1
  6
CONTINUOUS
 62
     7
 10
-182.8231121617823
 20
256.4768903989966
 40
7.489783241997083
 50
0.0622009418428888
 51
90.07819053694993
  0
LINE
  8
1
  6
CONTINUOUS
 62
     7
 10
-175.3333333333333
 20
152.0725718355989
 11
-175.3333333333333
 21
151.8483119431136
  0
ARC
  8
1
  6
CONTINUOUS
 62
     7
 10
-182.8234871524619
 20
151.8568188449811
 40
7.490158649961006
 50
269.9246818662866
 51
359.9349266549211
  0
LINE
  8
1
  6
CONTINUOUS
 62
     7
 10
-291.3333333333333
 20
256.2607614977344
 11
-291.3333333333333
 21
256.4850213902197
  0
ARC
  8
1
  6
CONTINUOUS
 62
     7
 10
-283.8431795142049
 20
256.4765144883523
 40
7.490158649960888
 50
89.92468186628548
 51
179.9349266549216
  0
LINE
  8
1
  6
CONTINUOUS
 62
     7
 10
-182.8333333333333
 20
144.3666666666667
 11
-283.8333333333333
 21
144.3666666666667
  0
LINE
  8
1
  6
CONTINUOUS
 62
     7
 10
-182.8333333333333
 20
263.9666666666666
 11
-283.8333333333333
 21
263.9666666666666
  0
LINE
  8
1
  6
CONTINUOUS
 62
     7
 10
-187.3333333333333
 20
150.1666666666667
 11
-187.3333333333333
 21
155.1666666666667
  0
LINE
  8
1
  6
CONTINUOUS
 62
     7
 10
-187.3333333333333
 20
150.1666666666667
 11
-190.3333333333333
 21
150.1666666666667
  0
LINE
  8
1
  6
CONTINUOUS
 62
     7
 10
-190.3333333333333
 20
150.1666666666667
 11
-190.3333333333333
 21
154.6666666666667
  0
POLYLINE
  8
1
  6
CONTINUOUS
 62
     7
 66
     1
  0
VERTEX
  8
1
  6
CONTINUOUS
 62
     7
 10
-189.8333333333333
 20
155.1666666666667
  0
VERTEX
  8
1
  6
CONTINUOUS
 62
     7
 10
-189.8573166466707
 20
155.1660790708122
  0
VERTEX
  8
1
  6
CONTINUOUS
 62
     7
 10
-189.8813122221673
 20
155.1643256587743
  0
VERTEX
  8
1
  6
CONTINUOUS
 62
     7
 10
-189.9052379654223
 20
155.1614204938418
  0
VERTEX
  8
1
  6
CONTINUOUS
 62
     7
 10
-189.9290117820347
 20
155.1573776393029
  0
VERTEX
  8
1
  6
CONTINUOUS
 62
     7
 10
-189.9525515776038
 20
155.1522111584463
  0
VERTEX
  8
1
  6
CONTINUOUS
 62
     7
 10
-189.9757752577287
 20
155.1459351145606
  0
VERTEX
  8
1
  6
CONTINUOUS
 62
     7
 10
-189.9986007280085
 20
155.1385635709342
  0
VERTEX
  8
1
  6
CONTINUOUS
 62
     7
 10
-190.0210358032872
 20
155.1300841778075
  0
VERTEX
  8
1
  6
CONTINUOUS
 62
     7
 10
-190.0430959833064
 20
155.1205016997181
  0
VERTEX
  8
1
  6
CONTINUOUS
 62
     7
 10
-190.0647087128369
 20
155.1098565676975
  0
VERTEX
  8
1
  6
CONTINUOUS
 62
     7
 10
-190.0858014366493
 20
155.0981892127775
  0
VERTEX
  8
1
  6
CONTINUOUS
 62
     7
 10
-190.1063015995145
 20
155.0855400659894
  0
VERTEX
  8
1
  6
CONTINUOUS
 62
     7
 10
-190.1261366462032
 20
155.071949558365
  0
VERTEX
  8
1
  6
CONTINUOUS
 62
     7
 10
-190.1452340214862
 20
155.0574581209358
  0
VERTEX
  8
1
  6
CONTINUOUS
 62
     7
 10
-190.1636129227983
 20
155.042037744626
  0
VERTEX
  8
1
  6
CONTINUOUS
 62
     7
 10
-190.1812725208037
 20
155.0257001712271
  0
VERTEX
  8
1
  6
CONTINUOUS
 62
     7
 10
-190.198157824419
 20
155.0085074638564
  0
VERTEX
  8
1
  6
CONTINUOUS
 62
     7
 10
-190.2142138425607
 20
154.9905216856314
  0
VERTEX
  8
1
  6
CONTINUOUS
 62
     7
 10
-190.2293855841455
 20
154.9718048996696
  0
VERTEX
  8
1
  6
CONTINUOUS
 62
     7
 10
-190.2436180580901
 20
154.9524191690883
  0
VERTEX
  8
1
  6
CONTINUOUS
 62
     7
 10
-190.2568562733111
 20
154.932426557005
  0
VERTEX
  8
1
  6
CONTINUOUS
 62
     7
 10
-190.2691203426515
 20
154.9117742559399
  0
VERTEX
  8
1
  6
CONTINUOUS
 62
     7
 10
-190.2804001854232
 20
154.8904923810857
  0
VERTEX
  8
1
  6
CONTINUOUS
 62
     7
 10
-190.2906643019616
 20
154.8686577669603
  0
VERTEX
  8
1
  6
CONTINUOUS
 62
     7
 10
-190.2998811926023
 20
154.8463472480814
  0
VERTEX
  8
1
  6
CONTINUOUS
 62
     7
 10
-190.3080193576809
 20
154.823637658967
  0
VERTEX
  8
1
  6
CONTINUOUS
 62
     7
 10
-190.3150472975329
 20
154.8006058341349
  0
VERTEX
  8
1
  6
CONTINUOUS
 62
     7
 10
-190.320933512494
 20
154.777328608103
  0
VERTEX
  8
1
  6
CONTINUOUS
 62
     7
 10
-190.3253779409886
 20
154.755482078088
  0
VERTEX
  8
1
  6
CONTINUOUS
 62
     7
 10
-190.3288474524477
 20
154.7334267862332
  0
VERTEX
  8
1
  6
CONTINUOUS
 62
     7
 10
-190.3313347317433
 20
154.7112285652422
  0
VERTEX
  8
1
  6
CONTINUOUS
 62
     7
 10
-190.3328324637479
 20
154.6889532478189
  0
VERTEX
  8
1
  6
CONTINUOUS
 62
     7
 10
-190.3333333333333
 20
154.6666666666667
  0
SEQEND
  8
1
  6
CONTINUOUS
 62
     7
  0
LINE
  8
1
  6
CONTINUOUS
 62
     7
 10
-187.3333333333333
 20
155.1666666666667
 11
-189.8333333333333
 21
155.1666666666667
  0
LINE
  8
1
  6
CONTINUOUS
 62
     7
 10
-279.3333333333333
 20
258.1666666666667
 11
-279.3333333333333
 21
253.1666666666667
  0
LINE
  8
1
  6
CONTINUOUS
 62
     7
 10
-279.3333333333333
 20
258.1666666666667
 11
-276.3333333333333
 21
258.1666666666667
  0
LINE
  8
1
  6
CONTINUOUS
 62
     7
 10
-276.3333333333333
 20
258.1666666666666
 11
-276.3333333333333
 21
253.6666666666667
  0
POLYLINE
  8
1
  6
CONTINUOUS
 62
     7
 66
     1
  0
VERTEX
  8
1
  6
CONTINUOUS
 62
     7
 10
-276.8333333333333
 20
253.1666666666667
  0
VERTEX
  8
1
  6
CONTINUOUS
 62
     7
 10
-276.809350019996
 20
253.1672542625212
  0
VERTEX
  8
1
  6
CONTINUOUS
 62
     7
 10
-276.7853544444994
 20
253.169007674559
  0
VERTEX
  8
1
  6
CONTINUOUS
 62
     7
 10
-276.7614287012444
 20
253.1719128394916
  0
VERTEX
  8
1
  6
CONTINUOUS
 62
     7
 10
-276.7376548846319
 20
253.1759556940304
  0
VERTEX
  8
1
  6
CONTINUOUS
 62
     7
 10
-276.7141150890628
 20
253.181122174887
  0
VERTEX
  8
1
  6
CONTINUOUS
 62
     7
 10
-276.690891408938
 20
253.1873982187728
  0
VERTEX
  8
1
  6
CONTINUOUS
 62
     7
 10
-276.6680659386582
 20
253.1947697623992
  0
VERTEX
  8
1
  6
CONTINUOUS
 62
     7
 10
-276.6456308633794
 20
253.2032491555259
  0
VERTEX
  8
1
  6
CONTINUOUS
 62
     7
 10
-276.6235706833602
 20
253.2128316336153
  0
VERTEX
  8
1
  6
CONTINUOUS
 62
     7
 10
-276.6019579538298
 20
253.2234767656358
  0
VERTEX
  8
1
  6
CONTINUOUS
 62
     7
 10
-276.5808652300174
 20
253.2351441205559
  0
VERTEX
  8
1
  6
CONTINUOUS
 62
     7
 10
-276.5603650671522
 20
253.2477932673439
  0
VERTEX
  8
1
  6
CONTINUOUS
 62
     7
 10
-276.5405300204635
 20
253.2613837749684
  0
VERTEX
  8
1
  6
CONTINUOUS
 62
     7
 10
-276.5214326451804
 20
253.2758752123976
  0
VERTEX
  8
1
  6
CONTINUOUS
 62
     7
 10
-276.5030537438683
 20
253.2912955887074
  0
VERTEX
  8
1
  6
CONTINUOUS
 62
     7
 10
-276.485394145863
 20
253.3076331621063
  0
VERTEX
  8
1
  6
CONTINUOUS
 62
     7
 10
-276.4685088422477
 20
253.324825869477
  0
VERTEX
  8
1
  6
CONTINUOUS
 62
     7
 10
-276.4524528241059
 20
253.342811647702
  0
VERTEX
  8
1
  6
CONTINUOUS
 62
     7
 10
-276.4372810825211
 20
253.3615284336638
  0
VERTEX
  8
1
  6
CONTINUOUS
 62
     7
 10
-276.4230486085765
 20
253.3809141642451
  0
VERTEX
  8
1
  6
CONTINUOUS
 62
     7
 10
-276.4098103933556
 20
253.4009067763284
  0
VERTEX
  8
1
  6
CONTINUOUS
 62
     7
 10
-276.3975463240151
 20
253.4215590773934
  0
VERTEX
  8
1
  6
CONTINUOUS
 62
     7
 10
-276.3862664812435
 20
253.4428409522476
  0
VERTEX
  8
1
  6
CONTINUOUS
 62
     7
 10
-276.3760023647051
 20
253.4646755663731
  0
VERTEX
  8
1
  6
CONTINUOUS
 62
     7
 10
-276.3667854740644
 20
253.4869860852519
  0
VERTEX
  8
1
  6
CONTINUOUS
 62
     7
 10
-276.3586473089858
 20
253.5096956743664
  0
VERTEX
  8
1
  6
CONTINUOUS
 62
     7
 10
-276.3516193691337
 20
253.5327274991985
  0
VERTEX
  8
1
  6
CONTINUOUS
 62
     7
 10
-276.3457331541726
 20
253.5560047252303
  0
VERTEX
  8
1
  6
CONTINUOUS
 62
     7
 10
-276.3412887256781
 20
253.5778512552454
  0
VERTEX
  8
1
  6
CONTINUOUS
 62
     7
 10
-276.337819214219
 20
253.5999065471002
  0
VERTEX
  8
1
  6
CONTINUOUS
 62
     7
 10
-276.3353319349233
 20
253.6221047680911
  0
VERTEX
  8
1
  6
CONTINUOUS
 62
     7
 10
-276.3338342029188
 20
253.6443800855145
  0
VERTEX
  8
1
  6
CONTINUOUS
 62
     7
 10
-276.3333333333333
 20
253.6666666666667
  0
SEQEND
  8
1
  6
CONTINUOUS
 62
     7
  0
LINE
  8
1
  6
CONTINUOUS
 62
     7
 10
-279.3333333333333
 20
253.1666666666667
 11
-276.8333333333333
 21
253.1666666666667
  0
LINE
  8
1
  6
CONTINUOUS
 62
     7
 10
-189.8333333333333
 20
253.1666666666667
 11
-187.3333333333333
 21
253.1666666666667
  0
POLYLINE
  8
1
  6
CONTINUOUS
 62
     7
 66
     1
  0
VERTEX
  8
1
  6
CONTINUOUS
 62
     7
 10
-190.3333333333333
 20
253.6666666666667
  0
VERTEX
  8
1
  6
CONTINUOUS
 62
     7
 10
-190.3327424949365
 20
253.6426153800876
  0
VERTEX
  8
1
  6
CONTINUOUS
 62
     7
 10
-190.3309792601717
 20
253.6185516726006
  0
VERTEX
  8
1
  6
CONTINUOUS
 62
     7
 10
-190.3280575496773
 20
253.5945578179197
  0
VERTEX
  8
1
  6
CONTINUOUS
 62
     7
 10
-190.323991284092
 20
253.5707160897591
  0
VERTEX
  8
1
  6
CONTINUOUS
 62
     7
 10
-190.3187943840542
 20
253.5471087618327
  0
VERTEX
  8
1
  6
CONTINUOUS
 62
     7
 10
-190.3124807702024
 20
253.5238181078549
  0
VERTEX
  8
1
  6
CONTINUOUS
 62
     7
 10
-190.3050643631751
 20
253.5009264015394
  0
VERTEX
  8
1
  6
CONTINUOUS
 62
     7
 10
-190.2965317189509
 20
253.4784243521021
  0
VERTEX
  8
1
  6
CONTINUOUS
 62
     7
 10
-190.286887533022
 20
253.4562980878511
  0
VERTEX
  8
1
  6
CONTINUOUS
 62
     7
 10
-190.2761721952744
 20
253.4346209048827
  0
VERTEX
  8
1
  6
CONTINUOUS
 62
     7
 10
-190.264426095594
 20
253.4134660992931
  0
VERTEX
  8
1
  6
CONTINUOUS
 62
     7
 10
-190.251689623867
 20
253.3929069671786
  0
VERTEX
  8
1
  6
CONTINUOUS
 62
     7
 10
-190.2380031699794
 20
253.3730168046352
  0
VERTEX
  8
1
  6
CONTINUOUS
 62
     7
 10
-190.2234071238172
 20
253.3538689077591
  0
VERTEX
  8
1
  6
CONTINUOUS
 62
     7
 10
-190.2079003140372
 20
253.3354757184132
  0
VERTEX
  8
1
  6
CONTINUOUS
 62
     7
 10
-190.1914694906824
 20
253.3178046371532
  0
VERTEX
  8
1
  6
CONTINUOUS
 62
     7
 10
-190.1741771352101
 20
253.3009115412785
  0
VERTEX
  8
1
  6
CONTINUOUS
 62
     7
 10
-190.1560857290777
 20
253.2848523080882
  0
VERTEX
  8
1
  6
CONTINUOUS
 62
     7
 10
-190.1372577537429
 20
253.2696828148817
  0
VERTEX
  8
1
  6
CONTINUOUS
 62
     7
 10
-190.1177556906628
 20
253.2554589389582
  0
VERTEX
  8
1
  6
CONTINUOUS
 62
     7
 10
-190.0976420212952
 20
253.242236557617
  0
VERTEX
  8
1
  6
CONTINUOUS
 62
     7
 10
-190.0769394629769
 20
253.2300387590101
  0
VERTEX
  8
1
  6
CONTINUOUS
 62
     7
 10
-190.0556062714723
 20
253.2188263068548
  0
VERTEX
  8
1
  6
CONTINUOUS
 62
     7
 10
-190.0337198238587
 20
253.2086310818558
  0
VERTEX
  8
1
  6
CONTINUOUS
 62
     7
 10
-190.0113574972136
 20
253.1994849647176
  0
VERTEX
  8
1
  6
CONTINUOUS
 62
     7
 10
-189.9885966686144
 20
253.1914198361449
  0
VERTEX
  8
1
  6
CONTINUOUS
 62
     7
 10
-189.9655147151386
 20
253.1844675768423
  0
VERTEX
  8
1
  6
CONTINUOUS
 62
     7
 10
-189.9421890138637
 20
253.1786600675143
  0
VERTEX
  8
1
  6
CONTINUOUS
 62
     7
 10
-189.9206918842627
 20
253.17436111555
  0
VERTEX
  8
1
  6
CONTINUOUS
 62
     7
 10
-189.8989946708669
 20
253.1710052973553
  0
VERTEX
  8
1
  6
CONTINUOUS
 62
     7
 10
-189.8771604542187
 20
253.1685996150579
  0
VERTEX
  8
1
  6
CONTINUOUS
 62
     7
 10
-189.85525231486
 20
253.1671510707858
  0
VERTEX
  8
1
  6
CONTINUOUS
 62
     7
 10
-189.8333333333333
 20
253.1666666666667
  0
SEQEND
  8
1
  6
CONTINUOUS
 62
     7
  0
LINE
  8
1
  6
CONTINUOUS
 62
     7
 10
-190.3333333333333
 20
253.6666666666667
 11
-190.3333333333333
 21
258.1666666666666
  0
LINE
  8
1
  6
CONTINUOUS
 62
     7
 10
-187.3333333333333
 20
253.1666666666667
 11
-187.3333333333333
 21
258.1666666666666
  0
LINE
  8
1
  6
CONTINUOUS
 62
     7
 10
-190.3333333333333
 20
258.1666666666667
 11
-187.3333333333333
 21
258.1666666666667
  0
LINE
  8
1
  6
CONTINUOUS
 62
     7
 10
-279.3333333333333
 20
155.1666666666667
 11
-279.3333333333333
 21
150.1666666666667
  0
LINE
  8
1
  6
CONTINUOUS
 62
     7
 10
-276.8333333333333
 20
155.1666666666667
 11
-279.3333333333333
 21
155.1666666666667
  0
POLYLINE
  8
1
  6
CONTINUOUS
 62
     7
 66
     1
  0
VERTEX
  8
1
  6
CONTINUOUS
 62
     7
 10
-276.3333333333333
 20
154.6666666666667
  0
VERTEX
  8
1
  6
CONTINUOUS
 62
     7
 10
-276.3339241717302
 20
154.6907179532457
  0
VERTEX
  8
1
  6
CONTINUOUS
 62
     7
 10
-276.335687406495
 20
154.7147816607328
  0
VERTEX
  8
1
  6
CONTINUOUS
 62
     7
 10
-276.3386091169893
 20
154.7387755154136
  0
VERTEX
  8
1
  6
CONTINUOUS
 62
     7
 10
-276.3426753825747
 20
154.7626172435743
  0
VERTEX
  8
1
  6
CONTINUOUS
 62
     7
 10
-276.3478722826125
 20
154.7862245715006
  0
VERTEX
  8
1
  6
CONTINUOUS
 62
     7
 10
-276.3541858964643
 20
154.8095152254785
  0
VERTEX
  8
1
  6
CONTINUOUS
 62
     7
 10
-276.3616023034916
 20
154.8324069317939
  0
VERTEX
  8
1
  6
CONTINUOUS
 62
     7
 10
-276.3701349477158
 20
154.8549089812313
  0
VERTEX
  8
1
  6
CONTINUOUS
 62
     7
 10
-276.3797791336447
 20
154.8770352454823
  0
VERTEX
  8
1
  6
CONTINUOUS
 62
     7
 10
-276.3904944713923
 20
154.8987124284507
  0
VERTEX
  8
1
  6
CONTINUOUS
 62
     7
 10
-276.4022405710726
 20
154.9198672340402
  0
VERTEX
  8
1
  6
CONTINUOUS
 62
     7
 10
-276.4149770427996
 20
154.9404263661548
  0
VERTEX
  8
1
  6
CONTINUOUS
 62
     7
 10
-276.4286634966872
 20
154.9603165286982
  0
VERTEX
  8
1
  6
CONTINUOUS
 62
     7
 10
-276.4432595428495
 20
154.9794644255742
  0
VERTEX
  8
1
  6
CONTINUOUS
 62
     7
 10
-276.4587663526294
 20
154.9978576149201
  0
VERTEX
  8
1
  6
CONTINUOUS
 62
     7
 10
-276.4751971759843
 20
155.0155286961801
  0
VERTEX
  8
1
  6
CONTINUOUS
 62
     7
 10
-276.4924895314566
 20
155.0324217920549
  0
VERTEX
  8
1
  6
CONTINUOUS
 62
     7
 10
-276.5105809375889
 20
155.0484810252452
  0
VERTEX
  8
1
  6
CONTINUOUS
 62
     7
 10
-276.5294089129238
 20
155.0636505184517
  0
VERTEX
  8
1
  6
CONTINUOUS
 62
     7
 10
-276.5489109760039
 20
155.0778743943752
  0
VERTEX
  8
1
  6
CONTINUOUS
 62
     7
 10
-276.5690246453715
 20
155.0910967757163
  0
VERTEX
  8
1
  6
CONTINUOUS
 62
     7
 10
-276.5897272036897
 20
155.1032945743233
  0
VERTEX
  8
1
  6
CONTINUOUS
 62
     7
 10
-276.6110603951943
 20
155.1145070264785
  0
VERTEX
  8
1
  6
CONTINUOUS
 62
     7
 10
-276.632946842808
 20
155.1247022514776
  0
VERTEX
  8
1
  6
CONTINUOUS
 62
     7
 10
-276.6553091694531
 20
155.1338483686157
  0
VERTEX
  8
1
  6
CONTINUOUS
 62
     7
 10
-276.6780699980523
 20
155.1419134971885
  0
VERTEX
  8
1
  6
CONTINUOUS
 62
     7
 10
-276.7011519515281
 20
155.1488657564911
  0
VERTEX
  8
1
  6
CONTINUOUS
 62
     7
 10
-276.7244776528029
 20
155.154673265819
  0
VERTEX
  8
1
  6
CONTINUOUS
 62
     7
 10
-276.7459747824039
 20
155.1589722177833
  0
VERTEX
  8
1
  6
CONTINUOUS
 62
     7
 10
-276.7676719957997
 20
155.1623280359781
  0
VERTEX
  8
1
  6
CONTINUOUS
 62
     7
 10
-276.789506212448
 20
155.1647337182754
  0
VERTEX
  8
1
  6
CONTINUOUS
 62
     7
 10
-276.8114143518067
 20
155.1661822625476
  0
VERTEX
  8
1
  6
CONTINUOUS
 62
     7
 10
-276.8333333333333
 20
155.1666666666667
  0
SEQEND
  8
1
  6
CONTINUOUS
 62
     7
  0
LINE
  8
1
  6
CONTINUOUS
 62
     7
 10
-276.3333333333333
 20
154.6666666666667
 11
-276.3333333333333
 21
150.1666666666667
  0
LINE
  8
1
  6
CONTINUOUS
 62
     7
 10
-276.3333333333333
 20
150.1666666666667
 11
-279.3333333333333
 21
150.1666666666667
  0
ARC
  8
1
  6
CONTINUOUS
 62
     7
 10
-275.8333333333333
 20
150.6666666666667
 40
0.5000000000000004
 50
180.0
 51
270.0
  0
ARC
  8
1
  6
CONTINUOUS
 62
     7
 10
-280.8333333333333
 20
154.6666666666667
 40
0.5000000000000004
 50
90.0
 51
180.0
  0
LINE
  8
1
  6
CONTINUOUS
 62
     7
 10
-280.8333333333333
 20
155.1666666666667
 11
-279.3333333333333
 21
155.1666666666667
  0
LINE
  8
1
  6
CONTINUOUS
 62
     7
 10
-275.8333333333333
 20
150.1666666666667
 11
-269.3333333333333
 21
150.1666666666667
  0
LINE
  8
1
  6
CONTINUOUS
 62
     7
 10
-281.3333333333333
 20
148.1666666666667
 11
-281.3333333333333
 21
154.6666666666667
  0
ARC
  8
1
  6
CONTINUOUS
 62
     7
 10
-190.8333333333333
 20
257.6666666666667
 40
0.5000000000000004
 50
0.0
 51
90.0
  0
ARC
  8
1
  6
CONTINUOUS
 62
     7
 10
-185.8333333333333
 20
253.6666666666667
 40
0.5000000000000004
 50
270.0
 51
0.0
  0
LINE
  8
1
  6
CONTINUOUS
 62
     7
 10
-185.8333333333333
 20
253.1666666666667
 11
-187.3333333333333
 21
253.1666666666667
  0
LINE
  8
1
  6
CONTINUOUS
 62
     7
 10
-190.8333333333333
 20
258.1666666666666
 11
-197.3333333333333
 21
258.1666666666666
  0
LINE
  8
1
  6
CONTINUOUS
 62
     7
 10
-185.3333333333333
 20
260.1666666666667
 11
-185.3333333333333
 21
253.6666666666667
  0
ARC
  8
1
  6
CONTINUOUS
 62
     7
 10
-275.8333333333333
 20
257.6666666666667
 40
0.5000000000000004
 50
90.0
 51
180.0
  0
ARC
  8
1
  6
CONTINUOUS
 62
     7
 10
-280.8333333333333
 20
253.6666666666667
 40
0.5000000000000004
 50
180.0
 51
270.0
  0
LINE
  8
1
  6
CONTINUOUS
 62
     7
 10
-280.8333333333333
 20
253.1666666666667
 11
-279.3333333333333
 21
253.1666666666667
  0
LINE
  8
1
  6
CONTINUOUS
 62
     7
 10
-275.8333333333333
 20
258.1666666666666
 11
-269.3333333333333
 21
258.1666666666666
  0
LINE
  8
1
  6
CONTINUOUS
 62
     7
 10
-281.3333333333333
 20
260.1666666666667
 11
-281.3333333333333
 21
253.6666666666667
  0
ARC
  8
1
  6
CONTINUOUS
 62
     7
 10
-185.8333333333333
 20
154.6666666666667
 40
0.5000000000000004
 50
0.0
 51
90.0
  0
ARC
  8
1
  6
CONTINUOUS
 62
     7
 10
-190.8333333333333
 20
150.6666666666667
 40
0.5000000000000004
 50
270.0
 51
0.0
  0
LINE
  8
1
  6
CONTINUOUS
 62
     7
 10
-185.8333333333333
 20
155.1666666666667
 11
-187.3333333333333
 21
155.1666666666667
  0
LINE
  8
1
  6
CONTINUOUS
 62
     7
 10
-190.8333333333333
 20
150.1666666666667
 11
-197.3333333333333
 21
150.1666666666667
  0
LINE
  8
1
  6
CONTINUOUS
 62
     7
 10
-185.3333333333333
 20
148.1666666666667
 11
-185.3333333333333
 21
154.6666666666667
  0
POLYLINE
  8
1
  6
CONTINUOUS
 62
     7
 66
     1
  0
VERTEX
  8
1
  6
CONTINUOUS
 62
     7
 10
-278.5836760083577
 20
241.1666666666667
  0
VERTEX
  8
1
  6
CONTINUOUS
 62
     7
 10
-278.7787359626809
 20
241.1474620728204
  0
VERTEX
  8
1
  6
CONTINUOUS
 62
     7
 10
-278.9662800707323
 20
241.0905856713626
  0
VERTEX
  8
1
  6
CONTINUOUS
 62
     7
 10
-279.1391073840962
 20
240.9982212900725
  0
VERTEX
  8
1
  6
CONTINUOUS
 62
     7
 10
-279.2905820207858
 20
240.8739153541192
  0
VERTEX
  8
1
  6
CONTINUOUS
 62
     7
 10
-279.4148879567391
 20
240.7224407174296
  0
VERTEX
  8
1
  6
CONTINUOUS
 62
     7
 10
-279.5072523380292
 20
240.5496134040657
  0
VERTEX
  8
1
  6
CONTINUOUS
 62
     7
 10
-279.564128739487
 20
240.3620692960143
  0
VERTEX
  8
1
  6
CONTINUOUS
 62
     7
 10
-279.5833333333333
 20
240.1670093416912
  0
SEQEND
  8
1
  6
CONTINUOUS
 62
     7
  0
POLYLINE
  8
1
  6
CONTINUOUS
 62
     7
 66
     1
  0
VERTEX
  8
1
  6
CONTINUOUS
 62
     7
 10
-188.0829906583089
 20
167.1666666666667
  0
VERTEX
  8
1
  6
CONTINUOUS
 62
     7
 10
-187.8879307039858
 20
167.185871260513
  0
VERTEX
  8
1
  6
CONTINUOUS
 62
     7
 10
-187.7003865959344
 20
167.2427476619708
  0
VERTEX
  8
1
  6
CONTINUOUS
 62
     7
 10
-187.5275592825704
 20
167.3351120432609
  0
VERTEX
  8
1
  6
CONTINUOUS
 62
     7
 10
-187.3760846458809
 20
167.4594179792142
  0
VERTEX
  8
1
  6
CONTINUOUS
 62
     7
 10
-187.2517787099276
 20
167.6108926159038
  0
VERTEX
  8
1
  6
CONTINUOUS
 62
     7
 10
-187.1594143286375
 20
167.7837199292677
  0
VERTEX
  8
1
  6
CONTINUOUS
 62
     7
 10
-187.1025379271797
 20
167.9712640373191
  0
VERTEX
  8
1
  6
CONTINUOUS
 62
     7
 10
-187.0833333333333
 20
168.1663239916422
  0
SEQEND
  8
1
  6
CONTINUOUS
 62
     7
  0
POLYLINE
  8
1
  6
CONTINUOUS
 62
     7
 66
     1
  0
VERTEX
  8
1
  6
CONTINUOUS
 62
     7
 10
-187.0833333333333
 20
240.1670093416911
  0
VERTEX
  8
1
  6
CONTINUOUS
 62
     7
 10
-187.1025379271797
 20
240.3620692960143
  0
VERTEX
  8
1
  6
CONTINUOUS
 62
     7
 10
-187.1594143286375
 20
240.5496134040657
  0
VERTEX
  8
1
  6
CONTINUOUS
 62
     7
 10
-187.2517787099276
 20
240.7224407174296
  0
VERTEX
  8
1
  6
CONTINUOUS
 62
     7
 10
-187.3760846458809
 20
240.8739153541192
  0
VERTEX
  8
1
  6
CONTINUOUS
 62
     7
 10
-187.5275592825704
 20
240.9982212900724
  0
VERTEX
  8
1
  6
CONTINUOUS
 62
     7
 10
-187.7003865959344
 20
241.0905856713625
  0
VERTEX
  8
1
  6
CONTINUOUS
 62
     7
 10
-187.8879307039858
 20
241.1474620728203
  0
VERTEX
  8
1
  6
CONTINUOUS
 62
     7
 10
-188.0829906583089
 20
241.1666666666667
  0
SEQEND
  8
1
  6
CONTINUOUS
 62
     7
  0
POLYLINE
  8
1
  6
CONTINUOUS
 62
     7
 66
     1
  0
VERTEX
  8
1
  6
CONTINUOUS
 62
     7
 10
-279.5833333333333
 20
168.1663239916422
  0
VERTEX
  8
1
  6
CONTINUOUS
 62
     7
 10
-279.564128739487
 20
167.9712640373191
  0
VERTEX
  8
1
  6
CONTINUOUS
 62
     7
 10
-279.5072523380292
 20
167.7837199292677
  0
VERTEX
  8
1
  6
CONTINUOUS
 62
     7
 10
-279.4148879567391
 20
167.6108926159038
  0
VERTEX
  8
1
  6
CONTINUOUS
 62
     7
 10
-279.2905820207858
 20
167.4594179792142
  0
VERTEX
  8
1
  6
CONTINUOUS
 62
     7
 10
-279.1391073840962
 20
167.3351120432609
  0
VERTEX
  8
1
  6
CONTINUOUS
 62
     7
 10
-278.9662800707323
 20
167.2427476619708
  0
VERTEX
  8
1
  6
CONTINUOUS
 62
     7
 10
-278.7787359626809
 20
167.185871260513
  0
VERTEX
  8
1
  6
CONTINUOUS
 62
     7
 10
-278.5836760083577
 20
167.1666666666667
  0
SEQEND
  8
1
  6
CONTINUOUS
 62
     7
  0
LINE
  8
1
  6
CONTINUOUS
 62
     7
 10
-188.0829906583089
 20
241.1666666666667
 11
-278.5836760083578
 21
241.1666666666667
  0
LINE
  8
1
  6
CONTINUOUS
 62
     7
 10
-278.5836760083578
 20
167.1666666666667
 11
-188.0829906583089
 21
167.1666666666667
  0
LINE
  8
1
  6
CONTINUOUS
 62
     7
 10
-187.0833333333333
 20
168.1663239916422
 11
-187.0833333333333
 21
168.4752324598212
  0
LINE
  8
1
  6
CONTINUOUS
 62
     7
 10
-187.0833333333333
 20
171.9097514797062
 11
-187.0833333333333
 21
168.4752324598212
  0
LINE
  8
1
  6
CONTINUOUS
 62
     9
 10
-187.0833333333333
 20
171.9097514797062
 11
-187.0833333333333
 21
236.4235818536271
  0
LINE
  8
1
  6
CONTINUOUS
 62
     7
 10
-187.0833333333333
 20
239.8581008735122
 11
-187.0833333333333
 21
236.4235818536271
  0
LINE
  8
1
  6
CONTINUOUS
 62
     7
 10
-187.0833333333333
 20
239.8581008735122
 11
-187.0833333333333
 21
240.1670093416912
  0
LINE
  8
1
  6
CONTINUOUS
 62
     7
 10
-279.5833333333334
 20
239.8581008735122
 11
-279.5833333333334
 21
240.1670093416912
  0
LINE
  8
1
  6
CONTINUOUS
 62
     7
 10
-279.5833333333334
 20
236.4235818536272
 11
-279.5833333333334
 21
239.8581008735122
  0
LINE
  8
1
  6
CONTINUOUS
 62
     9
 10
-279.5833333333334
 20
171.9097514797062
 11
-279.5833333333334
 21
236.4235818536272
  0
LINE
  8
1
  6
CONTINUOUS
 62
     7
 10
-279.5833333333334
 20
168.4752324598212
 11
-279.5833333333334
 21
171.9097514797062
  0
LINE
  8
1
  6
CONTINUOUS
 62
     7
 10
-279.5833333333334
 20
168.4752324598212
 11
-279.5833333333334
 21
168.1663239916422
  0
CIRCLE
  8
1
  6
CONTINUOUS
 62
     7
 10
-210.3333333333333
 20
245.9166666666667
 40
1.000000000000001
  0
CIRCLE
  8
1
  6
CONTINUOUS
 62
     7
 10
-256.3333333333334
 20
245.9166666666667
 40
1.000000000000001
  0
CIRCLE
  8
1
  6
CONTINUOUS
 62
     7
 10
-210.3333333333333
 20
162.4166666666667
 40
1.000000000000001
  0
CIRCLE
  8
1
  6
CONTINUOUS
 62
     7
 10
-256.3333333333334
 20
162.4166666666667
 40
1.000000000000001
  0
LINE
  8
1
  6
CONTINUOUS
 62
     7
 10
-187.0833333333333
 20
236.4235818536271
 11
-187.1088337873872
 21
238.1415088876373
  0
LINE
  8
1
  6
CONTINUOUS
 62
     7
 10
-187.1088337873872
 20
170.1918244456961
 11
-187.0833333333333
 21
171.9097514797063
  0
LINE
  8
1
  6
CONTINUOUS
 62
     7
 10
-279.5833333333334
 20
171.9097514797062
 11
-279.5578328792795
 21
170.1918244456961
  0
LINE
  8
1
  6
CONTINUOUS
 62
     7
 10
-279.5578328792795
 20
238.1415088876373
 11
-279.5833333333334
 21
236.4235818536271
  0
LINE
  8
1
  6
CONTINUOUS
 62
     9
 10
-207.0833333333333
 20
184.1666666666667
 11
-207.0833333333333
 21
184.1404807450975
  0
ARC
  8
1
  6
CONTINUOUS
 62
     7
 10
-207.0833333333333
 20
181.1666666666667
 40
2.999999999999999
 50
0.0
 51
90.0
  0
LINE
  8
1
  6
CONTINUOUS
 62
     9
 10
-204.0833333333333
 20
181.1666666666667
 11
-204.1095192549025
 21
181.1666666666667
  0
ARC
  8
1
  6
CONTINUOUS
 62
     7
 10
-207.0833333333333
 20
181.1666666666667
 40
2.973814078430812
 50
0.0
 51
90.0
  0
LINE
  8
1
  6
CONTINUOUS
 62
     9
 10
-213.5833333333333
 20
184.1666666666667
 11
-213.5833333333333
 21
184.1404807450975
  0
LINE
  8
1
  6
CONTINUOUS
 62
     7
 10
-213.5833333333333
 20
184.1666666666667
 11
-207.0833333333333
 21
184.1666666666667
  0
LINE
  8
1
  6
CONTINUOUS
 62
     7
 10
-213.5833333333333
 20
184.1404807450975
 11
-207.0833333333333
 21
184.1404807450975
  0
LINE
  8
1
  6
CONTINUOUS
 62
     9
 10
-207.0833333333333
 20
195.6666666666667
 11
-207.0833333333333
 21
195.6404807450975
  0
ARC
  8
1
  6
CONTINUOUS
 62
     7
 10
-207.0833333333333
 20
192.6666666666667
 40
2.999999999999999
 50
0.0
 51
90.0
  0
LINE
  8
1
  6
CONTINUOUS
 62
     9
 10
-204.0833333333333
 20
192.6666666666667
 11
-204.1095192549025
 21
192.6666666666667
  0
ARC
  8
1
  6
CONTINUOUS
 62
     7
 10
-207.0833333333333
 20
192.6666666666667
 40
2.973814078430812
 50
0.0
 51
90.0
  0
LINE
  8
1
  6
CONTINUOUS
 62
     9
 10
-216.5833333333333
 20
181.1666666666667
 11
-216.5571474117642
 21
181.1666666666667
  0
ARC
  8
1
  6
CONTINUOUS
 62
     7
 10
-213.5833333333333
 20
181.1666666666667
 40
2.999999999999999
 50
90.0000000000003
 51
180.0
  0
ARC
  8
1
  6
CONTINUOUS
 62
     7
 10
-213.5833333333333
 20
181.1666666666667
 40
2.973814078430812
 50
90.0000000000003
 51
180.0
  0
LINE
  8
1
  6
CONTINUOUS
 62
     9
 10
-262.5833333333333
 20
227.1666666666667
 11
-262.5571474117642
 21
227.1666666666667
  0
ARC
  8
1
  6
CONTINUOUS
 62
     7
 10
-259.5833333333333
 20
227.1666666666667
 40
2.999999999999999
 50
90.0
 51
180.0
  0
LINE
  8
1
  6
CONTINUOUS
 62
     9
 10
-259.5833333333333
 20
230.1666666666667
 11
-259.5833333333333
 21
230.1404807450975
  0
ARC
  8
1
  6
CONTINUOUS
 62
     7
 10
-259.5833333333333
 20
227.1666666666667
 40
2.973814078430812
 50
90.0
 51
180.0
  0
ARC
  8
1
  6
CONTINUOUS
 62
     7
 10
-207.0833333333333
 20
192.6666666666667
 40
2.999999999999999
 50
269.9999999999999
 51
0.0
  0
LINE
  8
1
  6
CONTINUOUS
 62
     9
 10
-207.0833333333333
 20
189.6666666666667
 11
-207.0833333333333
 21
189.6928525882359
  0
ARC
  8
1
  6
CONTINUOUS
 62
     7
 10
-207.0833333333333
 20
192.6666666666667
 40
2.973814078430812
 50
269.9999999999999
 51
0.0
  0
LINE
  8
1
  6
CONTINUOUS
 62
     7
 10
-207.0833333333333
 20
189.6666666666667
 11
-213.5833333333333
 21
189.6666666666667
  0
LINE
  8
1
  6
CONTINUOUS
 62
     9
 10
-213.5833333333333
 20
189.6666666666667
 11
-213.5833333333333
 21
189.6928525882359
  0
LINE
  8
1
  6
CONTINUOUS
 62
     7
 10
-207.0833333333333
 20
189.6928525882359
 11
-213.5833333333333
 21
189.6928525882359
  0
ARC
  8
1
  6
CONTINUOUS
 62
     7
 10
-213.5833333333333
 20
192.6666666666667
 40
2.999999999999999
 50
180.0
 51
270.0
  0
LINE
  8
1
  6
CONTINUOUS
 62
     9
 10
-216.5833333333333
 20
192.6666666666667
 11
-216.5571474117642
 21
192.6666666666667
  0
ARC
  8
1
  6
CONTINUOUS
 62
     7
 10
-213.5833333333333
 20
192.6666666666667
 40
2.973814078430812
 50
180.0
 51
270.0
  0
ARC
  8
1
  6
CONTINUOUS
 62
     7
 10
-213.5833333333333
 20
192.6666666666667
 40
2.999999999999999
 50
90.0000000000003
 51
180.0
  0
LINE
  8
1
  6
CONTINUOUS
 62
     9
 10
-213.5833333333333
 20
195.6666666666667
 11
-213.5833333333333
 21
195.6404807450975
  0
ARC
  8
1
  6
CONTINUOUS
 62
     7
 10
-213.5833333333333
 20
192.6666666666667
 40
2.973814078430812
 50
90.0000000000003
 51
180.0
  0
LINE
  8
1
  6
CONTINUOUS
 62
     7
 10
-213.5833333333333
 20
195.6666666666667
 11
-207.0833333333333
 21
195.6666666666667
  0
LINE
  8
1
  6
CONTINUOUS
 62
     7
 10
-213.5833333333333
 20
195.6404807450975
 11
-207.0833333333333
 21
195.6404807450975
  0
LINE
  8
1
  6
CONTINUOUS
 62
     9
 10
-259.5833333333333
 20
218.6666666666667
 11
-259.5833333333333
 21
218.6404807450975
  0
LINE
  8
1
  6
CONTINUOUS
 62
     7
 10
-253.0833333333333
 20
218.6666666666667
 11
-259.5833333333333
 21
218.6666666666667
  0
LINE
  8
1
  6
CONTINUOUS
 62
     9
 10
-253.0833333333333
 20
218.6666666666667
 11
-253.0833333333333
 21
218.6404807450975
  0
LINE
  8
1
  6
CONTINUOUS
 62
     7
 10
-253.0833333333333
 20
218.6404807450975
 11
-259.5833333333333
 21
218.6404807450975
  0
LINE
  8
1
  6
CONTINUOUS
 62
     9
 10
-253.0833333333333
 20
178.1666666666667
 11
-253.0833333333333
 21
178.1928525882359
  0
LINE
  8
1
  6
CONTINUOUS
 62
     7
 10
-259.5833333333333
 20
178.1666666666667
 11
-253.0833333333333
 21
178.1666666666667
  0
LINE
  8
1
  6
CONTINUOUS
 62
     9
 10
-259.5833333333333
 20
178.1666666666667
 11
-259.5833333333333
 21
178.1928525882359
  0
LINE
  8
1
  6
CONTINUOUS
 62
     7
 10
-259.5833333333333
 20
178.1928525882359
 11
-253.0833333333333
 21
178.1928525882359
  0
ARC
  8
1
  6
CONTINUOUS
 62
     7
 10
-207.0833333333333
 20
181.1666666666667
 40
2.999999999999999
 50
269.9999999999999
 51
0.0
  0
LINE
  8
1
  6
CONTINUOUS
 62
     9
 10
-207.0833333333333
 20
178.1666666666667
 11
-207.0833333333333
 21
178.1928525882359
  0
ARC
  8
1
  6
CONTINUOUS
 62
     7
 10
-207.0833333333333
 20
181.1666666666667
 40
2.973814078430812
 50
269.9999999999999
 51
0.0
  0
LINE
  8
1
  6
CONTINUOUS
 62
     7
 10
-207.0833333333333
 20
178.1666666666667
 11
-213.5833333333333
 21
178.1666666666667
  0
LINE
  8
1
  6
CONTINUOUS
 62
     9
 10
-213.5833333333333
 20
178.1666666666667
 11
-213.5833333333333
 21
178.1928525882359
  0
LINE
  8
1
  6
CONTINUOUS
 62
     7
 10
-207.0833333333333
 20
178.1928525882359
 11
-213.5833333333333
 21
178.1928525882359
  0
ARC
  8
1
  6
CONTINUOUS
 62
     7
 10
-213.5833333333333
 20
181.1666666666667
 40
2.999999999999999
 50
180.0
 51
270.0
  0
ARC
  8
1
  6
CONTINUOUS
 62
     7
 10
-213.5833333333333
 20
181.1666666666667
 40
2.973814078430812
 50
180.0
 51
270.0
  0
LINE
  8
1
  6
CONTINUOUS
 62
     9
 10
-250.0833333333333
 20
204.1666666666667
 11
-250.1095192549025
 21
204.1666666666667
  0
ARC
  8
1
  6
CONTINUOUS
 62
     7
 10
-253.0833333333333
 20
204.1666666666667
 40
2.999999999999999
 50
270.0
 51
0.0
  0
LINE
  8
1
  6
CONTINUOUS
 62
     9
 10
-253.0833333333333
 20
201.1666666666667
 11
-253.0833333333333
 21
201.1928525882359
  0
ARC
  8
1
  6
CONTINUOUS
 62
     7
 10
-253.0833333333333
 20
204.1666666666667
 40
2.973814078430812
 50
270.0
 51
0.0
  0
LINE
  8
1
  6
CONTINUOUS
 62
     9
 10
-253.0833333333333
 20
224.1666666666667
 11
-253.0833333333333
 21
224.1928525882359
  0
LINE
  8
1
  6
CONTINUOUS
 62
     7
 10
-259.5833333333333
 20
224.1666666666667
 11
-253.0833333333333
 21
224.1666666666667
  0
LINE
  8
1
  6
CONTINUOUS
 62
     9
 10
-259.5833333333333
 20
224.1666666666667
 11
-259.5833333333333
 21
224.1928525882359
  0
LINE
  8
1
  6
CONTINUOUS
 62
     7
 10
-259.5833333333333
 20
224.1928525882359
 11
-253.0833333333333
 21
224.1928525882359
  0
LINE
  8
1
  6
CONTINUOUS
 62
     9
 10
-204.0833333333333
 20
227.1666666666667
 11
-204.1095192549025
 21
227.1666666666667
  0
ARC
  8
1
  6
CONTINUOUS
 62
     7
 10
-207.0833333333333
 20
227.1666666666667
 40
2.999999999999999
 50
269.9999999999999
 51
0.0
  0
LINE
  8
1
  6
CONTINUOUS
 62
     9
 10
-207.0833333333333
 20
224.1666666666667
 11
-207.0833333333333
 21
224.1928525882359
  0
ARC
  8
1
  6
CONTINUOUS
 62
     7
 10
-207.0833333333333
 20
227.1666666666667
 40
2.973814078430812
 50
269.9999999999999
 51
0.0
  0
LINE
  8
1
  6
CONTINUOUS
 62
     9
 10
-253.0833333333333
 20
230.1666666666667
 11
-253.0833333333333
 21
230.1404807450975
  0
ARC
  8
1
  6
CONTINUOUS
 62
     7
 10
-253.0833333333333
 20
227.1666666666667
 40
2.999999999999999
 50
0.0
 51
89.99999999999973
  0
LINE
  8
1
  6
CONTINUOUS
 62
     9
 10
-250.0833333333333
 20
227.1666666666667
 11
-250.1095192549025
 21
227.1666666666667
  0
ARC
  8
1
  6
CONTINUOUS
 62
     7
 10
-253.0833333333333
 20
227.1666666666667
 40
2.973814078430812
 50
0.0
 51
89.99999999999973
  0
LINE
  8
1
  6
CONTINUOUS
 62
     7
 10
-253.0833333333333
 20
230.1666666666667
 11
-259.5833333333333
 21
230.1666666666667
  0
LINE
  8
1
  6
CONTINUOUS
 62
     7
 10
-253.0833333333333
 20
230.1404807450975
 11
-259.5833333333333
 21
230.1404807450975
  0
LINE
  8
1
  6
CONTINUOUS
 62
     9
 10
-259.5833333333333
 20
189.6666666666667
 11
-259.5833333333333
 21
189.6928525882359
  0
ARC
  8
1
  6
CONTINUOUS
 62
     7
 10
-259.5833333333333
 20
192.6666666666667
 40
2.999999999999999
 50
180.0
 51
270.0000000000001
  0
LINE
  8
1
  6
CONTINUOUS
 62
     9
 10
-262.5833333333333
 20
192.6666666666667
 11
-262.5571474117642
 21
192.6666666666667
  0
ARC
  8
1
  6
CONTINUOUS
 62
     7
 10
-259.5833333333333
 20
192.6666666666667
 40
2.973814078430812
 50
180.0
 51
270.0000000000001
  0
LINE
  8
1
  6
CONTINUOUS
 62
     9
 10
-213.5833333333333
 20
230.1666666666667
 11
-213.5833333333333
 21
230.1404807450975
  0
LINE
  8
1
  6
CONTINUOUS
 62
     7
 10
-213.5833333333333
 20
230.1666666666667
 11
-207.0833333333333
 21
230.1666666666667
  0
LINE
  8
1
  6
CONTINUOUS
 62
     9
 10
-207.0833333333333
 20
230.1666666666667
 11
-207.0833333333333
 21
230.1404807450975
  0
LINE
  8
1
  6
CONTINUOUS
 62
     7
 10
-213.5833333333333
 20
230.1404807450975
 11
-207.0833333333333
 21
230.1404807450975
  0
LINE
  8
1
  6
CONTINUOUS
 62
     9
 10
-250.0833333333333
 20
192.6666666666667
 11
-250.1095192549025
 21
192.6666666666667
  0
ARC
  8
1
  6
CONTINUOUS
 62
     7
 10
-253.0833333333333
 20
192.6666666666667
 40
2.999999999999999
 50
270.0
 51
0.0
  0
LINE
  8
1
  6
CONTINUOUS
 62
     9
 10
-253.0833333333333
 20
189.6666666666667
 11
-253.0833333333333
 21
189.6928525882359
  0
ARC
  8
1
  6
CONTINUOUS
 62
     7
 10
-253.0833333333333
 20
192.6666666666667
 40
2.973814078430812
 50
270.0
 51
0.0
  0
LINE
  8
1
  6
CONTINUOUS
 62
     9
 10
-253.0833333333333
 20
195.6666666666667
 11
-253.0833333333333
 21
195.6404807450975
  0
ARC
  8
1
  6
CONTINUOUS
 62
     7
 10
-253.0833333333333
 20
192.6666666666667
 40
2.999999999999999
 50
0.0
 51
89.99999999999973
  0
ARC
  8
1
  6
CONTINUOUS
 62
     7
 10
-253.0833333333333
 20
192.6666666666667
 40
2.973814078430812
 50
0.0
 51
89.99999999999973
  0
LINE
  8
1
  6
CONTINUOUS
 62
     9
 10
-259.5833333333333
 20
195.6666666666667
 11
-259.5833333333333
 21
195.6404807450975
  0
LINE
  8
1
  6
CONTINUOUS
 62
     7
 10
-253.0833333333333
 20
195.6666666666667
 11
-259.5833333333333
 21
195.6666666666667
  0
LINE
  8
1
  6
CONTINUOUS
 62
     7
 10
-253.0833333333333
 20
195.6404807450975
 11
-259.5833333333333
 21
195.6404807450975
  0
ARC
  8
1
  6
CONTINUOUS
 62
     7
 10
-259.5833333333333
 20
192.6666666666667
 40
2.999999999999999
 50
90.0
 51
180.0
  0
ARC
  8
1
  6
CONTINUOUS
 62
     7
 10
-259.5833333333333
 20
192.6666666666667
 40
2.973814078430812
 50
90.0
 51
180.0
  0
ARC
  8
1
  6
CONTINUOUS
 62
     7
 10
-253.0833333333333
 20
215.6666666666667
 40
2.999999999999999
 50
0.0
 51
89.99999999999973
  0
LINE
  8
1
  6
CONTINUOUS
 62
     9
 10
-250.0833333333333
 20
215.6666666666667
 11
-250.1095192549025
 21
215.6666666666667
  0
ARC
  8
1
  6
CONTINUOUS
 62
     7
 10
-253.0833333333333
 20
215.6666666666667
 40
2.973814078430812
 50
0.0
 51
89.99999999999973
  0
ARC
  8
1
  6
CONTINUOUS
 62
     7
 10
-259.5833333333333
 20
181.1666666666667
 40
2.999999999999999
 50
180.0
 51
270.0000000000001
  0
LINE
  8
1
  6
CONTINUOUS
 62
     9
 10
-262.5833333333333
 20
181.1666666666667
 11
-262.5571474117642
 21
181.1666666666667
  0
ARC
  8
1
  6
CONTINUOUS
 62
     7
 10
-259.5833333333333
 20
181.1666666666667
 40
2.973814078430812
 50
180.0
 51
270.0000000000001
  0
LINE
  8
1
  6
CONTINUOUS
 62
     9
 10
-262.5833333333333
 20
215.6666666666667
 11
-262.5571474117642
 21
215.6666666666667
  0
ARC
  8
1
  6
CONTINUOUS
 62
     7
 10
-259.5833333333333
 20
215.6666666666667
 40
2.999999999999999
 50
90.0
 51
180.0
  0
ARC
  8
1
  6
CONTINUOUS
 62
     7
 10
-259.5833333333333
 20
215.6666666666667
 40
2.973814078430812
 50
90.0
 51
180.0
  0
LINE
  8
1
  6
CONTINUOUS
 62
     9
 10
-250.0833333333333
 20
181.1666666666667
 11
-250.1095192549025
 21
181.1666666666667
  0
ARC
  8
1
  6
CONTINUOUS
 62
     7
 10
-253.0833333333333
 20
181.1666666666667
 40
2.999999999999999
 50
270.0
 51
0.0
  0
ARC
  8
1
  6
CONTINUOUS
 62
     7
 10
-253.0833333333333
 20
181.1666666666667
 40
2.973814078430812
 50
270.0
 51
0.0
  0
LINE
  8
1
  6
CONTINUOUS
 62
     9
 10
-253.0833333333333
 20
184.1666666666667
 11
-253.0833333333333
 21
184.1404807450975
  0
ARC
  8
1
  6
CONTINUOUS
 62
     7
 10
-253.0833333333333
 20
181.1666666666667
 40
2.999999999999999
 50
0.0
 51
89.99999999999973
  0
ARC
  8
1
  6
CONTINUOUS
 62
     7
 10
-253.0833333333333
 20
181.1666666666667
 40
2.973814078430812
 50
0.0
 51
89.99999999999973
  0
LINE
  8
1
  6
CONTINUOUS
 62
     9
 10
-259.5833333333333
 20
184.1666666666667
 11
-259.5833333333333
 21
184.1404807450975
  0
LINE
  8
1
  6
CONTINUOUS
 62
     7
 10
-253.0833333333333
 20
184.1666666666667
 11
-259.5833333333333
 21
184.1666666666667
  0
LINE
  8
1
  6
CONTINUOUS
 62
     7
 10
-253.0833333333333
 20
184.1404807450975
 11
-259.5833333333333
 21
184.1404807450975
  0
ARC
  8
1
  6
CONTINUOUS
 62
     7
 10
-259.5833333333333
 20
227.1666666666667
 40
2.999999999999999
 50
180.0
 51
270.0000000000001
  0
ARC
  8
1
  6
CONTINUOUS
 62
     7
 10
-259.5833333333333
 20
227.1666666666667
 40
2.973814078430812
 50
180.0
 51
270.0000000000001
  0
LINE
  8
1
  6
CONTINUOUS
 62
     9
 10
-253.0833333333333
 20
207.1666666666667
 11
-253.0833333333333
 21
207.1404807450975
  0
ARC
  8
1
  6
CONTINUOUS
 62
     7
 10
-253.0833333333333
 20
204.1666666666667
 40
2.999999999999999
 50
0.0
 51
89.99999999999973
  0
ARC
  8
1
  6
CONTINUOUS
 62
     7
 10
-253.0833333333333
 20
204.1666666666667
 40
2.973814078430812
 50
0.0
 51
89.99999999999973
  0
ARC
  8
1
  6
CONTINUOUS
 62
     7
 10
-253.0833333333333
 20
227.1666666666667
 40
2.999999999999999
 50
270.0
 51
0.0
  0
ARC
  8
1
  6
CONTINUOUS
 62
     7
 10
-253.0833333333333
 20
227.1666666666667
 40
2.973814078430812
 50
270.0
 51
0.0
  0
LINE
  8
1
  6
CONTINUOUS
 62
     7
 10
-207.0833333333333
 20
224.1666666666667
 11
-213.5833333333333
 21
224.1666666666667
  0
LINE
  8
1
  6
CONTINUOUS
 62
     9
 10
-213.5833333333333
 20
224.1666666666667
 11
-213.5833333333333
 21
224.1928525882359
  0
LINE
  8
1
  6
CONTINUOUS
 62
     7
 10
-207.0833333333333
 20
224.1928525882359
 11
-213.5833333333333
 21
224.1928525882359
  0
ARC
  8
1
  6
CONTINUOUS
 62
     7
 10
-213.5833333333333
 20
227.1666666666667
 40
2.999999999999999
 50
180.0
 51
270.0
  0
LINE
  8
1
  6
CONTINUOUS
 62
     9
 10
-216.5833333333333
 20
227.1666666666667
 11
-216.5571474117642
 21
227.1666666666667
  0
ARC
  8
1
  6
CONTINUOUS
 62
     7
 10
-213.5833333333333
 20
227.1666666666667
 40
2.973814078430812
 50
180.0
 51
270.0
  0
ARC
  8
1
  6
CONTINUOUS
 62
     7
 10
-213.5833333333333
 20
227.1666666666667
 40
2.999999999999999
 50
90.0000000000003
 51
180.0
  0
ARC
  8
1
  6
CONTINUOUS
 62
     7
 10
-213.5833333333333
 20
227.1666666666667
 40
2.973814078430812
 50
90.0000000000003
 51
180.0
  0
LINE
  8
1
  6
CONTINUOUS
 62
     7
 10
-259.5833333333333
 20
189.6666666666667
 11
-253.0833333333333
 21
189.6666666666667
  0
LINE
  8
1
  6
CONTINUOUS
 62
     7
 10
-259.5833333333333
 20
189.6928525882359
 11
-253.0833333333333
 21
189.6928525882359
  0
LINE
  8
1
  6
CONTINUOUS
 62
     9
 10
-259.5833333333333
 20
212.6666666666667
 11
-259.5833333333333
 21
212.6928525882359
  0
ARC
  8
1
  6
CONTINUOUS
 62
     7
 10
-259.5833333333333
 20
215.6666666666667
 40
2.999999999999999
 50
180.0
 51
270.0000000000001
  0
ARC
  8
1
  6
CONTINUOUS
 62
     7
 10
-259.5833333333333
 20
215.6666666666667
 40
2.973814078430812
 50
180.0
 51
270.0000000000001
  0
LINE
  8
1
  6
CONTINUOUS
 62
     9
 10
-253.0833333333333
 20
212.6666666666667
 11
-253.0833333333333
 21
212.6928525882359
  0
LINE
  8
1
  6
CONTINUOUS
 62
     7
 10
-259.5833333333333
 20
212.6666666666667
 11
-253.0833333333333
 21
212.6666666666667
  0
LINE
  8
1
  6
CONTINUOUS
 62
     7
 10
-259.5833333333333
 20
212.6928525882359
 11
-253.0833333333333
 21
212.6928525882359
  0
ARC
  8
1
  6
CONTINUOUS
 62
     7
 10
-253.0833333333333
 20
215.6666666666667
 40
2.999999999999999
 50
270.0
 51
0.0
  0
ARC
  8
1
  6
CONTINUOUS
 62
     7
 10
-253.0833333333333
 20
215.6666666666667
 40
2.973814078430812
 50
270.0
 51
0.0
  0
LINE
  8
1
  6
CONTINUOUS
 62
     9
 10
-259.5833333333333
 20
207.1666666666667
 11
-259.5833333333333
 21
207.1404807450975
  0
LINE
  8
1
  6
CONTINUOUS
 62
     7
 10
-253.0833333333333
 20
207.1666666666667
 11
-259.5833333333333
 21
207.1666666666667
  0
LINE
  8
1
  6
CONTINUOUS
 62
     7
 10
-253.0833333333333
 20
207.1404807450975
 11
-259.5833333333333
 21
207.1404807450975
  0
LINE
  8
1
  6
CONTINUOUS
 62
     7
 10
-213.5833333333333
 20
207.1666666666667
 11
-207.0833333333333
 21
207.1666666666667
  0
ARC
  8
1
  6
CONTINUOUS
 62
     7
 10
-213.5833333333333
 20
204.1666666666667
 40
2.999999999999999
 50
90.0000000000003
 51
180.0
  0
ARC
  8
1
  6
CONTINUOUS
 62
     7
 10
-213.5833333333333
 20
204.1666666666667
 40
2.999999999999999
 50
180.0
 51
270.0
  0
LINE
  8
1
  6
CONTINUOUS
 62
     7
 10
-207.0833333333333
 20
201.1666666666667
 11
-213.5833333333333
 21
201.1666666666667
  0
ARC
  8
1
  6
CONTINUOUS
 62
     7
 10
-207.0833333333333
 20
204.1666666666667
 40
2.999999999999999
 50
269.9999999999999
 51
0.0
  0
ARC
  8
1
  6
CONTINUOUS
 62
     7
 10
-207.0833333333333
 20
204.1666666666667
 40
2.999999999999999
 50
0.0
 51
90.0
  0
LINE
  8
1
  6
CONTINUOUS
 62
     7
 10
-213.5833333333333
 20
218.6666666666667
 11
-207.0833333333333
 21
218.6666666666667
  0
ARC
  8
1
  6
CONTINUOUS
 62
     7
 10
-213.5833333333333
 20
215.6666666666667
 40
2.999999999999999
 50
90.0000000000003
 51
180.0
  0
ARC
  8
1
  6
CONTINUOUS
 62
     7
 10
-213.5833333333333
 20
215.6666666666667
 40
2.999999999999999
 50
180.0
 51
270.0
  0
LINE
  8
1
  6
CONTINUOUS
 62
     7
 10
-207.0833333333333
 20
212.6666666666667
 11
-213.5833333333333
 21
212.6666666666667
  0
ARC
  8
1
  6
CONTINUOUS
 62
     7
 10
-207.0833333333333
 20
215.6666666666667
 40
2.999999999999999
 50
269.9999999999999
 51
0.0
  0
ARC
  8
1
  6
CONTINUOUS
 62
     7
 10
-207.0833333333333
 20
215.6666666666667
 40
2.999999999999999
 50
0.0
 51
90.0
  0
ARC
  8
1
  6
CONTINUOUS
 62
     7
 10
-207.0833333333333
 20
227.1666666666667
 40
2.999999999999999
 50
0.0
 51
90.0
  0
CIRCLE
  8
1
  6
CONTINUOUS
 62
     7
 10
-269.8333333333334
 20
232.9166666666667
 40
1.500000000000001
  0
CIRCLE
  8
1
  6
CONTINUOUS
 62
     7
 10
-269.8333333333334
 20
221.4166666666667
 40
1.500000000000001
  0
CIRCLE
  8
1
  6
CONTINUOUS
 62
     7
 10
-269.8333333333334
 20
209.9166666666667
 40
1.500000000000001
  0
CIRCLE
  8
1
  6
CONTINUOUS
 62
     7
 10
-269.8333333333334
 20
198.4166666666667
 40
1.500000000000001
  0
CIRCLE
  8
1
  6
CONTINUOUS
 62
     7
 10
-269.8333333333334
 20
186.9166666666667
 40
1.500000000000001
  0
CIRCLE
  8
1
  6
CONTINUOUS
 62
     7
 10
-269.8333333333334
 20
175.4166666666667
 40
1.500000000000001
  0
CIRCLE
  8
1
  6
CONTINUOUS
 62
     7
 10
-196.8333333333333
 20
232.9166666666667
 40
1.500000000000001
  0
CIRCLE
  8
1
  6
CONTINUOUS
 62
     7
 10
-196.8333333333333
 20
221.4166666666667
 40
1.500000000000001
  0
CIRCLE
  8
1
  6
CONTINUOUS
 62
     7
 10
-196.8333333333333
 20
209.9166666666667
 40
1.500000000000001
  0
CIRCLE
  8
1
  6
CONTINUOUS
 62
     7
 10
-196.8333333333333
 20
198.4166666666667
 40
1.500000000000001
  0
CIRCLE
  8
1
  6
CONTINUOUS
 62
     7
 10
-196.8333333333333
 20
186.9166666666667
 40
1.500000000000001
  0
CIRCLE
  8
1
  6
CONTINUOUS
 62
     7
 10
-196.8333333333333
 20
175.4166666666667
 40
1.500000000000001
  0
CIRCLE
  8
1
  6
CONTINUOUS
 62
     7
 10
-242.8333333333333
 20
232.9166666666667
 40
1.500000000000001
  0
CIRCLE
  8
1
  6
CONTINUOUS
 62
     7
 10
-242.8333333333333
 20
221.4166666666667
 40
1.500000000000001
  0
CIRCLE
  8
1
  6
CONTINUOUS
 62
     7
 10
-242.8333333333333
 20
209.9166666666667
 40
1.500000000000001
  0
CIRCLE
  8
1
  6
CONTINUOUS
 62
     7
 10
-242.8333333333333
 20
198.4166666666667
 40
1.500000000000001
  0
CIRCLE
  8
1
  6
CONTINUOUS
 62
     7
 10
-242.8333333333333
 20
186.9166666666667
 40
1.500000000000001
  0
CIRCLE
  8
1
  6
CONTINUOUS
 62
     7
 10
-242.8333333333333
 20
175.4166666666667
 40
1.500000000000001
  0
CIRCLE
  8
1
  6
CONTINUOUS
 62
     7
 10
-223.8333333333333
 20
232.9166666666667
 40
1.500000000000001
  0
CIRCLE
  8
1
  6
CONTINUOUS
 62
     7
 10
-223.8333333333333
 20
221.4166666666667
 40
1.500000000000001
  0
CIRCLE
  8
1
  6
CONTINUOUS
 62
     7
 10
-223.8333333333333
 20
209.9166666666667
 40
1.500000000000001
  0
CIRCLE
  8
1
  6
CONTINUOUS
 62
     7
 10
-223.8333333333333
 20
198.4166666666667
 40
1.500000000000001
  0
CIRCLE
  8
1
  6
CONTINUOUS
 62
     7
 10
-223.8333333333333
 20
186.9166666666667
 40
1.500000000000001
  0
CIRCLE
  8
1
  6
CONTINUOUS
 62
     7
 10
-223.8333333333333
 20
175.4166666666667
 40
1.500000000000001
  0
LINE
  8
1
  6
CONTINUOUS
 62
     7
 10
-259.5833333333333
 20
201.1666666666667
 11
-253.0833333333333
 21
201.1666666666667
  0
ARC
  8
1
  6
CONTINUOUS
 62
     7
 10
-259.5833333333333
 20
204.1666666666667
 40
2.999999999999999
 50
90.0
 51
180.0
  0
ARC
  8
1
  6
CONTINUOUS
 62
     7
 10
-259.5833333333333
 20
204.1666666666667
 40
2.999999999999999
 50
180.0
 51
270.0000000000001
  0
ARC
  8
1
  6
CONTINUOUS
 62
     7
 10
-259.5833333333333
 20
181.1666666666667
 40
2.999999999999999
 50
90.0
 51
180.0
  0
CIRCLE
  8
1
  6
CONTINUOUS
 62
     7
 10
-263.8333333333333
 20
221.4166666666667
 40
1.500000000000001
  0
CIRCLE
  8
1
  6
CONTINUOUS
 62
     7
 10
-263.8333333333333
 20
209.9166666666667
 40
1.500000000000001
  0
CIRCLE
  8
1
  6
CONTINUOUS
 62
     7
 10
-263.8333333333333
 20
198.4166666666667
 40
1.500000000000001
  0
CIRCLE
  8
1
  6
CONTINUOUS
 62
     7
 10
-263.8333333333333
 20
186.9166666666667
 40
1.500000000000001
  0
CIRCLE
  8
1
  6
CONTINUOUS
 62
     7
 10
-202.8333333333333
 20
221.4166666666667
 40
1.499999999999998
  0
CIRCLE
  8
1
  6
CONTINUOUS
 62
     7
 10
-202.8333333333333
 20
209.9166666666667
 40
1.499999999999998
  0
CIRCLE
  8
1
  6
CONTINUOUS
 62
     7
 10
-202.8333333333333
 20
198.4166666666667
 40
1.499999999999998
  0
CIRCLE
  8
1
  6
CONTINUOUS
 62
     7
 10
-202.8333333333333
 20
186.9166666666667
 40
1.499999999999998
  0
CIRCLE
  8
1
  6
CONTINUOUS
 62
     7
 10
-248.8333333333333
 20
221.4166666666667
 40
1.500000000000001
  0
CIRCLE
  8
1
  6
CONTINUOUS
 62
     7
 10
-248.8333333333333
 20
209.9166666666667
 40
1.500000000000001
  0
CIRCLE
  8
1
  6
CONTINUOUS
 62
     7
 10
-248.8333333333333
 20
198.4166666666667
 40
1.500000000000001
  0
CIRCLE
  8
1
  6
CONTINUOUS
 62
     7
 10
-248.8333333333333
 20
186.9166666666667
 40
1.500000000000001
  0
CIRCLE
  8
1
  6
CONTINUOUS
 62
     7
 10
-217.8333333333333
 20
221.4166666666667
 40
1.500000000000001
  0
CIRCLE
  8
1
  6
CONTINUOUS
 62
     7
 10
-217.8333333333333
 20
209.9166666666667
 40
1.500000000000001
  0
CIRCLE
  8
1
  6
CONTINUOUS
 62
     7
 10
-217.8333333333333
 20
198.4166666666667
 40
1.500000000000001
  0
CIRCLE
  8
1
  6
CONTINUOUS
 62
     7
 10
-217.8333333333333
 20
186.9166666666667
 40
1.500000000000001
  0
LINE
  8
1
  6
CONTINUOUS
 62
     9
 10
-207.0833333333333
 20
212.6666666666667
 11
-207.0833333333333
 21
212.6928525882359
  0
LINE
  8
1
  6
CONTINUOUS
 62
     9
 10
-213.5833333333333
 20
212.6666666666667
 11
-213.5833333333333
 21
212.6928525882359
  0
LINE
  8
1
  6
CONTINUOUS
 62
     7
 10
-207.0833333333333
 20
212.6928525882359
 11
-213.5833333333333
 21
212.6928525882359
  0
LINE
  8
1
  6
CONTINUOUS
 62
     9
 10
-216.5833333333333
 20
215.6666666666667
 11
-216.5571474117642
 21
215.6666666666667
  0
LINE
  8
1
  6
CONTINUOUS
 62
     9
 10
-213.5833333333333
 20
218.6666666666667
 11
-213.5833333333333
 21
218.6404807450975
  0
ARC
  8
1
  6
CONTINUOUS
 62
     7
 10
-213.5833333333333
 20
215.6666666666667
 40
2.973814078430812
 50
90.0000000000003
 51
180.0
  0
LINE
  8
1
  6
CONTINUOUS
 62
     9
 10
-259.5833333333333
 20
201.1666666666667
 11
-259.5833333333333
 21
201.1928525882359
  0
LINE
  8
1
  6
CONTINUOUS
 62
     9
 10
-262.5833333333333
 20
204.1666666666667
 11
-262.5571474117642
 21
204.1666666666667
  0
ARC
  8
1
  6
CONTINUOUS
 62
     7
 10
-259.5833333333333
 20
204.1666666666667
 40
2.973814078430812
 50
180.0
 51
270.0000000000001
  0
LINE
  8
1
  6
CONTINUOUS
 62
     7
 10
-259.5833333333333
 20
201.1928525882359
 11
-253.0833333333333
 21
201.1928525882359
  0
LINE
  8
1
  6
CONTINUOUS
 62
     9
 10
-207.0833333333333
 20
218.6666666666667
 11
-207.0833333333333
 21
218.6404807450975
  0
LINE
  8
1
  6
CONTINUOUS
 62
     9
 10
-204.0833333333333
 20
215.6666666666667
 11
-204.1095192549025
 21
215.6666666666667
  0
ARC
  8
1
  6
CONTINUOUS
 62
     7
 10
-207.0833333333333
 20
215.6666666666667
 40
2.973814078430812
 50
0.0
 51
90.0
  0
ARC
  8
1
  6
CONTINUOUS
 62
     7
 10
-259.5833333333333
 20
181.1666666666667
 40
2.973814078430812
 50
90.0
 51
180.0
  0
LINE
  8
1
  6
CONTINUOUS
 62
     9
 10
-204.0833333333333
 20
204.1666666666667
 11
-204.1095192549025
 21
204.1666666666667
  0
LINE
  8
1
  6
CONTINUOUS
 62
     9
 10
-207.0833333333333
 20
201.1666666666667
 11
-207.0833333333333
 21
201.1928525882359
  0
ARC
  8
1
  6
CONTINUOUS
 62
     7
 10
-207.0833333333333
 20
204.1666666666667
 40
2.973814078430812
 50
269.9999999999999
 51
0.0
  0
ARC
  8
1
  6
CONTINUOUS
 62
     7
 10
-259.5833333333333
 20
204.1666666666667
 40
2.973814078430812
 50
90.0
 51
180.0
  0
LINE
  8
1
  6
CONTINUOUS
 62
     9
 10
-216.5833333333333
 20
204.1666666666667
 11
-216.5571474117642
 21
204.1666666666667
  0
LINE
  8
1
  6
CONTINUOUS
 62
     9
 10
-213.5833333333333
 20
207.1666666666667
 11
-213.5833333333333
 21
207.1404807450975
  0
ARC
  8
1
  6
CONTINUOUS
 62
     7
 10
-213.5833333333333
 20
204.1666666666667
 40
2.973814078430812
 50
90.0000000000003
 51
180.0
  0
LINE
  8
1
  6
CONTINUOUS
 62
     9
 10
-207.0833333333333
 20
207.1666666666667
 11
-207.0833333333333
 21
207.1404807450975
  0
LINE
  8
1
  6
CONTINUOUS
 62
     7
 10
-213.5833333333333
 20
207.1404807450975
 11
-207.0833333333333
 21
207.1404807450975
  0
LINE
  8
1
  6
CONTINUOUS
 62
     9
 10
-213.5833333333333
 20
201.1666666666667
 11
-213.5833333333333
 21
201.1928525882359
  0
ARC
  8
1
  6
CONTINUOUS
 62
     7
 10
-213.5833333333333
 20
204.1666666666667
 40
2.973814078430812
 50
180.0
 51
270.0
  0
ARC
  8
1
  6
CONTINUOUS
 62
     7
 10
-207.0833333333333
 20
204.1666666666667
 40
2.973814078430812
 50
0.0
 51
90.0
  0
ARC
  8
1
  6
CONTINUOUS
 62
     7
 10
-207.0833333333333
 20
227.1666666666667
 40
2.973814078430812
 50
0.0
 51
90.0
  0
ARC
  8
1
  6
CONTINUOUS
 62
     7
 10
-207.0833333333333
 20
215.6666666666667
 40
2.973814078430812
 50
269.9999999999999
 51
0.0
  0
ARC
  8
1
  6
CONTINUOUS
 62
     7
 10
-213.5833333333333
 20
215.6666666666667
 40
2.973814078430812
 50
180.0
 51
270.0
  0
LINE
  8
1
  6
CONTINUOUS
 62
     7
 10
-213.5833333333333
 20
218.6404807450975
 11
-207.0833333333333
 21
218.6404807450975
  0
LINE
  8
1
  6
CONTINUOUS
 62
     7
 10
-207.0833333333333
 20
201.1928525882359
 11
-213.5833333333333
 21
201.1928525882359
  0
CIRCLE
  8
1
  6
CONTINUOUS
 62
     7
 10
-263.8333333333333
 20
209.9166666666667
 40
1.473814078430814
  0
CIRCLE
  8
1
  6
CONTINUOUS
 62
     7
 10
-223.8333333333333
 20
198.4166666666667
 40
1.473814078430814
  0
CIRCLE
  8
1
  6
CONTINUOUS
 62
     7
 10
-248.8333333333333
 20
198.4166666666667
 40
1.473814078430814
  0
CIRCLE
  8
1
  6
CONTINUOUS
 62
     7
 10
-217.8333333333333
 20
209.9166666666667
 40
1.473814078430814
  0
CIRCLE
  8
1
  6
CONTINUOUS
 62
     7
 10
-202.8333333333333
 20
198.4166666666667
 40
1.473814078430811
  0
CIRCLE
  8
1
  6
CONTINUOUS
 62
     7
 10
-248.8333333333333
 20
186.9166666666667
 40
1.473814078430814
  0
CIRCLE
  8
1
  6
CONTINUOUS
 62
     7
 10
-217.8333333333333
 20
186.9166666666667
 40
1.473814078430814
  0
CIRCLE
  8
1
  6
CONTINUOUS
 62
     7
 10
-223.8333333333333
 20
186.9166666666667
 40
1.473814078430814
  0
CIRCLE
  8
1
  6
CONTINUOUS
 62
     7
 10
-263.8333333333333
 20
221.4166666666667
 40
1.473814078430814
  0
CIRCLE
  8
1
  6
CONTINUOUS
 62
     7
 10
-269.8333333333334
 20
221.4166666666667
 40
1.473814078430814
  0
CIRCLE
  8
1
  6
CONTINUOUS
 62
     7
 10
-223.8333333333333
 20
221.4166666666667
 40
1.473814078430814
  0
CIRCLE
  8
1
  6
CONTINUOUS
 62
     7
 10
-248.8333333333333
 20
209.9166666666667
 40
1.473814078430814
  0
CIRCLE
  8
1
  6
CONTINUOUS
 62
     7
 10
-223.8333333333333
 20
209.9166666666667
 40
1.473814078430814
  0
CIRCLE
  8
1
  6
CONTINUOUS
 62
     7
 10
-263.8333333333333
 20
198.4166666666667
 40
1.473814078430814
  0
CIRCLE
  8
1
  6
CONTINUOUS
 62
     7
 10
-269.8333333333334
 20
198.4166666666667
 40
1.473814078430814
  0
CIRCLE
  8
1
  6
CONTINUOUS
 62
     7
 10
-217.8333333333333
 20
221.4166666666667
 40
1.473814078430814
  0
CIRCLE
  8
1
  6
CONTINUOUS
 62
     7
 10
-269.8333333333334
 20
186.9166666666667
 40
1.473814078430814
  0
CIRCLE
  8
1
  6
CONTINUOUS
 62
     7
 10
-202.8333333333333
 20
221.4166666666667
 40
1.473814078430811
  0
CIRCLE
  8
1
  6
CONTINUOUS
 62
     7
 10
-223.8333333333333
 20
175.4166666666667
 40
1.473814078430814
  0
CIRCLE
  8
1
  6
CONTINUOUS
 62
     7
 10
-217.8333333333333
 20
198.4166666666667
 40
1.473814078430814
  0
CIRCLE
  8
1
  6
CONTINUOUS
 62
     7
 10
-242.8333333333333
 20
198.4166666666667
 40
1.473814078430814
  0
CIRCLE
  8
1
  6
CONTINUOUS
 62
     7
 10
-196.8333333333333
 20
221.4166666666667
 40
1.473814078430814
  0
CIRCLE
  8
1
  6
CONTINUOUS
 62
     7
 10
-196.8333333333333
 20
209.9166666666667
 40
1.473814078430814
  0
CIRCLE
  8
1
  6
CONTINUOUS
 62
     7
 10
-202.8333333333333
 20
186.9166666666667
 40
1.473814078430811
  0
CIRCLE
  8
1
  6
CONTINUOUS
 62
     7
 10
-248.8333333333333
 20
221.4166666666667
 40
1.473814078430814
  0
CIRCLE
  8
1
  6
CONTINUOUS
 62
     7
 10
-196.8333333333333
 20
198.4166666666667
 40
1.473814078430814
  0
CIRCLE
  8
1
  6
CONTINUOUS
 62
     7
 10
-196.8333333333333
 20
186.9166666666667
 40
1.473814078430814
  0
CIRCLE
  8
1
  6
CONTINUOUS
 62
     7
 10
-202.8333333333333
 20
209.9166666666667
 40
1.473814078430811
  0
CIRCLE
  8
1
  6
CONTINUOUS
 62
     7
 10
-269.8333333333334
 20
209.9166666666667
 40
1.473814078430814
  0
CIRCLE
  8
1
  6
CONTINUOUS
 62
     7
 10
-242.8333333333333
 20
175.4166666666667
 40
1.473814078430814
  0
CIRCLE
  8
1
  6
CONTINUOUS
 62
     7
 10
-196.8333333333333
 20
175.4166666666667
 40
1.473814078430814
  0
CIRCLE
  8
1
  6
CONTINUOUS
 62
     7
 10
-263.8333333333333
 20
186.9166666666667
 40
1.473814078430814
  0
CIRCLE
  8
1
  6
CONTINUOUS
 62
     7
 10
-242.8333333333333
 20
232.9166666666667
 40
1.473814078430814
  0
CIRCLE
  8
1
  6
CONTINUOUS
 62
     7
 10
-269.8333333333334
 20
175.4166666666667
 40
1.473814078430814
  0
CIRCLE
  8
1
  6
CONTINUOUS
 62
     7
 10
-196.8333333333333
 20
232.9166666666667
 40
1.473814078430814
  0
CIRCLE
  8
1
  6
CONTINUOUS
 62
     7
 10
-242.8333333333333
 20
221.4166666666667
 40
1.473814078430814
  0
CIRCLE
  8
1
  6
CONTINUOUS
 62
     7
 10
-269.8333333333334
 20
232.9166666666667
 40
1.473814078430814
  0
CIRCLE
  8
1
  6
CONTINUOUS
 62
     7
 10
-223.8333333333333
 20
232.9166666666667
 40
1.473814078430814
  0
CIRCLE
  8
1
  6
CONTINUOUS
 62
     7
 10
-242.8333333333333
 20
186.9166666666667
 40
1.473814078430814
  0
CIRCLE
  8
1
  6
CONTINUOUS
 62
     7
 10
-242.8333333333333
 20
209.9166666666667
 40
1.473814078430814
  0
ENDBLK
  8
0
  0
ENDSEC
  0
SECTION
  2
ENTITIES
  0
INSERT
  8
1
  6
CONTINUOUS
 62
     7
  2
D_FRAME_VIEW_2295
 10
0.0
 20
0.0
 30
0.0
  0
INSERT
  8
1
  6
CONTINUOUS
 62
     7
  2
D_FRAME_VIEW_2507
 10
0.0
 20
0.0
 30
0.0
  0
TEXT
  8
1
  6
CONTINUOUS
 62
     7
 10
-117.7607707056813
 20
87.49508669917887
 40
3.0
  1
BZ-2CRS
  0
LINE
  8
1
  6
CONTINUOUS
 62
     2
 10
-117.6189393939394
 20
86.93712121212123
 11
-105.714393939394
 21
86.93712121212123
  0
LINE
  8
1
  6
CONTINUOUS
 62
     7
 10
-122.3403887862011
 20
242.8761540392202
 11
-115.3142118378933
 21
242.6921671207206
  0
LINE
  8
1
  6
CONTINUOUS
 62
     7
 10
-122.3403887862011
 20
264.1666666666667
 11
-122.3403887862011
 21
144.1666666666667
  0
LINE
  8
1
  6
CENTER
 62
     1
 10
-233.3333333333333
 20
134.1666666666667
 11
-233.3333333333333
 21
269.1666666666667
  0
LINE
  8
1
  6
CENTER
 62
     1
 10
-233.3333333333333
 20
54.16666666666666
 11
-233.3333333333333
 21
114.1666666666667
  0
LINE
  8
1
  6
CENTER
 62
     1
 10
-131.6666666666667
 20
204.1666666666667
 11
-71.66666666666669
 21
204.1666666666667
  0
LINE
  8
1
  6
CONTINUOUS
 62
     7
 10
-125.3403887862012
 20
264.1666666666667
 11
-122.3403887862011
 21
264.1666666666667
  0
LINE
  8
1
  6
CONTINUOUS
 62
     7
 10
-125.3403887862012
 20
144.1666666666667
 11
-122.3403887862011
 21
144.1666666666667
  0
LINE
  8
1
  6
CONTINUOUS
 62
     7
 10
-115.3142118378933
 20
165.6411662126129
 11
-122.3403887862011
 21
165.4571792941132
  0
LINE
  8
1
  6
CONTINUOUS
 62
     7
 10
-125.3403887862012
 20
264.1666666666667
 11
-125.3403887862012
 21
144.1666666666667
  0
LINE
  8
1
  6
CONTINUOUS
 62
     7
 10
-114.3403887862011
 20
241.692509795745
 11
-114.3403887862011
 21
240.6666666666667
  0
LINE
  8
1
  6
CONTINUOUS
 62
     7
 10
-114.3403887862011
 20
167.6666666666667
 11
-114.3403887862011
 21
166.6408235375884
  0
LINE
  8
1
  6
CONTINUOUS
 62
     7
 10
-281.1088337873872
 20
97.81421183789327
 11
-281.2928207058869
 21
104.8403887862011
  0
LINE
  8
1
  6
CONTINUOUS
 62
     7
 10
-175.3333333333333
 20
107.8403887862011
 11
-291.3333333333333
 21
107.8403887862011
  0
LINE
  8
1
  6
CONTINUOUS
 62
     7
 10
-185.3738459607798
 20
104.8403887862011
 11
-185.5578328792795
 21
97.81421183789327
  0
LINE
  8
1
  6
CONTINUOUS
 62
     7
 10
-175.3333333333333
 20
104.8403887862011
 11
-291.3333333333333
 21
104.8403887862011
  0
LINE
  8
1
  6
CONTINUOUS
 62
     7
 10
-175.3333333333333
 20
104.8403887862011
 11
-175.3333333333333
 21
107.8403887862011
  0
LINE
  8
1
  6
CONTINUOUS
 62
     7
 10
-291.3333333333333
 20
104.8403887862011
 11
-291.3333333333333
 21
107.8403887862011
  0
INSERT
  8
1
  6
CONTINUOUS
 62
     7
  2
D_FRAME_VIEW_1491
 10
0.0
 20
0.0
 30
0.0
  0
ENDSEC
  0
EOF
