  0
SECTION
  2
HEADER
  9
$ACADVER
  1
AC1004
  9
$INSBASE
 10
0.0
 20
0.0
  9
$EXTMIN
 10
-306.8333333333334
 20
51.66666666666666
  9
$EXTMAX
 10
-49.16666666666669
 20
270.0
  9
$LIMMIN
 10
0.0
 20
0.0
  9
$LIMMAX
 10
12.0
 20
9.0
  9
$ORTHOMODE
 70
     0
  9
$REGENMODE
 70
     1
  9
$FILLMODE
 70
     1
  9
$QTEXTMODE
 70
     0
  9
$DRAGMODE
 70
     2
  9
$LTSCALE
 40
1.0
  9
$OSMODE
 70
    37
  9
$ATTMODE
 70
     1
  9
$TEXTSIZE
 40
0.2
  9
$TRACEWID
 40
0.05
  9
$TEXTSTYLE
  7
STANDARD
  9
$CLAYER
  8
0
  9
$CELTYPE
  6
BYLAYER
  9
$CECOLOR
 62
   256
  9
$DIMSCALE
 40
1.0
  9
$DIMASZ
 40
3.0
  9
$DIMEXO
 40
0.0625
  9
$DIMDLI
 40
0.38
  9
$DIMRND
 40
0.0
  9
$DIMDLE
 40
0.0
  9
$DIMEXE
 40
1.5
  9
$DIMTP
 40
0.0
  9
$DIMTM
 40
0.0
  9
$DIMTXT
 40
3.0
  9
$DIMCEN
 40
0.09
  9
$DIMTSZ
 40
0.0
  9
$DIMTOL
 70
     0
  9
$DIMLIM
 70
     0
  9
$DIMTIH
 70
     1
  9
$DIMTOH
 70
     1
  9
$DIMSE1
 70
     0
  9
$DIMSE2
 70
     0
  9
$DIMTAD
 70
     1
  9
$DIMZIN
 70
     0
  9
$DIMBLK
  1

  9
$DIMASO
 70
     1
  9
$DIMSHO
 70
     1
  9
$DIMPOST
  1

  9
$DIMAPOST
  1

  9
$DIMALT
 70
     0
  9
$DIMALTD
 70
     2
  9
$DIMALTF
 40
25.4
  9
$DIMLFAC
 40
1.0
  9
$DIMTOFL
 70
     0
  9
$DIMTVP
 40
0.0
  9
$DIMTIX
 70
     0
  9
$DIMSOXD
 70
     0
  9
$DIMSAH
 70
     0
  9
$DIMBLK1
  1

  9
$DIMBLK2
  1

  9
$LUNITS
 70
     2
  9
$LUPREC
 70
     4
  9
$SKETCHINC
 40
0.1
  9
$FILLETRAD
 40
0.5
  9
$AUNITS
 70
     0
  9
$AUPREC
 70
     0
  9
$MENU
  1
.
  9
$ELEVATION
 40
0.0
  9
$THICKNESS
 40
0.0
  9
$LIMCHECK
 70
     0
  9
$CHAMFERA
 40
0.0
  9
$CHAMFERB
 40
0.0
  9
$SKPOLY
 70
     0
  9
$TDCREATE
 40
2459984.621496678
  9
$TDUPDATE
 40
2459984.621497014
  9
$TDINDWG
 40
0.0000000116
  9
$TDUSRTIMER
 40
0.0000000116
  9
$USRTIMER
 70
     1
  9
$ANGBASE
 50
0.0
  9
$ANGDIR
 70
     0
  9
$PDMODE
 70
     0
  9
$PDSIZE
 40
0.0
  9
$PLINEWID
 40
0.0
  9
$COORDS
 70
     1
  9
$SPLFRAME
 70
     0
  9
$SPLINETYPE
 70
     6
  9
$SPLINESEGS
 70
     8
  9
$ATTDIA
 70
     0
  9
$ATTREQ
 70
     1
  9
$SURFTAB1
 70
     6
  9
$SURFTAB2
 70
     6
  9
$SURFTYPE
 70
     6
  9
$SURFU
 70
     6
  9
$SURFV
 70
     6
  9
$UCSNAME
  2

  9
$UCSORG
 10
0.0
 20
0.0
 30
0.0
  9
$UCSXDIR
 10
1.0
 20
0.0
 30
0.0
  9
$UCSYDIR
 10
0.0
 20
1.0
 30
0.0
  9
$USERI1
 70
     0
  9
$USERI2
 70
     0
  9
$USERI3
 70
     0
  9
$USERI4
 70
     0
  9
$USERI5
 70
     0
  9
$USERR1
 40
0.0
  9
$USERR2
 40
0.0
  9
$USERR3
 40
0.0
  9
$USERR4
 40
0.0
  9
$USERR5
 40
0.0
  9
$WORLDVIEW
 70
     1
  0
ENDSEC
  0
SECTION
  2
TABLES
  0
TABLE
  2
LTYPE
 70
     2
  0
LTYPE
  2
CONTINUOUS
 70
     0
  3
Solid line
 72
    65
 73
     0
 40
0.0
  0
LTYPE
  2
CENTER
 70
     0
  3

 72
    65
 73
     0
 40
0.0
  0
ENDTAB
  0
TABLE
  2
LAYER
 70
     2
  0
LAYER
  2
0
 70
     0
 62
     7
  6
CONTINUOUS
  0
LAYER
  2
1
 70
     0
 62
     7
  6
CONTINUOUS
  0
ENDTAB
  0
TABLE
  2
STYLE
 70
     2
  0
STYLE
  2
STANDARD
 70
     0
 40
0.0
 41
1.0
 50
0.0
 71
     0
 42
0.2
  3
txt
  4

  0
STYLE
  2
ＭＳ_ゴシック
 70
     0
 40
0.0
 41
1.0
 50
0.0
 71
     0
 42
0.2
  3
ＭＳ ゴシック.shx
  4

  0
ENDTAB
  0
TABLE
  2
VIEW
 70
     0
  0
ENDTAB
  0
ENDSEC
  0
SECTION
  2
BLOCKS
  0
BLOCK
  8
0
  2
D_FRAME_VIEW_1491
 70
     0
 10
0.0
 20
0.0
  0
ARC
  8
1
  6
CONTINUOUS
 62
     7
 10
-178.4333333333334
 20
152.2
 40
1.000000000000001
 50
180.0
 51
270.0
  0
ARC
  8
1
  6
CONTINUOUS
 62
     7
 10
-179.9333333333334
 20
154.5
 40
1.250000000000002
 50
293.5781784782022
 51
66.42182152179805
  0
ARC
  8
1
  6
CONTINUOUS
 62
     7
 10
-178.4333333333334
 20
158.8
 40
1.000000000000001
 50
90.0
 51
180.0
  0
LINE
  8
1
  6
CONTINUOUS
 62
     7
 10
-178.4333333333334
 20
159.8
 11
-169.1333333333334
 21
159.8
  0
LINE
  8
1
  6
CONTINUOUS
 62
     7
 10
-169.1333333333334
 20
159.8
 11
-169.1333333333334
 21
164.8
  0
ARC
  8
1
  6
CONTINUOUS
 62
     7
 10
-168.1333333333334
 20
164.8
 40
1.000000000000001
 50
90.0
 51
180.0
  0
LINE
  8
1
  6
CONTINUOUS
 62
     7
 10
-168.1333333333334
 20
165.8
 11
-154.7333333333333
 21
165.8
  0
LINE
  8
1
  6
CONTINUOUS
 62
     7
 10
-154.7333333333333
 20
165.8
 11
-154.7333333333333
 21
244.2
  0
LINE
  8
1
  6
CONTINUOUS
 62
     7
 10
-154.7333333333333
 20
244.2
 11
-168.1333333333334
 21
244.2
  0
ARC
  8
1
  6
CONTINUOUS
 62
     7
 10
-168.1333333333334
 20
245.2
 40
1.000000000000001
 50
180.0
 51
270.0
  0
LINE
  8
1
  6
CONTINUOUS
 62
     7
 10
-169.1333333333334
 20
245.2
 11
-169.1333333333334
 21
250.2
  0
LINE
  8
1
  6
CONTINUOUS
 62
     7
 10
-169.1333333333334
 20
250.2
 11
-178.4333333333334
 21
250.2
  0
ARC
  8
1
  6
CONTINUOUS
 62
     7
 10
-178.4333333333334
 20
251.2
 40
1.000000000000001
 50
180.0
 51
270.0000000000005
  0
LINE
  8
1
  6
CONTINUOUS
 62
     7
 10
-179.4333333333334
 20
254.354356076261
 11
-179.4333333333334
 21
251.2
  0
ARC
  8
1
  6
CONTINUOUS
 62
     7
 10
-179.9333333333334
 20
255.5
 40
1.250000000000002
 50
293.5781784782018
 51
66.42182152179817
  0
LINE
  8
1
  6
CONTINUOUS
 62
     7
 10
-179.4333333333334
 20
257.8
 11
-179.4333333333334
 21
256.645643923739
  0
ARC
  8
1
  6
CONTINUOUS
 62
     7
 10
-178.4333333333334
 20
257.8
 40
1.000000000000001
 50
89.99999999999962
 51
180.0
  0
ARC
  8
1
  6
CONTINUOUS
 62
     7
 10
-174.9333333333334
 20
261.3
 40
1.000000000000001
 50
90.0
 51
180.0
  0
LINE
  8
1
  6
CONTINUOUS
 62
     7
 10
-170.1333333333334
 20
262.3
 11
-174.9333333333334
 21
262.3
  0
ARC
  8
1
  6
CONTINUOUS
 62
     7
 10
-170.1333333333334
 20
261.3
 40
1.000000000000001
 50
0.0
 51
90.0
  0
LINE
  8
1
  6
CONTINUOUS
 62
     7
 10
-169.1333333333334
 20
258.8
 11
-169.1333333333334
 21
261.3
  0
LINE
  8
1
  6
CONTINUOUS
 62
     7
 10
-161.1333333333334
 20
258.8
 11
-169.1333333333334
 21
258.8
  0
ARC
  8
1
  6
CONTINUOUS
 62
     7
 10
-161.1333333333334
 20
257.8
 40
1.000000000000001
 50
0.0
 51
90.0
  0
LINE
  8
1
  6
CONTINUOUS
 62
     7
 10
-160.1333333333334
 20
253.8
 11
-160.1333333333334
 21
257.8
  0
LINE
  8
1
  6
CONTINUOUS
 62
     7
 10
-154.7333333333333
 20
253.8
 11
-160.1333333333334
 21
253.8
  0
LINE
  8
1
  6
CONTINUOUS
 62
     7
 10
-154.7333333333333
 20
261.3
 11
-154.7333333333333
 21
253.8
  0
ARC
  8
1
  6
CONTINUOUS
 62
     7
 10
-153.7333333333333
 20
261.3
 40
1.000000000000001
 50
90.0
 51
180.0
  0
LINE
  8
1
  6
CONTINUOUS
 62
     7
 10
-152.6333333333333
 20
262.3
 11
-153.7333333333333
 21
262.3
  0
ARC
  8
1
  6
CONTINUOUS
 62
     7
 10
-152.6333333333333
 20
257.3
 40
4.999999999999997
 50
18.0
 51
90.0
  0
ARC
  8
1
  6
CONTINUOUS
 62
     7
 10
-152.6333333333333
 20
257.3
 40
5.000000000000002
 50
2.638732881323278
 51
18.0
  0
ARC
  8
1
  6
CONTINUOUS
 62
     7
 10
-152.6333333333333
 20
257.3
 40
5.000000000000004
 50
0.0
 51
2.638732881323108
  0
LINE
  8
1
  6
CONTINUOUS
 62
     7
 10
-147.6333333333333
 20
152.7
 11
-147.6333333333333
 21
257.3
  0
ARC
  8
1
  6
CONTINUOUS
 62
     7
 10
-152.6333333333333
 20
152.7
 40
5.000000000000004
 50
357.3615917173228
 51
0.0
  0
ARC
  8
1
  6
CONTINUOUS
 62
     7
 10
-152.6333333333333
 20
152.7
 40
5.000000000000005
 50
270.0
 51
357.3615917173229
  0
LINE
  8
1
  6
CONTINUOUS
 62
     7
 10
-153.7333333333333
 20
147.7
 11
-152.6333333333334
 21
147.7
  0
ARC
  8
1
  6
CONTINUOUS
 62
     7
 10
-153.7333333333333
 20
148.7
 40
1.000000000000001
 50
180.0
 51
270.0
  0
LINE
  8
1
  6
CONTINUOUS
 62
     7
 10
-154.7333333333333
 20
156.2
 11
-154.7333333333333
 21
148.7
  0
LINE
  8
1
  6
CONTINUOUS
 62
     7
 10
-160.1333333333334
 20
156.2
 11
-154.7333333333333
 21
156.2
  0
LINE
  8
1
  6
CONTINUOUS
 62
     7
 10
-160.1333333333334
 20
152.2
 11
-160.1333333333334
 21
156.2
  0
ARC
  8
1
  6
CONTINUOUS
 62
     7
 10
-161.1333333333334
 20
152.2
 40
1.000000000000001
 50
270.0
 51
0.0
  0
LINE
  8
1
  6
CONTINUOUS
 62
     7
 10
-169.1333333333334
 20
151.2
 11
-161.1333333333334
 21
151.2
  0
LINE
  8
1
  6
CONTINUOUS
 62
     7
 10
-169.1333333333334
 20
148.7
 11
-169.1333333333334
 21
151.2
  0
ARC
  8
1
  6
CONTINUOUS
 62
     7
 10
-170.1333333333334
 20
148.7
 40
1.000000000000001
 50
270.0
 51
0.0
  0
LINE
  8
1
  6
CONTINUOUS
 62
     7
 10
-174.9333333333334
 20
147.7
 11
-170.1333333333334
 21
147.7
  0
ARC
  8
1
  6
CONTINUOUS
 62
     7
 10
-174.9333333333334
 20
148.7
 40
1.000000000000001
 50
180.0
 51
270.0
  0
LINE
  8
1
  6
CONTINUOUS
 62
     7
 10
-179.4333333333334
 20
158.8
 11
-179.4333333333334
 21
155.645643923739
  0
LINE
  8
1
  6
CONTINUOUS
 62
     7
 10
-175.9333333333334
 20
261.3
 11
-175.9333333333334
 21
258.8
  0
LINE
  8
1
  6
CONTINUOUS
 62
     7
 10
-175.9333333333334
 20
151.2
 11
-175.9333333333334
 21
148.7
  0
LINE
  8
1
  6
CONTINUOUS
 62
     7
 10
-175.9333333333334
 20
258.8
 11
-178.4333333333334
 21
258.8
  0
LINE
  8
1
  6
CONTINUOUS
 62
     7
 10
-179.4333333333334
 20
153.354356076261
 11
-179.4333333333334
 21
152.2
  0
LINE
  8
1
  6
CONTINUOUS
 62
     7
 10
-178.4333333333334
 20
151.2
 11
-175.9333333333334
 21
151.2
  0
LINE
  8
1
  6
CONTINUOUS
 62
     7
 10
-275.7333333333333
 20
151.2
 11
-275.7333333333333
 21
148.7
  0
ARC
  8
1
  6
CONTINUOUS
 62
     7
 10
-276.7333333333333
 20
148.7
 40
1.000000000000001
 50
270.0
 51
0.0
  0
LINE
  8
1
  6
CONTINUOUS
 62
     7
 10
-276.7333333333333
 20
147.7
 11
-281.5333333333334
 21
147.7
  0
ARC
  8
1
  6
CONTINUOUS
 62
     7
 10
-281.5333333333334
 20
148.7
 40
1.000000000000001
 50
180.0
 51
270.0
  0
LINE
  8
1
  6
CONTINUOUS
 62
     7
 10
-282.5333333333334
 20
148.7
 11
-282.5333333333334
 21
151.2
  0
LINE
  8
1
  6
CONTINUOUS
 62
     7
 10
-282.5333333333334
 20
151.2
 11
-290.5333333333334
 21
151.2
  0
ARC
  8
1
  6
CONTINUOUS
 62
     7
 10
-290.5333333333334
 20
152.2
 40
1.000000000000001
 50
180.0
 51
270.0
  0
LINE
  8
1
  6
CONTINUOUS
 62
     7
 10
-291.5333333333334
 20
152.2
 11
-291.5333333333334
 21
156.2
  0
LINE
  8
1
  6
CONTINUOUS
 62
     7
 10
-291.5333333333334
 20
156.2
 11
-296.9333333333334
 21
156.2
  0
LINE
  8
1
  6
CONTINUOUS
 62
     7
 10
-296.9333333333334
 20
156.2
 11
-296.9333333333334
 21
148.7
  0
ARC
  8
1
  6
CONTINUOUS
 62
     7
 10
-297.9333333333334
 20
148.7
 40
1.000000000000001
 50
270.0
 51
0.0
  0
LINE
  8
1
  6
CONTINUOUS
 62
     7
 10
-297.9333333333334
 20
147.7
 11
-299.0333333333334
 21
147.7
  0
ARC
  8
1
  6
CONTINUOUS
 62
     7
 10
-299.0333333333334
 20
152.7
 40
5.000000000000004
 50
180.0
 51
182.6387328813233
  0
ARC
  8
1
  6
CONTINUOUS
 62
     7
 10
-299.0333333333334
 20
152.7
 40
5.000000000000005
 50
182.6387328813233
 51
269.9999999999999
  0
LINE
  8
1
  6
CONTINUOUS
 62
     7
 10
-304.0333333333334
 20
152.7
 11
-304.0333333333334
 21
257.3
  0
ARC
  8
1
  6
CONTINUOUS
 62
     7
 10
-299.0333333333334
 20
257.3
 40
4.999999999999997
 50
90.0
 51
177.3615917173231
  0
ARC
  8
1
  6
CONTINUOUS
 62
     7
 10
-299.0333333333334
 20
257.3
 40
5.000000000000004
 50
177.361591717323
 51
180.0
  0
LINE
  8
1
  6
CONTINUOUS
 62
     7
 10
-299.0333333333334
 20
262.3
 11
-297.9333333333334
 21
262.3
  0
ARC
  8
1
  6
CONTINUOUS
 62
     7
 10
-297.9333333333334
 20
261.3
 40
1.000000000000001
 50
0.0
 51
90.0
  0
LINE
  8
1
  6
CONTINUOUS
 62
     7
 10
-296.9333333333334
 20
261.3
 11
-296.9333333333334
 21
253.8
  0
LINE
  8
1
  6
CONTINUOUS
 62
     7
 10
-296.9333333333334
 20
253.8
 11
-291.5333333333334
 21
253.8
  0
LINE
  8
1
  6
CONTINUOUS
 62
     7
 10
-291.5333333333334
 20
253.8
 11
-291.5333333333334
 21
257.8
  0
ARC
  8
1
  6
CONTINUOUS
 62
     7
 10
-290.5333333333334
 20
257.8
 40
1.000000000000001
 50
90.0
 51
180.0
  0
LINE
  8
1
  6
CONTINUOUS
 62
     7
 10
-290.5333333333334
 20
258.8
 11
-282.5333333333334
 21
258.8
  0
LINE
  8
1
  6
CONTINUOUS
 62
     7
 10
-282.5333333333334
 20
258.8
 11
-282.5333333333334
 21
261.3
  0
ARC
  8
1
  6
CONTINUOUS
 62
     7
 10
-281.5333333333334
 20
261.3
 40
1.000000000000001
 50
90.0
 51
180.0
  0
LINE
  8
1
  6
CONTINUOUS
 62
     7
 10
-281.5333333333334
 20
262.3
 11
-276.7333333333333
 21
262.3
  0
ARC
  8
1
  6
CONTINUOUS
 62
     7
 10
-276.7333333333333
 20
261.3
 40
1.000000000000001
 50
0.0
 51
90.0
  0
LINE
  8
1
  6
CONTINUOUS
 62
     7
 10
-275.7333333333333
 20
261.3
 11
-275.7333333333333
 21
258.8
  0
LINE
  8
1
  6
CONTINUOUS
 62
     7
 10
-275.7333333333333
 20
258.8
 11
-273.2333333333333
 21
258.8
  0
ARC
  8
1
  6
CONTINUOUS
 62
     7
 10
-273.2333333333333
 20
257.8
 40
1.000000000000001
 50
0.0
 51
90.00000000000043
  0
ARC
  8
1
  6
CONTINUOUS
 62
     7
 10
-271.7333333333333
 20
255.5
 40
1.250000000000002
 50
113.5781784782018
 51
246.4218215217982
  0
ARC
  8
1
  6
CONTINUOUS
 62
     7
 10
-273.2333333333333
 20
251.2
 40
1.000000000000001
 50
269.9999999999996
 51
0.0
  0
LINE
  8
1
  6
CONTINUOUS
 62
     7
 10
-282.5333333333334
 20
250.2
 11
-273.2333333333334
 21
250.2
  0
LINE
  8
1
  6
CONTINUOUS
 62
     7
 10
-282.5333333333334
 20
245.2
 11
-282.5333333333334
 21
250.2
  0
ARC
  8
1
  6
CONTINUOUS
 62
     7
 10
-283.5333333333334
 20
245.2
 40
1.000000000000001
 50
270.0
 51
0.0
  0
LINE
  8
1
  6
CONTINUOUS
 62
     7
 10
-296.9333333333334
 20
244.2
 11
-283.5333333333334
 21
244.2
  0
LINE
  8
1
  6
CONTINUOUS
 62
     7
 10
-296.9333333333334
 20
165.8
 11
-296.9333333333334
 21
244.2
  0
LINE
  8
1
  6
CONTINUOUS
 62
     7
 10
-283.5333333333334
 20
165.8
 11
-296.9333333333334
 21
165.8
  0
ARC
  8
1
  6
CONTINUOUS
 62
     7
 10
-283.5333333333334
 20
164.8
 40
1.000000000000001
 50
0.0
 51
90.0
  0
LINE
  8
1
  6
CONTINUOUS
 62
     7
 10
-282.5333333333334
 20
159.8
 11
-282.5333333333334
 21
164.8
  0
LINE
  8
1
  6
CONTINUOUS
 62
     7
 10
-273.2333333333333
 20
159.8
 11
-282.5333333333333
 21
159.8
  0
ARC
  8
1
  6
CONTINUOUS
 62
     7
 10
-273.2333333333333
 20
158.8
 40
1.000000000000001
 50
0.0
 51
90.0
  0
ARC
  8
1
  6
CONTINUOUS
 62
     7
 10
-273.2333333333333
 20
152.2
 40
1.000000000000001
 50
270.0
 51
0.0
  0
LINE
  8
1
  6
CONTINUOUS
 62
     7
 10
-273.2333333333333
 20
151.2
 11
-275.7333333333333
 21
151.2
  0
LINE
  8
1
  6
CONTINUOUS
 62
     7
 10
-272.2333333333334
 20
158.8
 11
-272.2333333333334
 21
155.645643923739
  0
LINE
  8
1
  6
CONTINUOUS
 62
     7
 10
-272.2333333333334
 20
153.354356076261
 11
-272.2333333333334
 21
152.2
  0
LINE
  8
1
  6
CONTINUOUS
 62
     7
 10
-272.2333333333333
 20
257.8
 11
-272.2333333333333
 21
256.645643923739
  0
LINE
  8
1
  6
CONTINUOUS
 62
     7
 10
-272.2333333333333
 20
254.354356076261
 11
-272.2333333333333
 21
251.2
  0
ARC
  8
1
  6
CONTINUOUS
 62
     7
 10
-271.7333333333333
 20
154.5
 40
1.250000000000002
 50
113.5781784782019
 51
246.4218215217978
  0
ARC
  8
1
  6
CONTINUOUS
 62
     7
 10
-299.3435545048843
 20
152.6897762676701
 40
7.489783241997173
 50
180.062200941843
 51
270.078190536949
  0
LINE
  8
1
  6
CONTINUOUS
 62
     7
 10
-306.8333333333333
 20
152.6816452764469
 11
-306.8333333333333
 21
152.9059051689322
  0
LINE
  8
1
  6
CONTINUOUS
 62
     7
 10
-166.8333333333334
 20
149.0000000000001
 11
-166.8333333333334
 21
151.0000000000001
  0
LINE
  8
1
  6
CONTINUOUS
 62
     7
 10
-166.8333333333334
 20
149.0
 11
-154.8333333333333
 21
149.0
  0
LINE
  8
1
  6
CONTINUOUS
 62
     7
 10
-154.8333333333333
 20
149.0
 11
-154.8333333333333
 21
148.5
  0
POLYLINE
  8
1
  6
CONTINUOUS
 62
     7
 66
     1
  0
VERTEX
  8
1
  6
CONTINUOUS
 62
     7
 10
-153.8333333333333
 20
147.5
  0
VERTEX
  8
1
  6
CONTINUOUS
 62
     7
 10
-153.8812750748802
 20
147.5011740070057
  0
VERTEX
  8
1
  6
CONTINUOUS
 62
     7
 10
-153.9292412973683
 20
147.5046772431803
  0
VERTEX
  8
1
  6
CONTINUOUS
 62
     7
 10
-153.9770678751303
 20
147.5104815312594
  0
VERTEX
  8
1
  6
CONTINUOUS
 62
     7
 10
-154.024590682499
 20
147.5185586939792
  0
VERTEX
  8
1
  6
CONTINUOUS
 62
     7
 10
-154.0716455938072
 20
147.5288805540755
  0
VERTEX
  8
1
  6
CONTINUOUS
 62
     7
 10
-154.1180684833876
 20
147.5414189342842
  0
VERTEX
  8
1
  6
CONTINUOUS
 62
     7
 10
-154.1636952255729
 20
147.5561456573412
  0
VERTEX
  8
1
  6
CONTINUOUS
 62
     7
 10
-154.2085408761423
 20
147.5730850068158
  0
VERTEX
  8
1
  6
CONTINUOUS
 62
     7
 10
-154.2526370724713
 20
147.5922274443861
  0
VERTEX
  8
1
  6
CONTINUOUS
 62
     7
 10
-154.2958389832978
 20
147.613492107579
  0
VERTEX
  8
1
  6
CONTINUOUS
 62
     7
 10
-154.3380017773596
 20
147.6367981339211
  0
VERTEX
  8
1
  6
CONTINUOUS
 62
     7
 10
-154.3789806233945
 20
147.6620646609394
  0
VERTEX
  8
1
  6
CONTINUOUS
 62
     7
 10
-154.4186306901405
 20
147.6892108261607
  0
VERTEX
  8
1
  6
CONTINUOUS
 62
     7
 10
-154.4568071463353
 20
147.7181557671116
  0
VERTEX
  8
1
  6
CONTINUOUS
 62
     7
 10
-154.4935606739335
 20
147.7489659018163
  0
VERTEX
  8
1
  6
CONTINUOUS
 62
     7
 10
-154.5288766263821
 20
147.78160813739
  0
VERTEX
  8
1
  6
CONTINUOUS
 62
     7
 10
-154.5626453302176
 20
147.8159585245708
  0
VERTEX
  8
1
  6
CONTINUOUS
 62
     7
 10
-154.5947571119766
 20
147.8518931140964
  0
VERTEX
  8
1
  6
CONTINUOUS
 62
     7
 10
-154.6251022981958
 20
147.8892879567049
  0
VERTEX
  8
1
  6
CONTINUOUS
 62
     7
 10
-154.6535712154118
 20
147.9280191031341
  0
VERTEX
  8
1
  6
CONTINUOUS
 62
     7
 10
-154.6800541901612
 20
147.9679626041219
  0
VERTEX
  8
1
  6
CONTINUOUS
 62
     7
 10
-154.7046073593867
 20
148.0092517156425
  0
VERTEX
  8
1
  6
CONTINUOUS
 62
     7
 10
-154.7271923635483
 20
148.0518000032142
  0
VERTEX
  8
1
  6
CONTINUOUS
 62
     7
 10
-154.7477462917583
 20
148.095453985356
  0
VERTEX
  8
1
  6
CONTINUOUS
 62
     7
 10
-154.7662062331287
 20
148.1400601805867
  0
VERTEX
  8
1
  6
CONTINUOUS
 62
     7
 10
-154.7825092767717
 20
148.1854651074255
  0
VERTEX
  8
1
  6
CONTINUOUS
 62
     7
 10
-154.7965925117996
 20
148.2315152843912
  0
VERTEX
  8
1
  6
CONTINUOUS
 62
     7
 10
-154.8083930273244
 20
148.2780572300028
  0
VERTEX
  8
1
  6
CONTINUOUS
 62
     7
 10
-154.8173321322925
 20
148.3218693842193
  0
VERTEX
  8
1
  6
CONTINUOUS
 62
     7
 10
-154.8243104923257
 20
148.3661023622168
  0
VERTEX
  8
1
  6
CONTINUOUS
 62
     7
 10
-154.8293133304756
 20
148.4106235401059
  0
VERTEX
  8
1
  6
CONTINUOUS
 62
     7
 10
-154.8323258697942
 20
148.4553002939968
  0
VERTEX
  8
1
  6
CONTINUOUS
 62
     7
 10
-154.8333333333333
 20
148.5
  0
SEQEND
  8
1
  6
CONTINUOUS
 62
     7
  0
LINE
  8
1
  6
CONTINUOUS
 62
     7
 10
-152.5833333333333
 20
147.5
 11
-153.8333333333333
 21
147.5
  0
ARC
  8
1
  6
CONTINUOUS
 62
     7
 10
-152.5841500797745
 20
152.5008167464411
 40
5.000816813137716
 50
270.0093576961456
 51
359.9906423038544
  0
LINE
  8
1
  6
CONTINUOUS
 62
     7
 10
-147.5833333333333
 20
152.5000000000005
 11
-147.5833333333333
 21
257.5
  0
ARC
  8
1
  6
CONTINUOUS
 62
     7
 10
-152.5833333333334
 20
257.5
 40
5.000000000000025
 50
14.96647508027973
 51
89.99999999999982
  0
LINE
  8
1
  6
CONTINUOUS
 62
     7
 10
-147.7529478273841
 20
258.7912690904359
 11
-147.5833333333333
 21
257.5
  0
LINE
  8
1
  6
CONTINUOUS
 62
     7
 10
-153.8333333333333
 20
262.5
 11
-152.5833333333333
 21
262.5
  0
POLYLINE
  8
1
  6
CONTINUOUS
 62
     7
 66
     1
  0
VERTEX
  8
1
  6
CONTINUOUS
 62
     7
 10
-154.8333333333333
 20
261.5
  0
VERTEX
  8
1
  6
CONTINUOUS
 62
     7
 10
-154.8321504682104
 20
261.5481274174538
  0
VERTEX
  8
1
  6
CONTINUOUS
 62
     7
 10
-154.828620432519
 20
261.5962793960655
  0
VERTEX
  8
1
  6
CONTINUOUS
 62
     7
 10
-154.8227710657755
 20
261.6442913287482
  0
VERTEX
  8
1
  6
CONTINUOUS
 62
     7
 10
-154.8146302074963
 20
261.691998608415
  0
VERTEX
  8
1
  6
CONTINUOUS
 62
     7
 10
-154.8042256971977
 20
261.7392366279788
  0
VERTEX
  8
1
  6
CONTINUOUS
 62
     7
 10
-154.7915853743961
 20
261.7858407803527
  0
VERTEX
  8
1
  6
CONTINUOUS
 62
     7
 10
-154.7767370786077
 20
261.8316464584498
  0
VERTEX
  8
1
  6
CONTINUOUS
 62
     7
 10
-154.7596536666443
 20
261.8766726097123
  0
VERTEX
  8
1
  6
CONTINUOUS
 62
     7
 10
-154.7403444853024
 20
261.9209466338268
  0
VERTEX
  8
1
  6
CONTINUOUS
 62
     7
 10
-154.718890302927
 20
261.9643217398544
  0
VERTEX
  8
1
  6
CONTINUOUS
 62
     7
 10
-154.6953718878629
 20
262.0066511368564
  0
VERTEX
  8
1
  6
CONTINUOUS
 62
     7
 10
-154.6698700084554
 20
262.0477880338939
  0
VERTEX
  8
1
  6
CONTINUOUS
 62
     7
 10
-154.6424654330494
 20
262.0875856400281
  0
VERTEX
  8
1
  6
CONTINUOUS
 62
     7
 10
-154.6132389299899
 20
262.12589716432
  0
VERTEX
  8
1
  6
CONTINUOUS
 62
     7
 10
-154.5821950310403
 20
262.1626896021422
  0
VERTEX
  8
1
  6
CONTINUOUS
 62
     7
 10
-154.5493007191875
 20
262.1980367248958
  0
VERTEX
  8
1
  6
CONTINUOUS
 62
     7
 10
-154.5146810939904
 20
262.2318264842616
  0
VERTEX
  8
1
  6
CONTINUOUS
 62
     7
 10
-154.4784612550081
 20
262.2639468319205
  0
VERTEX
  8
1
  6
CONTINUOUS
 62
     7
 10
-154.4407663017994
 20
262.2942857195529
  0
VERTEX
  8
1
  6
CONTINUOUS
 62
     7
 10
-154.4017213339235
 20
262.3227310988398
  0
VERTEX
  8
1
  6
CONTINUOUS
 62
     7
 10
-154.3614514509392
 20
262.3491709214619
  0
VERTEX
  8
1
  6
CONTINUOUS
 62
     7
 10
-154.3200276123028
 20
262.3735445359199
  0
VERTEX
  8
1
  6
CONTINUOUS
 62
     7
 10
-154.2773420049909
 20
262.3959469493393
  0
VERTEX
  8
1
  6
CONTINUOUS
 62
     7
 10
-154.2335495887557
 20
262.4163142568062
  0
VERTEX
  8
1
  6
CONTINUOUS
 62
     7
 10
-154.1888053233493
 20
262.4345825534067
  0
VERTEX
  8
1
  6
CONTINUOUS
 62
     7
 10
-154.1432641685238
 20
262.4506879342269
  0
VERTEX
  8
1
  6
CONTINUOUS
 62
     7
 10
-154.0970810840314
 20
262.4645664943528
  0
VERTEX
  8
1
  6
CONTINUOUS
 62
     7
 10
-154.0504110296242
 20
262.4761543288707
  0
VERTEX
  8
1
  6
CONTINUOUS
 62
     7
 10
-154.0075394233075
 20
262.4847017118029
  0
VERTEX
  8
1
  6
CONTINUOUS
 62
     7
 10
-153.9642706309287
 20
262.4913738673848
  0
VERTEX
  8
1
  6
CONTINUOUS
 62
     7
 10
-153.9207298720791
 20
262.4961568986135
  0
VERTEX
  8
1
  6
CONTINUOUS
 62
     7
 10
-153.8770423663501
 20
262.4990369084862
  0
VERTEX
  8
1
  6
CONTINUOUS
 62
     7
 10
-153.8333333333333
 20
262.5
  0
SEQEND
  8
1
  6
CONTINUOUS
 62
     7
  0
LINE
  8
1
  6
CONTINUOUS
 62
     7
 10
-154.8333333333333
 20
261.5
 11
-154.8333333333333
 21
261.0
  0
LINE
  8
1
  6
CONTINUOUS
 62
     7
 10
-154.8333333333333
 20
261.0
 11
-166.8333333333334
 21
261.0
  0
LINE
  8
1
  6
CONTINUOUS
 62
     7
 10
-166.8333333333334
 20
259.0
 11
-166.8333333333334
 21
261.0
  0
LINE
  8
1
  6
CONTINUOUS
 62
     7
 10
-168.3333333333334
 20
259.0
 11
-166.8333333333333
 21
259.0
  0
POLYLINE
  8
1
  6
CONTINUOUS
 62
     7
 66
     1
  0
VERTEX
  8
1
  6
CONTINUOUS
 62
     7
 10
-168.8333333333334
 20
259.5
  0
VERTEX
  8
1
  6
CONTINUOUS
 62
     7
 10
-168.8327421445957
 20
259.4759413805593
  0
VERTEX
  8
1
  6
CONTINUOUS
 62
     7
 10
-168.830977848525
 20
259.4518703232721
  0
VERTEX
  8
1
  6
CONTINUOUS
 62
     7
 10
-168.8280543503342
 20
259.4278691213756
  0
VERTEX
  8
1
  6
CONTINUOUS
 62
     7
 10
-168.8239855552365
 20
259.4040200681067
  0
VERTEX
  8
1
  6
CONTINUOUS
 62
     7
 10
-168.8187853684451
 20
259.3804054567022
  0
VERTEX
  8
1
  6
CONTINUOUS
 62
     7
 10
-168.8124676951732
 20
259.3571075803993
  0
VERTEX
  8
1
  6
CONTINUOUS
 62
     7
 10
-168.8050464406338
 20
259.3342087324347
  0
VERTEX
  8
1
  6
CONTINUOUS
 62
     7
 10
-168.7965080418081
 20
259.3116994617517
  0
VERTEX
  8
1
  6
CONTINUOUS
 62
     7
 10
-168.7868571868655
 20
259.2895660732866
  0
VERTEX
  8
1
  6
CONTINUOUS
 62
     7
 10
-168.7761342613396
 20
259.267881943631
  0
VERTEX
  8
1
  6
CONTINUOUS
 62
     7
 10
-168.7643796507639
 20
259.2467204493767
  0
VERTEX
  8
1
  6
CONTINUOUS
 62
     7
 10
-168.7516337406719
 20
259.2261549671153
  0
VERTEX
  8
1
  6
CONTINUOUS
 62
     7
 10
-168.7379369165974
 20
259.2062588734387
  0
VERTEX
  8
1
  6
CONTINUOUS
 62
     7
 10
-168.7233295640739
 20
259.1871055449386
  0
VERTEX
  8
1
  6
CONTINUOUS
 62
     7
 10
-168.7078134559728
 20
259.1687108743322
  0
VERTEX
  8
1
  6
CONTINUOUS
 62
     7
 10
-168.6913726031885
 20
259.1510386146944
  0
VERTEX
  8
1
  6
CONTINUOUS
 62
     7
 10
-168.6740695328406
 20
259.1341447389331
  0
VERTEX
  8
1
  6
CONTINUOUS
 62
     7
 10
-168.6559667720487
 20
259.1180852199564
  0
VERTEX
  8
1
  6
CONTINUOUS
 62
     7
 10
-168.6371268479326
 20
259.102916030672
  0
VERTEX
  8
1
  6
CONTINUOUS
 62
     7
 10
-168.6176122876116
 20
259.0886931439881
  0
VERTEX
  8
1
  6
CONTINUOUS
 62
     7
 10
-168.5974856182057
 20
259.0754725328124
  0
VERTEX
  8
1
  6
CONTINUOUS
 62
     7
 10
-168.5767777373583
 20
259.0632819217291
  0
VERTEX
  8
1
  6
CONTINUOUS
 62
     7
 10
-168.5554391196223
 20
259.0520767746609
  0
VERTEX
  8
1
  6
CONTINUOUS
 62
     7
 10
-168.5335472005063
 20
259.041889012001
  0
VERTEX
  8
1
  6
CONTINUOUS
 62
     7
 10
-168.5111794155189
 20
259.0327505541422
  0
VERTEX
  8
1
  6
CONTINUOUS
 62
     7
 10
-168.4884132001686
 20
259.0246933214775
  0
VERTEX
  8
1
  6
CONTINUOUS
 62
     7
 10
-168.4653259899641
 20
259.0177492343997
  0
VERTEX
  8
1
  6
CONTINUOUS
 62
     7
 10
-168.441995220414
 20
259.0119502133019
  0
VERTEX
  8
1
  6
CONTINUOUS
 62
     7
 10
-168.4205355856906
 20
259.0076667182905
  0
VERTEX
  8
1
  6
CONTINUOUS
 62
     7
 10
-168.3988767905335
 20
259.0043229812881
  0
VERTEX
  8
1
  6
CONTINUOUS
 62
     7
 10
-168.37708162403
 20
259.0019259704612
  0
VERTEX
  8
1
  6
CONTINUOUS
 62
     7
 10
-168.3552128752674
 20
259.0004826539764
  0
VERTEX
  8
1
  6
CONTINUOUS
 62
     7
 10
-168.3333333333334
 20
259.0
  0
SEQEND
  8
1
  6
CONTINUOUS
 62
     7
  0
LINE
  8
1
  6
CONTINUOUS
 62
     7
 10
-168.8333333333334
 20
259.5
 11
-168.8333333333334
 21
261.5
  0
POLYLINE
  8
1
  6
CONTINUOUS
 62
     7
 66
     1
  0
VERTEX
  8
1
  6
CONTINUOUS
 62
     7
 10
-169.8333333333334
 20
262.5
  0
VERTEX
  8
1
  6
CONTINUOUS
 62
     7
 10
-169.7853915917865
 20
262.4988259929943
  0
VERTEX
  8
1
  6
CONTINUOUS
 62
     7
 10
-169.7374253692984
 20
262.4953227568197
  0
VERTEX
  8
1
  6
CONTINUOUS
 62
     7
 10
-169.6895987915364
 20
262.4895184687406
  0
VERTEX
  8
1
  6
CONTINUOUS
 62
     7
 10
-169.6420759841677
 20
262.4814413060208
  0
VERTEX
  8
1
  6
CONTINUOUS
 62
     7
 10
-169.5950210728595
 20
262.4711194459246
  0
VERTEX
  8
1
  6
CONTINUOUS
 62
     7
 10
-169.5485981832792
 20
262.4585810657159
  0
VERTEX
  8
1
  6
CONTINUOUS
 62
     7
 10
-169.5029714410938
 20
262.4438543426588
  0
VERTEX
  8
1
  6
CONTINUOUS
 62
     7
 10
-169.4581257905244
 20
262.4269149931843
  0
VERTEX
  8
1
  6
CONTINUOUS
 62
     7
 10
-169.4140295941954
 20
262.4077725556139
  0
VERTEX
  8
1
  6
CONTINUOUS
 62
     7
 10
-169.3708276833689
 20
262.3865078924211
  0
VERTEX
  8
1
  6
CONTINUOUS
 62
     7
 10
-169.3286648893071
 20
262.3632018660789
  0
VERTEX
  8
1
  6
CONTINUOUS
 62
     7
 10
-169.2876860432721
 20
262.3379353390606
  0
VERTEX
  8
1
  6
CONTINUOUS
 62
     7
 10
-169.2480359765262
 20
262.3107891738394
  0
VERTEX
  8
1
  6
CONTINUOUS
 62
     7
 10
-169.2098595203314
 20
262.2818442328884
  0
VERTEX
  8
1
  6
CONTINUOUS
 62
     7
 10
-169.1731059927332
 20
262.2510340981837
  0
VERTEX
  8
1
  6
CONTINUOUS
 62
     7
 10
-169.1377900402846
 20
262.21839186261
  0
VERTEX
  8
1
  6
CONTINUOUS
 62
     7
 10
-169.1040213364492
 20
262.1840414754292
  0
VERTEX
  8
1
  6
CONTINUOUS
 62
     7
 10
-169.0719095546901
 20
262.1481068859036
  0
VERTEX
  8
1
  6
CONTINUOUS
 62
     7
 10
-169.0415643684709
 20
262.1107120432951
  0
VERTEX
  8
1
  6
CONTINUOUS
 62
     7
 10
-169.0130954512549
 20
262.071980896866
  0
VERTEX
  8
1
  6
CONTINUOUS
 62
     7
 10
-168.9866124765055
 20
262.0320373958781
  0
VERTEX
  8
1
  6
CONTINUOUS
 62
     7
 10
-168.96205930728
 20
261.9907482843576
  0
VERTEX
  8
1
  6
CONTINUOUS
 62
     7
 10
-168.9394743031184
 20
261.9481999967858
  0
VERTEX
  8
1
  6
CONTINUOUS
 62
     7
 10
-168.9189203749084
 20
261.9045460146441
  0
VERTEX
  8
1
  6
CONTINUOUS
 62
     7
 10
-168.900460433538
 20
261.8599398194133
  0
VERTEX
  8
1
  6
CONTINUOUS
 62
     7
 10
-168.884157389895
 20
261.8145348925746
  0
VERTEX
  8
1
  6
CONTINUOUS
 62
     7
 10
-168.8700741548671
 20
261.7684847156088
  0
VERTEX
  8
1
  6
CONTINUOUS
 62
     7
 10
-168.8582736393423
 20
261.7219427699973
  0
VERTEX
  8
1
  6
CONTINUOUS
 62
     7
 10
-168.8493345343742
 20
261.6781306157808
  0
VERTEX
  8
1
  6
CONTINUOUS
 62
     7
 10
-168.8423561743411
 20
261.6338976377832
  0
VERTEX
  8
1
  6
CONTINUOUS
 62
     7
 10
-168.8373533361911
 20
261.5893764598941
  0
VERTEX
  8
1
  6
CONTINUOUS
 62
     7
 10
-168.8343407968725
 20
261.5446997060033
  0
VERTEX
  8
1
  6
CONTINUOUS
 62
     7
 10
-168.8333333333334
 20
261.5
  0
SEQEND
  8
1
  6
CONTINUOUS
 62
     7
  0
LINE
  8
1
  6
CONTINUOUS
 62
     7
 10
-178.8333333333334
 20
262.5
 11
-169.8333333333334
 21
262.5
  0
POLYLINE
  8
1
  6
CONTINUOUS
 62
     7
 66
     1
  0
VERTEX
  8
1
  6
CONTINUOUS
 62
     7
 10
-179.8333333333334
 20
261.5
  0
VERTEX
  8
1
  6
CONTINUOUS
 62
     7
 10
-179.8321504682104
 20
261.5481274174538
  0
VERTEX
  8
1
  6
CONTINUOUS
 62
     7
 10
-179.828620432519
 20
261.5962793960655
  0
VERTEX
  8
1
  6
CONTINUOUS
 62
     7
 10
-179.8227710657755
 20
261.6442913287482
  0
VERTEX
  8
1
  6
CONTINUOUS
 62
     7
 10
-179.8146302074963
 20
261.691998608415
  0
VERTEX
  8
1
  6
CONTINUOUS
 62
     7
 10
-179.8042256971978
 20
261.7392366279788
  0
VERTEX
  8
1
  6
CONTINUOUS
 62
     7
 10
-179.7915853743961
 20
261.7858407803527
  0
VERTEX
  8
1
  6
CONTINUOUS
 62
     7
 10
-179.7767370786077
 20
261.8316464584498
  0
VERTEX
  8
1
  6
CONTINUOUS
 62
     7
 10
-179.7596536666444
 20
261.8766726097123
  0
VERTEX
  8
1
  6
CONTINUOUS
 62
     7
 10
-179.7403444853024
 20
261.9209466338268
  0
VERTEX
  8
1
  6
CONTINUOUS
 62
     7
 10
-179.718890302927
 20
261.9643217398544
  0
VERTEX
  8
1
  6
CONTINUOUS
 62
     7
 10
-179.6953718878629
 20
262.0066511368564
  0
VERTEX
  8
1
  6
CONTINUOUS
 62
     7
 10
-179.6698700084554
 20
262.0477880338939
  0
VERTEX
  8
1
  6
CONTINUOUS
 62
     7
 10
-179.6424654330494
 20
262.0875856400281
  0
VERTEX
  8
1
  6
CONTINUOUS
 62
     7
 10
-179.6132389299899
 20
262.12589716432
  0
VERTEX
  8
1
  6
CONTINUOUS
 62
     7
 10
-179.5821950310403
 20
262.1626896021422
  0
VERTEX
  8
1
  6
CONTINUOUS
 62
     7
 10
-179.5493007191875
 20
262.1980367248958
  0
VERTEX
  8
1
  6
CONTINUOUS
 62
     7
 10
-179.5146810939904
 20
262.2318264842616
  0
VERTEX
  8
1
  6
CONTINUOUS
 62
     7
 10
-179.4784612550081
 20
262.2639468319205
  0
VERTEX
  8
1
  6
CONTINUOUS
 62
     7
 10
-179.4407663017994
 20
262.2942857195529
  0
VERTEX
  8
1
  6
CONTINUOUS
 62
     7
 10
-179.4017213339235
 20
262.3227310988398
  0
VERTEX
  8
1
  6
CONTINUOUS
 62
     7
 10
-179.3614514509392
 20
262.3491709214619
  0
VERTEX
  8
1
  6
CONTINUOUS
 62
     7
 10
-179.3200276123028
 20
262.3735445359199
  0
VERTEX
  8
1
  6
CONTINUOUS
 62
     7
 10
-179.2773420049909
 20
262.3959469493393
  0
VERTEX
  8
1
  6
CONTINUOUS
 62
     7
 10
-179.2335495887557
 20
262.4163142568062
  0
VERTEX
  8
1
  6
CONTINUOUS
 62
     7
 10
-179.1888053233493
 20
262.4345825534067
  0
VERTEX
  8
1
  6
CONTINUOUS
 62
     7
 10
-179.1432641685238
 20
262.4506879342269
  0
VERTEX
  8
1
  6
CONTINUOUS
 62
     7
 10
-179.0970810840314
 20
262.4645664943528
  0
VERTEX
  8
1
  6
CONTINUOUS
 62
     7
 10
-179.0504110296242
 20
262.4761543288707
  0
VERTEX
  8
1
  6
CONTINUOUS
 62
     7
 10
-179.0075394233076
 20
262.4847017118029
  0
VERTEX
  8
1
  6
CONTINUOUS
 62
     7
 10
-178.9642706309287
 20
262.4913738673848
  0
VERTEX
  8
1
  6
CONTINUOUS
 62
     7
 10
-178.9207298720791
 20
262.4961568986135
  0
VERTEX
  8
1
  6
CONTINUOUS
 62
     7
 10
-178.8770423663502
 20
262.4990369084862
  0
VERTEX
  8
1
  6
CONTINUOUS
 62
     7
 10
-178.8333333333334
 20
262.5
  0
SEQEND
  8
1
  6
CONTINUOUS
 62
     7
  0
LINE
  8
1
  6
CONTINUOUS
 62
     7
 10
-179.8333333333334
 20
261.5
 11
-179.8333333333334
 21
256.75
  0
ARC
  8
1
  6
CONTINUOUS
 62
     7
 10
-179.8333254861344
 20
255.5
 40
1.250000000024633
 50
90.00035968910352
 51
269.9996403108964
  0
LINE
  8
1
  6
CONTINUOUS
 62
     7
 10
-179.8333333333334
 20
254.25
 11
-179.8333333333334
 21
251.0
  0
POLYLINE
  8
1
  6
CONTINUOUS
 62
     7
 66
     1
  0
VERTEX
  8
1
  6
CONTINUOUS
 62
     7
 10
-178.8333333333334
 20
250.0
  0
VERTEX
  8
1
  6
CONTINUOUS
 62
     7
 10
-178.8813103970371
 20
250.0011756888459
  0
VERTEX
  8
1
  6
CONTINUOUS
 62
     7
 10
-178.9293120027442
 20
250.0046840183715
  0
VERTEX
  8
1
  6
CONTINUOUS
 62
     7
 10
-178.9771739348674
 20
250.0104968830589
  0
VERTEX
  8
1
  6
CONTINUOUS
 62
     7
 10
-179.0247319778192
 20
250.0185861773903
  0
VERTEX
  8
1
  6
CONTINUOUS
 62
     7
 10
-179.0718219160124
 20
250.0289237958476
  0
VERTEX
  8
1
  6
CONTINUOUS
 62
     7
 10
-179.1182795338597
 20
250.041481632913
  0
VERTEX
  8
1
  6
CONTINUOUS
 62
     7
 10
-179.1639406157739
 20
250.0562315830686
  0
VERTEX
  8
1
  6
CONTINUOUS
 62
     7
 10
-179.2088210252089
 20
250.0731985164527
  0
VERTEX
  8
1
  6
CONTINUOUS
 62
     7
 10
-179.2529515030106
 20
250.0923729105457
  0
VERTEX
  8
1
  6
CONTINUOUS
 62
     7
 10
-179.2961868236005
 20
250.1136739056992
  0
VERTEX
  8
1
  6
CONTINUOUS
 62
     7
 10
-179.3383817613998
 20
250.1370206422643
  0
VERTEX
  8
1
  6
CONTINUOUS
 62
     7
 10
-179.37939109083
 20
250.1623322605925
  0
VERTEX
  8
1
  6
CONTINUOUS
 62
     7
 10
-179.4190695863124
 20
250.189527901035
  0
VERTEX
  8
1
  6
CONTINUOUS
 62
     7
 10
-179.4572720222684
 20
250.2185267039431
  0
VERTEX
  8
1
  6
CONTINUOUS
 62
     7
 10
-179.4940317867217
 20
250.249380450508
  0
VERTEX
  8
1
  6
CONTINUOUS
 62
     7
 10
-179.5293525122192
 20
250.2820695843119
  0
VERTEX
  8
1
  6
CONTINUOUS
 62
     7
 10
-179.5631240849363
 20
250.3164699087386
  0
VERTEX
  8
1
  6
CONTINUOUS
 62
     7
 10
-179.595236391048
 20
250.3524572271718
  0
VERTEX
  8
1
  6
CONTINUOUS
 62
     7
 10
-179.6255793167296
 20
250.3899073429951
  0
VERTEX
  8
1
  6
CONTINUOUS
 62
     7
 10
-179.6540427481562
 20
250.4286960595922
  0
VERTEX
  8
1
  6
CONTINUOUS
 62
     7
 10
-179.6805165715031
 20
250.4686991803468
  0
VERTEX
  8
1
  6
CONTINUOUS
 62
     7
 10
-179.705034354442
 20
250.5100107441986
  0
VERTEX
  8
1
  6
CONTINUOUS
 62
     7
 10
-179.7275835438389
 20
250.5525815103425
  0
VERTEX
  8
1
  6
CONTINUOUS
 62
     7
 10
-179.7481010951289
 20
250.5962577291865
  0
VERTEX
  8
1
  6
CONTINUOUS
 62
     7
 10
-179.766523963747
 20
250.6408856511383
  0
VERTEX
  8
1
  6
CONTINUOUS
 62
     7
 10
-179.7827891051284
 20
250.6863115266059
  0
VERTEX
  8
1
  6
CONTINUOUS
 62
     7
 10
-179.7968334747081
 20
250.7323816059969
  0
VERTEX
  8
1
  6
CONTINUOUS
 62
     7
 10
-179.8085940279213
 20
250.7789421397192
  0
VERTEX
  8
1
  6
CONTINUOUS
 62
     7
 10
-179.8174613145887
 20
250.8225839095516
  0
VERTEX
  8
1
  6
CONTINUOUS
 62
     7
 10
-179.824383462194
 20
250.8666418358015
  0
VERTEX
  8
1
  6
CONTINUOUS
 62
     7
 10
-179.8293458970067
 20
250.9109846631634
  0
VERTEX
  8
1
  6
CONTINUOUS
 62
     7
 10
-179.8323340452966
 20
250.9554811363314
  0
VERTEX
  8
1
  6
CONTINUOUS
 62
     7
 10
-179.8333333333334
 20
251.0
  0
SEQEND
  8
1
  6
CONTINUOUS
 62
     7
  0
LINE
  8
1
  6
CONTINUOUS
 62
     7
 10
-170.2333333333334
 20
250.0
 11
-178.8333333333334
 21
250.0
  0
POLYLINE
  8
1
  6
CONTINUOUS
 62
     7
 66
     1
  0
VERTEX
  8
1
  6
CONTINUOUS
 62
     7
 10
-169.2333333333334
 20
249.0
  0
VERTEX
  8
1
  6
CONTINUOUS
 62
     7
 10
-169.2345144650141
 20
249.0480911402647
  0
VERTEX
  8
1
  6
CONTINUOUS
 62
     7
 10
-169.2380392569574
 20
249.096206832693
  0
VERTEX
  8
1
  6
CONTINUOUS
 62
     7
 10
-169.243879804515
 20
249.144182565257
  0
VERTEX
  8
1
  6
CONTINUOUS
 62
     7
 10
-169.2520082030382
 20
249.1918538259292
  0
VERTEX
  8
1
  6
CONTINUOUS
 62
     7
 10
-169.2623965478788
 20
249.2390561026817
  0
VERTEX
  8
1
  6
CONTINUOUS
 62
     7
 10
-169.2750169343882
 20
249.2856248834868
  0
VERTEX
  8
1
  6
CONTINUOUS
 62
     7
 10
-169.2898414579182
 20
249.3313956563167
  0
VERTEX
  8
1
  6
CONTINUOUS
 62
     7
 10
-169.3068967057999
 20
249.3763866148441
  0
VERTEX
  8
1
  6
CONTINUOUS
 62
     7
 10
-169.3261732907723
 20
249.4206259763961
  0
VERTEX
  8
1
  6
CONTINUOUS
 62
     7
 10
-169.3475904237
 20
249.4639673318153
  0
VERTEX
  8
1
  6
CONTINUOUS
 62
     7
 10
-169.3710673154474
 20
249.5062642719439
  0
VERTEX
  8
1
  6
CONTINUOUS
 62
     7
 10
-169.396523176879
 20
249.5473703876242
  0
VERTEX
  8
1
  6
CONTINUOUS
 62
     7
 10
-169.423877218859
 20
249.5871392696987
  0
VERTEX
  8
1
  6
CONTINUOUS
 62
     7
 10
-169.4530486522522
 20
249.6254245090097
  0
VERTEX
  8
1
  6
CONTINUOUS
 62
     7
 10
-169.4840468158266
 20
249.6622093788637
  0
VERTEX
  8
1
  6
CONTINUOUS
 62
     7
 10
-169.5168917947055
 20
249.6975504480877
  0
VERTEX
  8
1
  6
CONTINUOUS
 62
     7
 10
-169.551458711237
 20
249.7313361347554
  0
VERTEX
  8
1
  6
CONTINUOUS
 62
     7
 10
-169.5876226877688
 20
249.7634548569406
  0
VERTEX
  8
1
  6
CONTINUOUS
 62
     7
 10
-169.6252588466489
 20
249.793795032717
  0
VERTEX
  8
1
  6
CONTINUOUS
 62
     7
 10
-169.6642423102252
 20
249.8222450801583
  0
VERTEX
  8
1
  6
CONTINUOUS
 62
     7
 10
-169.7044482008455
 20
249.8486934173382
  0
VERTEX
  8
1
  6
CONTINUOUS
 62
     7
 10
-169.7458455487065
 20
249.8731020673189
  0
VERTEX
  8
1
  6
CONTINUOUS
 62
     7
 10
-169.7885041182885
 20
249.8955401221142
  0
VERTEX
  8
1
  6
CONTINUOUS
 62
     7
 10
-169.8322692406435
 20
249.9159438752739
  0
VERTEX
  8
1
  6
CONTINUOUS
 62
     7
 10
-169.8769862468239
 20
249.9342496203477
  0
VERTEX
  8
1
  6
CONTINUOUS
 62
     7
 10
-169.9225004678818
 20
249.9503936508851
  0
VERTEX
  8
1
  6
CONTINUOUS
 62
     7
 10
-169.9686572348693
 20
249.9643122604359
  0
VERTEX
  8
1
  6
CONTINUOUS
 62
     7
 10
-170.0153018788386
 20
249.9759417425497
  0
VERTEX
  8
1
  6
CONTINUOUS
 62
     7
 10
-170.0583580257127
 20
249.9845652128561
  0
VERTEX
  8
1
  6
CONTINUOUS
 62
     7
 10
-170.1018158966853
 20
249.9912968371453
  0
VERTEX
  8
1
  6
CONTINUOUS
 62
     7
 10
-170.1455488396701
 20
249.9961225520262
  0
VERTEX
  8
1
  6
CONTINUOUS
 62
     7
 10
-170.1894302025815
 20
249.9990282941081
  0
VERTEX
  8
1
  6
CONTINUOUS
 62
     7
 10
-170.2333333333334
 20
250.0
  0
SEQEND
  8
1
  6
CONTINUOUS
 62
     7
  0
LINE
  8
1
  6
CONTINUOUS
 62
     7
 10
-169.2333333333334
 20
249.0
 11
-169.2333333333334
 21
245.0
  0
POLYLINE
  8
1
  6
CONTINUOUS
 62
     7
 66
     1
  0
VERTEX
  8
1
  6
CONTINUOUS
 62
     7
 10
-168.2333333333334
 20
244.0
  0
VERTEX
  8
1
  6
CONTINUOUS
 62
     7
 10
-168.2813246441873
 20
244.0011763678586
  0
VERTEX
  8
1
  6
CONTINUOUS
 62
     7
 10
-168.3293405199262
 20
244.0046867532174
  0
VERTEX
  8
1
  6
CONTINUOUS
 62
     7
 10
-168.3772167076826
 20
244.0105030787508
  0
VERTEX
  8
1
  6
CONTINUOUS
 62
     7
 10
-168.424788954589
 20
244.0185972671334
  0
VERTEX
  8
1
  6
CONTINUOUS
 62
     7
 10
-168.4718930077781
 20
244.0289412410396
  0
VERTEX
  8
1
  6
CONTINUOUS
 62
     7
 10
-168.5183646143823
 20
244.0415069231439
  0
VERTEX
  8
1
  6
CONTINUOUS
 62
     7
 10
-168.5640395215343
 20
244.0562662361208
  0
VERTEX
  8
1
  6
CONTINUOUS
 62
     7
 10
-168.60893389402
 20
244.0732442729522
  0
VERTEX
  8
1
  6
CONTINUOUS
 62
     7
 10
-168.6530781421216
 20
244.0924315266516
  0
VERTEX
  8
1
  6
CONTINUOUS
 62
     7
 10
-168.6963268883109
 20
244.1137471463695
  0
VERTEX
  8
1
  6
CONTINUOUS
 62
     7
 10
-168.7385347550601
 20
244.1371102812564
  0
VERTEX
  8
1
  6
CONTINUOUS
 62
     7
 10
-168.779556364841
 20
244.1624400804627
  0
VERTEX
  8
1
  6
CONTINUOUS
 62
     7
 10
-168.8192463401257
 20
244.189655693139
  0
VERTEX
  8
1
  6
CONTINUOUS
 62
     7
 10
-168.8574593033861
 20
244.2186762684356
  0
VERTEX
  8
1
  6
CONTINUOUS
 62
     7
 10
-168.8942221866956
 20
244.2495481354428
  0
VERTEX
  8
1
  6
CONTINUOUS
 62
     7
 10
-168.9295454415126
 20
244.2822568231943
  0
VERTEX
  8
1
  6
CONTINUOUS
 62
     7
 10
-168.9633187691833
 20
244.3166780491837
  0
VERTEX
  8
1
  6
CONTINUOUS
 62
     7
 10
-168.9954318710538
 20
244.3526875309045
  0
VERTEX
  8
1
  6
CONTINUOUS
 62
     7
 10
-169.0257744484702
 20
244.3901609858503
  0
VERTEX
  8
1
  6
CONTINUOUS
 62
     7
 10
-169.0542362027786
 20
244.4289741315146
  0
VERTEX
  8
1
  6
CONTINUOUS
 62
     7
 10
-169.0807068353252
 20
244.4690026853909
  0
VERTEX
  8
1
  6
CONTINUOUS
 62
     7
 10
-169.1052108776313
 20
244.5103249890911
  0
VERTEX
  8
1
  6
CONTINUOUS
 62
     7
 10
-169.12774608142
 20
244.5529067434599
  0
VERTEX
  8
1
  6
CONTINUOUS
 62
     7
 10
-169.148249319223
 20
244.5965940847359
  0
VERTEX
  8
1
  6
CONTINUOUS
 62
     7
 10
-169.1666574635724
 20
244.6412331491576
  0
VERTEX
  8
1
  6
CONTINUOUS
 62
     7
 10
-169.1829073870001
 20
244.6866700729632
  0
VERTEX
  8
1
  6
CONTINUOUS
 62
     7
 10
-169.1969359620379
 20
244.7327509923914
  0
VERTEX
  8
1
  6
CONTINUOUS
 62
     7
 10
-169.2086800612177
 20
244.7793220436805
  0
VERTEX
  8
1
  6
CONTINUOUS
 62
     7
 10
-169.2175165475601
 20
244.8228903225279
  0
VERTEX
  8
1
  6
CONTINUOUS
 62
     7
 10
-169.2244146273001
 20
244.8668729293195
  0
VERTEX
  8
1
  6
CONTINUOUS
 62
     7
 10
-169.2293597910804
 20
244.9111391923194
  0
VERTEX
  8
1
  6
CONTINUOUS
 62
     7
 10
-169.2323375295439
 20
244.9555584397916
  0
VERTEX
  8
1
  6
CONTINUOUS
 62
     7
 10
-169.2333333333333
 20
245.0
  0
SEQEND
  8
1
  6
CONTINUOUS
 62
     7
  0
LINE
  8
1
  6
CONTINUOUS
 62
     7
 10
-155.8333333333333
 20
244.0
 11
-168.2333333333334
 21
244.0
  0
POLYLINE
  8
1
  6
CONTINUOUS
 62
     7
 66
     1
  0
VERTEX
  8
1
  6
CONTINUOUS
 62
     7
 10
-154.8333333333333
 20
243.0
  0
VERTEX
  8
1
  6
CONTINUOUS
 62
     7
 10
-154.8345137862152
 20
243.0480769272419
  0
VERTEX
  8
1
  6
CONTINUOUS
 62
     7
 10
-154.8380365251859
 20
243.0961784073828
  0
VERTEX
  8
1
  6
CONTINUOUS
 62
     7
 10
-154.8438736207333
 20
243.1441399654078
  0
VERTEX
  8
1
  6
CONTINUOUS
 62
     7
 10
-154.8519971433455
 20
243.1917971263021
  0
VERTEX
  8
1
  6
CONTINUOUS
 62
     7
 10
-154.8623791635102
 20
243.2389854150508
  0
VERTEX
  8
1
  6
CONTINUOUS
 62
     7
 10
-154.8749917517154
 20
243.2855403566391
  0
VERTEX
  8
1
  6
CONTINUOUS
 62
     7
 10
-154.8898069784489
 20
243.3312974760521
  0
VERTEX
  8
1
  6
CONTINUOUS
 62
     7
 10
-154.9068512154973
 20
243.3762746741253
  0
VERTEX
  8
1
  6
CONTINUOUS
 62
     7
 10
-154.9261150595713
 20
243.4205004851889
  0
VERTEX
  8
1
  6
CONTINUOUS
 62
     7
 10
-154.9475177134986
 20
243.463828648478
  0
VERTEX
  8
1
  6
CONTINUOUS
 62
     7
 10
-154.9709783801074
 20
243.5061129032279
  0
VERTEX
  8
1
  6
CONTINUOUS
 62
     7
 10
-154.9964162622257
 20
243.5472069886735
  0
VERTEX
  8
1
  6
CONTINUOUS
 62
     7
 10
-155.0237505626813
 20
243.5869646440501
  0
VERTEX
  8
1
  6
CONTINUOUS
 62
     7
 10
-155.0529004843023
 20
243.6252396085928
  0
VERTEX
  8
1
  6
CONTINUOUS
 62
     7
 10
-155.0838807367983
 20
243.6620214714759
  0
VERTEX
  8
1
  6
CONTINUOUS
 62
     7
 10
-155.1167063953287
 20
243.6973601279015
  0
VERTEX
  8
1
  6
CONTINUOUS
 62
     7
 10
-155.1512526688721
 20
243.731144178167
  0
VERTEX
  8
1
  6
CONTINUOUS
 62
     7
 10
-155.1873947664066
 20
243.7632622225694
  0
VERTEX
  8
1
  6
CONTINUOUS
 62
     7
 10
-155.2250078969107
 20
243.793602861406
  0
VERTEX
  8
1
  6
CONTINUOUS
 62
     7
 10
-155.2639672693627
 20
243.822054694974
  0
VERTEX
  8
1
  6
CONTINUOUS
 62
     7
 10
-155.304148092741
 20
243.8485063235706
  0
VERTEX
  8
1
  6
CONTINUOUS
 62
     7
 10
-155.3455350192878
 20
243.8729286549267
  0
VERTEX
  8
1
  6
CONTINUOUS
 62
     7
 10
-155.3881829487895
 20
243.8953806306963
  0
VERTEX
  8
1
  6
CONTINUOUS
 62
     7
 10
-155.4319373262912
 20
243.9157986226896
  0
VERTEX
  8
1
  6
CONTINUOUS
 62
     7
 10
-155.476643596838
 20
243.934119002717
  0
VERTEX
  8
1
  6
CONTINUOUS
 62
     7
 10
-155.5221472054752
 20
243.9502781425888
  0
VERTEX
  8
1
  6
CONTINUOUS
 62
     7
 10
-155.5682935972479
 20
243.9642124141154
  0
VERTEX
  8
1
  6
CONTINUOUS
 62
     7
 10
-155.6149282172013
 20
243.9758581891071
  0
VERTEX
  8
1
  6
CONTINUOUS
 62
     7
 10
-155.65805665319
 20
243.9845115645851
  0
VERTEX
  8
1
  6
CONTINUOUS
 62
     7
 10
-155.7015885984154
 20
243.9912665620796
  0
VERTEX
  8
1
  6
CONTINUOUS
 62
     7
 10
-155.7453968372596
 20
243.9961090529246
  0
VERTEX
  8
1
  6
CONTINUOUS
 62
     7
 10
-155.7893541541049
 20
243.9990249084534
  0
VERTEX
  8
1
  6
CONTINUOUS
 62
     7
 10
-155.8333333333333
 20
244.0
  0
SEQEND
  8
1
  6
CONTINUOUS
 62
     7
  0
LINE
  8
1
  6
CONTINUOUS
 62
     7
 10
-154.8333333333333
 20
242.9999999999981
 11
-154.8333333333333
 21
167.0
  0
POLYLINE
  8
1
  6
CONTINUOUS
 62
     7
 66
     1
  0
VERTEX
  8
1
  6
CONTINUOUS
 62
     7
 10
-155.8333333333333
 20
166.0
  0
VERTEX
  8
1
  6
CONTINUOUS
 62
     7
 10
-155.7853414169891
 20
166.0011763972435
  0
VERTEX
  8
1
  6
CONTINUOUS
 62
     7
 10
-155.737324937682
 20
166.0046868706563
  0
VERTEX
  8
1
  6
CONTINUOUS
 62
     7
 10
-155.6894481514306
 20
166.010503342762
  0
VERTEX
  8
1
  6
CONTINUOUS
 62
     7
 10
-155.6418753142536
 20
166.018597736084
  0
VERTEX
  8
1
  6
CONTINUOUS
 62
     7
 10
-155.5947706821695
 20
166.0289419731458
  0
VERTEX
  8
1
  6
CONTINUOUS
 62
     7
 10
-155.5482985111968
 20
166.041507976471
  0
VERTEX
  8
1
  6
CONTINUOUS
 62
     7
 10
-155.5026230573542
 20
166.056267668583
  0
VERTEX
  8
1
  6
CONTINUOUS
 62
     7
 10
-155.4577281840479
 20
166.073246128413
  0
VERTEX
  8
1
  6
CONTINUOUS
 62
     7
 10
-155.4135834433086
 20
166.0924338645463
  0
VERTEX
  8
1
  6
CONTINUOUS
 62
     7
 10
-155.3703342069833
 20
166.1137500388699
  0
VERTEX
  8
1
  6
CONTINUOUS
 62
     7
 10
-155.3281258469192
 20
166.1371138132709
  0
VERTEX
  8
1
  6
CONTINUOUS
 62
     7
 10
-155.2871037349634
 20
166.1624443496363
  0
VERTEX
  8
1
  6
CONTINUOUS
 62
     7
 10
-155.2474132429631
 20
166.1896608098532
  0
VERTEX
  8
1
  6
CONTINUOUS
 62
     7
 10
-155.2091997427654
 20
166.2186823558087
  0
VERTEX
  8
1
  6
CONTINUOUS
 62
     7
 10
-155.1724357023808
 20
166.2495558618778
  0
VERTEX
  8
1
  6
CONTINUOUS
 62
     7
 10
-155.1371113136361
 20
166.2822664264138
  0
VERTEX
  8
1
  6
CONTINUOUS
 62
     7
 10
-155.1033368944912
 20
166.3166897863382
  0
VERTEX
  8
1
  6
CONTINUOUS
 62
     7
 10
-155.0712227629058
 20
166.3527016785726
  0
VERTEX
  8
1
  6
CONTINUOUS
 62
     7
 10
-155.0408792368399
 20
166.3901778400386
  0
VERTEX
  8
1
  6
CONTINUOUS
 62
     7
 10
-155.0124166342529
 20
166.4289940076578
  0
VERTEX
  8
1
  6
CONTINUOUS
 62
     7
 10
-154.9859452731049
 20
166.4690259183517
  0
VERTEX
  8
1
  6
CONTINUOUS
 62
     7
 10
-154.9614409138418
 20
166.5103514880112
  0
VERTEX
  8
1
  6
CONTINUOUS
 62
     7
 10
-154.9389055234481
 20
166.5529369126173
  0
VERTEX
  8
1
  6
CONTINUOUS
 62
     7
 10
-154.918402281036
 20
166.5966283136983
  0
VERTEX
  8
1
  6
CONTINUOUS
 62
     7
 10
-154.8999943657176
 20
166.6412718127824
  0
VERTEX
  8
1
  6
CONTINUOUS
 62
     7
 10
-154.8837449566049
 20
166.6867135313979
  0
VERTEX
  8
1
  6
CONTINUOUS
 62
     7
 10
-154.8697172328102
 20
166.732799591073
  0
VERTEX
  8
1
  6
CONTINUOUS
 62
     7
 10
-154.8579743734456
 20
166.779376113336
  0
VERTEX
  8
1
  6
CONTINUOUS
 62
     7
 10
-154.8491423580608
 20
166.8229334261289
  0
VERTEX
  8
1
  6
CONTINUOUS
 62
     7
 10
-154.8422477117113
 20
166.8669050624128
  0
VERTEX
  8
1
  6
CONTINUOUS
 62
     7
 10
-154.837304969043
 20
166.9111604309666
  0
VERTEX
  8
1
  6
CONTINUOUS
 62
     7
 10
-154.8343286647018
 20
166.9555689405694
  0
VERTEX
  8
1
  6
CONTINUOUS
 62
     7
 10
-154.8333333333333
 20
167.0
  0
SEQEND
  8
1
  6
CONTINUOUS
 62
     7
  0
LINE
  8
1
  6
CONTINUOUS
 62
     7
 10
-168.2333333333333
 20
166.0
 11
-155.8333333333333
 21
166.0
  0
POLYLINE
  8
1
  6
CONTINUOUS
 62
     7
 66
     1
  0
VERTEX
  8
1
  6
CONTINUOUS
 62
     7
 10
-169.2333333333333
 20
165.0
  0
VERTEX
  8
1
  6
CONTINUOUS
 62
     7
 10
-169.2321528425021
 20
165.0480777456028
  0
VERTEX
  8
1
  6
CONTINUOUS
 62
     7
 10
-169.2286299580233
 20
165.0961803524171
  0
VERTEX
  8
1
  6
CONTINUOUS
 62
     7
 10
-169.2227925619191
 20
165.144143337422
  0
VERTEX
  8
1
  6
CONTINUOUS
 62
     7
 10
-169.2146685362115
 20
165.1918022175965
  0
VERTEX
  8
1
  6
CONTINUOUS
 62
     7
 10
-169.2042857629228
 20
165.2389925099197
  0
VERTEX
  8
1
  6
CONTINUOUS
 62
     7
 10
-169.1916721240752
 20
165.2855497313706
  0
VERTEX
  8
1
  6
CONTINUOUS
 62
     7
 10
-169.1768555016907
 20
165.3313093989284
  0
VERTEX
  8
1
  6
CONTINUOUS
 62
     7
 10
-169.1598093767073
 20
165.3762895917278
  0
VERTEX
  8
1
  6
CONTINUOUS
 62
     7
 10
-169.1405431690511
 20
165.4205185936345
  0
VERTEX
  8
1
  6
CONTINUOUS
 62
     7
 10
-169.1191376722583
 20
165.4638500679492
  0
VERTEX
  8
1
  6
CONTINUOUS
 62
     7
 10
-169.0956736798647
 20
165.5061376779727
  0
VERTEX
  8
1
  6
CONTINUOUS
 62
     7
 10
-169.0702319854065
 20
165.5472350870056
  0
VERTEX
  8
1
  6
CONTINUOUS
 62
     7
 10
-169.0428933824196
 20
165.5869959583488
  0
VERTEX
  8
1
  6
CONTINUOUS
 62
     7
 10
-169.0137386644401
 20
165.6252739553029
  0
VERTEX
  8
1
  6
CONTINUOUS
 62
     7
 10
-168.9827562517783
 20
165.6620550510892
  0
VERTEX
  8
1
  6
CONTINUOUS
 62
     7
 10
-168.9499282661212
 20
165.6973929726721
  0
VERTEX
  8
1
  6
CONTINUOUS
 62
     7
 10
-168.91537951989
 20
165.7311762819517
  0
VERTEX
  8
1
  6
CONTINUOUS
 62
     7
 10
-168.879234825506
 20
165.7632935408279
  0
VERTEX
  8
1
  6
CONTINUOUS
 62
     7
 10
-168.8416189953905
 20
165.7936333112005
  0
VERTEX
  8
1
  6
CONTINUOUS
 62
     7
 10
-168.8026568419648
 20
165.8220841549694
  0
VERTEX
  8
1
  6
CONTINUOUS
 62
     7
 10
-168.7624731776503
 20
165.8485346340346
  0
VERTEX
  8
1
  6
CONTINUOUS
 62
     7
 10
-168.7210862734507
 20
165.8729540074182
  0
VERTEX
  8
1
  6
CONTINUOUS
 62
     7
 10
-168.6784384895847
 20
165.8954031118903
  0
VERTEX
  8
1
  6
CONTINUOUS
 62
     7
 10
-168.6346843809384
 20
165.9158183226992
  0
VERTEX
  8
1
  6
CONTINUOUS
 62
     7
 10
-168.5899785023976
 20
165.9341360150931
  0
VERTEX
  8
1
  6
CONTINUOUS
 62
     7
 10
-168.544475408848
 20
165.9502925643201
  0
VERTEX
  8
1
  6
CONTINUOUS
 62
     7
 10
-168.4983296551755
 20
165.9642243456284
  0
VERTEX
  8
1
  6
CONTINUOUS
 62
     7
 10
-168.4516957962659
 20
165.9758677342663
  0
VERTEX
  8
1
  6
CONTINUOUS
 62
     7
 10
-168.4085755669299
 20
165.9845177025552
  0
VERTEX
  8
1
  6
CONTINUOUS
 62
     7
 10
-168.3650520645433
 20
165.9912700310387
  0
VERTEX
  8
1
  6
CONTINUOUS
 62
     7
 10
-168.3212524305315
 20
165.9961106019512
  0
VERTEX
  8
1
  6
CONTINUOUS
 62
     7
 10
-168.2773038063197
 20
165.9990252975269
  0
VERTEX
  8
1
  6
CONTINUOUS
 62
     7
 10
-168.2333333333333
 20
166.0
  0
SEQEND
  8
1
  6
CONTINUOUS
 62
     7
  0
LINE
  8
1
  6
CONTINUOUS
 62
     7
 10
-169.2333333333333
 20
165.0
 11
-169.2333333333333
 21
161.0
  0
POLYLINE
  8
1
  6
CONTINUOUS
 62
     7
 66
     1
  0
VERTEX
  8
1
  6
CONTINUOUS
 62
     7
 10
-170.2333333333333
 20
160.0
  0
VERTEX
  8
1
  6
CONTINUOUS
 62
     7
 10
-170.1853555707727
 20
160.0011757227533
  0
VERTEX
  8
1
  6
CONTINUOUS
 62
     7
 10
-170.1373532684275
 20
160.0046841538831
  0
VERTEX
  8
1
  6
CONTINUOUS
 62
     7
 10
-170.0894906455229
 20
160.0104971876942
  0
VERTEX
  8
1
  6
CONTINUOUS
 62
     7
 10
-170.0419319212844
 20
160.0185867184915
  0
VERTEX
  8
1
  6
CONTINUOUS
 62
     7
 10
-169.9948413149374
 20
160.0289246405799
  0
VERTEX
  8
1
  6
CONTINUOUS
 62
     7
 10
-169.9483830457071
 20
160.0414828482641
  0
VERTEX
  8
1
  6
CONTINUOUS
 62
     7
 10
-169.9027213328191
 20
160.0562332358491
  0
VERTEX
  8
1
  6
CONTINUOUS
 62
     7
 10
-169.8578403453549
 20
160.073200657262
  0
VERTEX
  8
1
  6
CONTINUOUS
 62
     7
 10
-169.8137092989745
 20
160.0923756079407
  0
VERTEX
  8
1
  6
CONTINUOUS
 62
     7
 10
-169.7704734127003
 20
160.1136772429128
  0
VERTEX
  8
1
  6
CONTINUOUS
 62
     7
 10
-169.728277905555
 20
160.1370247172063
  0
VERTEX
  8
1
  6
CONTINUOUS
 62
     7
 10
-169.6872679965609
 20
160.1623371858492
  0
VERTEX
  8
1
  6
CONTINUOUS
 62
     7
 10
-169.6475889047406
 20
160.1895338038692
  0
VERTEX
  8
1
  6
CONTINUOUS
 62
     7
 10
-169.6093858491166
 20
160.2185337262942
  0
VERTEX
  8
1
  6
CONTINUOUS
 62
     7
 10
-169.5726247491213
 20
160.2493893635805
  0
VERTEX
  8
1
  6
CONTINUOUS
 62
     7
 10
-169.5373027147795
 20
160.2820806622247
  0
VERTEX
  8
1
  6
CONTINUOUS
 62
     7
 10
-169.5035298821464
 20
160.3164834480092
  0
VERTEX
  8
1
  6
CONTINUOUS
 62
     7
 10
-169.471416387277
 20
160.3524735467165
  0
VERTEX
  8
1
  6
CONTINUOUS
 62
     7
 10
-169.4410723662264
 20
160.3899267841289
  0
VERTEX
  8
1
  6
CONTINUOUS
 62
     7
 10
-169.4126079550497
 20
160.428718986029
  0
VERTEX
  8
1
  6
CONTINUOUS
 62
     7
 10
-169.386133289802
 20
160.4687259781992
  0
VERTEX
  8
1
  6
CONTINUOUS
 62
     7
 10
-169.3616151384731
 20
160.510041312132
  0
VERTEX
  8
1
  6
CONTINUOUS
 62
     7
 10
-169.3390657310784
 20
160.5526163149194
  0
VERTEX
  8
1
  6
CONTINUOUS
 62
     7
 10
-169.3185481717635
 20
160.5962972200568
  0
VERTEX
  8
1
  6
CONTINUOUS
 62
     7
 10
-169.3001255646742
 20
160.6409302610392
  0
VERTEX
  8
1
  6
CONTINUOUS
 62
     7
 10
-169.2838610139561
 20
160.6863616713621
  0
VERTEX
  8
1
  6
CONTINUOUS
 62
     7
 10
-169.269817623755
 20
160.7324376845206
  0
VERTEX
  8
1
  6
CONTINUOUS
 62
     7
 10
-169.2580584982167
 20
160.7790045340101
  0
VERTEX
  8
1
  6
CONTINUOUS
 62
     7
 10
-169.2491963805515
 20
160.8226336480453
  0
VERTEX
  8
1
  6
CONTINUOUS
 62
     7
 10
-169.2422782020958
 20
160.8666789138115
  0
VERTEX
  8
1
  6
CONTINUOUS
 62
     7
 10
-169.2373185659843
 20
160.911009169159
  0
VERTEX
  8
1
  6
CONTINUOUS
 62
     7
 10
-169.2343320753519
 20
160.9554932519384
  0
VERTEX
  8
1
  6
CONTINUOUS
 62
     7
 10
-169.2333333333333
 20
161.0
  0
SEQEND
  8
1
  6
CONTINUOUS
 62
     7
  0
LINE
  8
1
  6
CONTINUOUS
 62
     7
 10
-178.8333333333333
 20
160.0
 11
-170.2333333333333
 21
160.0
  0
POLYLINE
  8
1
  6
CONTINUOUS
 62
     7
 66
     1
  0
VERTEX
  8
1
  6
CONTINUOUS
 62
     7
 10
-179.8333333333333
 20
159.0
  0
VERTEX
  8
1
  6
CONTINUOUS
 62
     7
 10
-179.8321521576003
 20
159.0480920896786
  0
VERTEX
  8
1
  6
CONTINUOUS
 62
     7
 10
-179.8286271969121
 20
159.096209087762
  0
VERTEX
  8
1
  6
CONTINUOUS
 62
     7
 10
-179.822786301035
 20
159.1441864729219
  0
VERTEX
  8
1
  6
CONTINUOUS
 62
     7
 10
-179.8146573197353
 20
159.1918597238297
  0
VERTEX
  8
1
  6
CONTINUOUS
 62
     7
 10
-179.8042681027796
 20
159.2390643191572
  0
VERTEX
  8
1
  6
CONTINUOUS
 62
     7
 10
-179.791646499934
 20
159.2856357375757
  0
VERTEX
  8
1
  6
CONTINUOUS
 62
     7
 10
-179.776820360965
 20
159.3314094577571
  0
VERTEX
  8
1
  6
CONTINUOUS
 62
     7
 10
-179.7597629282582
 20
159.3764038794594
  0
VERTEX
  8
1
  6
CONTINUOUS
 62
     7
 10
-179.7404836082836
 20
159.4206469305846
  0
VERTEX
  8
1
  6
CONTINUOUS
 62
     7
 10
-179.719063185983
 20
159.4639921141552
  0
VERTEX
  8
1
  6
CONTINUOUS
 62
     7
 10
-179.6955824462983
 20
159.5062929331939
  0
VERTEX
  8
1
  6
CONTINUOUS
 62
     7
 10
-179.6701221741711
 20
159.5474028907236
  0
VERTEX
  8
1
  6
CONTINUOUS
 62
     7
 10
-179.6427631545435
 20
159.5871754897668
  0
VERTEX
  8
1
  6
CONTINUOUS
 62
     7
 10
-179.6135861723571
 20
159.6254642333463
  0
VERTEX
  8
1
  6
CONTINUOUS
 62
     7
 10
-179.5825855113234
 20
159.6622482128103
  0
VERTEX
  8
1
  6
CONTINUOUS
 62
     7
 10
-179.5497378422632
 20
159.6975884287086
  0
VERTEX
  8
1
  6
CONTINUOUS
 62
     7
 10
-179.5151680675834
 20
159.7313732547617
  0
VERTEX
  8
1
  6
CONTINUOUS
 62
     7
 10
-179.4790010896913
 20
159.76349106469
  0
VERTEX
  8
1
  6
CONTINUOUS
 62
     7
 10
-179.441361810994
 20
159.7938302322139
  0
VERTEX
  8
1
  6
CONTINUOUS
 62
     7
 10
-179.4023751338987
 20
159.8222791310538
  0
VERTEX
  8
1
  6
CONTINUOUS
 62
     7
 10
-179.3621659608124
 20
159.8487261349302
  0
VERTEX
  8
1
  6
CONTINUOUS
 62
     7
 10
-179.3207686394662
 20
159.873131364703
  0
VERTEX
  8
1
  6
CONTINUOUS
 62
     7
 10
-179.2781102391882
 20
159.8955660993327
  0
VERTEX
  8
1
  6
CONTINUOUS
 62
     7
 10
-179.2343454288307
 20
159.9159666363973
  0
VERTEX
  8
1
  6
CONTINUOUS
 62
     7
 10
-179.1896288772461
 20
159.9342692734751
  0
VERTEX
  8
1
  6
CONTINUOUS
 62
     7
 10
-179.1441152532867
 20
159.9504103081441
  0
VERTEX
  8
1
  6
CONTINUOUS
 62
     7
 10
-179.0979592258047
 20
159.9643260379825
  0
VERTEX
  8
1
  6
CONTINUOUS
 62
     7
 10
-179.0513154636527
 20
159.9759527605686
  0
VERTEX
  8
1
  6
CONTINUOUS
 62
     7
 10
-179.0082688079799
 20
159.9845722979076
  0
VERTEX
  8
1
  6
CONTINUOUS
 62
     7
 10
-178.9648207005881
 20
159.9913008413414
  0
VERTEX
  8
1
  6
CONTINUOUS
 62
     7
 10
-178.9210977080006
 20
159.9961243400488
  0
VERTEX
  8
1
  6
CONTINUOUS
 62
     7
 10
-178.8772263967412
 20
159.9990287432087
  0
VERTEX
  8
1
  6
CONTINUOUS
 62
     7
 10
-178.8333333333333
 20
160.0
  0
SEQEND
  8
1
  6
CONTINUOUS
 62
     7
  0
LINE
  8
1
  6
CONTINUOUS
 62
     7
 10
-179.8333333333333
 20
159.0000000000001
 11
-179.8333333333333
 21
155.7500000000001
  0
ARC
  8
1
  6
CONTINUOUS
 62
     7
 10
-179.8333255026554
 20
154.5
 40
1.250000000024529
 50
90.00035893183828
 51
269.9996410681617
  0
LINE
  8
1
  6
CONTINUOUS
 62
     7
 10
-179.8333333333333
 20
153.25
 11
-179.8333333333333
 21
148.5
  0
POLYLINE
  8
1
  6
CONTINUOUS
 62
     7
 66
     1
  0
VERTEX
  8
1
  6
CONTINUOUS
 62
     7
 10
-178.8333333333333
 20
147.5
  0
VERTEX
  8
1
  6
CONTINUOUS
 62
     7
 10
-178.8812750748802
 20
147.5011740070057
  0
VERTEX
  8
1
  6
CONTINUOUS
 62
     7
 10
-178.9292412973683
 20
147.5046772431803
  0
VERTEX
  8
1
  6
CONTINUOUS
 62
     7
 10
-178.9770678751303
 20
147.5104815312594
  0
VERTEX
  8
1
  6
CONTINUOUS
 62
     7
 10
-179.024590682499
 20
147.5185586939792
  0
VERTEX
  8
1
  6
CONTINUOUS
 62
     7
 10
-179.0716455938072
 20
147.5288805540755
  0
VERTEX
  8
1
  6
CONTINUOUS
 62
     7
 10
-179.1180684833876
 20
147.5414189342842
  0
VERTEX
  8
1
  6
CONTINUOUS
 62
     7
 10
-179.163695225573
 20
147.5561456573412
  0
VERTEX
  8
1
  6
CONTINUOUS
 62
     7
 10
-179.2085408761423
 20
147.5730850068158
  0
VERTEX
  8
1
  6
CONTINUOUS
 62
     7
 10
-179.2526370724713
 20
147.5922274443861
  0
VERTEX
  8
1
  6
CONTINUOUS
 62
     7
 10
-179.2958389832978
 20
147.613492107579
  0
VERTEX
  8
1
  6
CONTINUOUS
 62
     7
 10
-179.3380017773596
 20
147.6367981339211
  0
VERTEX
  8
1
  6
CONTINUOUS
 62
     7
 10
-179.3789806233946
 20
147.6620646609394
  0
VERTEX
  8
1
  6
CONTINUOUS
 62
     7
 10
-179.4186306901405
 20
147.6892108261607
  0
VERTEX
  8
1
  6
CONTINUOUS
 62
     7
 10
-179.4568071463353
 20
147.7181557671117
  0
VERTEX
  8
1
  6
CONTINUOUS
 62
     7
 10
-179.4935606739335
 20
147.7489659018163
  0
VERTEX
  8
1
  6
CONTINUOUS
 62
     7
 10
-179.5288766263821
 20
147.78160813739
  0
VERTEX
  8
1
  6
CONTINUOUS
 62
     7
 10
-179.5626453302176
 20
147.8159585245708
  0
VERTEX
  8
1
  6
CONTINUOUS
 62
     7
 10
-179.5947571119766
 20
147.8518931140964
  0
VERTEX
  8
1
  6
CONTINUOUS
 62
     7
 10
-179.6251022981958
 20
147.8892879567049
  0
VERTEX
  8
1
  6
CONTINUOUS
 62
     7
 10
-179.6535712154118
 20
147.9280191031341
  0
VERTEX
  8
1
  6
CONTINUOUS
 62
     7
 10
-179.6800541901612
 20
147.9679626041219
  0
VERTEX
  8
1
  6
CONTINUOUS
 62
     7
 10
-179.7046073593867
 20
148.0092517156425
  0
VERTEX
  8
1
  6
CONTINUOUS
 62
     7
 10
-179.7271923635483
 20
148.0518000032142
  0
VERTEX
  8
1
  6
CONTINUOUS
 62
     7
 10
-179.7477462917583
 20
148.095453985356
  0
VERTEX
  8
1
  6
CONTINUOUS
 62
     7
 10
-179.7662062331287
 20
148.1400601805867
  0
VERTEX
  8
1
  6
CONTINUOUS
 62
     7
 10
-179.7825092767718
 20
148.1854651074255
  0
VERTEX
  8
1
  6
CONTINUOUS
 62
     7
 10
-179.7965925117996
 20
148.2315152843912
  0
VERTEX
  8
1
  6
CONTINUOUS
 62
     7
 10
-179.8083930273244
 20
148.2780572300028
  0
VERTEX
  8
1
  6
CONTINUOUS
 62
     7
 10
-179.8173321322925
 20
148.3218693842193
  0
VERTEX
  8
1
  6
CONTINUOUS
 62
     7
 10
-179.8243104923257
 20
148.3661023622168
  0
VERTEX
  8
1
  6
CONTINUOUS
 62
     7
 10
-179.8293133304756
 20
148.4106235401059
  0
VERTEX
  8
1
  6
CONTINUOUS
 62
     7
 10
-179.8323258697942
 20
148.4553002939968
  0
VERTEX
  8
1
  6
CONTINUOUS
 62
     7
 10
-179.8333333333333
 20
148.5
  0
SEQEND
  8
1
  6
CONTINUOUS
 62
     7
  0
LINE
  8
1
  6
CONTINUOUS
 62
     7
 10
-169.8333333333334
 20
147.5
 11
-178.8333333333333
 21
147.5
  0
POLYLINE
  8
1
  6
CONTINUOUS
 62
     7
 66
     1
  0
VERTEX
  8
1
  6
CONTINUOUS
 62
     7
 10
-168.8333333333334
 20
148.5
  0
VERTEX
  8
1
  6
CONTINUOUS
 62
     7
 10
-168.8345161984563
 20
148.4518725825462
  0
VERTEX
  8
1
  6
CONTINUOUS
 62
     7
 10
-168.8380462341478
 20
148.4037206039345
  0
VERTEX
  8
1
  6
CONTINUOUS
 62
     7
 10
-168.8438956008912
 20
148.3557086712518
  0
VERTEX
  8
1
  6
CONTINUOUS
 62
     7
 10
-168.8520364591704
 20
148.308001391585
  0
VERTEX
  8
1
  6
CONTINUOUS
 62
     7
 10
-168.862440969469
 20
148.2607633720212
  0
VERTEX
  8
1
  6
CONTINUOUS
 62
     7
 10
-168.8750812922706
 20
148.2141592196473
  0
VERTEX
  8
1
  6
CONTINUOUS
 62
     7
 10
-168.889929588059
 20
148.1683535415503
  0
VERTEX
  8
1
  6
CONTINUOUS
 62
     7
 10
-168.9070130000223
 20
148.1233273902878
  0
VERTEX
  8
1
  6
CONTINUOUS
 62
     7
 10
-168.9263221813643
 20
148.0790533661732
  0
VERTEX
  8
1
  6
CONTINUOUS
 62
     7
 10
-168.9477763637398
 20
148.0356782601456
  0
VERTEX
  8
1
  6
CONTINUOUS
 62
     7
 10
-168.9712947788038
 20
147.9933488631436
  0
VERTEX
  8
1
  6
CONTINUOUS
 62
     7
 10
-168.9967966582113
 20
147.9522119661061
  0
VERTEX
  8
1
  6
CONTINUOUS
 62
     7
 10
-169.0242012336174
 20
147.9124143599719
  0
VERTEX
  8
1
  6
CONTINUOUS
 62
     7
 10
-169.0534277366768
 20
147.87410283568
  0
VERTEX
  8
1
  6
CONTINUOUS
 62
     7
 10
-169.0844716356264
 20
147.8373103978578
  0
VERTEX
  8
1
  6
CONTINUOUS
 62
     7
 10
-169.1173659474792
 20
147.8019632751042
  0
VERTEX
  8
1
  6
CONTINUOUS
 62
     7
 10
-169.1519855726763
 20
147.7681735157384
  0
VERTEX
  8
1
  6
CONTINUOUS
 62
     7
 10
-169.1882054116586
 20
147.7360531680796
  0
VERTEX
  8
1
  6
CONTINUOUS
 62
     7
 10
-169.2259003648673
 20
147.7057142804472
  0
VERTEX
  8
1
  6
CONTINUOUS
 62
     7
 10
-169.2649453327433
 20
147.6772689011602
  0
VERTEX
  8
1
  6
CONTINUOUS
 62
     7
 10
-169.3052152157275
 20
147.6508290785381
  0
VERTEX
  8
1
  6
CONTINUOUS
 62
     7
 10
-169.3466390543639
 20
147.6264554640801
  0
VERTEX
  8
1
  6
CONTINUOUS
 62
     7
 10
-169.3893246616758
 20
147.6040530506607
  0
VERTEX
  8
1
  6
CONTINUOUS
 62
     7
 10
-169.433117077911
 20
147.5836857431938
  0
VERTEX
  8
1
  6
CONTINUOUS
 62
     7
 10
-169.4778613433174
 20
147.5654174465934
  0
VERTEX
  8
1
  6
CONTINUOUS
 62
     7
 10
-169.5234024981429
 20
147.5493120657731
  0
VERTEX
  8
1
  6
CONTINUOUS
 62
     7
 10
-169.5695855826353
 20
147.5354335056471
  0
VERTEX
  8
1
  6
CONTINUOUS
 62
     7
 10
-169.6162556370425
 20
147.5238456711293
  0
VERTEX
  8
1
  6
CONTINUOUS
 62
     7
 10
-169.6591272433591
 20
147.5152982881971
  0
VERTEX
  8
1
  6
CONTINUOUS
 62
     7
 10
-169.702396035738
 20
147.5086261326152
  0
VERTEX
  8
1
  6
CONTINUOUS
 62
     7
 10
-169.7459367945876
 20
147.5038431013865
  0
VERTEX
  8
1
  6
CONTINUOUS
 62
     7
 10
-169.7896243003166
 20
147.5009630915138
  0
VERTEX
  8
1
  6
CONTINUOUS
 62
     7
 10
-169.8333333333334
 20
147.5
  0
SEQEND
  8
1
  6
CONTINUOUS
 62
     7
  0
LINE
  8
1
  6
CONTINUOUS
 62
     7
 10
-168.8333333333334
 20
148.5
 11
-168.8333333333334
 21
150.5
  0
POLYLINE
  8
1
  6
CONTINUOUS
 62
     7
 66
     1
  0
VERTEX
  8
1
  6
CONTINUOUS
 62
     7
 10
-168.3333333333334
 20
151.0
  0
VERTEX
  8
1
  6
CONTINUOUS
 62
     7
 10
-168.3573093780371
 20
150.9994127503871
  0
VERTEX
  8
1
  6
CONTINUOUS
 62
     7
 10
-168.3812976731671
 20
150.9976603866575
  0
VERTEX
  8
1
  6
CONTINUOUS
 62
     7
 10
-168.4052161432786
 20
150.9947569864746
  0
VERTEX
  8
1
  6
CONTINUOUS
 62
     7
 10
-168.4289827129269
 20
150.990716627502
  0
VERTEX
  8
1
  6
CONTINUOUS
 62
     7
 10
-168.4525153066675
 20
150.9855533874031
  0
VERTEX
  8
1
  6
CONTINUOUS
 62
     7
 10
-168.4757318490556
 20
150.9792813438416
  0
VERTEX
  8
1
  6
CONTINUOUS
 62
     7
 10
-168.4985502646466
 20
150.9719145744808
  0
VERTEX
  8
1
  6
CONTINUOUS
 62
     7
 10
-168.5209782138618
 20
150.9634408435141
  0
VERTEX
  8
1
  6
CONTINUOUS
 62
     7
 10
-168.543031366061
 20
150.9538649230097
  0
VERTEX
  8
1
  6
CONTINUOUS
 62
     7
 10
-168.5646372436713
 20
150.9432272481213
  0
VERTEX
  8
1
  6
CONTINUOUS
 62
     7
 10
-168.5857233691201
 20
150.9315682540023
  0
VERTEX
  8
1
  6
CONTINUOUS
 62
     7
 10
-168.6062172648348
 20
150.9189283758061
  0
VERTEX
  8
1
  6
CONTINUOUS
 62
     7
 10
-168.6260464532426
 20
150.9053480486864
  0
VERTEX
  8
1
  6
CONTINUOUS
 62
     7
 10
-168.6451384567709
 20
150.8908677077965
  0
VERTEX
  8
1
  6
CONTINUOUS
 62
     7
 10
-168.6635157802554
 20
150.8754565551568
  0
VERTEX
  8
1
  6
CONTINUOUS
 62
     7
 10
-168.6811741010989
 20
150.8591289323717
  0
VERTEX
  8
1
  6
CONTINUOUS
 62
     7
 10
-168.6980585220954
 20
150.8419468582754
  0
VERTEX
  8
1
  6
CONTINUOUS
 62
     7
 10
-168.7141141460392
 20
150.8239723517017
  0
VERTEX
  8
1
  6
CONTINUOUS
 62
     7
 10
-168.7292860757243
 20
150.805267431485
  0
VERTEX
  8
1
  6
CONTINUOUS
 62
     7
 10
-168.7435194139449
 20
150.785894116459
  0
VERTEX
  8
1
  6
CONTINUOUS
 62
     7
 10
-168.7567592634952
 20
150.7659144254579
  0
VERTEX
  8
1
  6
CONTINUOUS
 62
     7
 10
-168.7690303539331
 20
150.745267552733
  0
VERTEX
  8
1
  6
CONTINUOUS
 62
     7
 10
-168.7803173404174
 20
150.7239912247991
  0
VERTEX
  8
1
  6
CONTINUOUS
 62
     7
 10
-168.7905887646091
 20
150.7021622182133
  0
VERTEX
  8
1
  6
CONTINUOUS
 62
     7
 10
-168.7998131681693
 20
150.6798573095329
  0
VERTEX
  8
1
  6
CONTINUOUS
 62
     7
 10
-168.8079590927592
 20
150.6571532753152
  0
VERTEX
  8
1
  6
CONTINUOUS
 62
     7
 10
-168.8149950800398
 20
150.6341268921173
  0
VERTEX
  8
1
  6
CONTINUOUS
 62
     7
 10
-168.8208896716721
 20
150.6108549364966
  0
VERTEX
  8
1
  6
CONTINUOUS
 62
     7
 10
-168.8253497932821
 20
150.5889710897258
  0
VERTEX
  8
1
  6
CONTINUOUS
 62
     7
 10
-168.8288315689738
 20
150.5668775422079
  0
VERTEX
  8
1
  6
CONTINUOUS
 62
     7
 10
-168.8313276500265
 20
150.5446404244258
  0
VERTEX
  8
1
  6
CONTINUOUS
 62
     7
 10
-168.8328306877199
 20
150.5223258668621
  0
VERTEX
  8
1
  6
CONTINUOUS
 62
     7
 10
-168.8333333333334
 20
150.5
  0
SEQEND
  8
1
  6
CONTINUOUS
 62
     7
  0
LINE
  8
1
  6
CONTINUOUS
 62
     7
 10
-166.8333333333334
 20
151.0
 11
-168.3333333333334
 21
151.0
  0
LINE
  8
1
  6
CONTINUOUS
 62
     7
 10
-204.8333333333334
 20
151.0
 11
-212.8333333333334
 21
151.0
  0
LINE
  8
1
  6
CONTINUOUS
 62
     7
 10
-212.8333333333334
 20
149.0000000000001
 11
-212.8333333333334
 21
151.0000000000001
  0
LINE
  8
1
  6
CONTINUOUS
 62
     7
 10
-212.8333333333334
 20
149.0
 11
-192.8333333333333
 21
149.0
  0
LINE
  8
1
  6
CONTINUOUS
 62
     7
 10
-192.8333333333333
 20
151.0
 11
-192.8333333333333
 21
149.0
  0
LINE
  8
1
  6
CONTINUOUS
 62
     7
 10
-192.8333333333333
 20
151.0
 11
-200.8333333333333
 21
151.0
  0
LINE
  8
1
  6
CONTINUOUS
 62
     7
 10
-200.8333333333333
 20
156.0
 11
-200.8333333333333
 21
151.0
  0
LINE
  8
1
  6
CONTINUOUS
 62
     7
 10
-200.8333333333334
 20
156.0
 11
-204.8333333333334
 21
156.0
  0
LINE
  8
1
  6
CONTINUOUS
 62
     7
 10
-204.8333333333334
 20
151.0
 11
-204.8333333333334
 21
156.0
  0
LINE
  8
1
  6
CONTINUOUS
 62
     7
 10
-250.8333333333333
 20
151.0
 11
-258.8333333333334
 21
151.0
  0
LINE
  8
1
  6
CONTINUOUS
 62
     7
 10
-258.8333333333334
 20
149.0000000000001
 11
-258.8333333333334
 21
151.0000000000001
  0
LINE
  8
1
  6
CONTINUOUS
 62
     7
 10
-258.8333333333334
 20
149.0
 11
-238.8333333333333
 21
149.0
  0
LINE
  8
1
  6
CONTINUOUS
 62
     7
 10
-238.8333333333333
 20
151.0
 11
-238.8333333333333
 21
149.0
  0
LINE
  8
1
  6
CONTINUOUS
 62
     7
 10
-238.8333333333333
 20
151.0
 11
-246.8333333333333
 21
151.0
  0
LINE
  8
1
  6
CONTINUOUS
 62
     7
 10
-246.8333333333333
 20
156.0
 11
-246.8333333333333
 21
151.0
  0
LINE
  8
1
  6
CONTINUOUS
 62
     7
 10
-246.8333333333333
 20
156.0
 11
-250.8333333333333
 21
156.0
  0
LINE
  8
1
  6
CONTINUOUS
 62
     7
 10
-250.8333333333333
 20
151.0
 11
-250.8333333333333
 21
156.0
  0
LINE
  8
1
  6
CONTINUOUS
 62
     7
 10
-250.8333333333333
 20
254.0
 11
-246.8333333333333
 21
254.0
  0
LINE
  8
1
  6
CONTINUOUS
 62
     7
 10
-246.8333333333333
 20
259.0
 11
-246.8333333333333
 21
254.0
  0
LINE
  8
1
  6
CONTINUOUS
 62
     7
 10
-246.8333333333333
 20
259.0
 11
-238.8333333333333
 21
259.0
  0
LINE
  8
1
  6
CONTINUOUS
 62
     7
 10
-238.8333333333333
 20
261.0
 11
-238.8333333333333
 21
259.0
  0
LINE
  8
1
  6
CONTINUOUS
 62
     7
 10
-238.8333333333333
 20
261.0
 11
-258.8333333333334
 21
261.0
  0
LINE
  8
1
  6
CONTINUOUS
 62
     7
 10
-258.8333333333334
 20
259.0
 11
-258.8333333333334
 21
261.0
  0
LINE
  8
1
  6
CONTINUOUS
 62
     7
 10
-258.8333333333334
 20
259.0
 11
-250.8333333333333
 21
259.0
  0
LINE
  8
1
  6
CONTINUOUS
 62
     7
 10
-250.8333333333333
 20
254.0
 11
-250.8333333333333
 21
259.0
  0
ARC
  8
1
  6
CONTINUOUS
 62
     7
 10
-182.3329262750998
 20
163.2504070582336
 40
2.500407091367439
 50
180.0093275686916
 51
269.9906724313084
  0
LINE
  8
1
  6
CONTINUOUS
 62
     7
 10
-182.3333333333333
 20
160.75
 11
-177.3333333333333
 21
160.75
  0
ARC
  8
1
  6
CONTINUOUS
 62
     7
 10
-177.3337356113234
 20
163.2504022779901
 40
2.500402310350383
 50
270.009218049042
 51
359.9907819509581
  0
ARC
  8
1
  6
CONTINUOUS
 62
     7
 10
-177.3337403427049
 20
163.2495929906285
 40
2.500407042497439
 50
0.0093264492205107
 51
89.99067355077949
  0
LINE
  8
1
  6
CONTINUOUS
 62
     7
 10
-177.3333333333333
 20
165.75
 11
-182.3333333333333
 21
165.75
  0
ARC
  8
1
  6
CONTINUOUS
 62
     7
 10
-182.3329303976993
 20
163.249597064366
 40
2.500402968100254
 50
90.00923311627827
 51
179.9907668837218
  0
ARC
  8
1
  6
CONTINUOUS
 62
     7
 10
-228.3329262750998
 20
163.2504070582336
 40
2.500407091367435
 50
180.0093275686914
 51
269.9906724313086
  0
LINE
  8
1
  6
CONTINUOUS
 62
     7
 10
-228.3333333333333
 20
160.75
 11
-223.3333333333333
 21
160.75
  0
ARC
  8
1
  6
CONTINUOUS
 62
     7
 10
-223.3337356113234
 20
163.2504022779901
 40
2.500402310350376
 50
270.0092180490417
 51
359.9907819509581
  0
ARC
  8
1
  6
CONTINUOUS
 62
     7
 10
-223.3337403427048
 20
163.2495929906285
 40
2.500407042497431
 50
0.0093264492203517
 51
89.99067355077972
  0
LINE
  8
1
  6
CONTINUOUS
 62
     7
 10
-223.3333333333333
 20
165.75
 11
-228.3333333333333
 21
165.75
  0
ARC
  8
1
  6
CONTINUOUS
 62
     7
 10
-228.3329303976993
 20
163.249597064366
 40
2.500402968100254
 50
90.00923311627822
 51
179.9907668837218
  0
ARC
  8
1
  6
CONTINUOUS
 62
     7
 10
-274.3329262750997
 20
163.2504070582336
 40
2.500407091367453
 50
180.0093275686917
 51
269.9906724313082
  0
LINE
  8
1
  6
CONTINUOUS
 62
     7
 10
-274.3333333333333
 20
160.75
 11
-269.3333333333333
 21
160.75
  0
ARC
  8
1
  6
CONTINUOUS
 62
     7
 10
-269.3337356113234
 20
163.25040227799
 40
2.500402310350362
 50
270.0092180490415
 51
359.9907819509585
  0
ARC
  8
1
  6
CONTINUOUS
 62
     7
 10
-269.3337403427049
 20
163.2495929906285
 40
2.500407042497411
 50
0.0093264492198748
 51
89.99067355078012
  0
LINE
  8
1
  6
CONTINUOUS
 62
     7
 10
-269.3333333333334
 20
165.75
 11
-274.3333333333333
 21
165.75
  0
ARC
  8
1
  6
CONTINUOUS
 62
     7
 10
-274.3329303976993
 20
163.249597064366
 40
2.500402968100254
 50
90.00923311627794
 51
179.9907668837218
  0
LINE
  8
1
  6
CONTINUOUS
 62
     7
 10
-306.8333333333333
 20
152.9059051689325
 11
-306.8333333333333
 21
257.0940948310678
  0
LINE
  8
1
  6
CONTINUOUS
 62
     7
 10
-144.8333333333334
 20
152.9059051689325
 11
-144.8333333333334
 21
257.0940948310678
  0
LINE
  8
1
  6
CONTINUOUS
 62
     7
 10
-274.3333333333333
 20
244.25
 11
-269.3333333333333
 21
244.25
  0
ARC
  8
1
  6
CONTINUOUS
 62
     7
 10
-269.3337362689674
 20
246.7504029356341
 40
2.500402968100254
 50
270.0092331162783
 51
359.9907668837217
  0
ARC
  8
1
  6
CONTINUOUS
 62
     7
 10
-269.3337403915669
 20
246.7495929417665
 40
2.500407091367439
 50
0.0093275686915351
 51
89.99067243130847
  0
LINE
  8
1
  6
CONTINUOUS
 62
     7
 10
-269.3333333333334
 20
249.25
 11
-274.3333333333334
 21
249.25
  0
ARC
  8
1
  6
CONTINUOUS
 62
     7
 10
-274.3329310553433
 20
246.7495977220099
 40
2.500402310350383
 50
90.00921804904202
 51
179.990781950958
  0
ARC
  8
1
  6
CONTINUOUS
 62
     7
 10
-274.3329263239618
 20
246.7504070093715
 40
2.500407042497439
 50
180.0093264492205
 51
269.9906735507798
  0
LINE
  8
1
  6
CONTINUOUS
 62
     7
 10
-228.3333333333333
 20
244.25
 11
-223.3333333333333
 21
244.25
  0
ARC
  8
1
  6
CONTINUOUS
 62
     7
 10
-223.3337362689674
 20
246.7504029356341
 40
2.500402968100254
 50
270.0092331162782
 51
359.9907668837217
  0
ARC
  8
1
  6
CONTINUOUS
 62
     7
 10
-223.3337403915669
 20
246.7495929417665
 40
2.500407091367435
 50
0.0093275686913761
 51
89.99067243130855
  0
LINE
  8
1
  6
CONTINUOUS
 62
     7
 10
-223.3333333333333
 20
249.25
 11
-228.3333333333333
 21
249.25
  0
ARC
  8
1
  6
CONTINUOUS
 62
     7
 10
-228.3329310553433
 20
246.7495977220099
 40
2.500402310350376
 50
90.00921804904178
 51
179.9907819509581
  0
ARC
  8
1
  6
CONTINUOUS
 62
     7
 10
-228.3329263239619
 20
246.7504070093715
 40
2.500407042497431
 50
180.0093264492204
 51
269.9906735507797
  0
LINE
  8
1
  6
CONTINUOUS
 62
     7
 10
-182.3333333333333
 20
244.25
 11
-177.3333333333333
 21
244.25
  0
ARC
  8
1
  6
CONTINUOUS
 62
     7
 10
-177.3337362689674
 20
246.7504029356341
 40
2.500402968100254
 50
270.0092331162783
 51
359.9907668837217
  0
ARC
  8
1
  6
CONTINUOUS
 62
     7
 10
-177.3337403915669
 20
246.7495929417665
 40
2.500407091367439
 50
0.0093275686915351
 51
89.99067243130847
  0
LINE
  8
1
  6
CONTINUOUS
 62
     7
 10
-177.3333333333333
 20
249.25
 11
-182.3333333333333
 21
249.25
  0
ARC
  8
1
  6
CONTINUOUS
 62
     7
 10
-182.3329310553433
 20
246.7495977220099
 40
2.500402310350383
 50
90.00921804904202
 51
179.990781950958
  0
ARC
  8
1
  6
CONTINUOUS
 62
     7
 10
-182.3329263239619
 20
246.7504070093715
 40
2.500407042497411
 50
180.0093264492199
 51
269.9906735507801
  0
LINE
  8
1
  6
CONTINUOUS
 62
     7
 10
-204.8333333333334
 20
254.0
 11
-200.8333333333333
 21
254.0
  0
LINE
  8
1
  6
CONTINUOUS
 62
     7
 10
-200.8333333333333
 20
259.0
 11
-200.8333333333333
 21
254.0
  0
LINE
  8
1
  6
CONTINUOUS
 62
     7
 10
-200.8333333333334
 20
259.0
 11
-192.8333333333334
 21
259.0
  0
LINE
  8
1
  6
CONTINUOUS
 62
     7
 10
-192.8333333333333
 20
261.0
 11
-192.8333333333333
 21
259.0
  0
LINE
  8
1
  6
CONTINUOUS
 62
     7
 10
-192.8333333333333
 20
261.0
 11
-212.8333333333334
 21
261.0
  0
LINE
  8
1
  6
CONTINUOUS
 62
     7
 10
-212.8333333333334
 20
259.0
 11
-212.8333333333334
 21
261.0
  0
LINE
  8
1
  6
CONTINUOUS
 62
     7
 10
-212.8333333333334
 20
259.0
 11
-204.8333333333334
 21
259.0
  0
LINE
  8
1
  6
CONTINUOUS
 62
     7
 10
-204.8333333333334
 20
254.0
 11
-204.8333333333334
 21
259.0
  0
LINE
  8
1
  6
CONTINUOUS
 62
     9
 10
-296.3278219581588
 20
168.800246042638
 11
-296.3278219581588
 21
241.199753957362
  0
ARC
  8
1
  6
CONTINUOUS
 62
     9
 10
-294.3314081792678
 20
168.7974063722594
 40
1.996415798443202
 50
179.918503358422
 51
270.0129613949134
  0
LINE
  8
1
  6
CONTINUOUS
 62
     9
 10
-157.3357101146143
 20
166.8009906248996
 11
-294.3309565520524
 21
166.8009906248996
  0
ARC
  8
1
  6
CONTINUOUS
 62
     9
 10
-157.3352648355992
 20
168.7974127128708
 40
1.996422137628424
 50
269.9872208347142
 51
0.0813144119516664
  0
LINE
  8
1
  6
CONTINUOUS
 62
     9
 10
-155.338844708508
 20
241.1997539573621
 11
-155.338844708508
 21
168.8002460426383
  0
ARC
  8
1
  6
CONTINUOUS
 62
     9
 10
-157.3352584873989
 20
241.2025936277406
 40
1.996415798443223
 50
359.9185033584221
 51
90.01296139491215
  0
LINE
  8
1
  6
CONTINUOUS
 62
     9
 10
-294.3309565520524
 20
243.1990093751005
 11
-157.3357101146142
 21
243.1990093751004
  0
ARC
  8
1
  6
CONTINUOUS
 62
     9
 10
-294.3314018310674
 20
241.2025872871292
 40
1.996422137628438
 50
89.98722083471444
 51
180.0813144119514
  0
CIRCLE
  8
1
  6
CONTINUOUS
 62
     7
 10
-225.8333759915823
 20
255.499814875019
 40
1.249957355459991
  0
POLYLINE
  8
1
  6
CONTINUOUS
 62
     7
 66
     1
  0
VERTEX
  8
1
  6
CONTINUOUS
 62
     7
 10
-281.8333333333334
 20
147.5
  0
VERTEX
  8
1
  6
CONTINUOUS
 62
     7
 10
-281.8812750748803
 20
147.5011740070057
  0
VERTEX
  8
1
  6
CONTINUOUS
 62
     7
 10
-281.9292412973683
 20
147.5046772431803
  0
VERTEX
  8
1
  6
CONTINUOUS
 62
     7
 10
-281.9770678751303
 20
147.5104815312594
  0
VERTEX
  8
1
  6
CONTINUOUS
 62
     7
 10
-282.024590682499
 20
147.5185586939792
  0
VERTEX
  8
1
  6
CONTINUOUS
 62
     7
 10
-282.0716455938071
 20
147.5288805540755
  0
VERTEX
  8
1
  6
CONTINUOUS
 62
     7
 10
-282.1180684833876
 20
147.5414189342842
  0
VERTEX
  8
1
  6
CONTINUOUS
 62
     7
 10
-282.163695225573
 20
147.5561456573412
  0
VERTEX
  8
1
  6
CONTINUOUS
 62
     7
 10
-282.2085408761423
 20
147.5730850068158
  0
VERTEX
  8
1
  6
CONTINUOUS
 62
     7
 10
-282.2526370724713
 20
147.5922274443861
  0
VERTEX
  8
1
  6
CONTINUOUS
 62
     7
 10
-282.2958389832978
 20
147.613492107579
  0
VERTEX
  8
1
  6
CONTINUOUS
 62
     7
 10
-282.3380017773596
 20
147.6367981339211
  0
VERTEX
  8
1
  6
CONTINUOUS
 62
     7
 10
-282.3789806233946
 20
147.6620646609394
  0
VERTEX
  8
1
  6
CONTINUOUS
 62
     7
 10
-282.4186306901405
 20
147.6892108261607
  0
VERTEX
  8
1
  6
CONTINUOUS
 62
     7
 10
-282.4568071463353
 20
147.7181557671117
  0
VERTEX
  8
1
  6
CONTINUOUS
 62
     7
 10
-282.4935606739335
 20
147.7489659018163
  0
VERTEX
  8
1
  6
CONTINUOUS
 62
     7
 10
-282.528876626382
 20
147.78160813739
  0
VERTEX
  8
1
  6
CONTINUOUS
 62
     7
 10
-282.5626453302175
 20
147.8159585245708
  0
VERTEX
  8
1
  6
CONTINUOUS
 62
     7
 10
-282.5947571119765
 20
147.8518931140964
  0
VERTEX
  8
1
  6
CONTINUOUS
 62
     7
 10
-282.6251022981958
 20
147.8892879567049
  0
VERTEX
  8
1
  6
CONTINUOUS
 62
     7
 10
-282.6535712154118
 20
147.9280191031341
  0
VERTEX
  8
1
  6
CONTINUOUS
 62
     7
 10
-282.6800541901612
 20
147.9679626041219
  0
VERTEX
  8
1
  6
CONTINUOUS
 62
     7
 10
-282.7046073593867
 20
148.0092517156425
  0
VERTEX
  8
1
  6
CONTINUOUS
 62
     7
 10
-282.7271923635483
 20
148.0518000032142
  0
VERTEX
  8
1
  6
CONTINUOUS
 62
     7
 10
-282.7477462917583
 20
148.095453985356
  0
VERTEX
  8
1
  6
CONTINUOUS
 62
     7
 10
-282.7662062331287
 20
148.1400601805867
  0
VERTEX
  8
1
  6
CONTINUOUS
 62
     7
 10
-282.7825092767718
 20
148.1854651074255
  0
VERTEX
  8
1
  6
CONTINUOUS
 62
     7
 10
-282.7965925117996
 20
148.2315152843912
  0
VERTEX
  8
1
  6
CONTINUOUS
 62
     7
 10
-282.8083930273244
 20
148.2780572300028
  0
VERTEX
  8
1
  6
CONTINUOUS
 62
     7
 10
-282.8173321322926
 20
148.3218693842193
  0
VERTEX
  8
1
  6
CONTINUOUS
 62
     7
 10
-282.8243104923257
 20
148.3661023622168
  0
VERTEX
  8
1
  6
CONTINUOUS
 62
     7
 10
-282.8293133304756
 20
148.4106235401059
  0
VERTEX
  8
1
  6
CONTINUOUS
 62
     7
 10
-282.8323258697942
 20
148.4553002939968
  0
VERTEX
  8
1
  6
CONTINUOUS
 62
     7
 10
-282.8333333333334
 20
148.5
  0
SEQEND
  8
1
  6
CONTINUOUS
 62
     7
  0
LINE
  8
1
  6
CONTINUOUS
 62
     7
 10
-272.8333333333334
 20
147.5
 11
-281.8333333333334
 21
147.5
  0
POLYLINE
  8
1
  6
CONTINUOUS
 62
     7
 66
     1
  0
VERTEX
  8
1
  6
CONTINUOUS
 62
     7
 10
-271.8333333333334
 20
148.5
  0
VERTEX
  8
1
  6
CONTINUOUS
 62
     7
 10
-271.8345161984563
 20
148.4518725825462
  0
VERTEX
  8
1
  6
CONTINUOUS
 62
     7
 10
-271.8380462341477
 20
148.4037206039345
  0
VERTEX
  8
1
  6
CONTINUOUS
 62
     7
 10
-271.8438956008912
 20
148.3557086712518
  0
VERTEX
  8
1
  6
CONTINUOUS
 62
     7
 10
-271.8520364591704
 20
148.308001391585
  0
VERTEX
  8
1
  6
CONTINUOUS
 62
     7
 10
-271.862440969469
 20
148.2607633720212
  0
VERTEX
  8
1
  6
CONTINUOUS
 62
     7
 10
-271.8750812922706
 20
148.2141592196473
  0
VERTEX
  8
1
  6
CONTINUOUS
 62
     7
 10
-271.889929588059
 20
148.1683535415503
  0
VERTEX
  8
1
  6
CONTINUOUS
 62
     7
 10
-271.9070130000223
 20
148.1233273902878
  0
VERTEX
  8
1
  6
CONTINUOUS
 62
     7
 10
-271.9263221813642
 20
148.0790533661732
  0
VERTEX
  8
1
  6
CONTINUOUS
 62
     7
 10
-271.9477763637398
 20
148.0356782601456
  0
VERTEX
  8
1
  6
CONTINUOUS
 62
     7
 10
-271.9712947788038
 20
147.9933488631436
  0
VERTEX
  8
1
  6
CONTINUOUS
 62
     7
 10
-271.9967966582113
 20
147.9522119661061
  0
VERTEX
  8
1
  6
CONTINUOUS
 62
     7
 10
-272.0242012336174
 20
147.9124143599719
  0
VERTEX
  8
1
  6
CONTINUOUS
 62
     7
 10
-272.0534277366768
 20
147.87410283568
  0
VERTEX
  8
1
  6
CONTINUOUS
 62
     7
 10
-272.0844716356264
 20
147.8373103978578
  0
VERTEX
  8
1
  6
CONTINUOUS
 62
     7
 10
-272.1173659474792
 20
147.8019632751042
  0
VERTEX
  8
1
  6
CONTINUOUS
 62
     7
 10
-272.1519855726763
 20
147.7681735157384
  0
VERTEX
  8
1
  6
CONTINUOUS
 62
     7
 10
-272.1882054116587
 20
147.7360531680796
  0
VERTEX
  8
1
  6
CONTINUOUS
 62
     7
 10
-272.2259003648672
 20
147.7057142804472
  0
VERTEX
  8
1
  6
CONTINUOUS
 62
     7
 10
-272.2649453327433
 20
147.6772689011602
  0
VERTEX
  8
1
  6
CONTINUOUS
 62
     7
 10
-272.3052152157275
 20
147.6508290785381
  0
VERTEX
  8
1
  6
CONTINUOUS
 62
     7
 10
-272.3466390543639
 20
147.6264554640801
  0
VERTEX
  8
1
  6
CONTINUOUS
 62
     7
 10
-272.3893246616758
 20
147.6040530506607
  0
VERTEX
  8
1
  6
CONTINUOUS
 62
     7
 10
-272.433117077911
 20
147.5836857431938
  0
VERTEX
  8
1
  6
CONTINUOUS
 62
     7
 10
-272.4778613433174
 20
147.5654174465934
  0
VERTEX
  8
1
  6
CONTINUOUS
 62
     7
 10
-272.5234024981429
 20
147.5493120657731
  0
VERTEX
  8
1
  6
CONTINUOUS
 62
     7
 10
-272.5695855826353
 20
147.5354335056471
  0
VERTEX
  8
1
  6
CONTINUOUS
 62
     7
 10
-272.6162556370425
 20
147.5238456711293
  0
VERTEX
  8
1
  6
CONTINUOUS
 62
     7
 10
-272.6591272433591
 20
147.5152982881971
  0
VERTEX
  8
1
  6
CONTINUOUS
 62
     7
 10
-272.702396035738
 20
147.5086261326152
  0
VERTEX
  8
1
  6
CONTINUOUS
 62
     7
 10
-272.7459367945876
 20
147.5038431013865
  0
VERTEX
  8
1
  6
CONTINUOUS
 62
     7
 10
-272.7896243003166
 20
147.5009630915138
  0
VERTEX
  8
1
  6
CONTINUOUS
 62
     7
 10
-272.8333333333334
 20
147.5
  0
SEQEND
  8
1
  6
CONTINUOUS
 62
     7
  0
LINE
  8
1
  6
CONTINUOUS
 62
     7
 10
-271.8333333333334
 20
148.5000000000001
 11
-271.8333333333334
 21
153.2500000000001
  0
ARC
  8
1
  6
CONTINUOUS
 62
     7
 10
-271.8334170188476
 20
154.5
 40
1.250000002801307
 50
270.0038358614093
 51
89.99616413859071
  0
LINE
  8
1
  6
CONTINUOUS
 62
     7
 10
-271.8333333333334
 20
155.7500000000001
 11
-271.8333333333334
 21
159.0
  0
POLYLINE
  8
1
  6
CONTINUOUS
 62
     7
 66
     1
  0
VERTEX
  8
1
  6
CONTINUOUS
 62
     7
 10
-272.8333333333334
 20
160.0
  0
VERTEX
  8
1
  6
CONTINUOUS
 62
     7
 10
-272.7853562696296
 20
159.9988243111542
  0
VERTEX
  8
1
  6
CONTINUOUS
 62
     7
 10
-272.7373546639225
 20
159.9953159816286
  0
VERTEX
  8
1
  6
CONTINUOUS
 62
     7
 10
-272.6894927317993
 20
159.9895031169411
  0
VERTEX
  8
1
  6
CONTINUOUS
 62
     7
 10
-272.6419346888475
 20
159.9814138226097
  0
VERTEX
  8
1
  6
CONTINUOUS
 62
     7
 10
-272.5948447506543
 20
159.9710762041524
  0
VERTEX
  8
1
  6
CONTINUOUS
 62
     7
 10
-272.548387132807
 20
159.958518367087
  0
VERTEX
  8
1
  6
CONTINUOUS
 62
     7
 10
-272.5027260508929
 20
159.9437684169315
  0
VERTEX
  8
1
  6
CONTINUOUS
 62
     7
 10
-272.4578456414579
 20
159.9268014835474
  0
VERTEX
  8
1
  6
CONTINUOUS
 62
     7
 10
-272.4137151636561
 20
159.9076270894543
  0
VERTEX
  8
1
  6
CONTINUOUS
 62
     7
 10
-272.3704798430662
 20
159.8863260943008
  0
VERTEX
  8
1
  6
CONTINUOUS
 62
     7
 10
-272.3282849052669
 20
159.8629793577357
  0
VERTEX
  8
1
  6
CONTINUOUS
 62
     7
 10
-272.2872755758367
 20
159.8376677394075
  0
VERTEX
  8
1
  6
CONTINUOUS
 62
     7
 10
-272.2475970803543
 20
159.8104720989651
  0
VERTEX
  8
1
  6
CONTINUOUS
 62
     7
 10
-272.2093946443983
 20
159.7814732960569
  0
VERTEX
  8
1
  6
CONTINUOUS
 62
     7
 10
-272.172634879945
 20
159.750619549492
  0
VERTEX
  8
1
  6
CONTINUOUS
 62
     7
 10
-272.1373141544475
 20
159.7179304156881
  0
VERTEX
  8
1
  6
CONTINUOUS
 62
     7
 10
-272.1035425817304
 20
159.6835300912614
  0
VERTEX
  8
1
  6
CONTINUOUS
 62
     7
 10
-272.0714302756188
 20
159.6475427728282
  0
VERTEX
  8
1
  6
CONTINUOUS
 62
     7
 10
-272.0410873499371
 20
159.6100926570049
  0
VERTEX
  8
1
  6
CONTINUOUS
 62
     7
 10
-272.0126239185105
 20
159.5713039404078
  0
VERTEX
  8
1
  6
CONTINUOUS
 62
     7
 10
-271.9861500951636
 20
159.5313008196533
  0
VERTEX
  8
1
  6
CONTINUOUS
 62
     7
 10
-271.9616323122247
 20
159.4899892558014
  0
VERTEX
  8
1
  6
CONTINUOUS
 62
     7
 10
-271.9390831228278
 20
159.4474184896575
  0
VERTEX
  8
1
  6
CONTINUOUS
 62
     7
 10
-271.9185655715378
 20
159.4037422708135
  0
VERTEX
  8
1
  6
CONTINUOUS
 62
     7
 10
-271.9001427029197
 20
159.3591143488617
  0
VERTEX
  8
1
  6
CONTINUOUS
 62
     7
 10
-271.8838775615384
 20
159.3136884733942
  0
VERTEX
  8
1
  6
CONTINUOUS
 62
     7
 10
-271.8698331919587
 20
159.2676183940032
  0
VERTEX
  8
1
  6
CONTINUOUS
 62
     7
 10
-271.8580726387455
 20
159.2210578602808
  0
VERTEX
  8
1
  6
CONTINUOUS
 62
     7
 10
-271.849205352078
 20
159.1774160904484
  0
VERTEX
  8
1
  6
CONTINUOUS
 62
     7
 10
-271.8422832044727
 20
159.1333581641985
  0
VERTEX
  8
1
  6
CONTINUOUS
 62
     7
 10
-271.8373207696599
 20
159.0890153368367
  0
VERTEX
  8
1
  6
CONTINUOUS
 62
     7
 10
-271.8343326213701
 20
159.0445188636686
  0
VERTEX
  8
1
  6
CONTINUOUS
 62
     7
 10
-271.8333333333334
 20
159.0
  0
SEQEND
  8
1
  6
CONTINUOUS
 62
     7
  0
LINE
  8
1
  6
CONTINUOUS
 62
     7
 10
-281.4333333333333
 20
160.0
 11
-272.8333333333334
 21
160.0
  0
POLYLINE
  8
1
  6
CONTINUOUS
 62
     7
 66
     1
  0
VERTEX
  8
1
  6
CONTINUOUS
 62
     7
 10
-282.4333333333333
 20
161.0
  0
VERTEX
  8
1
  6
CONTINUOUS
 62
     7
 10
-282.4321522016526
 20
160.9519088597353
  0
VERTEX
  8
1
  6
CONTINUOUS
 62
     7
 10
-282.4286274097092
 20
160.9037931673071
  0
VERTEX
  8
1
  6
CONTINUOUS
 62
     7
 10
-282.4227868621517
 20
160.855817434743
  0
VERTEX
  8
1
  6
CONTINUOUS
 62
     7
 10
-282.4146584636285
 20
160.8081461740708
  0
VERTEX
  8
1
  6
CONTINUOUS
 62
     7
 10
-282.4042701187879
 20
160.7609438973183
  0
VERTEX
  8
1
  6
CONTINUOUS
 62
     7
 10
-282.3916497322785
 20
160.7143751165133
  0
VERTEX
  8
1
  6
CONTINUOUS
 62
     7
 10
-282.3768252087485
 20
160.6686043436834
  0
VERTEX
  8
1
  6
CONTINUOUS
 62
     7
 10
-282.3597699608669
 20
160.6236133851559
  0
VERTEX
  8
1
  6
CONTINUOUS
 62
     7
 10
-282.3404933758944
 20
160.5793740236039
  0
VERTEX
  8
1
  6
CONTINUOUS
 62
     7
 10
-282.3190762429667
 20
160.5360326681847
  0
VERTEX
  8
1
  6
CONTINUOUS
 62
     7
 10
-282.2955993512193
 20
160.4937357280562
  0
VERTEX
  8
1
  6
CONTINUOUS
 62
     7
 10
-282.2701434897878
 20
160.4526296123758
  0
VERTEX
  8
1
  6
CONTINUOUS
 62
     7
 10
-282.2427894478077
 20
160.4128607303013
  0
VERTEX
  8
1
  6
CONTINUOUS
 62
     7
 10
-282.2136180144145
 20
160.3745754909903
  0
VERTEX
  8
1
  6
CONTINUOUS
 62
     7
 10
-282.1826198508401
 20
160.3377906211363
  0
VERTEX
  8
1
  6
CONTINUOUS
 62
     7
 10
-282.1497748719612
 20
160.3024495519124
  0
VERTEX
  8
1
  6
CONTINUOUS
 62
     7
 10
-282.1152079554297
 20
160.2686638652446
  0
VERTEX
  8
1
  6
CONTINUOUS
 62
     7
 10
-282.0790439788979
 20
160.2365451430594
  0
VERTEX
  8
1
  6
CONTINUOUS
 62
     7
 10
-282.0414078200178
 20
160.206204967283
  0
VERTEX
  8
1
  6
CONTINUOUS
 62
     7
 10
-282.0024243564416
 20
160.1777549198417
  0
VERTEX
  8
1
  6
CONTINUOUS
 62
     7
 10
-281.9622184658213
 20
160.1513065826618
  0
VERTEX
  8
1
  6
CONTINUOUS
 62
     7
 10
-281.9208211179603
 20
160.1268979326811
  0
VERTEX
  8
1
  6
CONTINUOUS
 62
     7
 10
-281.8781625483783
 20
160.1044598778858
  0
VERTEX
  8
1
  6
CONTINUOUS
 62
     7
 10
-281.8343974260231
 20
160.0840561247261
  0
VERTEX
  8
1
  6
CONTINUOUS
 62
     7
 10
-281.7896804198428
 20
160.0657503796523
  0
VERTEX
  8
1
  6
CONTINUOUS
 62
     7
 10
-281.744166198785
 20
160.0496063491149
  0
VERTEX
  8
1
  6
CONTINUOUS
 62
     7
 10
-281.6980094317975
 20
160.0356877395641
  0
VERTEX
  8
1
  6
CONTINUOUS
 62
     7
 10
-281.6513647878281
 20
160.0240582574503
  0
VERTEX
  8
1
  6
CONTINUOUS
 62
     7
 10
-281.608308640954
 20
160.0154347871439
  0
VERTEX
  8
1
  6
CONTINUOUS
 62
     7
 10
-281.5648507699815
 20
160.0087031628547
  0
VERTEX
  8
1
  6
CONTINUOUS
 62
     7
 10
-281.5211178269965
 20
160.0038774479738
  0
VERTEX
  8
1
  6
CONTINUOUS
 62
     7
 10
-281.4772364640852
 20
160.0009717058919
  0
VERTEX
  8
1
  6
CONTINUOUS
 62
     7
 10
-281.4333333333333
 20
160.0
  0
SEQEND
  8
1
  6
CONTINUOUS
 62
     7
  0
LINE
  8
1
  6
CONTINUOUS
 62
     7
 10
-282.4333333333333
 20
161.0000000000001
 11
-282.4333333333333
 21
165.0000000000001
  0
POLYLINE
  8
1
  6
CONTINUOUS
 62
     7
 66
     1
  0
VERTEX
  8
1
  6
CONTINUOUS
 62
     7
 10
-283.4333333333333
 20
166.0
  0
VERTEX
  8
1
  6
CONTINUOUS
 62
     7
 10
-283.3853420224794
 20
165.9988236321414
  0
VERTEX
  8
1
  6
CONTINUOUS
 62
     7
 10
-283.3373261467405
 20
165.9953132467827
  0
VERTEX
  8
1
  6
CONTINUOUS
 62
     7
 10
-283.2894499589841
 20
165.9894969212492
  0
VERTEX
  8
1
  6
CONTINUOUS
 62
     7
 10
-283.2418777120777
 20
165.9814027328667
  0
VERTEX
  8
1
  6
CONTINUOUS
 62
     7
 10
-283.1947736588886
 20
165.9710587589605
  0
VERTEX
  8
1
  6
CONTINUOUS
 62
     7
 10
-283.1483020522844
 20
165.9584930768561
  0
VERTEX
  8
1
  6
CONTINUOUS
 62
     7
 10
-283.1026271451324
 20
165.9437337638792
  0
VERTEX
  8
1
  6
CONTINUOUS
 62
     7
 10
-283.0577327726467
 20
165.9267557270478
  0
VERTEX
  8
1
  6
CONTINUOUS
 62
     7
 10
-283.0135885245451
 20
165.9075684733484
  0
VERTEX
  8
1
  6
CONTINUOUS
 62
     7
 10
-282.9703397783557
 20
165.8862528536305
  0
VERTEX
  8
1
  6
CONTINUOUS
 62
     7
 10
-282.9281319116066
 20
165.8628897187436
  0
VERTEX
  8
1
  6
CONTINUOUS
 62
     7
 10
-282.8871103018257
 20
165.8375599195373
  0
VERTEX
  8
1
  6
CONTINUOUS
 62
     7
 10
-282.847420326541
 20
165.810344306861
  0
VERTEX
  8
1
  6
CONTINUOUS
 62
     7
 10
-282.8092073632806
 20
165.7813237315644
  0
VERTEX
  8
1
  6
CONTINUOUS
 62
     7
 10
-282.7724444799711
 20
165.7504518645573
  0
VERTEX
  8
1
  6
CONTINUOUS
 62
     7
 10
-282.7371212251541
 20
165.7177431768058
  0
VERTEX
  8
1
  6
CONTINUOUS
 62
     7
 10
-282.7033478974834
 20
165.6833219508163
  0
VERTEX
  8
1
  6
CONTINUOUS
 62
     7
 10
-282.671234795613
 20
165.6473124690955
  0
VERTEX
  8
1
  6
CONTINUOUS
 62
     7
 10
-282.6408922181965
 20
165.6098390141497
  0
VERTEX
  8
1
  6
CONTINUOUS
 62
     7
 10
-282.6124304638881
 20
165.5710258684855
  0
VERTEX
  8
1
  6
CONTINUOUS
 62
     7
 10
-282.5859598313415
 20
165.5309973146091
  0
VERTEX
  8
1
  6
CONTINUOUS
 62
     7
 10
-282.5614557890354
 20
165.489675010909
  0
VERTEX
  8
1
  6
CONTINUOUS
 62
     7
 10
-282.5389205852468
 20
165.4470932565401
  0
VERTEX
  8
1
  6
CONTINUOUS
 62
     7
 10
-282.5184173474436
 20
165.4034059152641
  0
VERTEX
  8
1
  6
CONTINUOUS
 62
     7
 10
-282.5000092030942
 20
165.3587668508425
  0
VERTEX
  8
1
  6
CONTINUOUS
 62
     7
 10
-282.4837592796666
 20
165.3133299270368
  0
VERTEX
  8
1
  6
CONTINUOUS
 62
     7
 10
-282.4697307046289
 20
165.2672490076086
  0
VERTEX
  8
1
  6
CONTINUOUS
 62
     7
 10
-282.457986605449
 20
165.2206779563195
  0
VERTEX
  8
1
  6
CONTINUOUS
 62
     7
 10
-282.4491501191067
 20
165.1771096774722
  0
VERTEX
  8
1
  6
CONTINUOUS
 62
     7
 10
-282.4422520393667
 20
165.1331270706806
  0
VERTEX
  8
1
  6
CONTINUOUS
 62
     7
 10
-282.4373068755863
 20
165.0888608076806
  0
VERTEX
  8
1
  6
CONTINUOUS
 62
     7
 10
-282.4343291371228
 20
165.0444415602084
  0
VERTEX
  8
1
  6
CONTINUOUS
 62
     7
 10
-282.4333333333333
 20
165.0
  0
SEQEND
  8
1
  6
CONTINUOUS
 62
     7
  0
LINE
  8
1
  6
CONTINUOUS
 62
     7
 10
-295.8333333333334
 20
166.0
 11
-283.4333333333333
 21
166.0
  0
POLYLINE
  8
1
  6
CONTINUOUS
 62
     7
 66
     1
  0
VERTEX
  8
1
  6
CONTINUOUS
 62
     7
 10
-296.8333333333334
 20
167.0
  0
VERTEX
  8
1
  6
CONTINUOUS
 62
     7
 10
-296.8321528804515
 20
166.9519230727581
  0
VERTEX
  8
1
  6
CONTINUOUS
 62
     7
 10
-296.8286301414809
 20
166.9038215926172
  0
VERTEX
  8
1
  6
CONTINUOUS
 62
     7
 10
-296.8227930459334
 20
166.8558600345922
  0
VERTEX
  8
1
  6
CONTINUOUS
 62
     7
 10
-296.8146695233212
 20
166.8082028736979
  0
VERTEX
  8
1
  6
CONTINUOUS
 62
     7
 10
-296.8042875031566
 20
166.7610145849492
  0
VERTEX
  8
1
  6
CONTINUOUS
 62
     7
 10
-296.7916749149513
 20
166.714459643361
  0
VERTEX
  8
1
  6
CONTINUOUS
 62
     7
 10
-296.7768596882178
 20
166.6687025239479
  0
VERTEX
  8
1
  6
CONTINUOUS
 62
     7
 10
-296.7598154511694
 20
166.6237253258748
  0
VERTEX
  8
1
  6
CONTINUOUS
 62
     7
 10
-296.7405516070954
 20
166.5794995148112
  0
VERTEX
  8
1
  6
CONTINUOUS
 62
     7
 10
-296.7191489531681
 20
166.536171351522
  0
VERTEX
  8
1
  6
CONTINUOUS
 62
     7
 10
-296.6956882865593
 20
166.4938870967722
  0
VERTEX
  8
1
  6
CONTINUOUS
 62
     7
 10
-296.670250404441
 20
166.4527930113265
  0
VERTEX
  8
1
  6
CONTINUOUS
 62
     7
 10
-296.6429161039854
 20
166.4130353559499
  0
VERTEX
  8
1
  6
CONTINUOUS
 62
     7
 10
-296.6137661823644
 20
166.3747603914072
  0
VERTEX
  8
1
  6
CONTINUOUS
 62
     7
 10
-296.5827859298684
 20
166.3379785285242
  0
VERTEX
  8
1
  6
CONTINUOUS
 62
     7
 10
-296.549960271338
 20
166.3026398720985
  0
VERTEX
  8
1
  6
CONTINUOUS
 62
     7
 10
-296.5154139977946
 20
166.2688558218331
  0
VERTEX
  8
1
  6
CONTINUOUS
 62
     7
 10
-296.4792719002601
 20
166.2367377774307
  0
VERTEX
  8
1
  6
CONTINUOUS
 62
     7
 10
-296.441658769756
 20
166.206397138594
  0
VERTEX
  8
1
  6
CONTINUOUS
 62
     7
 10
-296.402699397304
 20
166.177945305026
  0
VERTEX
  8
1
  6
CONTINUOUS
 62
     7
 10
-296.3625185739257
 20
166.1514936764295
  0
VERTEX
  8
1
  6
CONTINUOUS
 62
     7
 10
-296.3211316473789
 20
166.1270713450733
  0
VERTEX
  8
1
  6
CONTINUOUS
 62
     7
 10
-296.2784837178772
 20
166.1046193693037
  0
VERTEX
  8
1
  6
CONTINUOUS
 62
     7
 10
-296.2347293403755
 20
166.0842013773104
  0
VERTEX
  8
1
  6
CONTINUOUS
 62
     7
 10
-296.1900230698287
 20
166.065880997283
  0
VERTEX
  8
1
  6
CONTINUOUS
 62
     7
 10
-296.1445194611915
 20
166.0497218574112
  0
VERTEX
  8
1
  6
CONTINUOUS
 62
     7
 10
-296.0983730694188
 20
166.0357875858846
  0
VERTEX
  8
1
  6
CONTINUOUS
 62
     7
 10
-296.0517384494654
 20
166.024141810893
  0
VERTEX
  8
1
  6
CONTINUOUS
 62
     7
 10
-296.0086100134768
 20
166.015488435415
  0
VERTEX
  8
1
  6
CONTINUOUS
 62
     7
 10
-295.9650780682513
 20
166.0087334379204
  0
VERTEX
  8
1
  6
CONTINUOUS
 62
     7
 10
-295.9212698294072
 20
166.0038909470755
  0
VERTEX
  8
1
  6
CONTINUOUS
 62
     7
 10
-295.8773125125618
 20
166.0009750915466
  0
VERTEX
  8
1
  6
CONTINUOUS
 62
     7
 10
-295.8333333333334
 20
166.0
  0
SEQEND
  8
1
  6
CONTINUOUS
 62
     7
  0
LINE
  8
1
  6
CONTINUOUS
 62
     7
 10
-296.8333333333334
 20
167.000000000002
 11
-296.8333333333334
 21
243.0000000000001
  0
POLYLINE
  8
1
  6
CONTINUOUS
 62
     7
 66
     1
  0
VERTEX
  8
1
  6
CONTINUOUS
 62
     7
 10
-295.8333333333334
 20
244.0
  0
VERTEX
  8
1
  6
CONTINUOUS
 62
     7
 10
-295.8813252496776
 20
243.9988236027565
  0
VERTEX
  8
1
  6
CONTINUOUS
 62
     7
 10
-295.9293417289847
 20
243.9953131293437
  0
VERTEX
  8
1
  6
CONTINUOUS
 62
     7
 10
-295.9772185152361
 20
243.9894966572381
  0
VERTEX
  8
1
  6
CONTINUOUS
 62
     7
 10
-296.0247913524131
 20
243.9814022639161
  0
VERTEX
  8
1
  6
CONTINUOUS
 62
     7
 10
-296.0718959844972
 20
243.9710580268543
  0
VERTEX
  8
1
  6
CONTINUOUS
 62
     7
 10
-296.1183681554699
 20
243.9584920235291
  0
VERTEX
  8
1
  6
CONTINUOUS
 62
     7
 10
-296.1640436093126
 20
243.943732331417
  0
VERTEX
  8
1
  6
CONTINUOUS
 62
     7
 10
-296.2089384826188
 20
243.9267538715871
  0
VERTEX
  8
1
  6
CONTINUOUS
 62
     7
 10
-296.2530832233581
 20
243.9075661354538
  0
VERTEX
  8
1
  6
CONTINUOUS
 62
     7
 10
-296.2963324596834
 20
243.8862499611302
  0
VERTEX
  8
1
  6
CONTINUOUS
 62
     7
 10
-296.3385408197475
 20
243.8628861867292
  0
VERTEX
  8
1
  6
CONTINUOUS
 62
     7
 10
-296.3795629317033
 20
243.8375556503638
  0
VERTEX
  8
1
  6
CONTINUOUS
 62
     7
 10
-296.4192534237036
 20
243.8103391901468
  0
VERTEX
  8
1
  6
CONTINUOUS
 62
     7
 10
-296.4574669239013
 20
243.7813176441914
  0
VERTEX
  8
1
  6
CONTINUOUS
 62
     7
 10
-296.494230964286
 20
243.7504441381222
  0
VERTEX
  8
1
  6
CONTINUOUS
 62
     7
 10
-296.5295553530306
 20
243.7177335735863
  0
VERTEX
  8
1
  6
CONTINUOUS
 62
     7
 10
-296.5633297721755
 20
243.6833102136619
  0
VERTEX
  8
1
  6
CONTINUOUS
 62
     7
 10
-296.5954439037608
 20
243.6472983214274
  0
VERTEX
  8
1
  6
CONTINUOUS
 62
     7
 10
-296.6257874298269
 20
243.6098221599614
  0
VERTEX
  8
1
  6
CONTINUOUS
 62
     7
 10
-296.6542500324138
 20
243.5710059923422
  0
VERTEX
  8
1
  6
CONTINUOUS
 62
     7
 10
-296.6807213935618
 20
243.5309740816483
  0
VERTEX
  8
1
  6
CONTINUOUS
 62
     7
 10
-296.7052257528249
 20
243.4896485119888
  0
VERTEX
  8
1
  6
CONTINUOUS
 62
     7
 10
-296.7277611432186
 20
243.4470630873828
  0
VERTEX
  8
1
  6
CONTINUOUS
 62
     7
 10
-296.7482643856306
 20
243.4033716863018
  0
VERTEX
  8
1
  6
CONTINUOUS
 62
     7
 10
-296.7666723009491
 20
243.3587281872177
  0
VERTEX
  8
1
  6
CONTINUOUS
 62
     7
 10
-296.7829217100618
 20
243.3132864686022
  0
VERTEX
  8
1
  6
CONTINUOUS
 62
     7
 10
-296.7969494338565
 20
243.267200408927
  0
VERTEX
  8
1
  6
CONTINUOUS
 62
     7
 10
-296.8086922932211
 20
243.220623886664
  0
VERTEX
  8
1
  6
CONTINUOUS
 62
     7
 10
-296.8175243086059
 20
243.1770665738711
  0
VERTEX
  8
1
  6
CONTINUOUS
 62
     7
 10
-296.8244189549554
 20
243.1330949375873
  0
VERTEX
  8
1
  6
CONTINUOUS
 62
     7
 10
-296.8293616976237
 20
243.0888395690334
  0
VERTEX
  8
1
  6
CONTINUOUS
 62
     7
 10
-296.832338001965
 20
243.0444310594307
  0
VERTEX
  8
1
  6
CONTINUOUS
 62
     7
 10
-296.8333333333334
 20
243.0
  0
SEQEND
  8
1
  6
CONTINUOUS
 62
     7
  0
LINE
  8
1
  6
CONTINUOUS
 62
     7
 10
-283.4333333333333
 20
244.0
 11
-295.8333333333334
 21
244.0
  0
POLYLINE
  8
1
  6
CONTINUOUS
 62
     7
 66
     1
  0
VERTEX
  8
1
  6
CONTINUOUS
 62
     7
 10
-282.4333333333333
 20
245.0
  0
VERTEX
  8
1
  6
CONTINUOUS
 62
     7
 10
-282.4345138241646
 20
244.9519222543972
  0
VERTEX
  8
1
  6
CONTINUOUS
 62
     7
 10
-282.4380367086434
 20
244.9038196475829
  0
VERTEX
  8
1
  6
CONTINUOUS
 62
     7
 10
-282.4438741047476
 20
244.855856662578
  0
VERTEX
  8
1
  6
CONTINUOUS
 62
     7
 10
-282.4519981304553
 20
244.8081977824036
  0
VERTEX
  8
1
  6
CONTINUOUS
 62
     7
 10
-282.4623809037439
 20
244.7610074900803
  0
VERTEX
  8
1
  6
CONTINUOUS
 62
     7
 10
-282.4749945425916
 20
244.7144502686294
  0
VERTEX
  8
1
  6
CONTINUOUS
 62
     7
 10
-282.489811164976
 20
244.6686906010716
  0
VERTEX
  8
1
  6
CONTINUOUS
 62
     7
 10
-282.5068572899594
 20
244.6237104082722
  0
VERTEX
  8
1
  6
CONTINUOUS
 62
     7
 10
-282.5261234976156
 20
244.5794814063655
  0
VERTEX
  8
1
  6
CONTINUOUS
 62
     7
 10
-282.5475289944084
 20
244.5361499320508
  0
VERTEX
  8
1
  6
CONTINUOUS
 62
     7
 10
-282.570992986802
 20
244.4938623220274
  0
VERTEX
  8
1
  6
CONTINUOUS
 62
     7
 10
-282.5964346812602
 20
244.4527649129944
  0
VERTEX
  8
1
  6
CONTINUOUS
 62
     7
 10
-282.623773284247
 20
244.4130040416513
  0
VERTEX
  8
1
  6
CONTINUOUS
 62
     7
 10
-282.6529280022266
 20
244.3747260446971
  0
VERTEX
  8
1
  6
CONTINUOUS
 62
     7
 10
-282.6839104148884
 20
244.3379449489109
  0
VERTEX
  8
1
  6
CONTINUOUS
 62
     7
 10
-282.7167384005455
 20
244.3026070273279
  0
VERTEX
  8
1
  6
CONTINUOUS
 62
     7
 10
-282.7512871467767
 20
244.2688237180483
  0
VERTEX
  8
1
  6
CONTINUOUS
 62
     7
 10
-282.7874318411607
 20
244.2367064591722
  0
VERTEX
  8
1
  6
CONTINUOUS
 62
     7
 10
-282.8250476712762
 20
244.2063666887996
  0
VERTEX
  8
1
  6
CONTINUOUS
 62
     7
 10
-282.8640098247018
 20
244.1779158450306
  0
VERTEX
  8
1
  6
CONTINUOUS
 62
     7
 10
-282.9041934890164
 20
244.1514653659654
  0
VERTEX
  8
1
  6
CONTINUOUS
 62
     7
 10
-282.9455803932161
 20
244.1270459925819
  0
VERTEX
  8
1
  6
CONTINUOUS
 62
     7
 10
-282.988228177082
 20
244.1045968881097
  0
VERTEX
  8
1
  6
CONTINUOUS
 62
     7
 10
-283.0319822857282
 20
244.0841816773008
  0
VERTEX
  8
1
  6
CONTINUOUS
 62
     7
 10
-283.0766881642691
 20
244.065863984907
  0
VERTEX
  8
1
  6
CONTINUOUS
 62
     7
 10
-283.1221912578187
 20
244.04970743568
  0
VERTEX
  8
1
  6
CONTINUOUS
 62
     7
 10
-283.1683370114912
 20
244.0357756543716
  0
VERTEX
  8
1
  6
CONTINUOUS
 62
     7
 10
-283.2149708704008
 20
244.0241322657337
  0
VERTEX
  8
1
  6
CONTINUOUS
 62
     7
 10
-283.2580910997368
 20
244.0154822974449
  0
VERTEX
  8
1
  6
CONTINUOUS
 62
     7
 10
-283.3016146021234
 20
244.0087299689613
  0
VERTEX
  8
1
  6
CONTINUOUS
 62
     7
 10
-283.3454142361352
 20
244.0038893980489
  0
VERTEX
  8
1
  6
CONTINUOUS
 62
     7
 10
-283.389362860347
 20
244.0009747024732
  0
VERTEX
  8
1
  6
CONTINUOUS
 62
     7
 10
-283.4333333333333
 20
244.0
  0
SEQEND
  8
1
  6
CONTINUOUS
 62
     7
  0
LINE
  8
1
  6
CONTINUOUS
 62
     7
 10
-282.4333333333333
 20
245.0
 11
-282.4333333333333
 21
249.0
  0
POLYLINE
  8
1
  6
CONTINUOUS
 62
     7
 66
     1
  0
VERTEX
  8
1
  6
CONTINUOUS
 62
     7
 10
-281.4333333333333
 20
250.0
  0
VERTEX
  8
1
  6
CONTINUOUS
 62
     7
 10
-281.4813110958939
 20
249.9988242772467
  0
VERTEX
  8
1
  6
CONTINUOUS
 62
     7
 10
-281.5293133982392
 20
249.9953158461169
  0
VERTEX
  8
1
  6
CONTINUOUS
 62
     7
 10
-281.5771760211438
 20
249.9895028123058
  0
VERTEX
  8
1
  6
CONTINUOUS
 62
     7
 10
-281.6247347453823
 20
249.9814132815085
  0
VERTEX
  8
1
  6
CONTINUOUS
 62
     7
 10
-281.6718253517294
 20
249.9710753594202
  0
VERTEX
  8
1
  6
CONTINUOUS
 62
     7
 10
-281.7182836209596
 20
249.9585171517359
  0
VERTEX
  8
1
  6
CONTINUOUS
 62
     7
 10
-281.7639453338476
 20
249.943766764151
  0
VERTEX
  8
1
  6
CONTINUOUS
 62
     7
 10
-281.8088263213119
 20
249.926799342738
  0
VERTEX
  8
1
  6
CONTINUOUS
 62
     7
 10
-281.8529573676922
 20
249.9076243920594
  0
VERTEX
  8
1
  6
CONTINUOUS
 62
     7
 10
-281.8961932539664
 20
249.8863227570872
  0
VERTEX
  8
1
  6
CONTINUOUS
 62
     7
 10
-281.9383887611117
 20
249.8629752827937
  0
VERTEX
  8
1
  6
CONTINUOUS
 62
     7
 10
-281.9793986701058
 20
249.8376628141509
  0
VERTEX
  8
1
  6
CONTINUOUS
 62
     7
 10
-282.019077761926
 20
249.8104661961309
  0
VERTEX
  8
1
  6
CONTINUOUS
 62
     7
 10
-282.0572808175501
 20
249.7814662737058
  0
VERTEX
  8
1
  6
CONTINUOUS
 62
     7
 10
-282.0940419175454
 20
249.7506106364195
  0
VERTEX
  8
1
  6
CONTINUOUS
 62
     7
 10
-282.1293639518872
 20
249.7179193377753
  0
VERTEX
  8
1
  6
CONTINUOUS
 62
     7
 10
-282.1631367845203
 20
249.6835165519908
  0
VERTEX
  8
1
  6
CONTINUOUS
 62
     7
 10
-282.1952502793897
 20
249.6475264532836
  0
VERTEX
  8
1
  6
CONTINUOUS
 62
     7
 10
-282.2255943004403
 20
249.6100732158711
  0
VERTEX
  8
1
  6
CONTINUOUS
 62
     7
 10
-282.254058711617
 20
249.5712810139711
  0
VERTEX
  8
1
  6
CONTINUOUS
 62
     7
 10
-282.2805333768648
 20
249.5312740218008
  0
VERTEX
  8
1
  6
CONTINUOUS
 62
     7
 10
-282.3050515281936
 20
249.489958687868
  0
VERTEX
  8
1
  6
CONTINUOUS
 62
     7
 10
-282.3276009355883
 20
249.4473836850806
  0
VERTEX
  8
1
  6
CONTINUOUS
 62
     7
 10
-282.3481184949031
 20
249.4037027799432
  0
VERTEX
  8
1
  6
CONTINUOUS
 62
     7
 10
-282.3665411019925
 20
249.3590697389608
  0
VERTEX
  8
1
  6
CONTINUOUS
 62
     7
 10
-282.3828056527105
 20
249.3136383286379
  0
VERTEX
  8
1
  6
CONTINUOUS
 62
     7
 10
-282.3968490429117
 20
249.2675623154794
  0
VERTEX
  8
1
  6
CONTINUOUS
 62
     7
 10
-282.40860816845
 20
249.22099546599
  0
VERTEX
  8
1
  6
CONTINUOUS
 62
     7
 10
-282.4174702861152
 20
249.1773663519548
  0
VERTEX
  8
1
  6
CONTINUOUS
 62
     7
 10
-282.4243884645708
 20
249.1333210861885
  0
VERTEX
  8
1
  6
CONTINUOUS
 62
     7
 10
-282.4293481006824
 20
249.088990830841
  0
VERTEX
  8
1
  6
CONTINUOUS
 62
     7
 10
-282.4323345913148
 20
249.0445067480616
  0
VERTEX
  8
1
  6
CONTINUOUS
 62
     7
 10
-282.4333333333333
 20
249.0
  0
SEQEND
  8
1
  6
CONTINUOUS
 62
     7
  0
LINE
  8
1
  6
CONTINUOUS
 62
     7
 10
-272.8333333333334
 20
250.0
 11
-281.4333333333333
 21
250.0
  0
POLYLINE
  8
1
  6
CONTINUOUS
 62
     7
 66
     1
  0
VERTEX
  8
1
  6
CONTINUOUS
 62
     7
 10
-271.8333333333334
 20
251.0
  0
VERTEX
  8
1
  6
CONTINUOUS
 62
     7
 10
-271.8345145090664
 20
250.9519079103215
  0
VERTEX
  8
1
  6
CONTINUOUS
 62
     7
 10
-271.8380394697547
 20
250.903790912238
  0
VERTEX
  8
1
  6
CONTINUOUS
 62
     7
 10
-271.8438803656317
 20
250.8558135270781
  0
VERTEX
  8
1
  6
CONTINUOUS
 62
     7
 10
-271.8520093469314
 20
250.8081402761703
  0
VERTEX
  8
1
  6
CONTINUOUS
 62
     7
 10
-271.8623985638871
 20
250.7609356808428
  0
VERTEX
  8
1
  6
CONTINUOUS
 62
     7
 10
-271.8750201667327
 20
250.7143642624243
  0
VERTEX
  8
1
  6
CONTINUOUS
 62
     7
 10
-271.8898463057017
 20
250.6685905422429
  0
VERTEX
  8
1
  6
CONTINUOUS
 62
     7
 10
-271.9069037384085
 20
250.6235961205406
  0
VERTEX
  8
1
  6
CONTINUOUS
 62
     7
 10
-271.9261830583831
 20
250.5793530694155
  0
VERTEX
  8
1
  6
CONTINUOUS
 62
     7
 10
-271.9476034806837
 20
250.5360078858448
  0
VERTEX
  8
1
  6
CONTINUOUS
 62
     7
 10
-271.9710842203684
 20
250.4937070668061
  0
VERTEX
  8
1
  6
CONTINUOUS
 62
     7
 10
-271.9965444924956
 20
250.4525971092765
  0
VERTEX
  8
1
  6
CONTINUOUS
 62
     7
 10
-272.0239035121232
 20
250.4128245102332
  0
VERTEX
  8
1
  6
CONTINUOUS
 62
     7
 10
-272.0530804943097
 20
250.3745357666537
  0
VERTEX
  8
1
  6
CONTINUOUS
 62
     7
 10
-272.0840811553433
 20
250.3377517871897
  0
VERTEX
  8
1
  6
CONTINUOUS
 62
     7
 10
-272.1169288244035
 20
250.3024115712914
  0
VERTEX
  8
1
  6
CONTINUOUS
 62
     7
 10
-272.1514985990833
 20
250.2686267452383
  0
VERTEX
  8
1
  6
CONTINUOUS
 62
     7
 10
-272.1876655769753
 20
250.23650893531
  0
VERTEX
  8
1
  6
CONTINUOUS
 62
     7
 10
-272.2253048556726
 20
250.2061697677861
  0
VERTEX
  8
1
  6
CONTINUOUS
 62
     7
 10
-272.264291532768
 20
250.1777208689462
  0
VERTEX
  8
1
  6
CONTINUOUS
 62
     7
 10
-272.3045007058543
 20
250.1512738650698
  0
VERTEX
  8
1
  6
CONTINUOUS
 62
     7
 10
-272.3458980272005
 20
250.126868635297
  0
VERTEX
  8
1
  6
CONTINUOUS
 62
     7
 10
-272.3885564274785
 20
250.1044339006673
  0
VERTEX
  8
1
  6
CONTINUOUS
 62
     7
 10
-272.432321237836
 20
250.0840333636027
  0
VERTEX
  8
1
  6
CONTINUOUS
 62
     7
 10
-272.4770377894206
 20
250.065730726525
  0
VERTEX
  8
1
  6
CONTINUOUS
 62
     7
 10
-272.52255141338
 20
250.0495896918559
  0
VERTEX
  8
1
  6
CONTINUOUS
 62
     7
 10
-272.568707440862
 20
250.0356739620175
  0
VERTEX
  8
1
  6
CONTINUOUS
 62
     7
 10
-272.615351203014
 20
250.0240472394314
  0
VERTEX
  8
1
  6
CONTINUOUS
 62
     7
 10
-272.6583978586868
 20
250.0154277020924
  0
VERTEX
  8
1
  6
CONTINUOUS
 62
     7
 10
-272.7018459660787
 20
250.0086991586586
  0
VERTEX
  8
1
  6
CONTINUOUS
 62
     7
 10
-272.7455689586661
 20
250.0038756599512
  0
VERTEX
  8
1
  6
CONTINUOUS
 62
     7
 10
-272.7894402699256
 20
250.0009712567913
  0
VERTEX
  8
1
  6
CONTINUOUS
 62
     7
 10
-272.8333333333334
 20
250.0
  0
SEQEND
  8
1
  6
CONTINUOUS
 62
     7
  0
LINE
  8
1
  6
CONTINUOUS
 62
     7
 10
-271.8333333333334
 20
251.0
 11
-271.8333333333334
 21
254.25
  0
ARC
  8
1
  6
CONTINUOUS
 62
     7
 10
-271.8334169523517
 20
255.5
 40
1.250000002796857
 50
270.0038328134656
 51
89.99616718653436
  0
LINE
  8
1
  6
CONTINUOUS
 62
     7
 10
-271.8333333333334
 20
256.75
 11
-271.8333333333334
 21
261.5000000000001
  0
POLYLINE
  8
1
  6
CONTINUOUS
 62
     7
 66
     1
  0
VERTEX
  8
1
  6
CONTINUOUS
 62
     7
 10
-272.8333333333334
 20
262.5
  0
VERTEX
  8
1
  6
CONTINUOUS
 62
     7
 10
-272.7853915917865
 20
262.4988259929943
  0
VERTEX
  8
1
  6
CONTINUOUS
 62
     7
 10
-272.7374253692984
 20
262.4953227568197
  0
VERTEX
  8
1
  6
CONTINUOUS
 62
     7
 10
-272.6895987915364
 20
262.4895184687406
  0
VERTEX
  8
1
  6
CONTINUOUS
 62
     7
 10
-272.6420759841677
 20
262.4814413060208
  0
VERTEX
  8
1
  6
CONTINUOUS
 62
     7
 10
-272.5950210728595
 20
262.4711194459246
  0
VERTEX
  8
1
  6
CONTINUOUS
 62
     7
 10
-272.5485981832791
 20
262.4585810657159
  0
VERTEX
  8
1
  6
CONTINUOUS
 62
     7
 10
-272.5029714410937
 20
262.4438543426588
  0
VERTEX
  8
1
  6
CONTINUOUS
 62
     7
 10
-272.4581257905244
 20
262.4269149931843
  0
VERTEX
  8
1
  6
CONTINUOUS
 62
     7
 10
-272.4140295941954
 20
262.4077725556139
  0
VERTEX
  8
1
  6
CONTINUOUS
 62
     7
 10
-272.3708276833688
 20
262.3865078924211
  0
VERTEX
  8
1
  6
CONTINUOUS
 62
     7
 10
-272.328664889307
 20
262.3632018660789
  0
VERTEX
  8
1
  6
CONTINUOUS
 62
     7
 10
-272.2876860432721
 20
262.3379353390606
  0
VERTEX
  8
1
  6
CONTINUOUS
 62
     7
 10
-272.2480359765262
 20
262.3107891738394
  0
VERTEX
  8
1
  6
CONTINUOUS
 62
     7
 10
-272.2098595203314
 20
262.2818442328884
  0
VERTEX
  8
1
  6
CONTINUOUS
 62
     7
 10
-272.1731059927332
 20
262.2510340981837
  0
VERTEX
  8
1
  6
CONTINUOUS
 62
     7
 10
-272.1377900402846
 20
262.21839186261
  0
VERTEX
  8
1
  6
CONTINUOUS
 62
     7
 10
-272.1040213364492
 20
262.1840414754292
  0
VERTEX
  8
1
  6
CONTINUOUS
 62
     7
 10
-272.0719095546901
 20
262.1481068859036
  0
VERTEX
  8
1
  6
CONTINUOUS
 62
     7
 10
-272.0415643684709
 20
262.1107120432951
  0
VERTEX
  8
1
  6
CONTINUOUS
 62
     7
 10
-272.0130954512549
 20
262.071980896866
  0
VERTEX
  8
1
  6
CONTINUOUS
 62
     7
 10
-271.9866124765055
 20
262.0320373958781
  0
VERTEX
  8
1
  6
CONTINUOUS
 62
     7
 10
-271.96205930728
 20
261.9907482843576
  0
VERTEX
  8
1
  6
CONTINUOUS
 62
     7
 10
-271.9394743031183
 20
261.9481999967858
  0
VERTEX
  8
1
  6
CONTINUOUS
 62
     7
 10
-271.9189203749084
 20
261.9045460146441
  0
VERTEX
  8
1
  6
CONTINUOUS
 62
     7
 10
-271.900460433538
 20
261.8599398194133
  0
VERTEX
  8
1
  6
CONTINUOUS
 62
     7
 10
-271.8841573898949
 20
261.8145348925746
  0
VERTEX
  8
1
  6
CONTINUOUS
 62
     7
 10
-271.8700741548671
 20
261.7684847156088
  0
VERTEX
  8
1
  6
CONTINUOUS
 62
     7
 10
-271.8582736393423
 20
261.7219427699973
  0
VERTEX
  8
1
  6
CONTINUOUS
 62
     7
 10
-271.8493345343742
 20
261.6781306157808
  0
VERTEX
  8
1
  6
CONTINUOUS
 62
     7
 10
-271.842356174341
 20
261.6338976377832
  0
VERTEX
  8
1
  6
CONTINUOUS
 62
     7
 10
-271.8373533361911
 20
261.5893764598941
  0
VERTEX
  8
1
  6
CONTINUOUS
 62
     7
 10
-271.8343407968725
 20
261.5446997060033
  0
VERTEX
  8
1
  6
CONTINUOUS
 62
     7
 10
-271.8333333333334
 20
261.5
  0
SEQEND
  8
1
  6
CONTINUOUS
 62
     7
  0
LINE
  8
1
  6
CONTINUOUS
 62
     7
 10
-281.8333333333333
 20
262.5
 11
-272.8333333333334
 21
262.5
  0
POLYLINE
  8
1
  6
CONTINUOUS
 62
     7
 66
     1
  0
VERTEX
  8
1
  6
CONTINUOUS
 62
     7
 10
-282.8333333333333
 20
261.5
  0
VERTEX
  8
1
  6
CONTINUOUS
 62
     7
 10
-282.8321504682103
 20
261.5481274174538
  0
VERTEX
  8
1
  6
CONTINUOUS
 62
     7
 10
-282.828620432519
 20
261.5962793960655
  0
VERTEX
  8
1
  6
CONTINUOUS
 62
     7
 10
-282.8227710657755
 20
261.6442913287482
  0
VERTEX
  8
1
  6
CONTINUOUS
 62
     7
 10
-282.8146302074963
 20
261.691998608415
  0
VERTEX
  8
1
  6
CONTINUOUS
 62
     7
 10
-282.8042256971978
 20
261.7392366279788
  0
VERTEX
  8
1
  6
CONTINUOUS
 62
     7
 10
-282.791585374396
 20
261.7858407803527
  0
VERTEX
  8
1
  6
CONTINUOUS
 62
     7
 10
-282.7767370786077
 20
261.8316464584498
  0
VERTEX
  8
1
  6
CONTINUOUS
 62
     7
 10
-282.7596536666443
 20
261.8766726097123
  0
VERTEX
  8
1
  6
CONTINUOUS
 62
     7
 10
-282.7403444853024
 20
261.9209466338268
  0
VERTEX
  8
1
  6
CONTINUOUS
 62
     7
 10
-282.7188903029269
 20
261.9643217398544
  0
VERTEX
  8
1
  6
CONTINUOUS
 62
     7
 10
-282.6953718878629
 20
262.0066511368564
  0
VERTEX
  8
1
  6
CONTINUOUS
 62
     7
 10
-282.6698700084553
 20
262.0477880338939
  0
VERTEX
  8
1
  6
CONTINUOUS
 62
     7
 10
-282.6424654330494
 20
262.0875856400281
  0
VERTEX
  8
1
  6
CONTINUOUS
 62
     7
 10
-282.6132389299898
 20
262.12589716432
  0
VERTEX
  8
1
  6
CONTINUOUS
 62
     7
 10
-282.5821950310403
 20
262.1626896021422
  0
VERTEX
  8
1
  6
CONTINUOUS
 62
     7
 10
-282.5493007191875
 20
262.1980367248958
  0
VERTEX
  8
1
  6
CONTINUOUS
 62
     7
 10
-282.5146810939904
 20
262.2318264842616
  0
VERTEX
  8
1
  6
CONTINUOUS
 62
     7
 10
-282.4784612550081
 20
262.2639468319205
  0
VERTEX
  8
1
  6
CONTINUOUS
 62
     7
 10
-282.4407663017994
 20
262.2942857195529
  0
VERTEX
  8
1
  6
CONTINUOUS
 62
     7
 10
-282.4017213339235
 20
262.3227310988398
  0
VERTEX
  8
1
  6
CONTINUOUS
 62
     7
 10
-282.3614514509392
 20
262.3491709214619
  0
VERTEX
  8
1
  6
CONTINUOUS
 62
     7
 10
-282.3200276123028
 20
262.3735445359199
  0
VERTEX
  8
1
  6
CONTINUOUS
 62
     7
 10
-282.2773420049909
 20
262.3959469493393
  0
VERTEX
  8
1
  6
CONTINUOUS
 62
     7
 10
-282.2335495887557
 20
262.4163142568062
  0
VERTEX
  8
1
  6
CONTINUOUS
 62
     7
 10
-282.1888053233494
 20
262.4345825534067
  0
VERTEX
  8
1
  6
CONTINUOUS
 62
     7
 10
-282.1432641685238
 20
262.4506879342269
  0
VERTEX
  8
1
  6
CONTINUOUS
 62
     7
 10
-282.0970810840314
 20
262.4645664943528
  0
VERTEX
  8
1
  6
CONTINUOUS
 62
     7
 10
-282.0504110296242
 20
262.4761543288707
  0
VERTEX
  8
1
  6
CONTINUOUS
 62
     7
 10
-282.0075394233076
 20
262.4847017118029
  0
VERTEX
  8
1
  6
CONTINUOUS
 62
     7
 10
-281.9642706309287
 20
262.4913738673848
  0
VERTEX
  8
1
  6
CONTINUOUS
 62
     7
 10
-281.9207298720791
 20
262.4961568986135
  0
VERTEX
  8
1
  6
CONTINUOUS
 62
     7
 10
-281.8770423663501
 20
262.4990369084862
  0
VERTEX
  8
1
  6
CONTINUOUS
 62
     7
 10
-281.8333333333333
 20
262.5
  0
SEQEND
  8
1
  6
CONTINUOUS
 62
     7
  0
LINE
  8
1
  6
CONTINUOUS
 62
     7
 10
-282.8333333333333
 20
261.5
 11
-282.8333333333333
 21
259.5
  0
POLYLINE
  8
1
  6
CONTINUOUS
 62
     7
 66
     1
  0
VERTEX
  8
1
  6
CONTINUOUS
 62
     7
 10
-283.3333333333333
 20
259.0
  0
VERTEX
  8
1
  6
CONTINUOUS
 62
     7
 10
-283.3093572886296
 20
259.0005872496129
  0
VERTEX
  8
1
  6
CONTINUOUS
 62
     7
 10
-283.2853689934997
 20
259.0023396133425
  0
VERTEX
  8
1
  6
CONTINUOUS
 62
     7
 10
-283.2614505233882
 20
259.0052430135254
  0
VERTEX
  8
1
  6
CONTINUOUS
 62
     7
 10
-283.2376839537398
 20
259.0092833724981
  0
VERTEX
  8
1
  6
CONTINUOUS
 62
     7
 10
-283.2141513599992
 20
259.0144466125969
  0
VERTEX
  8
1
  6
CONTINUOUS
 62
     7
 10
-283.1909348176112
 20
259.0207186561585
  0
VERTEX
  8
1
  6
CONTINUOUS
 62
     7
 10
-283.1681164020201
 20
259.0280854255191
  0
VERTEX
  8
1
  6
CONTINUOUS
 62
     7
 10
-283.1456884528049
 20
259.0365591564859
  0
VERTEX
  8
1
  6
CONTINUOUS
 62
     7
 10
-283.1236353006057
 20
259.0461350769903
  0
VERTEX
  8
1
  6
CONTINUOUS
 62
     7
 10
-283.1020294229954
 20
259.0567727518787
  0
VERTEX
  8
1
  6
CONTINUOUS
 62
     7
 10
-283.0809432975466
 20
259.0684317459978
  0
VERTEX
  8
1
  6
CONTINUOUS
 62
     7
 10
-283.0604494018319
 20
259.0810716241939
  0
VERTEX
  8
1
  6
CONTINUOUS
 62
     7
 10
-283.0406202134241
 20
259.0946519513137
  0
VERTEX
  8
1
  6
CONTINUOUS
 62
     7
 10
-283.0215282098958
 20
259.1091322922035
  0
VERTEX
  8
1
  6
CONTINUOUS
 62
     7
 10
-283.0031508864113
 20
259.1245434448433
  0
VERTEX
  8
1
  6
CONTINUOUS
 62
     7
 10
-282.9854925655678
 20
259.1408710676283
  0
VERTEX
  8
1
  6
CONTINUOUS
 62
     7
 10
-282.9686081445712
 20
259.1580531417247
  0
VERTEX
  8
1
  6
CONTINUOUS
 62
     7
 10
-282.9525525206275
 20
259.1760276482983
  0
VERTEX
  8
1
  6
CONTINUOUS
 62
     7
 10
-282.9373805909424
 20
259.1947325685151
  0
VERTEX
  8
1
  6
CONTINUOUS
 62
     7
 10
-282.9231472527218
 20
259.214105883541
  0
VERTEX
  8
1
  6
CONTINUOUS
 62
     7
 10
-282.9099074031715
 20
259.2340855745421
  0
VERTEX
  8
1
  6
CONTINUOUS
 62
     7
 10
-282.8976363127335
 20
259.254732447267
  0
VERTEX
  8
1
  6
CONTINUOUS
 62
     7
 10
-282.8863493262493
 20
259.2760087752009
  0
VERTEX
  8
1
  6
CONTINUOUS
 62
     7
 10
-282.8760779020576
 20
259.2978377817867
  0
VERTEX
  8
1
  6
CONTINUOUS
 62
     7
 10
-282.8668534984974
 20
259.3201426904671
  0
VERTEX
  8
1
  6
CONTINUOUS
 62
     7
 10
-282.8587075739075
 20
259.3428467246849
  0
VERTEX
  8
1
  6
CONTINUOUS
 62
     7
 10
-282.8516715866269
 20
259.3658731078827
  0
VERTEX
  8
1
  6
CONTINUOUS
 62
     7
 10
-282.8457769949945
 20
259.3891450635034
  0
VERTEX
  8
1
  6
CONTINUOUS
 62
     7
 10
-282.8413168733846
 20
259.4110289102742
  0
VERTEX
  8
1
  6
CONTINUOUS
 62
     7
 10
-282.837835097693
 20
259.4331224577921
  0
VERTEX
  8
1
  6
CONTINUOUS
 62
     7
 10
-282.8353390166401
 20
259.4553595755743
  0
VERTEX
  8
1
  6
CONTINUOUS
 62
     7
 10
-282.8338359789468
 20
259.4776741331379
  0
VERTEX
  8
1
  6
CONTINUOUS
 62
     7
 10
-282.8333333333333
 20
259.5
  0
SEQEND
  8
1
  6
CONTINUOUS
 62
     7
  0
LINE
  8
1
  6
CONTINUOUS
 62
     7
 10
-284.8333333333334
 20
259.0
 11
-283.3333333333334
 21
259.0
  0
LINE
  8
1
  6
CONTINUOUS
 62
     7
 10
-284.8333333333334
 20
261.0
 11
-284.8333333333334
 21
259.0
  0
LINE
  8
1
  6
CONTINUOUS
 62
     7
 10
-284.8333333333334
 20
261.0
 11
-296.8333333333334
 21
261.0
  0
LINE
  8
1
  6
CONTINUOUS
 62
     7
 10
-296.8333333333334
 20
261.0
 11
-296.8333333333334
 21
261.5
  0
POLYLINE
  8
1
  6
CONTINUOUS
 62
     7
 66
     1
  0
VERTEX
  8
1
  6
CONTINUOUS
 62
     7
 10
-297.8333333333334
 20
262.5
  0
VERTEX
  8
1
  6
CONTINUOUS
 62
     7
 10
-297.7853915917865
 20
262.4988259929943
  0
VERTEX
  8
1
  6
CONTINUOUS
 62
     7
 10
-297.7374253692984
 20
262.4953227568197
  0
VERTEX
  8
1
  6
CONTINUOUS
 62
     7
 10
-297.6895987915364
 20
262.4895184687406
  0
VERTEX
  8
1
  6
CONTINUOUS
 62
     7
 10
-297.6420759841677
 20
262.4814413060208
  0
VERTEX
  8
1
  6
CONTINUOUS
 62
     7
 10
-297.5950210728595
 20
262.4711194459246
  0
VERTEX
  8
1
  6
CONTINUOUS
 62
     7
 10
-297.5485981832792
 20
262.4585810657159
  0
VERTEX
  8
1
  6
CONTINUOUS
 62
     7
 10
-297.5029714410938
 20
262.4438543426588
  0
VERTEX
  8
1
  6
CONTINUOUS
 62
     7
 10
-297.4581257905244
 20
262.4269149931843
  0
VERTEX
  8
1
  6
CONTINUOUS
 62
     7
 10
-297.4140295941954
 20
262.4077725556139
  0
VERTEX
  8
1
  6
CONTINUOUS
 62
     7
 10
-297.3708276833689
 20
262.3865078924211
  0
VERTEX
  8
1
  6
CONTINUOUS
 62
     7
 10
-297.3286648893071
 20
262.3632018660789
  0
VERTEX
  8
1
  6
CONTINUOUS
 62
     7
 10
-297.2876860432722
 20
262.3379353390606
  0
VERTEX
  8
1
  6
CONTINUOUS
 62
     7
 10
-297.2480359765262
 20
262.3107891738394
  0
VERTEX
  8
1
  6
CONTINUOUS
 62
     7
 10
-297.2098595203314
 20
262.2818442328884
  0
VERTEX
  8
1
  6
CONTINUOUS
 62
     7
 10
-297.1731059927332
 20
262.2510340981837
  0
VERTEX
  8
1
  6
CONTINUOUS
 62
     7
 10
-297.1377900402846
 20
262.21839186261
  0
VERTEX
  8
1
  6
CONTINUOUS
 62
     7
 10
-297.1040213364492
 20
262.1840414754292
  0
VERTEX
  8
1
  6
CONTINUOUS
 62
     7
 10
-297.0719095546901
 20
262.1481068859036
  0
VERTEX
  8
1
  6
CONTINUOUS
 62
     7
 10
-297.041564368471
 20
262.1107120432951
  0
VERTEX
  8
1
  6
CONTINUOUS
 62
     7
 10
-297.0130954512549
 20
262.071980896866
  0
VERTEX
  8
1
  6
CONTINUOUS
 62
     7
 10
-296.9866124765055
 20
262.0320373958781
  0
VERTEX
  8
1
  6
CONTINUOUS
 62
     7
 10
-296.96205930728
 20
261.9907482843576
  0
VERTEX
  8
1
  6
CONTINUOUS
 62
     7
 10
-296.9394743031184
 20
261.9481999967858
  0
VERTEX
  8
1
  6
CONTINUOUS
 62
     7
 10
-296.9189203749084
 20
261.9045460146441
  0
VERTEX
  8
1
  6
CONTINUOUS
 62
     7
 10
-296.900460433538
 20
261.8599398194133
  0
VERTEX
  8
1
  6
CONTINUOUS
 62
     7
 10
-296.8841573898949
 20
261.8145348925746
  0
VERTEX
  8
1
  6
CONTINUOUS
 62
     7
 10
-296.8700741548671
 20
261.7684847156088
  0
VERTEX
  8
1
  6
CONTINUOUS
 62
     7
 10
-296.8582736393423
 20
261.7219427699972
  0
VERTEX
  8
1
  6
CONTINUOUS
 62
     7
 10
-296.8493345343742
 20
261.6781306157808
  0
VERTEX
  8
1
  6
CONTINUOUS
 62
     7
 10
-296.8423561743411
 20
261.6338976377832
  0
VERTEX
  8
1
  6
CONTINUOUS
 62
     7
 10
-296.8373533361911
 20
261.5893764598941
  0
VERTEX
  8
1
  6
CONTINUOUS
 62
     7
 10
-296.8343407968725
 20
261.5446997060033
  0
VERTEX
  8
1
  6
CONTINUOUS
 62
     7
 10
-296.8333333333334
 20
261.5
  0
SEQEND
  8
1
  6
CONTINUOUS
 62
     7
  0
LINE
  8
1
  6
CONTINUOUS
 62
     7
 10
-299.0833333333334
 20
262.5
 11
-297.8333333333334
 21
262.5
  0
ARC
  8
1
  6
CONTINUOUS
 62
     7
 10
-299.0825165868922
 20
257.4991832535589
 40
5.000816813137716
 50
90.00935769614563
 51
179.9906423038543
  0
LINE
  8
1
  6
CONTINUOUS
 62
     7
 10
-304.0833333333334
 20
257.4999999999994
 11
-304.0833333333334
 21
152.5
  0
ARC
  8
1
  6
CONTINUOUS
 62
     7
 10
-299.0825323735417
 20
152.5008009597917
 40
5.000801023935074
 50
180.0091768529882
 51
269.990823147012
  0
LINE
  8
1
  6
CONTINUOUS
 62
     7
 10
-297.8333333333334
 20
147.5
 11
-299.0833333333334
 21
147.5
  0
POLYLINE
  8
1
  6
CONTINUOUS
 62
     7
 66
     1
  0
VERTEX
  8
1
  6
CONTINUOUS
 62
     7
 10
-296.8333333333334
 20
148.5
  0
VERTEX
  8
1
  6
CONTINUOUS
 62
     7
 10
-296.8345161984564
 20
148.4518725825462
  0
VERTEX
  8
1
  6
CONTINUOUS
 62
     7
 10
-296.8380462341477
 20
148.4037206039345
  0
VERTEX
  8
1
  6
CONTINUOUS
 62
     7
 10
-296.8438956008912
 20
148.3557086712518
  0
VERTEX
  8
1
  6
CONTINUOUS
 62
     7
 10
-296.8520364591703
 20
148.308001391585
  0
VERTEX
  8
1
  6
CONTINUOUS
 62
     7
 10
-296.862440969469
 20
148.2607633720212
  0
VERTEX
  8
1
  6
CONTINUOUS
 62
     7
 10
-296.8750812922706
 20
148.2141592196473
  0
VERTEX
  8
1
  6
CONTINUOUS
 62
     7
 10
-296.889929588059
 20
148.1683535415503
  0
VERTEX
  8
1
  6
CONTINUOUS
 62
     7
 10
-296.9070130000223
 20
148.1233273902878
  0
VERTEX
  8
1
  6
CONTINUOUS
 62
     7
 10
-296.9263221813643
 20
148.0790533661732
  0
VERTEX
  8
1
  6
CONTINUOUS
 62
     7
 10
-296.9477763637398
 20
148.0356782601456
  0
VERTEX
  8
1
  6
CONTINUOUS
 62
     7
 10
-296.9712947788038
 20
147.9933488631436
  0
VERTEX
  8
1
  6
CONTINUOUS
 62
     7
 10
-296.9967966582113
 20
147.9522119661061
  0
VERTEX
  8
1
  6
CONTINUOUS
 62
     7
 10
-297.0242012336174
 20
147.9124143599719
  0
VERTEX
  8
1
  6
CONTINUOUS
 62
     7
 10
-297.0534277366768
 20
147.87410283568
  0
VERTEX
  8
1
  6
CONTINUOUS
 62
     7
 10
-297.0844716356264
 20
147.8373103978578
  0
VERTEX
  8
1
  6
CONTINUOUS
 62
     7
 10
-297.1173659474792
 20
147.8019632751042
  0
VERTEX
  8
1
  6
CONTINUOUS
 62
     7
 10
-297.1519855726763
 20
147.7681735157384
  0
VERTEX
  8
1
  6
CONTINUOUS
 62
     7
 10
-297.1882054116586
 20
147.7360531680796
  0
VERTEX
  8
1
  6
CONTINUOUS
 62
     7
 10
-297.2259003648673
 20
147.7057142804472
  0
VERTEX
  8
1
  6
CONTINUOUS
 62
     7
 10
-297.2649453327432
 20
147.6772689011602
  0
VERTEX
  8
1
  6
CONTINUOUS
 62
     7
 10
-297.3052152157275
 20
147.6508290785381
  0
VERTEX
  8
1
  6
CONTINUOUS
 62
     7
 10
-297.3466390543639
 20
147.6264554640801
  0
VERTEX
  8
1
  6
CONTINUOUS
 62
     7
 10
-297.3893246616758
 20
147.6040530506607
  0
VERTEX
  8
1
  6
CONTINUOUS
 62
     7
 10
-297.433117077911
 20
147.5836857431938
  0
VERTEX
  8
1
  6
CONTINUOUS
 62
     7
 10
-297.4778613433174
 20
147.5654174465934
  0
VERTEX
  8
1
  6
CONTINUOUS
 62
     7
 10
-297.5234024981429
 20
147.5493120657731
  0
VERTEX
  8
1
  6
CONTINUOUS
 62
     7
 10
-297.5695855826353
 20
147.5354335056471
  0
VERTEX
  8
1
  6
CONTINUOUS
 62
     7
 10
-297.6162556370425
 20
147.5238456711293
  0
VERTEX
  8
1
  6
CONTINUOUS
 62
     7
 10
-297.6591272433592
 20
147.5152982881971
  0
VERTEX
  8
1
  6
CONTINUOUS
 62
     7
 10
-297.702396035738
 20
147.5086261326152
  0
VERTEX
  8
1
  6
CONTINUOUS
 62
     7
 10
-297.7459367945876
 20
147.5038431013865
  0
VERTEX
  8
1
  6
CONTINUOUS
 62
     7
 10
-297.7896243003166
 20
147.5009630915138
  0
VERTEX
  8
1
  6
CONTINUOUS
 62
     7
 10
-297.8333333333334
 20
147.5
  0
SEQEND
  8
1
  6
CONTINUOUS
 62
     7
  0
LINE
  8
1
  6
CONTINUOUS
 62
     7
 10
-296.8333333333334
 20
148.5000000000001
 11
-296.8333333333334
 21
149.0
  0
LINE
  8
1
  6
CONTINUOUS
 62
     7
 10
-296.8333333333334
 20
149.0
 11
-284.8333333333334
 21
149.0
  0
LINE
  8
1
  6
CONTINUOUS
 62
     7
 10
-284.8333333333334
 20
151.0
 11
-284.8333333333334
 21
149.0
  0
LINE
  8
1
  6
CONTINUOUS
 62
     7
 10
-283.3333333333334
 20
151.0
 11
-284.8333333333334
 21
151.0
  0
POLYLINE
  8
1
  6
CONTINUOUS
 62
     7
 66
     1
  0
VERTEX
  8
1
  6
CONTINUOUS
 62
     7
 10
-282.8333333333334
 20
150.5
  0
VERTEX
  8
1
  6
CONTINUOUS
 62
     7
 10
-282.833924522071
 20
150.5240586194407
  0
VERTEX
  8
1
  6
CONTINUOUS
 62
     7
 10
-282.8356888181418
 20
150.5481296767279
  0
VERTEX
  8
1
  6
CONTINUOUS
 62
     7
 10
-282.8386123163326
 20
150.5721308786244
  0
VERTEX
  8
1
  6
CONTINUOUS
 62
     7
 10
-282.8426811114302
 20
150.5959799318933
  0
VERTEX
  8
1
  6
CONTINUOUS
 62
     7
 10
-282.8478812982216
 20
150.6195945432978
  0
VERTEX
  8
1
  6
CONTINUOUS
 62
     7
 10
-282.8541989714935
 20
150.6428924196008
  0
VERTEX
  8
1
  6
CONTINUOUS
 62
     7
 10
-282.8616202260329
 20
150.6657912675653
  0
VERTEX
  8
1
  6
CONTINUOUS
 62
     7
 10
-282.8701586248586
 20
150.6883005382483
  0
VERTEX
  8
1
  6
CONTINUOUS
 62
     7
 10
-282.8798094798012
 20
150.7104339267134
  0
VERTEX
  8
1
  6
CONTINUOUS
 62
     7
 10
-282.8905324053272
 20
150.732118056369
  0
VERTEX
  8
1
  6
CONTINUOUS
 62
     7
 10
-282.9022870159029
 20
150.7532795506234
  0
VERTEX
  8
1
  6
CONTINUOUS
 62
     7
 10
-282.9150329259948
 20
150.7738450328847
  0
VERTEX
  8
1
  6
CONTINUOUS
 62
     7
 10
-282.9287297500694
 20
150.7937411265613
  0
VERTEX
  8
1
  6
CONTINUOUS
 62
     7
 10
-282.9433371025928
 20
150.8128944550615
  0
VERTEX
  8
1
  6
CONTINUOUS
 62
     7
 10
-282.9588532106939
 20
150.8312891256678
  0
VERTEX
  8
1
  6
CONTINUOUS
 62
     7
 10
-282.9752940634782
 20
150.8489613853056
  0
VERTEX
  8
1
  6
CONTINUOUS
 62
     7
 10
-282.9925971338261
 20
150.8658552610669
  0
VERTEX
  8
1
  6
CONTINUOUS
 62
     7
 10
-283.010699894618
 20
150.8819147800436
  0
VERTEX
  8
1
  6
CONTINUOUS
 62
     7
 10
-283.0295398187342
 20
150.897083969328
  0
VERTEX
  8
1
  6
CONTINUOUS
 62
     7
 10
-283.0490543790551
 20
150.9113068560119
  0
VERTEX
  8
1
  6
CONTINUOUS
 62
     7
 10
-283.0691810484611
 20
150.9245274671877
  0
VERTEX
  8
1
  6
CONTINUOUS
 62
     7
 10
-283.0898889293084
 20
150.936718078271
  0
VERTEX
  8
1
  6
CONTINUOUS
 62
     7
 10
-283.1112275470444
 20
150.9479232253391
  0
VERTEX
  8
1
  6
CONTINUOUS
 62
     7
 10
-283.1331194661605
 20
150.958110987999
  0
VERTEX
  8
1
  6
CONTINUOUS
 62
     7
 10
-283.1554872511479
 20
150.9672494458578
  0
VERTEX
  8
1
  6
CONTINUOUS
 62
     7
 10
-283.1782534664982
 20
150.9753066785225
  0
VERTEX
  8
1
  6
CONTINUOUS
 62
     7
 10
-283.2013406767027
 20
150.9822507656003
  0
VERTEX
  8
1
  6
CONTINUOUS
 62
     7
 10
-283.2246714462527
 20
150.9880497866981
  0
VERTEX
  8
1
  6
CONTINUOUS
 62
     7
 10
-283.2461310809761
 20
150.9923332817096
  0
VERTEX
  8
1
  6
CONTINUOUS
 62
     7
 10
-283.2677898761332
 20
150.995677018712
  0
VERTEX
  8
1
  6
CONTINUOUS
 62
     7
 10
-283.2895850426368
 20
150.9980740295388
  0
VERTEX
  8
1
  6
CONTINUOUS
 62
     7
 10
-283.3114537913993
 20
150.9995173460236
  0
VERTEX
  8
1
  6
CONTINUOUS
 62
     7
 10
-283.3333333333334
 20
151.0
  0
SEQEND
  8
1
  6
CONTINUOUS
 62
     7
  0
LINE
  8
1
  6
CONTINUOUS
 62
     7
 10
-282.8333333333334
 20
150.5
 11
-282.8333333333334
 21
148.5
  0
CIRCLE
  8
1
  6
CONTINUOUS
 62
     7
 10
-225.8333760219665
 20
154.4998151538976
 40
1.24995732503458
  0
LINE
  8
1
  6
CONTINUOUS
 62
     7
 10
-144.8333333333334
 20
257.3183547235531
 11
-144.8333333333334
 21
257.0940948310678
  0
ARC
  8
1
  6
CONTINUOUS
 62
     7
 10
-152.3231121617823
 20
257.3102237323299
 40
7.489783241997096
 50
0.0622009418430025
 51
90.0781905369498
  0
LINE
  8
1
  6
CONTINUOUS
 62
     7
 10
-144.8333333333334
 20
152.9059051689322
 11
-144.8333333333334
 21
152.6816452764469
  0
ARC
  8
1
  6
CONTINUOUS
 62
     7
 10
-152.3234871524619
 20
152.6901521783144
 40
7.490158649960992
 50
269.9246818662866
 51
359.9349266549213
  0
LINE
  8
1
  6
CONTINUOUS
 62
     7
 10
-306.8333333333333
 20
257.0940948310678
 11
-306.8333333333333
 21
257.3183547235531
  0
ARC
  8
1
  6
CONTINUOUS
 62
     7
 10
-299.3431795142049
 20
257.3098478216857
 40
7.490158649960881
 50
89.92468186628571
 51
179.9349266549217
  0
LINE
  8
1
  6
CONTINUOUS
 62
     7
 10
-152.3333333333333
 20
145.2
 11
-299.3333333333333
 21
145.2
  0
LINE
  8
1
  6
CONTINUOUS
 62
     7
 10
-152.3333333333333
 20
264.7999999999999
 11
-299.3333333333333
 21
264.7999999999999
  0
LINE
  8
1
  6
CONTINUOUS
 62
     7
 10
-294.8333333333334
 20
259.0
 11
-294.8333333333334
 21
254.0
  0
LINE
  8
1
  6
CONTINUOUS
 62
     7
 10
-291.8333333333334
 20
259.0
 11
-291.8333333333334
 21
254.5
  0
POLYLINE
  8
1
  6
CONTINUOUS
 62
     7
 66
     1
  0
VERTEX
  8
1
  6
CONTINUOUS
 62
     7
 10
-292.3333333333334
 20
254.0
  0
VERTEX
  8
1
  6
CONTINUOUS
 62
     7
 10
-292.309350019996
 20
254.0005875958545
  0
VERTEX
  8
1
  6
CONTINUOUS
 62
     7
 10
-292.2853544444994
 20
254.0023410078923
  0
VERTEX
  8
1
  6
CONTINUOUS
 62
     7
 10
-292.2614287012444
 20
254.0052461728249
  0
VERTEX
  8
1
  6
CONTINUOUS
 62
     7
 10
-292.237654884632
 20
254.0092890273637
  0
VERTEX
  8
1
  6
CONTINUOUS
 62
     7
 10
-292.2141150890629
 20
254.0144555082203
  0
VERTEX
  8
1
  6
CONTINUOUS
 62
     7
 10
-292.190891408938
 20
254.0207315521061
  0
VERTEX
  8
1
  6
CONTINUOUS
 62
     7
 10
-292.1680659386582
 20
254.0281030957325
  0
VERTEX
  8
1
  6
CONTINUOUS
 62
     7
 10
-292.1456308633794
 20
254.0365824888592
  0
VERTEX
  8
1
  6
CONTINUOUS
 62
     7
 10
-292.1235706833602
 20
254.0461649669487
  0
VERTEX
  8
1
  6
CONTINUOUS
 62
     7
 10
-292.1019579538298
 20
254.0568100989691
  0
VERTEX
  8
1
  6
CONTINUOUS
 62
     7
 10
-292.0808652300174
 20
254.0684774538892
  0
VERTEX
  8
1
  6
CONTINUOUS
 62
     7
 10
-292.0603650671522
 20
254.0811266006773
  0
VERTEX
  8
1
  6
CONTINUOUS
 62
     7
 10
-292.0405300204635
 20
254.0947171083017
  0
VERTEX
  8
1
  6
CONTINUOUS
 62
     7
 10
-292.0214326451805
 20
254.1092085457309
  0
VERTEX
  8
1
  6
CONTINUOUS
 62
     7
 10
-292.0030537438683
 20
254.1246289220407
  0
VERTEX
  8
1
  6
CONTINUOUS
 62
     7
 10
-291.985394145863
 20
254.1409664954396
  0
VERTEX
  8
1
  6
CONTINUOUS
 62
     7
 10
-291.9685088422478
 20
254.1581592028103
  0
VERTEX
  8
1
  6
CONTINUOUS
 62
     7
 10
-291.952452824106
 20
254.1761449810352
  0
VERTEX
  8
1
  6
CONTINUOUS
 62
     7
 10
-291.9372810825212
 20
254.1948617669971
  0
VERTEX
  8
1
  6
CONTINUOUS
 62
     7
 10
-291.9230486085766
 20
254.2142474975784
  0
VERTEX
  8
1
  6
CONTINUOUS
 62
     7
 10
-291.9098103933556
 20
254.2342401096618
  0
VERTEX
  8
1
  6
CONTINUOUS
 62
     7
 10
-291.8975463240152
 20
254.2548924107267
  0
VERTEX
  8
1
  6
CONTINUOUS
 62
     7
 10
-291.8862664812435
 20
254.2761742855809
  0
VERTEX
  8
1
  6
CONTINUOUS
 62
     7
 10
-291.8760023647051
 20
254.2980088997064
  0
VERTEX
  8
1
  6
CONTINUOUS
 62
     7
 10
-291.8667854740644
 20
254.3203194185852
  0
VERTEX
  8
1
  6
CONTINUOUS
 62
     7
 10
-291.8586473089858
 20
254.3430290076997
  0
VERTEX
  8
1
  6
CONTINUOUS
 62
     7
 10
-291.8516193691337
 20
254.3660608325318
  0
VERTEX
  8
1
  6
CONTINUOUS
 62
     7
 10
-291.8457331541726
 20
254.3893380585637
  0
VERTEX
  8
1
  6
CONTINUOUS
 62
     7
 10
-291.8412887256781
 20
254.4111845885787
  0
VERTEX
  8
1
  6
CONTINUOUS
 62
     7
 10
-291.837819214219
 20
254.4332398804335
  0
VERTEX
  8
1
  6
CONTINUOUS
 62
     7
 10
-291.8353319349233
 20
254.4554381014244
  0
VERTEX
  8
1
  6
CONTINUOUS
 62
     7
 10
-291.8338342029189
 20
254.4777134188478
  0
VERTEX
  8
1
  6
CONTINUOUS
 62
     7
 10
-291.8333333333334
 20
254.5
  0
SEQEND
  8
1
  6
CONTINUOUS
 62
     7
  0
LINE
  8
1
  6
CONTINUOUS
 62
     7
 10
-294.8333333333334
 20
254.0
 11
-292.3333333333334
 21
254.0
  0
LINE
  8
1
  6
CONTINUOUS
 62
     7
 10
-294.8333333333334
 20
259.0
 11
-291.8333333333334
 21
259.0
  0
LINE
  8
1
  6
CONTINUOUS
 62
     7
 10
-292.3333333333334
 20
156.0
 11
-294.8333333333334
 21
156.0
  0
POLYLINE
  8
1
  6
CONTINUOUS
 62
     7
 66
     1
  0
VERTEX
  8
1
  6
CONTINUOUS
 62
     7
 10
-291.8333333333334
 20
155.5
  0
VERTEX
  8
1
  6
CONTINUOUS
 62
     7
 10
-291.8339241717302
 20
155.5240512865791
  0
VERTEX
  8
1
  6
CONTINUOUS
 62
     7
 10
-291.835687406495
 20
155.5481149940661
  0
VERTEX
  8
1
  6
CONTINUOUS
 62
     7
 10
-291.8386091169893
 20
155.572108848747
  0
VERTEX
  8
1
  6
CONTINUOUS
 62
     7
 10
-291.8426753825747
 20
155.5959505769076
  0
VERTEX
  8
1
  6
CONTINUOUS
 62
     7
 10
-291.8478722826125
 20
155.619557904834
  0
VERTEX
  8
1
  6
CONTINUOUS
 62
     7
 10
-291.8541858964643
 20
155.6428485588119
  0
VERTEX
  8
1
  6
CONTINUOUS
 62
     7
 10
-291.8616023034916
 20
155.6657402651273
  0
VERTEX
  8
1
  6
CONTINUOUS
 62
     7
 10
-291.8701349477158
 20
155.6882423145647
  0
VERTEX
  8
1
  6
CONTINUOUS
 62
     7
 10
-291.8797791336447
 20
155.7103685788156
  0
VERTEX
  8
1
  6
CONTINUOUS
 62
     7
 10
-291.8904944713923
 20
155.732045761784
  0
VERTEX
  8
1
  6
CONTINUOUS
 62
     7
 10
-291.9022405710726
 20
155.7532005673735
  0
VERTEX
  8
1
  6
CONTINUOUS
 62
     7
 10
-291.9149770427996
 20
155.7737596994881
  0
VERTEX
  8
1
  6
CONTINUOUS
 62
     7
 10
-291.9286634966872
 20
155.7936498620315
  0
VERTEX
  8
1
  6
CONTINUOUS
 62
     7
 10
-291.9432595428495
 20
155.8127977589075
  0
VERTEX
  8
1
  6
CONTINUOUS
 62
     7
 10
-291.9587663526295
 20
155.8311909482534
  0
VERTEX
  8
1
  6
CONTINUOUS
 62
     7
 10
-291.9751971759843
 20
155.8488620295134
  0
VERTEX
  8
1
  6
CONTINUOUS
 62
     7
 10
-291.9924895314566
 20
155.8657551253882
  0
VERTEX
  8
1
  6
CONTINUOUS
 62
     7
 10
-292.0105809375889
 20
155.8818143585785
  0
VERTEX
  8
1
  6
CONTINUOUS
 62
     7
 10
-292.0294089129238
 20
155.8969838517851
  0
VERTEX
  8
1
  6
CONTINUOUS
 62
     7
 10
-292.0489109760038
 20
155.9112077277085
  0
VERTEX
  8
1
  6
CONTINUOUS
 62
     7
 10
-292.0690246453715
 20
155.9244301090497
  0
VERTEX
  8
1
  6
CONTINUOUS
 62
     7
 10
-292.0897272036897
 20
155.9366279076566
  0
VERTEX
  8
1
  6
CONTINUOUS
 62
     7
 10
-292.1110603951944
 20
155.9478403598119
  0
VERTEX
  8
1
  6
CONTINUOUS
 62
     7
 10
-292.132946842808
 20
155.9580355848109
  0
VERTEX
  8
1
  6
CONTINUOUS
 62
     7
 10
-292.1553091694531
 20
155.9671817019491
  0
VERTEX
  8
1
  6
CONTINUOUS
 62
     7
 10
-292.1780699980523
 20
155.9752468305218
  0
VERTEX
  8
1
  6
CONTINUOUS
 62
     7
 10
-292.2011519515281
 20
155.9821990898244
  0
VERTEX
  8
1
  6
CONTINUOUS
 62
     7
 10
-292.224477652803
 20
155.9880065991524
  0
VERTEX
  8
1
  6
CONTINUOUS
 62
     7
 10
-292.245974782404
 20
155.9923055511167
  0
VERTEX
  8
1
  6
CONTINUOUS
 62
     7
 10
-292.2676719957997
 20
155.9956613693114
  0
VERTEX
  8
1
  6
CONTINUOUS
 62
     7
 10
-292.2895062124481
 20
155.9980670516088
  0
VERTEX
  8
1
  6
CONTINUOUS
 62
     7
 10
-292.3114143518067
 20
155.9995155958809
  0
VERTEX
  8
1
  6
CONTINUOUS
 62
     7
 10
-292.3333333333334
 20
156.0
  0
SEQEND
  8
1
  6
CONTINUOUS
 62
     7
  0
LINE
  8
1
  6
CONTINUOUS
 62
     7
 10
-291.8333333333334
 20
151.0
 11
-294.8333333333334
 21
151.0
  0
LINE
  8
1
  6
CONTINUOUS
 62
     7
 10
-291.8333333333334
 20
155.5000000000001
 11
-291.8333333333334
 21
151.0000000000001
  0
LINE
  8
1
  6
CONTINUOUS
 62
     7
 10
-294.8333333333334
 20
156.0
 11
-294.8333333333334
 21
151.0
  0
POLYLINE
  8
1
  6
CONTINUOUS
 62
     7
 66
     1
  0
VERTEX
  8
1
  6
CONTINUOUS
 62
     7
 10
-159.3333333333333
 20
156.0
  0
VERTEX
  8
1
  6
CONTINUOUS
 62
     7
 10
-159.3573166466707
 20
155.9994124041455
  0
VERTEX
  8
1
  6
CONTINUOUS
 62
     7
 10
-159.3813122221673
 20
155.9976589921077
  0
VERTEX
  8
1
  6
CONTINUOUS
 62
     7
 10
-159.4052379654223
 20
155.9947538271751
  0
VERTEX
  8
1
  6
CONTINUOUS
 62
     7
 10
-159.4290117820347
 20
155.9907109726363
  0
VERTEX
  8
1
  6
CONTINUOUS
 62
     7
 10
-159.4525515776038
 20
155.9855444917797
  0
VERTEX
  8
1
  6
CONTINUOUS
 62
     7
 10
-159.4757752577287
 20
155.979268447894
  0
VERTEX
  8
1
  6
CONTINUOUS
 62
     7
 10
-159.4986007280085
 20
155.9718969042675
  0
VERTEX
  8
1
  6
CONTINUOUS
 62
     7
 10
-159.5210358032872
 20
155.9634175111408
  0
VERTEX
  8
1
  6
CONTINUOUS
 62
     7
 10
-159.5430959833064
 20
155.9538350330514
  0
VERTEX
  8
1
  6
CONTINUOUS
 62
     7
 10
-159.5647087128369
 20
155.9431899010309
  0
VERTEX
  8
1
  6
CONTINUOUS
 62
     7
 10
-159.5858014366493
 20
155.9315225461108
  0
VERTEX
  8
1
  6
CONTINUOUS
 62
     7
 10
-159.6063015995145
 20
155.9188733993228
  0
VERTEX
  8
1
  6
CONTINUOUS
 62
     7
 10
-159.6261366462032
 20
155.9052828916984
  0
VERTEX
  8
1
  6
CONTINUOUS
 62
     7
 10
-159.6452340214862
 20
155.8907914542691
  0
VERTEX
  8
1
  6
CONTINUOUS
 62
     7
 10
-159.6636129227983
 20
155.8753710779593
  0
VERTEX
  8
1
  6
CONTINUOUS
 62
     7
 10
-159.6812725208037
 20
155.8590335045604
  0
VERTEX
  8
1
  6
CONTINUOUS
 62
     7
 10
-159.698157824419
 20
155.8418407971898
  0
VERTEX
  8
1
  6
CONTINUOUS
 62
     7
 10
-159.7142138425607
 20
155.8238550189648
  0
VERTEX
  8
1
  6
CONTINUOUS
 62
     7
 10
-159.7293855841455
 20
155.805138233003
  0
VERTEX
  8
1
  6
CONTINUOUS
 62
     7
 10
-159.7436180580901
 20
155.7857525024216
  0
VERTEX
  8
1
  6
CONTINUOUS
 62
     7
 10
-159.7568562733111
 20
155.7657598903383
  0
VERTEX
  8
1
  6
CONTINUOUS
 62
     7
 10
-159.7691203426515
 20
155.7451075892733
  0
VERTEX
  8
1
  6
CONTINUOUS
 62
     7
 10
-159.7804001854232
 20
155.7238257144191
  0
VERTEX
  8
1
  6
CONTINUOUS
 62
     7
 10
-159.7906643019616
 20
155.7019911002936
  0
VERTEX
  8
1
  6
CONTINUOUS
 62
     7
 10
-159.7998811926023
 20
155.6796805814148
  0
VERTEX
  8
1
  6
CONTINUOUS
 62
     7
 10
-159.8080193576809
 20
155.6569709923004
  0
VERTEX
  8
1
  6
CONTINUOUS
 62
     7
 10
-159.8150472975329
 20
155.6339391674683
  0
VERTEX
  8
1
  6
CONTINUOUS
 62
     7
 10
-159.820933512494
 20
155.6106619414364
  0
VERTEX
  8
1
  6
CONTINUOUS
 62
     7
 10
-159.8253779409886
 20
155.5888154114213
  0
VERTEX
  8
1
  6
CONTINUOUS
 62
     7
 10
-159.8288474524477
 20
155.5667601195665
  0
VERTEX
  8
1
  6
CONTINUOUS
 62
     7
 10
-159.8313347317434
 20
155.5445618985756
  0
VERTEX
  8
1
  6
CONTINUOUS
 62
     7
 10
-159.8328324637479
 20
155.5222865811522
  0
VERTEX
  8
1
  6
CONTINUOUS
 62
     7
 10
-159.8333333333333
 20
155.5
  0
SEQEND
  8
1
  6
CONTINUOUS
 62
     7
  0
LINE
  8
1
  6
CONTINUOUS
 62
     7
 10
-156.8333333333333
 20
156.0
 11
-159.3333333333333
 21
156.0
  0
LINE
  8
1
  6
CONTINUOUS
 62
     7
 10
-156.8333333333333
 20
151.0
 11
-156.8333333333333
 21
156.0
  0
LINE
  8
1
  6
CONTINUOUS
 62
     7
 10
-159.8333333333333
 20
151.0
 11
-159.8333333333333
 21
155.5
  0
LINE
  8
1
  6
CONTINUOUS
 62
     7
 10
-156.8333333333333
 20
151.0
 11
-159.8333333333333
 21
151.0
  0
LINE
  8
1
  6
CONTINUOUS
 62
     7
 10
-159.3333333333333
 20
254.0
 11
-156.8333333333333
 21
254.0
  0
POLYLINE
  8
1
  6
CONTINUOUS
 62
     7
 66
     1
  0
VERTEX
  8
1
  6
CONTINUOUS
 62
     7
 10
-159.8333333333333
 20
254.5
  0
VERTEX
  8
1
  6
CONTINUOUS
 62
     7
 10
-159.8327424949365
 20
254.4759487134209
  0
VERTEX
  8
1
  6
CONTINUOUS
 62
     7
 10
-159.8309792601717
 20
254.4518850059339
  0
VERTEX
  8
1
  6
CONTINUOUS
 62
     7
 10
-159.8280575496774
 20
254.427891151253
  0
VERTEX
  8
1
  6
CONTINUOUS
 62
     7
 10
-159.823991284092
 20
254.4040494230924
  0
VERTEX
  8
1
  6
CONTINUOUS
 62
     7
 10
-159.8187943840542
 20
254.3804420951661
  0
VERTEX
  8
1
  6
CONTINUOUS
 62
     7
 10
-159.8124807702024
 20
254.3571514411882
  0
VERTEX
  8
1
  6
CONTINUOUS
 62
     7
 10
-159.8050643631751
 20
254.3342597348727
  0
VERTEX
  8
1
  6
CONTINUOUS
 62
     7
 10
-159.7965317189509
 20
254.3117576854353
  0
VERTEX
  8
1
  6
CONTINUOUS
 62
     7
 10
-159.786887533022
 20
254.2896314211844
  0
VERTEX
  8
1
  6
CONTINUOUS
 62
     7
 10
-159.7761721952744
 20
254.267954238216
  0
VERTEX
  8
1
  6
CONTINUOUS
 62
     7
 10
-159.764426095594
 20
254.2467994326265
  0
VERTEX
  8
1
  6
CONTINUOUS
 62
     7
 10
-159.751689623867
 20
254.2262403005119
  0
VERTEX
  8
1
  6
CONTINUOUS
 62
     7
 10
-159.7380031699794
 20
254.2063501379685
  0
VERTEX
  8
1
  6
CONTINUOUS
 62
     7
 10
-159.7234071238172
 20
254.1872022410925
  0
VERTEX
  8
1
  6
CONTINUOUS
 62
     7
 10
-159.7079003140373
 20
254.1688090517466
  0
VERTEX
  8
1
  6
CONTINUOUS
 62
     7
 10
-159.6914694906824
 20
254.1511379704866
  0
VERTEX
  8
1
  6
CONTINUOUS
 62
     7
 10
-159.6741771352101
 20
254.1342448746118
  0
VERTEX
  8
1
  6
CONTINUOUS
 62
     7
 10
-159.6560857290777
 20
254.1181856414215
  0
VERTEX
  8
1
  6
CONTINUOUS
 62
     7
 10
-159.6372577537429
 20
254.103016148215
  0
VERTEX
  8
1
  6
CONTINUOUS
 62
     7
 10
-159.6177556906628
 20
254.0887922722915
  0
VERTEX
  8
1
  6
CONTINUOUS
 62
     7
 10
-159.5976420212952
 20
254.0755698909504
  0
VERTEX
  8
1
  6
CONTINUOUS
 62
     7
 10
-159.576939462977
 20
254.0633720923435
  0
VERTEX
  8
1
  6
CONTINUOUS
 62
     7
 10
-159.5556062714723
 20
254.0521596401882
  0
VERTEX
  8
1
  6
CONTINUOUS
 62
     7
 10
-159.5337198238587
 20
254.0419644151891
  0
VERTEX
  8
1
  6
CONTINUOUS
 62
     7
 10
-159.5113574972136
 20
254.032818298051
  0
VERTEX
  8
1
  6
CONTINUOUS
 62
     7
 10
-159.4885966686144
 20
254.0247531694783
  0
VERTEX
  8
1
  6
CONTINUOUS
 62
     7
 10
-159.4655147151387
 20
254.0178009101756
  0
VERTEX
  8
1
  6
CONTINUOUS
 62
     7
 10
-159.4421890138638
 20
254.0119934008477
  0
VERTEX
  8
1
  6
CONTINUOUS
 62
     7
 10
-159.4206918842627
 20
254.0076944488833
  0
VERTEX
  8
1
  6
CONTINUOUS
 62
     7
 10
-159.398994670867
 20
254.0043386306886
  0
VERTEX
  8
1
  6
CONTINUOUS
 62
     7
 10
-159.3771604542187
 20
254.0019329483912
  0
VERTEX
  8
1
  6
CONTINUOUS
 62
     7
 10
-159.35525231486
 20
254.0004844041191
  0
VERTEX
  8
1
  6
CONTINUOUS
 62
     7
 10
-159.3333333333333
 20
254.0
  0
SEQEND
  8
1
  6
CONTINUOUS
 62
     7
  0
LINE
  8
1
  6
CONTINUOUS
 62
     7
 10
-156.8333333333333
 20
254.0
 11
-156.8333333333333
 21
259.0
  0
LINE
  8
1
  6
CONTINUOUS
 62
     7
 10
-159.8333333333333
 20
259.0
 11
-156.8333333333333
 21
259.0
  0
LINE
  8
1
  6
CONTINUOUS
 62
     7
 10
-159.8333333333333
 20
254.5
 11
-159.8333333333333
 21
259.0
  0
ARC
  8
1
  6
CONTINUOUS
 62
     7
 10
-291.3333333333333
 20
151.5
 40
0.5000000000000004
 50
180.0
 51
270.0
  0
ARC
  8
1
  6
CONTINUOUS
 62
     7
 10
-296.3333333333333
 20
155.5
 40
0.5000000000000004
 50
90.0
 51
180.0
  0
LINE
  8
1
  6
CONTINUOUS
 62
     7
 10
-296.3333333333333
 20
156.0
 11
-294.8333333333333
 21
156.0
  0
LINE
  8
1
  6
CONTINUOUS
 62
     7
 10
-291.3333333333333
 20
151.0
 11
-284.8333333333333
 21
151.0
  0
LINE
  8
1
  6
CONTINUOUS
 62
     7
 10
-296.8333333333334
 20
149.0
 11
-296.8333333333334
 21
155.5
  0
ARC
  8
1
  6
CONTINUOUS
 62
     7
 10
-160.3333333333333
 20
258.5
 40
0.5000000000000004
 50
0.0
 51
90.0
  0
ARC
  8
1
  6
CONTINUOUS
 62
     7
 10
-155.3333333333333
 20
254.5
 40
0.5000000000000004
 50
270.0
 51
0.0
  0
LINE
  8
1
  6
CONTINUOUS
 62
     7
 10
-155.3333333333333
 20
254.0
 11
-156.8333333333333
 21
254.0
  0
LINE
  8
1
  6
CONTINUOUS
 62
     7
 10
-160.3333333333333
 20
259.0
 11
-166.8333333333334
 21
259.0
  0
LINE
  8
1
  6
CONTINUOUS
 62
     7
 10
-154.8333333333333
 20
261.0
 11
-154.8333333333333
 21
254.5
  0
ARC
  8
1
  6
CONTINUOUS
 62
     7
 10
-160.3333333333333
 20
151.5
 40
0.5000000000000004
 50
270.0
 51
0.0
  0
ARC
  8
1
  6
CONTINUOUS
 62
     7
 10
-155.3333333333333
 20
155.5
 40
0.5000000000000004
 50
0.0
 51
90.0
  0
LINE
  8
1
  6
CONTINUOUS
 62
     7
 10
-155.3333333333333
 20
156.0
 11
-156.8333333333334
 21
156.0
  0
LINE
  8
1
  6
CONTINUOUS
 62
     7
 10
-160.3333333333333
 20
151.0
 11
-166.8333333333334
 21
151.0
  0
LINE
  8
1
  6
CONTINUOUS
 62
     7
 10
-154.8333333333333
 20
149.0
 11
-154.8333333333333
 21
155.5
  0
ARC
  8
1
  6
CONTINUOUS
 62
     7
 10
-296.3333333333333
 20
254.5
 40
0.5000000000000004
 50
180.0
 51
270.0
  0
ARC
  8
1
  6
CONTINUOUS
 62
     7
 10
-291.3333333333333
 20
258.5
 40
0.5000000000000004
 50
90.0
 51
180.0
  0
LINE
  8
1
  6
CONTINUOUS
 62
     7
 10
-296.3333333333333
 20
254.0
 11
-294.8333333333333
 21
254.0
  0
LINE
  8
1
  6
CONTINUOUS
 62
     7
 10
-291.3333333333333
 20
259.0
 11
-284.8333333333333
 21
259.0
  0
LINE
  8
1
  6
CONTINUOUS
 62
     7
 10
-296.8333333333334
 20
261.0
 11
-296.8333333333334
 21
254.5
  0
POLYLINE
  8
1
  6
CONTINUOUS
 62
     7
 66
     1
  0
VERTEX
  8
1
  6
CONTINUOUS
 62
     7
 10
-294.0836760083578
 20
242.0
  0
VERTEX
  8
1
  6
CONTINUOUS
 62
     7
 10
-294.2787359626809
 20
241.9807954061537
  0
VERTEX
  8
1
  6
CONTINUOUS
 62
     7
 10
-294.4662800707324
 20
241.9239190046959
  0
VERTEX
  8
1
  6
CONTINUOUS
 62
     7
 10
-294.6391073840963
 20
241.8315546234058
  0
VERTEX
  8
1
  6
CONTINUOUS
 62
     7
 10
-294.7905820207858
 20
241.7072486874525
  0
VERTEX
  8
1
  6
CONTINUOUS
 62
     7
 10
-294.9148879567391
 20
241.5557740507629
  0
VERTEX
  8
1
  6
CONTINUOUS
 62
     7
 10
-295.0072523380292
 20
241.382946737399
  0
VERTEX
  8
1
  6
CONTINUOUS
 62
     7
 10
-295.064128739487
 20
241.1954026293476
  0
VERTEX
  8
1
  6
CONTINUOUS
 62
     7
 10
-295.0833333333334
 20
241.0003426750245
  0
SEQEND
  8
1
  6
CONTINUOUS
 62
     7
  0
POLYLINE
  8
1
  6
CONTINUOUS
 62
     7
 66
     1
  0
VERTEX
  8
1
  6
CONTINUOUS
 62
     7
 10
-157.5829906583089
 20
168.0
  0
VERTEX
  8
1
  6
CONTINUOUS
 62
     7
 10
-157.3879307039858
 20
168.0192045938464
  0
VERTEX
  8
1
  6
CONTINUOUS
 62
     7
 10
-157.2003865959343
 20
168.0760809953041
  0
VERTEX
  8
1
  6
CONTINUOUS
 62
     7
 10
-157.0275592825704
 20
168.1684453765943
  0
VERTEX
  8
1
  6
CONTINUOUS
 62
     7
 10
-156.8760846458809
 20
168.2927513125475
  0
VERTEX
  8
1
  6
CONTINUOUS
 62
     7
 10
-156.7517787099276
 20
168.4442259492371
  0
VERTEX
  8
1
  6
CONTINUOUS
 62
     7
 10
-156.6594143286375
 20
168.617053262601
  0
VERTEX
  8
1
  6
CONTINUOUS
 62
     7
 10
-156.6025379271797
 20
168.8045973706524
  0
VERTEX
  8
1
  6
CONTINUOUS
 62
     7
 10
-156.5833333333333
 20
168.9996573249755
  0
SEQEND
  8
1
  6
CONTINUOUS
 62
     7
  0
POLYLINE
  8
1
  6
CONTINUOUS
 62
     7
 66
     1
  0
VERTEX
  8
1
  6
CONTINUOUS
 62
     7
 10
-156.5833333333333
 20
241.0003426750245
  0
VERTEX
  8
1
  6
CONTINUOUS
 62
     7
 10
-156.6025379271797
 20
241.1954026293476
  0
VERTEX
  8
1
  6
CONTINUOUS
 62
     7
 10
-156.6594143286375
 20
241.382946737399
  0
VERTEX
  8
1
  6
CONTINUOUS
 62
     7
 10
-156.7517787099276
 20
241.5557740507629
  0
VERTEX
  8
1
  6
CONTINUOUS
 62
     7
 10
-156.8760846458808
 20
241.7072486874525
  0
VERTEX
  8
1
  6
CONTINUOUS
 62
     7
 10
-157.0275592825704
 20
241.8315546234058
  0
VERTEX
  8
1
  6
CONTINUOUS
 62
     7
 10
-157.2003865959343
 20
241.9239190046959
  0
VERTEX
  8
1
  6
CONTINUOUS
 62
     7
 10
-157.3879307039857
 20
241.9807954061537
  0
VERTEX
  8
1
  6
CONTINUOUS
 62
     7
 10
-157.5829906583089
 20
242.0
  0
SEQEND
  8
1
  6
CONTINUOUS
 62
     7
  0
POLYLINE
  8
1
  6
CONTINUOUS
 62
     7
 66
     1
  0
VERTEX
  8
1
  6
CONTINUOUS
 62
     7
 10
-295.0833333333334
 20
168.9996573249755
  0
VERTEX
  8
1
  6
CONTINUOUS
 62
     7
 10
-295.064128739487
 20
168.8045973706524
  0
VERTEX
  8
1
  6
CONTINUOUS
 62
     7
 10
-295.0072523380292
 20
168.617053262601
  0
VERTEX
  8
1
  6
CONTINUOUS
 62
     7
 10
-294.9148879567391
 20
168.4442259492371
  0
VERTEX
  8
1
  6
CONTINUOUS
 62
     7
 10
-294.7905820207858
 20
168.2927513125475
  0
VERTEX
  8
1
  6
CONTINUOUS
 62
     7
 10
-294.6391073840963
 20
168.1684453765943
  0
VERTEX
  8
1
  6
CONTINUOUS
 62
     7
 10
-294.4662800707324
 20
168.0760809953042
  0
VERTEX
  8
1
  6
CONTINUOUS
 62
     7
 10
-294.2787359626809
 20
168.0192045938464
  0
VERTEX
  8
1
  6
CONTINUOUS
 62
     7
 10
-294.0836760083578
 20
168.0
  0
SEQEND
  8
1
  6
CONTINUOUS
 62
     7
  0
LINE
  8
1
  6
CONTINUOUS
 62
     7
 10
-294.0836760083578
 20
168.0
 11
-157.5829906583089
 21
168.0
  0
LINE
  8
1
  6
CONTINUOUS
 62
     7
 10
-157.5829906583089
 20
242.0
 11
-294.0836760083578
 21
242.0
  0
LINE
  8
1
  6
CONTINUOUS
 62
     7
 10
-156.5833333333333
 20
168.9996573249756
 11
-156.5833333333333
 21
169.3085657931545
  0
LINE
  8
1
  6
CONTINUOUS
 62
     7
 10
-156.5833333333333
 20
172.7430848130396
 11
-156.5833333333333
 21
169.3085657931545
  0
LINE
  8
1
  6
CONTINUOUS
 62
     9
 10
-156.5833333333333
 20
172.7430848130396
 11
-156.5833333333333
 21
237.2569151869604
  0
LINE
  8
1
  6
CONTINUOUS
 62
     7
 10
-156.5833333333333
 20
240.6914342068455
 11
-156.5833333333333
 21
237.2569151869604
  0
LINE
  8
1
  6
CONTINUOUS
 62
     7
 10
-156.5833333333333
 20
240.6914342068455
 11
-156.5833333333333
 21
241.0003426750245
  0
LINE
  8
1
  6
CONTINUOUS
 62
     7
 10
-295.0833333333334
 20
240.6914342068455
 11
-295.0833333333334
 21
241.0003426750245
  0
LINE
  8
1
  6
CONTINUOUS
 62
     7
 10
-295.0833333333334
 20
237.2569151869604
 11
-295.0833333333334
 21
240.6914342068455
  0
LINE
  8
1
  6
CONTINUOUS
 62
     9
 10
-295.0833333333334
 20
172.7430848130396
 11
-295.0833333333334
 21
237.2569151869604
  0
LINE
  8
1
  6
CONTINUOUS
 62
     7
 10
-295.0833333333334
 20
169.3085657931545
 11
-295.0833333333334
 21
172.7430848130396
  0
LINE
  8
1
  6
CONTINUOUS
 62
     7
 10
-295.0833333333334
 20
169.3085657931545
 11
-295.0833333333334
 21
168.9996573249756
  0
CIRCLE
  8
1
  6
CONTINUOUS
 62
     7
 10
-225.8333333333333
 20
163.25
 40
1.000000000000001
  0
CIRCLE
  8
1
  6
CONTINUOUS
 62
     7
 10
-179.8333333333333
 20
163.25
 40
1.000000000000001
  0
CIRCLE
  8
1
  6
CONTINUOUS
 62
     7
 10
-271.8333333333334
 20
163.25
 40
1.000000000000001
  0
CIRCLE
  8
1
  6
CONTINUOUS
 62
     7
 10
-225.8333333333333
 20
246.75
 40
1.000000000000001
  0
CIRCLE
  8
1
  6
CONTINUOUS
 62
     7
 10
-271.8333333333334
 20
246.75
 40
1.000000000000001
  0
CIRCLE
  8
1
  6
CONTINUOUS
 62
     7
 10
-179.8333333333333
 20
246.75
 40
1.000000000000001
  0
LINE
  8
1
  6
CONTINUOUS
 62
     7
 10
-156.5833333333333
 20
237.2569151869604
 11
-156.6088337873872
 21
238.9748422209706
  0
LINE
  8
1
  6
CONTINUOUS
 62
     7
 10
-156.6088337873872
 20
171.0251577790294
 11
-156.5833333333333
 21
172.7430848130396
  0
LINE
  8
1
  6
CONTINUOUS
 62
     7
 10
-295.0833333333334
 20
172.7430848130396
 11
-295.0578328792795
 21
171.0251577790294
  0
LINE
  8
1
  6
CONTINUOUS
 62
     7
 10
-295.0578328792795
 20
238.9748422209706
 11
-295.0833333333334
 21
237.2569151869604
  0
LINE
  8
1
  6
CONTINUOUS
 62
     9
 10
-173.5833333333334
 20
182.0
 11
-173.6095192549026
 21
182.0
  0
ARC
  8
1
  6
CONTINUOUS
 62
     7
 10
-176.5833333333334
 20
182.0
 40
2.999999999999999
 50
270.0
 51
0.0
  0
LINE
  8
1
  6
CONTINUOUS
 62
     9
 10
-176.5833333333334
 20
179.0
 11
-176.5833333333334
 21
179.0261859215692
  0
ARC
  8
1
  6
CONTINUOUS
 62
     7
 10
-176.5833333333334
 20
182.0
 40
2.973814078430812
 50
270.0
 51
0.0
  0
LINE
  8
1
  6
CONTINUOUS
 62
     9
 10
-176.5833333333333
 20
185.0
 11
-176.5833333333333
 21
184.9738140784308
  0
ARC
  8
1
  6
CONTINUOUS
 62
     7
 10
-176.5833333333334
 20
182.0
 40
3.000000000000003
 50
0.0
 51
89.99999999999973
  0
ARC
  8
1
  6
CONTINUOUS
 62
     7
 10
-176.5833333333334
 20
182.0
 40
2.973814078430816
 50
0.0
 51
89.99999999999973
  0
LINE
  8
1
  6
CONTINUOUS
 62
     9
 10
-268.5833333333333
 20
213.5
 11
-268.5833333333333
 21
213.5261859215692
  0
LINE
  8
1
  6
CONTINUOUS
 62
     7
 10
-275.0833333333333
 20
213.5
 11
-268.5833333333333
 21
213.5
  0
LINE
  8
1
  6
CONTINUOUS
 62
     9
 10
-275.0833333333333
 20
213.5
 11
-275.0833333333333
 21
213.5261859215692
  0
LINE
  8
1
  6
CONTINUOUS
 62
     7
 10
-275.0833333333333
 20
213.5261859215692
 11
-268.5833333333333
 21
213.5261859215692
  0
LINE
  8
1
  6
CONTINUOUS
 62
     7
 10
-183.0833333333333
 20
179.0
 11
-176.5833333333334
 21
179.0
  0
LINE
  8
1
  6
CONTINUOUS
 62
     9
 10
-183.0833333333333
 20
179.0
 11
-183.0833333333333
 21
179.0261859215692
  0
LINE
  8
1
  6
CONTINUOUS
 62
     7
 10
-183.0833333333333
 20
179.0261859215692
 11
-176.5833333333334
 21
179.0261859215692
  0
LINE
  8
1
  6
CONTINUOUS
 62
     9
 10
-268.5833333333333
 20
219.5
 11
-268.5833333333333
 21
219.4738140784308
  0
ARC
  8
1
  6
CONTINUOUS
 62
     7
 10
-268.5833333333333
 20
216.5
 40
3.000000000000003
 50
0.0
 51
89.99999999999973
  0
LINE
  8
1
  6
CONTINUOUS
 62
     9
 10
-265.5833333333333
 20
216.5
 11
-265.6095192549025
 21
216.5
  0
ARC
  8
1
  6
CONTINUOUS
 62
     7
 10
-268.5833333333333
 20
216.5
 40
2.973814078430816
 50
0.0
 51
89.99999999999973
  0
LINE
  8
1
  6
CONTINUOUS
 62
     9
 10
-183.0833333333333
 20
185.0
 11
-183.0833333333333
 21
184.9738140784308
  0
LINE
  8
1
  6
CONTINUOUS
 62
     7
 10
-176.5833333333333
 20
185.0
 11
-183.0833333333333
 21
185.0
  0
LINE
  8
1
  6
CONTINUOUS
 62
     7
 10
-176.5833333333333
 20
184.9738140784308
 11
-183.0833333333333
 21
184.9738140784308
  0
LINE
  8
1
  6
CONTINUOUS
 62
     9
 10
-186.0833333333333
 20
182.0
 11
-186.0571474117642
 21
182.0
  0
ARC
  8
1
  6
CONTINUOUS
 62
     7
 10
-183.0833333333333
 20
182.0
 40
2.999999999999999
 50
90.0
 51
180.0
  0
ARC
  8
1
  6
CONTINUOUS
 62
     7
 10
-183.0833333333333
 20
182.0
 40
2.973814078430812
 50
90.0
 51
180.0
  0
LINE
  8
1
  6
CONTINUOUS
 62
     9
 10
-275.0833333333333
 20
202.0
 11
-275.0833333333333
 21
202.0261859215692
  0
ARC
  8
1
  6
CONTINUOUS
 62
     7
 10
-275.0833333333333
 20
205.0
 40
3.000000000000003
 50
180.0
 51
270.0000000000001
  0
LINE
  8
1
  6
CONTINUOUS
 62
     9
 10
-278.0833333333334
 20
205.0
 11
-278.0571474117642
 21
205.0
  0
ARC
  8
1
  6
CONTINUOUS
 62
     7
 10
-275.0833333333333
 20
205.0
 40
2.973814078430816
 50
180.0
 51
270.0000000000001
  0
ARC
  8
1
  6
CONTINUOUS
 62
     7
 10
-268.5833333333333
 20
216.5
 40
2.999999999999999
 50
270.0
 51
0.0
  0
ARC
  8
1
  6
CONTINUOUS
 62
     7
 10
-268.5833333333333
 20
216.5
 40
2.973814078430812
 50
270.0
 51
0.0
  0
LINE
  8
1
  6
CONTINUOUS
 62
     9
 10
-265.5833333333333
 20
182.0
 11
-265.6095192549025
 21
182.0
  0
ARC
  8
1
  6
CONTINUOUS
 62
     7
 10
-268.5833333333333
 20
182.0
 40
2.999999999999999
 50
270.0
 51
0.0
  0
LINE
  8
1
  6
CONTINUOUS
 62
     9
 10
-268.5833333333333
 20
179.0
 11
-268.5833333333333
 21
179.0261859215692
  0
ARC
  8
1
  6
CONTINUOUS
 62
     7
 10
-268.5833333333333
 20
182.0
 40
2.973814078430812
 50
270.0
 51
0.0
  0
LINE
  8
1
  6
CONTINUOUS
 62
     9
 10
-278.0833333333334
 20
193.5
 11
-278.0571474117642
 21
193.5
  0
ARC
  8
1
  6
CONTINUOUS
 62
     7
 10
-275.0833333333333
 20
193.5
 40
2.999999999999999
 50
90.0
 51
180.0
  0
LINE
  8
1
  6
CONTINUOUS
 62
     9
 10
-275.0833333333333
 20
196.5
 11
-275.0833333333333
 21
196.4738140784308
  0
ARC
  8
1
  6
CONTINUOUS
 62
     7
 10
-275.0833333333333
 20
193.5
 40
2.973814078430812
 50
90.0
 51
180.0
  0
LINE
  8
1
  6
CONTINUOUS
 62
     9
 10
-183.0833333333333
 20
225.0
 11
-183.0833333333333
 21
225.0261859215692
  0
ARC
  8
1
  6
CONTINUOUS
 62
     7
 10
-183.0833333333333
 20
228.0
 40
3.000000000000003
 50
180.0
 51
270.0000000000001
  0
LINE
  8
1
  6
CONTINUOUS
 62
     9
 10
-186.0833333333333
 20
228.0
 11
-186.0571474117642
 21
228.0
  0
ARC
  8
1
  6
CONTINUOUS
 62
     7
 10
-183.0833333333333
 20
228.0
 40
2.973814078430816
 50
180.0
 51
270.0000000000001
  0
LINE
  8
1
  6
CONTINUOUS
 62
     9
 10
-275.0833333333333
 20
179.0
 11
-275.0833333333333
 21
179.0261859215692
  0
ARC
  8
1
  6
CONTINUOUS
 62
     7
 10
-275.0833333333333
 20
182.0
 40
3.000000000000003
 50
180.0
 51
270.0000000000001
  0
LINE
  8
1
  6
CONTINUOUS
 62
     9
 10
-278.0833333333334
 20
182.0
 11
-278.0571474117642
 21
182.0
  0
ARC
  8
1
  6
CONTINUOUS
 62
     7
 10
-275.0833333333333
 20
182.0
 40
2.973814078430816
 50
180.0
 51
270.0000000000001
  0
LINE
  8
1
  6
CONTINUOUS
 62
     7
 10
-275.0833333333333
 20
179.0
 11
-268.5833333333333
 21
179.0
  0
LINE
  8
1
  6
CONTINUOUS
 62
     7
 10
-275.0833333333333
 20
179.0261859215692
 11
-268.5833333333333
 21
179.0261859215692
  0
LINE
  8
1
  6
CONTINUOUS
 62
     9
 10
-173.5833333333334
 20
205.0
 11
-173.6095192549026
 21
205.0
  0
ARC
  8
1
  6
CONTINUOUS
 62
     7
 10
-176.5833333333334
 20
205.0
 40
2.999999999999999
 50
270.0
 51
0.0
  0
LINE
  8
1
  6
CONTINUOUS
 62
     9
 10
-176.5833333333334
 20
202.0
 11
-176.5833333333334
 21
202.0261859215692
  0
ARC
  8
1
  6
CONTINUOUS
 62
     7
 10
-176.5833333333334
 20
205.0
 40
2.973814078430812
 50
270.0
 51
0.0
  0
LINE
  8
1
  6
CONTINUOUS
 62
     9
 10
-268.5833333333333
 20
185.0
 11
-268.5833333333333
 21
184.9738140784308
  0
ARC
  8
1
  6
CONTINUOUS
 62
     7
 10
-268.5833333333333
 20
182.0
 40
3.000000000000003
 50
0.0
 51
89.99999999999973
  0
ARC
  8
1
  6
CONTINUOUS
 62
     7
 10
-268.5833333333333
 20
182.0
 40
2.973814078430816
 50
0.0
 51
89.99999999999973
  0
LINE
  8
1
  6
CONTINUOUS
 62
     9
 10
-275.0833333333333
 20
185.0
 11
-275.0833333333333
 21
184.9738140784308
  0
LINE
  8
1
  6
CONTINUOUS
 62
     7
 10
-268.5833333333333
 20
185.0
 11
-275.0833333333333
 21
185.0
  0
LINE
  8
1
  6
CONTINUOUS
 62
     7
 10
-268.5833333333333
 20
184.9738140784308
 11
-275.0833333333333
 21
184.9738140784308
  0
ARC
  8
1
  6
CONTINUOUS
 62
     7
 10
-275.0833333333333
 20
182.0
 40
2.999999999999999
 50
90.0
 51
180.0
  0
ARC
  8
1
  6
CONTINUOUS
 62
     7
 10
-275.0833333333333
 20
182.0
 40
2.973814078430812
 50
90.0
 51
180.0
  0
LINE
  8
1
  6
CONTINUOUS
 62
     9
 10
-183.0833333333333
 20
213.5
 11
-183.0833333333333
 21
213.5261859215692
  0
ARC
  8
1
  6
CONTINUOUS
 62
     7
 10
-183.0833333333333
 20
216.5
 40
3.000000000000003
 50
180.0
 51
270.0000000000001
  0
LINE
  8
1
  6
CONTINUOUS
 62
     9
 10
-186.0833333333333
 20
216.5
 11
-186.0571474117642
 21
216.5
  0
ARC
  8
1
  6
CONTINUOUS
 62
     7
 10
-183.0833333333333
 20
216.5
 40
2.973814078430816
 50
180.0
 51
270.0000000000001
  0
LINE
  8
1
  6
CONTINUOUS
 62
     7
 10
-268.5833333333333
 20
196.5
 11
-275.0833333333333
 21
196.5
  0
LINE
  8
1
  6
CONTINUOUS
 62
     9
 10
-268.5833333333333
 20
196.5
 11
-268.5833333333333
 21
196.4738140784308
  0
LINE
  8
1
  6
CONTINUOUS
 62
     7
 10
-268.5833333333333
 20
196.4738140784308
 11
-275.0833333333333
 21
196.4738140784308
  0
LINE
  8
1
  6
CONTINUOUS
 62
     9
 10
-176.5833333333333
 20
196.5
 11
-176.5833333333333
 21
196.4738140784308
  0
ARC
  8
1
  6
CONTINUOUS
 62
     7
 10
-176.5833333333334
 20
193.5
 40
3.000000000000003
 50
0.0
 51
89.99999999999973
  0
LINE
  8
1
  6
CONTINUOUS
 62
     9
 10
-173.5833333333334
 20
193.5
 11
-173.6095192549026
 21
193.5
  0
ARC
  8
1
  6
CONTINUOUS
 62
     7
 10
-176.5833333333334
 20
193.5
 40
2.973814078430816
 50
0.0
 51
89.99999999999973
  0
LINE
  8
1
  6
CONTINUOUS
 62
     9
 10
-183.0833333333333
 20
196.5
 11
-183.0833333333333
 21
196.4738140784308
  0
LINE
  8
1
  6
CONTINUOUS
 62
     7
 10
-176.5833333333333
 20
196.5
 11
-183.0833333333333
 21
196.5
  0
LINE
  8
1
  6
CONTINUOUS
 62
     7
 10
-176.5833333333333
 20
196.4738140784308
 11
-183.0833333333333
 21
196.4738140784308
  0
LINE
  8
1
  6
CONTINUOUS
 62
     9
 10
-186.0833333333333
 20
193.5
 11
-186.0571474117642
 21
193.5
  0
ARC
  8
1
  6
CONTINUOUS
 62
     7
 10
-183.0833333333333
 20
193.5
 40
2.999999999999999
 50
90.0
 51
180.0
  0
ARC
  8
1
  6
CONTINUOUS
 62
     7
 10
-183.0833333333333
 20
193.5
 40
2.973814078430812
 50
90.0
 51
180.0
  0
ARC
  8
1
  6
CONTINUOUS
 62
     7
 10
-275.0833333333333
 20
216.5
 40
3.000000000000003
 50
180.0
 51
270.0000000000001
  0
LINE
  8
1
  6
CONTINUOUS
 62
     9
 10
-278.0833333333334
 20
216.5
 11
-278.0571474117642
 21
216.5
  0
ARC
  8
1
  6
CONTINUOUS
 62
     7
 10
-275.0833333333333
 20
216.5
 40
2.973814078430816
 50
180.0
 51
270.0000000000001
  0
ARC
  8
1
  6
CONTINUOUS
 62
     7
 10
-183.0833333333333
 20
182.0
 40
3.000000000000003
 50
180.0
 51
270.0000000000001
  0
ARC
  8
1
  6
CONTINUOUS
 62
     7
 10
-183.0833333333333
 20
182.0
 40
2.973814078430816
 50
180.0
 51
270.0000000000001
  0
LINE
  8
1
  6
CONTINUOUS
 62
     9
 10
-219.5833333333333
 20
205.0
 11
-219.6095192549026
 21
205.0
  0
ARC
  8
1
  6
CONTINUOUS
 62
     7
 10
-222.5833333333333
 20
205.0
 40
2.999999999999999
 50
270.0
 51
0.0
  0
LINE
  8
1
  6
CONTINUOUS
 62
     9
 10
-222.5833333333333
 20
202.0
 11
-222.5833333333333
 21
202.0261859215692
  0
ARC
  8
1
  6
CONTINUOUS
 62
     7
 10
-222.5833333333333
 20
205.0
 40
2.973814078430812
 50
270.0
 51
0.0
  0
LINE
  8
1
  6
CONTINUOUS
 62
     9
 10
-222.5833333333333
 20
208.0
 11
-222.5833333333333
 21
207.9738140784308
  0
ARC
  8
1
  6
CONTINUOUS
 62
     7
 10
-222.5833333333333
 20
205.0
 40
3.000000000000003
 50
0.0
 51
89.99999999999973
  0
ARC
  8
1
  6
CONTINUOUS
 62
     7
 10
-222.5833333333333
 20
205.0
 40
2.973814078430816
 50
0.0
 51
89.99999999999973
  0
LINE
  8
1
  6
CONTINUOUS
 62
     9
 10
-229.0833333333333
 20
208.0
 11
-229.0833333333333
 21
207.9738140784308
  0
LINE
  8
1
  6
CONTINUOUS
 62
     7
 10
-222.5833333333333
 20
208.0
 11
-229.0833333333333
 21
208.0
  0
LINE
  8
1
  6
CONTINUOUS
 62
     7
 10
-222.5833333333333
 20
207.9738140784308
 11
-229.0833333333333
 21
207.9738140784308
  0
LINE
  8
1
  6
CONTINUOUS
 62
     9
 10
-275.0833333333333
 20
219.5
 11
-275.0833333333333
 21
219.4738140784308
  0
LINE
  8
1
  6
CONTINUOUS
 62
     7
 10
-268.5833333333333
 20
219.5
 11
-275.0833333333333
 21
219.5
  0
LINE
  8
1
  6
CONTINUOUS
 62
     7
 10
-268.5833333333333
 20
219.4738140784308
 11
-275.0833333333333
 21
219.4738140784308
  0
ARC
  8
1
  6
CONTINUOUS
 62
     7
 10
-275.0833333333333
 20
216.5
 40
2.999999999999999
 50
90.0
 51
180.0
  0
ARC
  8
1
  6
CONTINUOUS
 62
     7
 10
-275.0833333333333
 20
216.5
 40
2.973814078430812
 50
90.0
 51
180.0
  0
LINE
  8
1
  6
CONTINUOUS
 62
     9
 10
-232.0833333333334
 20
205.0
 11
-232.0571474117642
 21
205.0
  0
ARC
  8
1
  6
CONTINUOUS
 62
     7
 10
-229.0833333333333
 20
205.0
 40
2.999999999999999
 50
90.0
 51
180.0
  0
ARC
  8
1
  6
CONTINUOUS
 62
     7
 10
-229.0833333333333
 20
205.0
 40
2.973814078430812
 50
90.0
 51
180.0
  0
LINE
  8
1
  6
CONTINUOUS
 62
     9
 10
-229.0833333333333
 20
190.5
 11
-229.0833333333333
 21
190.5261859215692
  0
ARC
  8
1
  6
CONTINUOUS
 62
     7
 10
-229.0833333333333
 20
193.5
 40
3.000000000000003
 50
180.0
 51
270.0000000000001
  0
LINE
  8
1
  6
CONTINUOUS
 62
     9
 10
-232.0833333333334
 20
193.5
 11
-232.0571474117642
 21
193.5
  0
ARC
  8
1
  6
CONTINUOUS
 62
     7
 10
-229.0833333333333
 20
193.5
 40
2.973814078430816
 50
180.0
 51
270.0000000000001
  0
LINE
  8
1
  6
CONTINUOUS
 62
     9
 10
-268.5833333333333
 20
202.0
 11
-268.5833333333333
 21
202.0261859215692
  0
LINE
  8
1
  6
CONTINUOUS
 62
     7
 10
-275.0833333333333
 20
202.0
 11
-268.5833333333333
 21
202.0
  0
LINE
  8
1
  6
CONTINUOUS
 62
     7
 10
-275.0833333333333
 20
202.0261859215692
 11
-268.5833333333333
 21
202.0261859215692
  0
LINE
  8
1
  6
CONTINUOUS
 62
     9
 10
-265.5833333333333
 20
205.0
 11
-265.6095192549025
 21
205.0
  0
ARC
  8
1
  6
CONTINUOUS
 62
     7
 10
-268.5833333333333
 20
205.0
 40
2.999999999999999
 50
270.0
 51
0.0
  0
ARC
  8
1
  6
CONTINUOUS
 62
     7
 10
-268.5833333333333
 20
205.0
 40
2.973814078430812
 50
270.0
 51
0.0
  0
LINE
  8
1
  6
CONTINUOUS
 62
     9
 10
-268.5833333333333
 20
208.0
 11
-268.5833333333333
 21
207.9738140784308
  0
ARC
  8
1
  6
CONTINUOUS
 62
     7
 10
-268.5833333333333
 20
205.0
 40
3.000000000000003
 50
0.0
 51
89.99999999999973
  0
ARC
  8
1
  6
CONTINUOUS
 62
     7
 10
-268.5833333333333
 20
205.0
 40
2.973814078430816
 50
0.0
 51
89.99999999999973
  0
LINE
  8
1
  6
CONTINUOUS
 62
     9
 10
-275.0833333333333
 20
208.0
 11
-275.0833333333333
 21
207.9738140784308
  0
LINE
  8
1
  6
CONTINUOUS
 62
     7
 10
-268.5833333333333
 20
208.0
 11
-275.0833333333333
 21
208.0
  0
LINE
  8
1
  6
CONTINUOUS
 62
     7
 10
-268.5833333333333
 20
207.9738140784308
 11
-275.0833333333333
 21
207.9738140784308
  0
ARC
  8
1
  6
CONTINUOUS
 62
     7
 10
-275.0833333333333
 20
205.0
 40
2.999999999999999
 50
90.0
 51
180.0
  0
ARC
  8
1
  6
CONTINUOUS
 62
     7
 10
-275.0833333333333
 20
205.0
 40
2.973814078430812
 50
90.0
 51
180.0
  0
LINE
  8
1
  6
CONTINUOUS
 62
     9
 10
-183.0833333333333
 20
202.0
 11
-183.0833333333333
 21
202.0261859215692
  0
ARC
  8
1
  6
CONTINUOUS
 62
     7
 10
-183.0833333333333
 20
205.0
 40
3.000000000000003
 50
180.0
 51
270.0000000000001
  0
LINE
  8
1
  6
CONTINUOUS
 62
     9
 10
-186.0833333333333
 20
205.0
 11
-186.0571474117642
 21
205.0
  0
ARC
  8
1
  6
CONTINUOUS
 62
     7
 10
-183.0833333333333
 20
205.0
 40
2.973814078430816
 50
180.0
 51
270.0000000000001
  0
LINE
  8
1
  6
CONTINUOUS
 62
     9
 10
-275.0833333333333
 20
190.5
 11
-275.0833333333333
 21
190.5261859215692
  0
ARC
  8
1
  6
CONTINUOUS
 62
     7
 10
-275.0833333333333
 20
193.5
 40
3.000000000000003
 50
180.0
 51
270.0000000000001
  0
ARC
  8
1
  6
CONTINUOUS
 62
     7
 10
-275.0833333333333
 20
193.5
 40
2.973814078430816
 50
180.0
 51
270.0000000000001
  0
LINE
  8
1
  6
CONTINUOUS
 62
     9
 10
-265.5833333333333
 20
193.5
 11
-265.6095192549025
 21
193.5
  0
ARC
  8
1
  6
CONTINUOUS
 62
     7
 10
-268.5833333333333
 20
193.5
 40
2.999999999999999
 50
270.0
 51
0.0
  0
LINE
  8
1
  6
CONTINUOUS
 62
     9
 10
-268.5833333333333
 20
190.5
 11
-268.5833333333333
 21
190.5261859215692
  0
ARC
  8
1
  6
CONTINUOUS
 62
     7
 10
-268.5833333333333
 20
193.5
 40
2.973814078430812
 50
270.0
 51
0.0
  0
ARC
  8
1
  6
CONTINUOUS
 62
     7
 10
-268.5833333333333
 20
193.5
 40
3.000000000000003
 50
0.0
 51
89.99999999999973
  0
ARC
  8
1
  6
CONTINUOUS
 62
     7
 10
-268.5833333333333
 20
193.5
 40
2.973814078430816
 50
0.0
 51
89.99999999999973
  0
LINE
  8
1
  6
CONTINUOUS
 62
     9
 10
-229.0833333333333
 20
185.0
 11
-229.0833333333333
 21
184.9738140784308
  0
LINE
  8
1
  6
CONTINUOUS
 62
     7
 10
-222.5833333333333
 20
185.0
 11
-229.0833333333333
 21
185.0
  0
LINE
  8
1
  6
CONTINUOUS
 62
     9
 10
-222.5833333333333
 20
185.0
 11
-222.5833333333333
 21
184.9738140784308
  0
LINE
  8
1
  6
CONTINUOUS
 62
     7
 10
-222.5833333333333
 20
184.9738140784308
 11
-229.0833333333333
 21
184.9738140784308
  0
LINE
  8
1
  6
CONTINUOUS
 62
     9
 10
-232.0833333333334
 20
182.0
 11
-232.0571474117642
 21
182.0
  0
ARC
  8
1
  6
CONTINUOUS
 62
     7
 10
-229.0833333333333
 20
182.0
 40
2.999999999999999
 50
90.0
 51
180.0
  0
ARC
  8
1
  6
CONTINUOUS
 62
     7
 10
-229.0833333333333
 20
182.0
 40
2.973814078430812
 50
90.0
 51
180.0
  0
ARC
  8
1
  6
CONTINUOUS
 62
     7
 10
-176.5833333333334
 20
193.5
 40
2.999999999999999
 50
270.0
 51
0.0
  0
LINE
  8
1
  6
CONTINUOUS
 62
     9
 10
-176.5833333333334
 20
190.5
 11
-176.5833333333334
 21
190.5261859215692
  0
ARC
  8
1
  6
CONTINUOUS
 62
     7
 10
-176.5833333333334
 20
193.5
 40
2.973814078430812
 50
270.0
 51
0.0
  0
LINE
  8
1
  6
CONTINUOUS
 62
     9
 10
-278.0833333333334
 20
228.0
 11
-278.0571474117642
 21
228.0
  0
ARC
  8
1
  6
CONTINUOUS
 62
     7
 10
-275.0833333333333
 20
228.0
 40
2.999999999999999
 50
90.0
 51
180.0
  0
LINE
  8
1
  6
CONTINUOUS
 62
     9
 10
-275.0833333333333
 20
231.0
 11
-275.0833333333333
 21
230.9738140784308
  0
ARC
  8
1
  6
CONTINUOUS
 62
     7
 10
-275.0833333333333
 20
228.0
 40
2.973814078430812
 50
90.0
 51
180.0
  0
LINE
  8
1
  6
CONTINUOUS
 62
     9
 10
-176.5833333333334
 20
225.0
 11
-176.5833333333334
 21
225.0261859215692
  0
LINE
  8
1
  6
CONTINUOUS
 62
     7
 10
-183.0833333333333
 20
225.0
 11
-176.5833333333334
 21
225.0
  0
LINE
  8
1
  6
CONTINUOUS
 62
     7
 10
-183.0833333333333
 20
225.0261859215692
 11
-176.5833333333334
 21
225.0261859215692
  0
LINE
  8
1
  6
CONTINUOUS
 62
     9
 10
-173.5833333333334
 20
228.0
 11
-173.6095192549026
 21
228.0
  0
ARC
  8
1
  6
CONTINUOUS
 62
     7
 10
-176.5833333333334
 20
228.0
 40
2.999999999999999
 50
270.0
 51
0.0
  0
ARC
  8
1
  6
CONTINUOUS
 62
     7
 10
-176.5833333333334
 20
228.0
 40
2.973814078430812
 50
270.0
 51
0.0
  0
LINE
  8
1
  6
CONTINUOUS
 62
     9
 10
-176.5833333333333
 20
231.0
 11
-176.5833333333333
 21
230.9738140784308
  0
ARC
  8
1
  6
CONTINUOUS
 62
     7
 10
-176.5833333333334
 20
228.0
 40
3.000000000000003
 50
0.0
 51
89.99999999999973
  0
ARC
  8
1
  6
CONTINUOUS
 62
     7
 10
-176.5833333333334
 20
228.0
 40
2.973814078430816
 50
0.0
 51
89.99999999999973
  0
LINE
  8
1
  6
CONTINUOUS
 62
     9
 10
-183.0833333333333
 20
231.0
 11
-183.0833333333333
 21
230.9738140784308
  0
LINE
  8
1
  6
CONTINUOUS
 62
     7
 10
-176.5833333333333
 20
231.0
 11
-183.0833333333333
 21
231.0
  0
LINE
  8
1
  6
CONTINUOUS
 62
     7
 10
-176.5833333333333
 20
230.9738140784308
 11
-183.0833333333333
 21
230.9738140784308
  0
ARC
  8
1
  6
CONTINUOUS
 62
     7
 10
-183.0833333333333
 20
228.0
 40
2.999999999999999
 50
90.0
 51
180.0
  0
ARC
  8
1
  6
CONTINUOUS
 62
     7
 10
-183.0833333333333
 20
228.0
 40
2.973814078430812
 50
90.0
 51
180.0
  0
LINE
  8
1
  6
CONTINUOUS
 62
     7
 10
-275.0833333333333
 20
190.5
 11
-268.5833333333333
 21
190.5
  0
LINE
  8
1
  6
CONTINUOUS
 62
     7
 10
-275.0833333333333
 20
190.5261859215692
 11
-268.5833333333333
 21
190.5261859215692
  0
LINE
  8
1
  6
CONTINUOUS
 62
     7
 10
-275.0833333333333
 20
225.0
 11
-268.5833333333333
 21
225.0
  0
ARC
  8
1
  6
CONTINUOUS
 62
     7
 10
-268.5833333333333
 20
228.0
 40
2.999999999999999
 50
270.0
 51
0.0
  0
ARC
  8
1
  6
CONTINUOUS
 62
     7
 10
-268.5833333333333
 20
228.0
 40
3.000000000000003
 50
0.0
 51
89.99999999999973
  0
LINE
  8
1
  6
CONTINUOUS
 62
     7
 10
-268.5833333333333
 20
231.0
 11
-275.0833333333333
 21
231.0
  0
ARC
  8
1
  6
CONTINUOUS
 62
     7
 10
-275.0833333333333
 20
228.0
 40
3.000000000000003
 50
180.0
 51
270.0000000000001
  0
LINE
  8
1
  6
CONTINUOUS
 62
     7
 10
-229.0833333333333
 20
225.0
 11
-222.5833333333334
 21
225.0
  0
ARC
  8
1
  6
CONTINUOUS
 62
     7
 10
-222.5833333333333
 20
228.0
 40
2.999999999999999
 50
270.0
 51
0.0
  0
ARC
  8
1
  6
CONTINUOUS
 62
     7
 10
-222.5833333333333
 20
228.0
 40
3.000000000000003
 50
0.0
 51
89.99999999999973
  0
LINE
  8
1
  6
CONTINUOUS
 62
     7
 10
-222.5833333333333
 20
231.0
 11
-229.0833333333333
 21
231.0
  0
ARC
  8
1
  6
CONTINUOUS
 62
     7
 10
-229.0833333333333
 20
228.0
 40
2.999999999999999
 50
90.0
 51
180.0
  0
ARC
  8
1
  6
CONTINUOUS
 62
     7
 10
-229.0833333333333
 20
228.0
 40
3.000000000000003
 50
180.0
 51
270.0000000000001
  0
LINE
  8
1
  6
CONTINUOUS
 62
     7
 10
-229.0833333333333
 20
213.5
 11
-222.5833333333334
 21
213.5
  0
ARC
  8
1
  6
CONTINUOUS
 62
     7
 10
-222.5833333333333
 20
216.5
 40
2.999999999999999
 50
270.0
 51
0.0
  0
ARC
  8
1
  6
CONTINUOUS
 62
     7
 10
-222.5833333333333
 20
216.5
 40
3.000000000000003
 50
0.0
 51
89.99999999999973
  0
LINE
  8
1
  6
CONTINUOUS
 62
     7
 10
-222.5833333333333
 20
219.5
 11
-229.0833333333333
 21
219.5
  0
ARC
  8
1
  6
CONTINUOUS
 62
     7
 10
-229.0833333333333
 20
216.5
 40
2.999999999999999
 50
90.0
 51
180.0
  0
ARC
  8
1
  6
CONTINUOUS
 62
     7
 10
-229.0833333333333
 20
216.5
 40
3.000000000000003
 50
180.0
 51
270.0000000000001
  0
LINE
  8
1
  6
CONTINUOUS
 62
     7
 10
-229.0833333333333
 20
202.0
 11
-222.5833333333334
 21
202.0
  0
ARC
  8
1
  6
CONTINUOUS
 62
     7
 10
-229.0833333333333
 20
205.0
 40
3.000000000000003
 50
180.0
 51
270.0000000000001
  0
LINE
  8
1
  6
CONTINUOUS
 62
     7
 10
-229.0833333333333
 20
190.5
 11
-222.5833333333334
 21
190.5
  0
ARC
  8
1
  6
CONTINUOUS
 62
     7
 10
-222.5833333333333
 20
193.5
 40
2.999999999999999
 50
270.0
 51
0.0
  0
ARC
  8
1
  6
CONTINUOUS
 62
     7
 10
-222.5833333333333
 20
193.5
 40
3.000000000000003
 50
0.0
 51
89.99999999999973
  0
LINE
  8
1
  6
CONTINUOUS
 62
     7
 10
-222.5833333333333
 20
196.5
 11
-229.0833333333333
 21
196.5
  0
ARC
  8
1
  6
CONTINUOUS
 62
     7
 10
-229.0833333333333
 20
193.5
 40
2.999999999999999
 50
90.0
 51
180.0
  0
LINE
  8
1
  6
CONTINUOUS
 62
     7
 10
-229.0833333333333
 20
179.0
 11
-222.5833333333334
 21
179.0
  0
ARC
  8
1
  6
CONTINUOUS
 62
     7
 10
-222.5833333333333
 20
182.0
 40
2.999999999999999
 50
270.0
 51
0.0
  0
ARC
  8
1
  6
CONTINUOUS
 62
     7
 10
-222.5833333333333
 20
182.0
 40
3.000000000000003
 50
0.0
 51
89.99999999999973
  0
ARC
  8
1
  6
CONTINUOUS
 62
     7
 10
-229.0833333333333
 20
182.0
 40
3.000000000000003
 50
180.0
 51
270.0000000000001
  0
LINE
  8
1
  6
CONTINUOUS
 62
     7
 10
-183.0833333333333
 20
213.5
 11
-176.5833333333334
 21
213.5
  0
ARC
  8
1
  6
CONTINUOUS
 62
     7
 10
-176.5833333333334
 20
216.5
 40
2.999999999999999
 50
270.0
 51
0.0
  0
ARC
  8
1
  6
CONTINUOUS
 62
     7
 10
-176.5833333333334
 20
216.5
 40
3.000000000000003
 50
0.0
 51
89.99999999999973
  0
LINE
  8
1
  6
CONTINUOUS
 62
     7
 10
-176.5833333333333
 20
219.5
 11
-183.0833333333333
 21
219.5
  0
ARC
  8
1
  6
CONTINUOUS
 62
     7
 10
-183.0833333333333
 20
216.5
 40
2.999999999999999
 50
90.0
 51
180.0
  0
LINE
  8
1
  6
CONTINUOUS
 62
     7
 10
-183.0833333333333
 20
202.0
 11
-176.5833333333334
 21
202.0
  0
ARC
  8
1
  6
CONTINUOUS
 62
     7
 10
-176.5833333333334
 20
205.0
 40
3.000000000000003
 50
0.0
 51
89.99999999999973
  0
LINE
  8
1
  6
CONTINUOUS
 62
     7
 10
-176.5833333333333
 20
208.0
 11
-183.0833333333333
 21
208.0
  0
ARC
  8
1
  6
CONTINUOUS
 62
     7
 10
-183.0833333333333
 20
205.0
 40
2.999999999999999
 50
90.0
 51
180.0
  0
LINE
  8
1
  6
CONTINUOUS
 62
     7
 10
-183.0833333333333
 20
190.5
 11
-176.5833333333334
 21
190.5
  0
ARC
  8
1
  6
CONTINUOUS
 62
     7
 10
-183.0833333333333
 20
193.5
 40
3.000000000000003
 50
180.0
 51
270.0000000000001
  0
CIRCLE
  8
1
  6
CONTINUOUS
 62
     7
 10
-285.3333333333334
 20
233.75
 40
1.500000000000001
  0
CIRCLE
  8
1
  6
CONTINUOUS
 62
     7
 10
-285.3333333333334
 20
222.25
 40
1.500000000000001
  0
CIRCLE
  8
1
  6
CONTINUOUS
 62
     7
 10
-285.3333333333334
 20
210.75
 40
1.500000000000001
  0
CIRCLE
  8
1
  6
CONTINUOUS
 62
     7
 10
-285.3333333333334
 20
199.25
 40
1.500000000000001
  0
CIRCLE
  8
1
  6
CONTINUOUS
 62
     7
 10
-285.3333333333334
 20
187.75
 40
1.500000000000001
  0
CIRCLE
  8
1
  6
CONTINUOUS
 62
     7
 10
-285.3333333333334
 20
176.25
 40
1.500000000000001
  0
CIRCLE
  8
1
  6
CONTINUOUS
 62
     7
 10
-258.3333333333334
 20
233.75
 40
1.500000000000001
  0
CIRCLE
  8
1
  6
CONTINUOUS
 62
     7
 10
-258.3333333333334
 20
222.25
 40
1.500000000000001
  0
CIRCLE
  8
1
  6
CONTINUOUS
 62
     7
 10
-258.3333333333334
 20
210.75
 40
1.500000000000001
  0
CIRCLE
  8
1
  6
CONTINUOUS
 62
     7
 10
-258.3333333333334
 20
199.25
 40
1.500000000000001
  0
CIRCLE
  8
1
  6
CONTINUOUS
 62
     7
 10
-258.3333333333334
 20
187.75
 40
1.500000000000001
  0
CIRCLE
  8
1
  6
CONTINUOUS
 62
     7
 10
-258.3333333333334
 20
176.25
 40
1.500000000000001
  0
CIRCLE
  8
1
  6
CONTINUOUS
 62
     7
 10
-239.3333333333334
 20
233.75
 40
1.500000000000001
  0
CIRCLE
  8
1
  6
CONTINUOUS
 62
     7
 10
-239.3333333333334
 20
222.25
 40
1.500000000000001
  0
CIRCLE
  8
1
  6
CONTINUOUS
 62
     7
 10
-239.3333333333334
 20
210.75
 40
1.500000000000001
  0
CIRCLE
  8
1
  6
CONTINUOUS
 62
     7
 10
-239.3333333333334
 20
199.25
 40
1.500000000000001
  0
CIRCLE
  8
1
  6
CONTINUOUS
 62
     7
 10
-239.3333333333334
 20
187.75
 40
1.500000000000001
  0
CIRCLE
  8
1
  6
CONTINUOUS
 62
     7
 10
-239.3333333333334
 20
176.25
 40
1.500000000000001
  0
CIRCLE
  8
1
  6
CONTINUOUS
 62
     7
 10
-212.3333333333333
 20
233.75
 40
1.500000000000001
  0
CIRCLE
  8
1
  6
CONTINUOUS
 62
     7
 10
-212.3333333333333
 20
222.25
 40
1.500000000000001
  0
CIRCLE
  8
1
  6
CONTINUOUS
 62
     7
 10
-212.3333333333333
 20
210.75
 40
1.500000000000001
  0
CIRCLE
  8
1
  6
CONTINUOUS
 62
     7
 10
-212.3333333333333
 20
199.25
 40
1.500000000000001
  0
CIRCLE
  8
1
  6
CONTINUOUS
 62
     7
 10
-212.3333333333333
 20
187.75
 40
1.500000000000001
  0
CIRCLE
  8
1
  6
CONTINUOUS
 62
     7
 10
-212.3333333333333
 20
176.25
 40
1.500000000000001
  0
CIRCLE
  8
1
  6
CONTINUOUS
 62
     7
 10
-193.3333333333333
 20
233.75
 40
1.500000000000001
  0
CIRCLE
  8
1
  6
CONTINUOUS
 62
     7
 10
-193.3333333333333
 20
222.25
 40
1.500000000000001
  0
CIRCLE
  8
1
  6
CONTINUOUS
 62
     7
 10
-193.3333333333333
 20
210.75
 40
1.500000000000001
  0
CIRCLE
  8
1
  6
CONTINUOUS
 62
     7
 10
-193.3333333333333
 20
199.25
 40
1.500000000000001
  0
CIRCLE
  8
1
  6
CONTINUOUS
 62
     7
 10
-193.3333333333333
 20
187.75
 40
1.500000000000001
  0
CIRCLE
  8
1
  6
CONTINUOUS
 62
     7
 10
-193.3333333333333
 20
176.25
 40
1.500000000000001
  0
CIRCLE
  8
1
  6
CONTINUOUS
 62
     7
 10
-166.3333333333334
 20
233.75
 40
1.500000000000001
  0
CIRCLE
  8
1
  6
CONTINUOUS
 62
     7
 10
-166.3333333333334
 20
222.25
 40
1.500000000000001
  0
CIRCLE
  8
1
  6
CONTINUOUS
 62
     7
 10
-166.3333333333334
 20
210.75
 40
1.500000000000001
  0
CIRCLE
  8
1
  6
CONTINUOUS
 62
     7
 10
-166.3333333333334
 20
199.25
 40
1.500000000000001
  0
CIRCLE
  8
1
  6
CONTINUOUS
 62
     7
 10
-166.3333333333334
 20
187.75
 40
1.500000000000001
  0
CIRCLE
  8
1
  6
CONTINUOUS
 62
     7
 10
-166.3333333333334
 20
176.25
 40
1.500000000000001
  0
CIRCLE
  8
1
  6
CONTINUOUS
 62
     7
 10
-279.3333333333334
 20
222.25
 40
1.500000000000001
  0
CIRCLE
  8
1
  6
CONTINUOUS
 62
     7
 10
-279.3333333333334
 20
210.75
 40
1.500000000000001
  0
CIRCLE
  8
1
  6
CONTINUOUS
 62
     7
 10
-279.3333333333334
 20
199.25
 40
1.500000000000001
  0
CIRCLE
  8
1
  6
CONTINUOUS
 62
     7
 10
-279.3333333333334
 20
187.75
 40
1.500000000000001
  0
CIRCLE
  8
1
  6
CONTINUOUS
 62
     7
 10
-264.3333333333334
 20
222.25
 40
1.500000000000001
  0
CIRCLE
  8
1
  6
CONTINUOUS
 62
     7
 10
-264.3333333333334
 20
210.75
 40
1.500000000000001
  0
CIRCLE
  8
1
  6
CONTINUOUS
 62
     7
 10
-264.3333333333334
 20
199.25
 40
1.500000000000001
  0
CIRCLE
  8
1
  6
CONTINUOUS
 62
     7
 10
-264.3333333333334
 20
187.75
 40
1.500000000000001
  0
CIRCLE
  8
1
  6
CONTINUOUS
 62
     7
 10
-233.3333333333334
 20
222.25
 40
1.500000000000001
  0
CIRCLE
  8
1
  6
CONTINUOUS
 62
     7
 10
-233.3333333333334
 20
210.75
 40
1.500000000000001
  0
CIRCLE
  8
1
  6
CONTINUOUS
 62
     7
 10
-233.3333333333334
 20
199.25
 40
1.500000000000001
  0
CIRCLE
  8
1
  6
CONTINUOUS
 62
     7
 10
-233.3333333333334
 20
187.75
 40
1.500000000000001
  0
CIRCLE
  8
1
  6
CONTINUOUS
 62
     7
 10
-218.3333333333333
 20
222.25
 40
1.500000000000001
  0
CIRCLE
  8
1
  6
CONTINUOUS
 62
     7
 10
-218.3333333333333
 20
210.75
 40
1.500000000000001
  0
CIRCLE
  8
1
  6
CONTINUOUS
 62
     7
 10
-218.3333333333333
 20
199.25
 40
1.500000000000001
  0
CIRCLE
  8
1
  6
CONTINUOUS
 62
     7
 10
-218.3333333333333
 20
187.75
 40
1.500000000000001
  0
CIRCLE
  8
1
  6
CONTINUOUS
 62
     7
 10
-187.3333333333333
 20
222.25
 40
1.500000000000001
  0
CIRCLE
  8
1
  6
CONTINUOUS
 62
     7
 10
-187.3333333333333
 20
210.75
 40
1.500000000000001
  0
CIRCLE
  8
1
  6
CONTINUOUS
 62
     7
 10
-187.3333333333333
 20
199.25
 40
1.500000000000001
  0
CIRCLE
  8
1
  6
CONTINUOUS
 62
     7
 10
-187.3333333333333
 20
187.75
 40
1.500000000000001
  0
CIRCLE
  8
1
  6
CONTINUOUS
 62
     7
 10
-172.3333333333333
 20
222.25
 40
1.500000000000001
  0
CIRCLE
  8
1
  6
CONTINUOUS
 62
     7
 10
-172.3333333333333
 20
210.75
 40
1.500000000000001
  0
CIRCLE
  8
1
  6
CONTINUOUS
 62
     7
 10
-172.3333333333333
 20
199.25
 40
1.500000000000001
  0
CIRCLE
  8
1
  6
CONTINUOUS
 62
     7
 10
-172.3333333333333
 20
187.75
 40
1.500000000000001
  0
LINE
  8
1
  6
CONTINUOUS
 62
     9
 10
-176.5833333333334
 20
213.5
 11
-176.5833333333334
 21
213.5261859215692
  0
LINE
  8
1
  6
CONTINUOUS
 62
     7
 10
-183.0833333333333
 20
213.5261859215692
 11
-176.5833333333334
 21
213.5261859215692
  0
LINE
  8
1
  6
CONTINUOUS
 62
     9
 10
-173.5833333333334
 20
216.5
 11
-173.6095192549026
 21
216.5
  0
ARC
  8
1
  6
CONTINUOUS
 62
     7
 10
-176.5833333333334
 20
216.5
 40
2.973814078430812
 50
270.0
 51
0.0
  0
LINE
  8
1
  6
CONTINUOUS
 62
     9
 10
-176.5833333333333
 20
219.5
 11
-176.5833333333333
 21
219.4738140784308
  0
ARC
  8
1
  6
CONTINUOUS
 62
     7
 10
-176.5833333333334
 20
216.5
 40
2.973814078430816
 50
0.0
 51
89.99999999999973
  0
LINE
  8
1
  6
CONTINUOUS
 62
     9
 10
-183.0833333333333
 20
219.5
 11
-183.0833333333333
 21
219.4738140784308
  0
LINE
  8
1
  6
CONTINUOUS
 62
     7
 10
-176.5833333333333
 20
219.4738140784308
 11
-183.0833333333333
 21
219.4738140784308
  0
ARC
  8
1
  6
CONTINUOUS
 62
     7
 10
-183.0833333333333
 20
216.5
 40
2.973814078430812
 50
90.0
 51
180.0
  0
LINE
  8
1
  6
CONTINUOUS
 62
     9
 10
-229.0833333333333
 20
231.0
 11
-229.0833333333333
 21
230.9738140784308
  0
LINE
  8
1
  6
CONTINUOUS
 62
     9
 10
-222.5833333333333
 20
231.0
 11
-222.5833333333333
 21
230.9738140784308
  0
LINE
  8
1
  6
CONTINUOUS
 62
     7
 10
-222.5833333333333
 20
230.9738140784308
 11
-229.0833333333333
 21
230.9738140784308
  0
LINE
  8
1
  6
CONTINUOUS
 62
     9
 10
-229.0833333333333
 20
196.5
 11
-229.0833333333333
 21
196.4738140784308
  0
ARC
  8
1
  6
CONTINUOUS
 62
     7
 10
-229.0833333333333
 20
193.5
 40
2.973814078430812
 50
90.0
 51
180.0
  0
LINE
  8
1
  6
CONTINUOUS
 62
     7
 10
-183.0833333333333
 20
202.0261859215692
 11
-176.5833333333334
 21
202.0261859215692
  0
LINE
  8
1
  6
CONTINUOUS
 62
     9
 10
-232.0833333333334
 20
228.0
 11
-232.0571474117642
 21
228.0
  0
ARC
  8
1
  6
CONTINUOUS
 62
     7
 10
-229.0833333333333
 20
228.0
 40
2.973814078430812
 50
90.0
 51
180.0
  0
LINE
  8
1
  6
CONTINUOUS
 62
     9
 10
-229.0833333333333
 20
179.0
 11
-229.0833333333333
 21
179.0261859215692
  0
ARC
  8
1
  6
CONTINUOUS
 62
     7
 10
-229.0833333333333
 20
182.0
 40
2.973814078430816
 50
180.0
 51
270.0000000000001
  0
LINE
  8
1
  6
CONTINUOUS
 62
     9
 10
-183.0833333333333
 20
190.5
 11
-183.0833333333333
 21
190.5261859215692
  0
ARC
  8
1
  6
CONTINUOUS
 62
     7
 10
-183.0833333333333
 20
193.5
 40
2.973814078430816
 50
180.0
 51
270.0000000000001
  0
LINE
  8
1
  6
CONTINUOUS
 62
     7
 10
-183.0833333333333
 20
190.5261859215692
 11
-176.5833333333334
 21
190.5261859215692
  0
LINE
  8
1
  6
CONTINUOUS
 62
     9
 10
-265.5833333333333
 20
228.0
 11
-265.6095192549025
 21
228.0
  0
LINE
  8
1
  6
CONTINUOUS
 62
     9
 10
-268.5833333333333
 20
225.0
 11
-268.5833333333333
 21
225.0261859215692
  0
ARC
  8
1
  6
CONTINUOUS
 62
     7
 10
-268.5833333333333
 20
228.0
 40
2.973814078430812
 50
270.0
 51
0.0
  0
LINE
  8
1
  6
CONTINUOUS
 62
     9
 10
-268.5833333333333
 20
231.0
 11
-268.5833333333333
 21
230.9738140784308
  0
ARC
  8
1
  6
CONTINUOUS
 62
     7
 10
-268.5833333333333
 20
228.0
 40
2.973814078430816
 50
0.0
 51
89.99999999999973
  0
LINE
  8
1
  6
CONTINUOUS
 62
     9
 10
-229.0833333333333
 20
219.5
 11
-229.0833333333333
 21
219.4738140784308
  0
LINE
  8
1
  6
CONTINUOUS
 62
     9
 10
-222.5833333333333
 20
219.5
 11
-222.5833333333333
 21
219.4738140784308
  0
LINE
  8
1
  6
CONTINUOUS
 62
     7
 10
-222.5833333333333
 20
219.4738140784308
 11
-229.0833333333333
 21
219.4738140784308
  0
LINE
  8
1
  6
CONTINUOUS
 62
     9
 10
-232.0833333333334
 20
216.5
 11
-232.0571474117642
 21
216.5
  0
ARC
  8
1
  6
CONTINUOUS
 62
     7
 10
-229.0833333333333
 20
216.5
 40
2.973814078430812
 50
90.0
 51
180.0
  0
LINE
  8
1
  6
CONTINUOUS
 62
     9
 10
-229.0833333333333
 20
202.0
 11
-229.0833333333333
 21
202.0261859215692
  0
LINE
  8
1
  6
CONTINUOUS
 62
     7
 10
-229.0833333333333
 20
202.0261859215692
 11
-222.5833333333334
 21
202.0261859215692
  0
ARC
  8
1
  6
CONTINUOUS
 62
     7
 10
-229.0833333333333
 20
205.0
 40
2.973814078430816
 50
180.0
 51
270.0000000000001
  0
LINE
  8
1
  6
CONTINUOUS
 62
     9
 10
-222.5833333333333
 20
190.5
 11
-222.5833333333333
 21
190.5261859215692
  0
LINE
  8
1
  6
CONTINUOUS
 62
     7
 10
-229.0833333333333
 20
190.5261859215692
 11
-222.5833333333334
 21
190.5261859215692
  0
LINE
  8
1
  6
CONTINUOUS
 62
     9
 10
-219.5833333333333
 20
193.5
 11
-219.6095192549026
 21
193.5
  0
ARC
  8
1
  6
CONTINUOUS
 62
     7
 10
-222.5833333333333
 20
193.5
 40
2.973814078430812
 50
270.0
 51
0.0
  0
LINE
  8
1
  6
CONTINUOUS
 62
     9
 10
-222.5833333333333
 20
179.0
 11
-222.5833333333333
 21
179.0261859215692
  0
LINE
  8
1
  6
CONTINUOUS
 62
     7
 10
-229.0833333333333
 20
179.0261859215692
 11
-222.5833333333334
 21
179.0261859215692
  0
LINE
  8
1
  6
CONTINUOUS
 62
     9
 10
-219.5833333333333
 20
182.0
 11
-219.6095192549026
 21
182.0
  0
ARC
  8
1
  6
CONTINUOUS
 62
     7
 10
-222.5833333333333
 20
182.0
 40
2.973814078430812
 50
270.0
 51
0.0
  0
ARC
  8
1
  6
CONTINUOUS
 62
     7
 10
-222.5833333333333
 20
182.0
 40
2.973814078430816
 50
0.0
 51
89.99999999999973
  0
LINE
  8
1
  6
CONTINUOUS
 62
     9
 10
-176.5833333333333
 20
208.0
 11
-176.5833333333333
 21
207.9738140784308
  0
ARC
  8
1
  6
CONTINUOUS
 62
     7
 10
-176.5833333333334
 20
205.0
 40
2.973814078430816
 50
0.0
 51
89.99999999999973
  0
LINE
  8
1
  6
CONTINUOUS
 62
     9
 10
-183.0833333333333
 20
208.0
 11
-183.0833333333333
 21
207.9738140784308
  0
LINE
  8
1
  6
CONTINUOUS
 62
     7
 10
-176.5833333333333
 20
207.9738140784308
 11
-183.0833333333333
 21
207.9738140784308
  0
LINE
  8
1
  6
CONTINUOUS
 62
     9
 10
-222.5833333333333
 20
196.5
 11
-222.5833333333333
 21
196.4738140784308
  0
ARC
  8
1
  6
CONTINUOUS
 62
     7
 10
-222.5833333333333
 20
193.5
 40
2.973814078430816
 50
0.0
 51
89.99999999999973
  0
LINE
  8
1
  6
CONTINUOUS
 62
     7
 10
-222.5833333333333
 20
196.4738140784308
 11
-229.0833333333333
 21
196.4738140784308
  0
LINE
  8
1
  6
CONTINUOUS
 62
     9
 10
-219.5833333333333
 20
228.0
 11
-219.6095192549026
 21
228.0
  0
ARC
  8
1
  6
CONTINUOUS
 62
     7
 10
-222.5833333333333
 20
228.0
 40
2.973814078430816
 50
0.0
 51
89.99999999999973
  0
LINE
  8
1
  6
CONTINUOUS
 62
     9
 10
-275.0833333333333
 20
225.0
 11
-275.0833333333333
 21
225.0261859215692
  0
LINE
  8
1
  6
CONTINUOUS
 62
     7
 10
-275.0833333333333
 20
225.0261859215692
 11
-268.5833333333333
 21
225.0261859215692
  0
LINE
  8
1
  6
CONTINUOUS
 62
     9
 10
-229.0833333333333
 20
225.0
 11
-229.0833333333333
 21
225.0261859215692
  0
ARC
  8
1
  6
CONTINUOUS
 62
     7
 10
-229.0833333333333
 20
228.0
 40
2.973814078430816
 50
180.0
 51
270.0000000000001
  0
LINE
  8
1
  6
CONTINUOUS
 62
     7
 10
-268.5833333333333
 20
230.9738140784308
 11
-275.0833333333333
 21
230.9738140784308
  0
LINE
  8
1
  6
CONTINUOUS
 62
     9
 10
-219.5833333333333
 20
216.5
 11
-219.6095192549026
 21
216.5
  0
ARC
  8
1
  6
CONTINUOUS
 62
     7
 10
-222.5833333333333
 20
216.5
 40
2.973814078430816
 50
0.0
 51
89.99999999999973
  0
ARC
  8
1
  6
CONTINUOUS
 62
     7
 10
-275.0833333333333
 20
228.0
 40
2.973814078430816
 50
180.0
 51
270.0000000000001
  0
LINE
  8
1
  6
CONTINUOUS
 62
     9
 10
-222.5833333333333
 20
225.0
 11
-222.5833333333333
 21
225.0261859215692
  0
LINE
  8
1
  6
CONTINUOUS
 62
     7
 10
-229.0833333333333
 20
225.0261859215692
 11
-222.5833333333334
 21
225.0261859215692
  0
ARC
  8
1
  6
CONTINUOUS
 62
     7
 10
-222.5833333333333
 20
228.0
 40
2.973814078430812
 50
270.0
 51
0.0
  0
LINE
  8
1
  6
CONTINUOUS
 62
     9
 10
-222.5833333333333
 20
213.5
 11
-222.5833333333333
 21
213.5261859215692
  0
ARC
  8
1
  6
CONTINUOUS
 62
     7
 10
-222.5833333333333
 20
216.5
 40
2.973814078430812
 50
270.0
 51
0.0
  0
LINE
  8
1
  6
CONTINUOUS
 62
     9
 10
-229.0833333333333
 20
213.5
 11
-229.0833333333333
 21
213.5261859215692
  0
ARC
  8
1
  6
CONTINUOUS
 62
     7
 10
-229.0833333333333
 20
216.5
 40
2.973814078430816
 50
180.0
 51
270.0000000000001
  0
ARC
  8
1
  6
CONTINUOUS
 62
     7
 10
-183.0833333333333
 20
205.0
 40
2.973814078430812
 50
90.0
 51
180.0
  0
LINE
  8
1
  6
CONTINUOUS
 62
     7
 10
-229.0833333333333
 20
213.5261859215692
 11
-222.5833333333334
 21
213.5261859215692
  0
ENDBLK
  8
0
  0
BLOCK
  8
0
  2
D_FRAME_VIEW_2376
 70
     0
 10
0.0
 20
0.0
  0
LINE
  8
1
  6
CONTINUOUS
 62
     7
 10
-86.84038878620115
 20
241.5000000000001
 11
-62.27494641543147
 21
240.8567312527667
  0
LINE
  8
1
  6
CONTINUOUS
 62
     7
 10
-62.27494641543147
 20
169.1432687472334
 11
-86.84038878620115
 21
168.5
  0
ARC
  8
1
  6
CONTINUOUS
 62
     7
 10
-87.84038878620115
 20
167.4741568709217
 40
1.000000000000001
 50
271.4999999999999
 51
359.9999999999996
  0
ARC
  8
1
  6
CONTINUOUS
 62
     7
 10
-87.84038878620115
 20
242.5258431290784
 40
1.000000000000001
 50
359.9999999999993
 51
88.50000000000011
  0
ARC
  8
1
  6
CONTINUOUS
 62
     7
 10
-64.84038878620116
 20
183.3678706184361
 40
3.500000000000002
 50
91.5
 51
180.0
  0
LINE
  8
1
  6
CONTINUOUS
 62
     7
 10
-68.34038878620115
 20
183.3678706184361
 11
-68.34038878620115
 21
180.632129381564
  0
ARC
  8
1
  6
CONTINUOUS
 62
     7
 10
-64.84038878620116
 20
180.632129381564
 40
3.500000000000002
 50
180.0
 51
268.5
  0
LINE
  8
1
  6
CONTINUOUS
 62
     7
 10
-64.93200810527871
 20
177.1333287441495
 11
-62.27494641543147
 21
177.0637511351347
  0
LINE
  8
1
  6
CONTINUOUS
 62
     7
 10
-62.27494641543147
 20
232.9362488648653
 11
-64.93200810527871
 21
232.8666712558505
  0
ARC
  8
1
  6
CONTINUOUS
 62
     7
 10
-64.84038878620116
 20
229.3678706184361
 40
3.500000000000002
 50
91.5
 51
180.0
  0
LINE
  8
1
  6
CONTINUOUS
 62
     7
 10
-68.34038878620115
 20
229.3678706184361
 11
-68.34038878620115
 21
226.632129381564
  0
ARC
  8
1
  6
CONTINUOUS
 62
     7
 10
-64.84038878620116
 20
226.632129381564
 40
3.500000000000002
 50
180.0
 51
268.5
  0
LINE
  8
1
  6
CONTINUOUS
 62
     7
 10
-64.93200810527871
 20
223.1333287441496
 11
-62.27494641543147
 21
223.0637511351347
  0
LINE
  8
1
  6
CONTINUOUS
 62
     7
 10
-62.27494641543147
 20
209.9362488648653
 11
-64.93200810527871
 21
209.8666712558505
  0
ARC
  8
1
  6
CONTINUOUS
 62
     7
 10
-64.84038878620116
 20
206.3678706184361
 40
3.500000000000002
 50
91.5
 51
180.0000000000004
  0
LINE
  8
1
  6
CONTINUOUS
 62
     7
 10
-68.34038878620115
 20
206.3678706184361
 11
-68.34038878620115
 21
203.632129381564
  0
ARC
  8
1
  6
CONTINUOUS
 62
     7
 10
-64.84038878620116
 20
203.632129381564
 40
3.500000000000002
 50
180.0
 51
268.5
  0
LINE
  8
1
  6
CONTINUOUS
 62
     7
 10
-64.93200810527871
 20
200.1333287441496
 11
-62.27494641543147
 21
200.0637511351347
  0
LINE
  8
1
  6
CONTINUOUS
 62
     7
 10
-62.27494641543147
 20
186.9362488648654
 11
-64.93200810527871
 21
186.8666712558505
  0
ARC
  8
1
  6
CONTINUOUS
 62
     7
 10
-62.34038878620115
 20
238.3575879403278
 40
2.499999999999996
 50
0.0
 51
88.5
  0
ARC
  8
1
  6
CONTINUOUS
 62
     7
 10
-62.34038878620115
 20
171.6424120596723
 40
2.500000000000002
 50
271.5
 51
0.0
  0
POLYLINE
  8
1
  6
CONTINUOUS
 62
     7
 66
     1
  0
VERTEX
  8
1
  6
CONTINUOUS
 62
     7
 10
-60.27166672816786
 20
200.5111220728507
  0
VERTEX
  8
1
  6
CONTINUOUS
 62
     7
 10
-60.27187766016501
 20
200.4936908206335
  0
VERTEX
  8
1
  6
CONTINUOUS
 62
     7
 10
-60.27250949697766
 20
200.4762757125848
  0
VERTEX
  8
1
  6
CONTINUOUS
 62
     7
 10
-60.27356079983758
 20
200.4589246919741
  0
VERTEX
  8
1
  6
CONTINUOUS
 62
     7
 10
-60.27503012997656
 20
200.4416857020711
  0
VERTEX
  8
1
  6
CONTINUOUS
 62
     7
 10
-60.27698331431559
 20
200.4240494852285
  0
VERTEX
  8
1
  6
CONTINUOUS
 62
     7
 10
-60.27937932543023
 20
200.406565656864
  0
VERTEX
  8
1
  6
CONTINUOUS
 62
     7
 10
-60.28221162245843
 20
200.3892827584083
  0
VERTEX
  8
1
  6
CONTINUOUS
 62
     7
 10
-60.28547366453815
 20
200.3722493312915
  0
VERTEX
  8
1
  6
CONTINUOUS
 62
     7
 10
-60.2890466293422
 20
200.355984198538
  0
VERTEX
  8
1
  6
CONTINUOUS
 62
     7
 10
-60.29301915796039
 20
200.3399787274765
  0
VERTEX
  8
1
  6
CONTINUOUS
 62
     7
 10
-60.29738132379566
 20
200.3242696190039
  0
VERTEX
  8
1
  6
CONTINUOUS
 62
     7
 10
-60.30212320025087
 20
200.308893574017
  0
VERTEX
  8
1
  6
CONTINUOUS
 62
     7
 10
-60.30738671397815
 20
200.2934570936804
  0
VERTEX
  8
1
  6
CONTINUOUS
 62
     7
 10
-60.3130430332177
 20
200.2783884272284
  0
VERTEX
  8
1
  6
CONTINUOUS
 62
     7
 10
-60.31907829279857
 20
200.2637166771187
  0
VERTEX
  8
1
  6
CONTINUOUS
 62
     7
 10
-60.32547862754982
 20
200.2494709458083
  0
VERTEX
  8
1
  6
CONTINUOUS
 62
     7
 10
-60.3347790777819
 20
200.2307689363427
  0
VERTEX
  8
1
  6
CONTINUOUS
 62
     7
 10
-60.34474771440577
 20
200.2128554915247
  0
VERTEX
  8
1
  6
CONTINUOUS
 62
     7
 10
-60.35534473203224
 20
200.195762919307
  0
VERTEX
  8
1
  6
CONTINUOUS
 62
     7
 10
-60.3665303252722
 20
200.1795235276423
  0
VERTEX
  8
1
  6
CONTINUOUS
 62
     7
 10
-60.37826468873646
 20
200.1641696244833
  0
VERTEX
  8
1
  6
CONTINUOUS
 62
     7
 10
-60.39050801703589
 20
200.149733517783
  0
VERTEX
  8
1
  6
CONTINUOUS
 62
     7
 10
-60.40400324404413
 20
200.1354377178534
  0
VERTEX
  8
1
  6
CONTINUOUS
 62
     7
 10
-60.41804743061913
 20
200.1220969929581
  0
VERTEX
  8
1
  6
CONTINUOUS
 62
     7
 10
-60.43259730257689
 20
200.1097096744719
  0
VERTEX
  8
1
  6
CONTINUOUS
 62
     7
 10
-60.44760958573335
 20
200.0982740937695
  0
VERTEX
  8
1
  6
CONTINUOUS
 62
     7
 10
-60.46892395555701
 20
200.0840883800605
  0
VERTEX
  8
1
  6
CONTINUOUS
 62
     7
 10
-60.49102712836732
 20
200.0715671045917
  0
VERTEX
  8
1
  6
CONTINUOUS
 62
     7
 10
-60.51382605571426
 20
200.0606630969179
  0
VERTEX
  8
1
  6
CONTINUOUS
 62
     7
 10
-60.53891829370448
 20
200.0507143750313
  0
VERTEX
  8
1
  6
CONTINUOUS
 62
     7
 10
-60.56471465522019
 20
200.0424347340184
  0
VERTEX
  8
1
  6
CONTINUOUS
 62
     7
 10
-60.59113023759387
 20
200.0357462318086
  0
VERTEX
  8
1
  6
CONTINUOUS
 62
     7
 10
-60.61808013815795
 20
200.0305709263313
  0
VERTEX
  8
1
  6
CONTINUOUS
 62
     7
 10
-60.65591198256742
 20
200.0257676133655
  0
VERTEX
  8
1
  6
CONTINUOUS
 62
     7
 10
-60.69461944143017
 20
200.0234409702177
  0
VERTEX
  8
1
  6
CONTINUOUS
 62
     7
 10
-60.73405283251417
 20
200.023401416626
  0
SEQEND
  8
1
  6
CONTINUOUS
 62
     7
  0
LINE
  8
1
  6
CONTINUOUS
 62
     7
 10
-60.27166672816786
 20
200.5111220728507
 11
-60.27166672816786
 21
209.4888779271494
  0
POLYLINE
  8
1
  6
CONTINUOUS
 62
     7
 66
     1
  0
VERTEX
  8
1
  6
CONTINUOUS
 62
     7
 10
-60.73405283251417
 20
209.9765985833741
  0
VERTEX
  8
1
  6
CONTINUOUS
 62
     7
 10
-60.69362047759036
 20
209.9765288617891
  0
VERTEX
  8
1
  6
CONTINUOUS
 62
     7
 10
-60.65395355721516
 20
209.9740483701122
  0
VERTEX
  8
1
  6
CONTINUOUS
 62
     7
 10
-60.61521437245072
 20
209.9689522087958
  0
VERTEX
  8
1
  6
CONTINUOUS
 62
     7
 10
-60.58598119511343
 20
209.9630810178893
  0
VERTEX
  8
1
  6
CONTINUOUS
 62
     7
 10
-60.55738911247436
 20
209.9553975461856
  0
VERTEX
  8
1
  6
CONTINUOUS
 62
     7
 10
-60.5295503895418
 20
209.9458022694901
  0
VERTEX
  8
1
  6
CONTINUOUS
 62
     7
 10
-60.50257729132407
 20
209.9341956636084
  0
VERTEX
  8
1
  6
CONTINUOUS
 62
     7
 10
-60.48194095013044
 20
209.9235218154173
  0
VERTEX
  8
1
  6
CONTINUOUS
 62
     7
 10
-60.46187199469409
 20
209.9114254576485
  0
VERTEX
  8
1
  6
CONTINUOUS
 62
     7
 10
-60.44245129616647
 20
209.8978879129914
  0
VERTEX
  8
1
  6
CONTINUOUS
 62
     7
 10
-60.42375972569901
 20
209.8828905041358
  0
VERTEX
  8
1
  6
CONTINUOUS
 62
     7
 10
-60.40587815444317
 20
209.866414553771
  0
VERTEX
  8
1
  6
CONTINUOUS
 62
     7
 10
-60.38888745355038
 20
209.8484413845867
  0
VERTEX
  8
1
  6
CONTINUOUS
 62
     7
 10
-60.37542548159819
 20
209.8322764152616
  0
VERTEX
  8
1
  6
CONTINUOUS
 62
     7
 10
-60.36261827066208
 20
209.8150287553513
  0
VERTEX
  8
1
  6
CONTINUOUS
 62
     7
 10
-60.3505199674217
 20
209.796728700488
  0
VERTEX
  8
1
  6
CONTINUOUS
 62
     7
 10
-60.34170292451778
 20
209.781910753377
  0
VERTEX
  8
1
  6
CONTINUOUS
 62
     7
 10
-60.33333229831882
 20
209.7664658308166
  0
VERTEX
  8
1
  6
CONTINUOUS
 62
     7
 10
-60.32543211966898
 20
209.7504257502862
  0
VERTEX
  8
1
  6
CONTINUOUS
 62
     7
 10
-60.3180264194124
 20
209.7338223292655
  0
VERTEX
  8
1
  6
CONTINUOUS
 62
     7
 10
-60.31129136774765
 20
209.717093709534
  0
VERTEX
  8
1
  6
CONTINUOUS
 62
     7
 10
-60.30504069333924
 20
209.699841933138
  0
VERTEX
  8
1
  6
CONTINUOUS
 62
     7
 10
-60.29929317281444
 20
209.6821152674833
  0
VERTEX
  8
1
  6
CONTINUOUS
 62
     7
 10
-60.29406758280047
 20
209.663961979976
  0
VERTEX
  8
1
  6
CONTINUOUS
 62
     7
 10
-60.28920351142818
 20
209.6446803774523
  0
VERTEX
  8
1
  6
CONTINUOUS
 62
     7
 10
-60.28491248763471
 20
209.6249733736988
  0
VERTEX
  8
1
  6
CONTINUOUS
 62
     7
 10
-60.28120848212979
 20
209.604913576176
  0
VERTEX
  8
1
  6
CONTINUOUS
 62
     7
 10
-60.27810546562311
 20
209.5845735923451
  0
VERTEX
  8
1
  6
CONTINUOUS
 62
     7
 10
-60.27579588620318
 20
209.5657151864876
  0
VERTEX
  8
1
  6
CONTINUOUS
 62
     7
 10
-60.27399408547372
 20
209.5466519480139
  0
VERTEX
  8
1
  6
CONTINUOUS
 62
     7
 10
-60.27270320070868
 20
209.5274483459495
  0
VERTEX
  8
1
  6
CONTINUOUS
 62
     7
 10
-60.27192636918205
 20
209.5081688493195
  0
VERTEX
  8
1
  6
CONTINUOUS
 62
     7
 10
-60.27166672816786
 20
209.4888779271494
  0
SEQEND
  8
1
  6
CONTINUOUS
 62
     7
  0
POLYLINE
  8
1
  6
CONTINUOUS
 62
     7
 66
     1
  0
VERTEX
  8
1
  6
CONTINUOUS
 62
     7
 10
-60.27166672816786
 20
223.5111220728507
  0
VERTEX
  8
1
  6
CONTINUOUS
 62
     7
 10
-60.27187766016501
 20
223.4936908206335
  0
VERTEX
  8
1
  6
CONTINUOUS
 62
     7
 10
-60.27250949697766
 20
223.4762757125848
  0
VERTEX
  8
1
  6
CONTINUOUS
 62
     7
 10
-60.27356079983758
 20
223.4589246919741
  0
VERTEX
  8
1
  6
CONTINUOUS
 62
     7
 10
-60.27503012997656
 20
223.4416857020711
  0
VERTEX
  8
1
  6
CONTINUOUS
 62
     7
 10
-60.27698331431559
 20
223.4240494852284
  0
VERTEX
  8
1
  6
CONTINUOUS
 62
     7
 10
-60.27937932543023
 20
223.406565656864
  0
VERTEX
  8
1
  6
CONTINUOUS
 62
     7
 10
-60.28221162245843
 20
223.3892827584083
  0
VERTEX
  8
1
  6
CONTINUOUS
 62
     7
 10
-60.28547366453815
 20
223.3722493312915
  0
VERTEX
  8
1
  6
CONTINUOUS
 62
     7
 10
-60.2890466293422
 20
223.355984198538
  0
VERTEX
  8
1
  6
CONTINUOUS
 62
     7
 10
-60.29301915796039
 20
223.3399787274765
  0
VERTEX
  8
1
  6
CONTINUOUS
 62
     7
 10
-60.29738132379566
 20
223.3242696190039
  0
VERTEX
  8
1
  6
CONTINUOUS
 62
     7
 10
-60.30212320025087
 20
223.308893574017
  0
VERTEX
  8
1
  6
CONTINUOUS
 62
     7
 10
-60.30738671397815
 20
223.2934570936804
  0
VERTEX
  8
1
  6
CONTINUOUS
 62
     7
 10
-60.3130430332177
 20
223.2783884272284
  0
VERTEX
  8
1
  6
CONTINUOUS
 62
     7
 10
-60.31907829279857
 20
223.2637166771186
  0
VERTEX
  8
1
  6
CONTINUOUS
 62
     7
 10
-60.32547862754982
 20
223.2494709458083
  0
VERTEX
  8
1
  6
CONTINUOUS
 62
     7
 10
-60.3347790777819
 20
223.2307689363427
  0
VERTEX
  8
1
  6
CONTINUOUS
 62
     7
 10
-60.34474771440577
 20
223.2128554915247
  0
VERTEX
  8
1
  6
CONTINUOUS
 62
     7
 10
-60.35534473203224
 20
223.195762919307
  0
VERTEX
  8
1
  6
CONTINUOUS
 62
     7
 10
-60.3665303252722
 20
223.1795235276423
  0
VERTEX
  8
1
  6
CONTINUOUS
 62
     7
 10
-60.37826468873646
 20
223.1641696244833
  0
VERTEX
  8
1
  6
CONTINUOUS
 62
     7
 10
-60.39050801703589
 20
223.149733517783
  0
VERTEX
  8
1
  6
CONTINUOUS
 62
     7
 10
-60.40400324404413
 20
223.1354377178534
  0
VERTEX
  8
1
  6
CONTINUOUS
 62
     7
 10
-60.41804743061913
 20
223.1220969929581
  0
VERTEX
  8
1
  6
CONTINUOUS
 62
     7
 10
-60.43259730257689
 20
223.1097096744719
  0
VERTEX
  8
1
  6
CONTINUOUS
 62
     7
 10
-60.44760958573335
 20
223.0982740937695
  0
VERTEX
  8
1
  6
CONTINUOUS
 62
     7
 10
-60.468923955557
 20
223.0840883800605
  0
VERTEX
  8
1
  6
CONTINUOUS
 62
     7
 10
-60.49102712836731
 20
223.0715671045917
  0
VERTEX
  8
1
  6
CONTINUOUS
 62
     7
 10
-60.51382605571425
 20
223.0606630969179
  0
VERTEX
  8
1
  6
CONTINUOUS
 62
     7
 10
-60.53891829370448
 20
223.0507143750313
  0
VERTEX
  8
1
  6
CONTINUOUS
 62
     7
 10
-60.56471465522019
 20
223.0424347340184
  0
VERTEX
  8
1
  6
CONTINUOUS
 62
     7
 10
-60.59113023759387
 20
223.0357462318086
  0
VERTEX
  8
1
  6
CONTINUOUS
 62
     7
 10
-60.61808013815795
 20
223.0305709263313
  0
VERTEX
  8
1
  6
CONTINUOUS
 62
     7
 10
-60.65591198256742
 20
223.0257676133655
  0
VERTEX
  8
1
  6
CONTINUOUS
 62
     7
 10
-60.69461944143017
 20
223.0234409702177
  0
VERTEX
  8
1
  6
CONTINUOUS
 62
     7
 10
-60.73405283251417
 20
223.023401416626
  0
SEQEND
  8
1
  6
CONTINUOUS
 62
     7
  0
LINE
  8
1
  6
CONTINUOUS
 62
     7
 10
-60.27166672816786
 20
223.5111220728507
 11
-60.27166672816786
 21
232.4888779271494
  0
POLYLINE
  8
1
  6
CONTINUOUS
 62
     7
 66
     1
  0
VERTEX
  8
1
  6
CONTINUOUS
 62
     7
 10
-60.73405283251417
 20
232.9765985833741
  0
VERTEX
  8
1
  6
CONTINUOUS
 62
     7
 10
-60.69362047759036
 20
232.9765288617891
  0
VERTEX
  8
1
  6
CONTINUOUS
 62
     7
 10
-60.65395355721516
 20
232.9740483701122
  0
VERTEX
  8
1
  6
CONTINUOUS
 62
     7
 10
-60.61521437245072
 20
232.9689522087958
  0
VERTEX
  8
1
  6
CONTINUOUS
 62
     7
 10
-60.58598119511343
 20
232.9630810178893
  0
VERTEX
  8
1
  6
CONTINUOUS
 62
     7
 10
-60.55738911247436
 20
232.9553975461855
  0
VERTEX
  8
1
  6
CONTINUOUS
 62
     7
 10
-60.5295503895418
 20
232.9458022694901
  0
VERTEX
  8
1
  6
CONTINUOUS
 62
     7
 10
-60.50257729132407
 20
232.9341956636084
  0
VERTEX
  8
1
  6
CONTINUOUS
 62
     7
 10
-60.48194095013044
 20
232.9235218154173
  0
VERTEX
  8
1
  6
CONTINUOUS
 62
     7
 10
-60.46187199469409
 20
232.9114254576485
  0
VERTEX
  8
1
  6
CONTINUOUS
 62
     7
 10
-60.44245129616647
 20
232.8978879129914
  0
VERTEX
  8
1
  6
CONTINUOUS
 62
     7
 10
-60.42375972569901
 20
232.8828905041358
  0
VERTEX
  8
1
  6
CONTINUOUS
 62
     7
 10
-60.40587815444317
 20
232.866414553771
  0
VERTEX
  8
1
  6
CONTINUOUS
 62
     7
 10
-60.38888745355038
 20
232.8484413845867
  0
VERTEX
  8
1
  6
CONTINUOUS
 62
     7
 10
-60.37542548159819
 20
232.8322764152616
  0
VERTEX
  8
1
  6
CONTINUOUS
 62
     7
 10
-60.36261827066208
 20
232.8150287553514
  0
VERTEX
  8
1
  6
CONTINUOUS
 62
     7
 10
-60.3505199674217
 20
232.796728700488
  0
VERTEX
  8
1
  6
CONTINUOUS
 62
     7
 10
-60.34170292451778
 20
232.781910753377
  0
VERTEX
  8
1
  6
CONTINUOUS
 62
     7
 10
-60.33333229831882
 20
232.7664658308166
  0
VERTEX
  8
1
  6
CONTINUOUS
 62
     7
 10
-60.32543211966898
 20
232.7504257502863
  0
VERTEX
  8
1
  6
CONTINUOUS
 62
     7
 10
-60.3180264194124
 20
232.7338223292655
  0
VERTEX
  8
1
  6
CONTINUOUS
 62
     7
 10
-60.31129136774765
 20
232.717093709534
  0
VERTEX
  8
1
  6
CONTINUOUS
 62
     7
 10
-60.30504069333924
 20
232.699841933138
  0
VERTEX
  8
1
  6
CONTINUOUS
 62
     7
 10
-60.29929317281444
 20
232.6821152674833
  0
VERTEX
  8
1
  6
CONTINUOUS
 62
     7
 10
-60.29406758280047
 20
232.663961979976
  0
VERTEX
  8
1
  6
CONTINUOUS
 62
     7
 10
-60.28920351142818
 20
232.6446803774523
  0
VERTEX
  8
1
  6
CONTINUOUS
 62
     7
 10
-60.28491248763471
 20
232.6249733736987
  0
VERTEX
  8
1
  6
CONTINUOUS
 62
     7
 10
-60.28120848212979
 20
232.6049135761761
  0
VERTEX
  8
1
  6
CONTINUOUS
 62
     7
 10
-60.27810546562311
 20
232.5845735923451
  0
VERTEX
  8
1
  6
CONTINUOUS
 62
     7
 10
-60.27579588620318
 20
232.5657151864876
  0
VERTEX
  8
1
  6
CONTINUOUS
 62
     7
 10
-60.27399408547372
 20
232.5466519480139
  0
VERTEX
  8
1
  6
CONTINUOUS
 62
     7
 10
-60.27270320070868
 20
232.5274483459495
  0
VERTEX
  8
1
  6
CONTINUOUS
 62
     7
 10
-60.27192636918205
 20
232.5081688493195
  0
VERTEX
  8
1
  6
CONTINUOUS
 62
     7
 10
-60.27166672816786
 20
232.4888779271494
  0
SEQEND
  8
1
  6
CONTINUOUS
 62
     7
  0
LINE
  8
1
  6
CONTINUOUS
 62
     7
 10
-59.84038878620115
 20
238.3575879403278
 11
-59.84038878620115
 21
171.6424120596723
  0
POLYLINE
  8
1
  6
CONTINUOUS
 62
     7
 66
     1
  0
VERTEX
  8
1
  6
CONTINUOUS
 62
     7
 10
-60.27166672816786
 20
177.5111220728507
  0
VERTEX
  8
1
  6
CONTINUOUS
 62
     7
 10
-60.27187766016501
 20
177.4936908206335
  0
VERTEX
  8
1
  6
CONTINUOUS
 62
     7
 10
-60.27250949697766
 20
177.4762757125848
  0
VERTEX
  8
1
  6
CONTINUOUS
 62
     7
 10
-60.27356079983758
 20
177.4589246919741
  0
VERTEX
  8
1
  6
CONTINUOUS
 62
     7
 10
-60.27503012997656
 20
177.4416857020711
  0
VERTEX
  8
1
  6
CONTINUOUS
 62
     7
 10
-60.27698331431559
 20
177.4240494852285
  0
VERTEX
  8
1
  6
CONTINUOUS
 62
     7
 10
-60.27937932543023
 20
177.406565656864
  0
VERTEX
  8
1
  6
CONTINUOUS
 62
     7
 10
-60.28221162245843
 20
177.3892827584082
  0
VERTEX
  8
1
  6
CONTINUOUS
 62
     7
 10
-60.28547366453815
 20
177.3722493312915
  0
VERTEX
  8
1
  6
CONTINUOUS
 62
     7
 10
-60.2890466293422
 20
177.355984198538
  0
VERTEX
  8
1
  6
CONTINUOUS
 62
     7
 10
-60.29301915796039
 20
177.3399787274765
  0
VERTEX
  8
1
  6
CONTINUOUS
 62
     7
 10
-60.29738132379566
 20
177.3242696190039
  0
VERTEX
  8
1
  6
CONTINUOUS
 62
     7
 10
-60.30212320025087
 20
177.308893574017
  0
VERTEX
  8
1
  6
CONTINUOUS
 62
     7
 10
-60.30738671397815
 20
177.2934570936804
  0
VERTEX
  8
1
  6
CONTINUOUS
 62
     7
 10
-60.3130430332177
 20
177.2783884272284
  0
VERTEX
  8
1
  6
CONTINUOUS
 62
     7
 10
-60.31907829279857
 20
177.2637166771186
  0
VERTEX
  8
1
  6
CONTINUOUS
 62
     7
 10
-60.32547862754982
 20
177.2494709458083
  0
VERTEX
  8
1
  6
CONTINUOUS
 62
     7
 10
-60.3347790777819
 20
177.2307689363428
  0
VERTEX
  8
1
  6
CONTINUOUS
 62
     7
 10
-60.34474771440577
 20
177.2128554915247
  0
VERTEX
  8
1
  6
CONTINUOUS
 62
     7
 10
-60.35534473203224
 20
177.195762919307
  0
VERTEX
  8
1
  6
CONTINUOUS
 62
     7
 10
-60.3665303252722
 20
177.1795235276422
  0
VERTEX
  8
1
  6
CONTINUOUS
 62
     7
 10
-60.37826468873646
 20
177.1641696244833
  0
VERTEX
  8
1
  6
CONTINUOUS
 62
     7
 10
-60.39050801703589
 20
177.149733517783
  0
VERTEX
  8
1
  6
CONTINUOUS
 62
     7
 10
-60.40400324404413
 20
177.1354377178534
  0
VERTEX
  8
1
  6
CONTINUOUS
 62
     7
 10
-60.41804743061913
 20
177.1220969929581
  0
VERTEX
  8
1
  6
CONTINUOUS
 62
     7
 10
-60.43259730257689
 20
177.1097096744719
  0
VERTEX
  8
1
  6
CONTINUOUS
 62
     7
 10
-60.44760958573335
 20
177.0982740937695
  0
VERTEX
  8
1
  6
CONTINUOUS
 62
     7
 10
-60.468923955557
 20
177.0840883800605
  0
VERTEX
  8
1
  6
CONTINUOUS
 62
     7
 10
-60.49102712836731
 20
177.0715671045917
  0
VERTEX
  8
1
  6
CONTINUOUS
 62
     7
 10
-60.51382605571425
 20
177.0606630969179
  0
VERTEX
  8
1
  6
CONTINUOUS
 62
     7
 10
-60.53891829370448
 20
177.0507143750313
  0
VERTEX
  8
1
  6
CONTINUOUS
 62
     7
 10
-60.56471465522019
 20
177.0424347340184
  0
VERTEX
  8
1
  6
CONTINUOUS
 62
     7
 10
-60.59113023759387
 20
177.0357462318086
  0
VERTEX
  8
1
  6
CONTINUOUS
 62
     7
 10
-60.61808013815795
 20
177.0305709263313
  0
VERTEX
  8
1
  6
CONTINUOUS
 62
     7
 10
-60.65591198256742
 20
177.0257676133655
  0
VERTEX
  8
1
  6
CONTINUOUS
 62
     7
 10
-60.69461944143017
 20
177.0234409702176
  0
VERTEX
  8
1
  6
CONTINUOUS
 62
     7
 10
-60.73405283251417
 20
177.023401416626
  0
SEQEND
  8
1
  6
CONTINUOUS
 62
     7
  0
LINE
  8
1
  6
CONTINUOUS
 62
     7
 10
-60.27166672816786
 20
177.5111220728507
 11
-60.27166672816786
 21
186.4888779271494
  0
POLYLINE
  8
1
  6
CONTINUOUS
 62
     7
 66
     1
  0
VERTEX
  8
1
  6
CONTINUOUS
 62
     7
 10
-60.73405283251417
 20
186.9765985833741
  0
VERTEX
  8
1
  6
CONTINUOUS
 62
     7
 10
-60.69362047759036
 20
186.9765288617891
  0
VERTEX
  8
1
  6
CONTINUOUS
 62
     7
 10
-60.65395355721516
 20
186.9740483701122
  0
VERTEX
  8
1
  6
CONTINUOUS
 62
     7
 10
-60.61521437245072
 20
186.9689522087958
  0
VERTEX
  8
1
  6
CONTINUOUS
 62
     7
 10
-60.58598119511343
 20
186.9630810178893
  0
VERTEX
  8
1
  6
CONTINUOUS
 62
     7
 10
-60.55738911247436
 20
186.9553975461856
  0
VERTEX
  8
1
  6
CONTINUOUS
 62
     7
 10
-60.5295503895418
 20
186.9458022694901
  0
VERTEX
  8
1
  6
CONTINUOUS
 62
     7
 10
-60.50257729132407
 20
186.9341956636084
  0
VERTEX
  8
1
  6
CONTINUOUS
 62
     7
 10
-60.48194095013044
 20
186.9235218154173
  0
VERTEX
  8
1
  6
CONTINUOUS
 62
     7
 10
-60.46187199469409
 20
186.9114254576485
  0
VERTEX
  8
1
  6
CONTINUOUS
 62
     7
 10
-60.44245129616647
 20
186.8978879129915
  0
VERTEX
  8
1
  6
CONTINUOUS
 62
     7
 10
-60.42375972569901
 20
186.8828905041358
  0
VERTEX
  8
1
  6
CONTINUOUS
 62
     7
 10
-60.40587815444317
 20
186.866414553771
  0
VERTEX
  8
1
  6
CONTINUOUS
 62
     7
 10
-60.38888745355038
 20
186.8484413845867
  0
VERTEX
  8
1
  6
CONTINUOUS
 62
     7
 10
-60.37542548159819
 20
186.8322764152616
  0
VERTEX
  8
1
  6
CONTINUOUS
 62
     7
 10
-60.36261827066208
 20
186.8150287553514
  0
VERTEX
  8
1
  6
CONTINUOUS
 62
     7
 10
-60.3505199674217
 20
186.796728700488
  0
VERTEX
  8
1
  6
CONTINUOUS
 62
     7
 10
-60.34170292451778
 20
186.781910753377
  0
VERTEX
  8
1
  6
CONTINUOUS
 62
     7
 10
-60.33333229831882
 20
186.7664658308166
  0
VERTEX
  8
1
  6
CONTINUOUS
 62
     7
 10
-60.32543211966898
 20
186.7504257502862
  0
VERTEX
  8
1
  6
CONTINUOUS
 62
     7
 10
-60.3180264194124
 20
186.7338223292655
  0
VERTEX
  8
1
  6
CONTINUOUS
 62
     7
 10
-60.31129136774765
 20
186.717093709534
  0
VERTEX
  8
1
  6
CONTINUOUS
 62
     7
 10
-60.30504069333924
 20
186.699841933138
  0
VERTEX
  8
1
  6
CONTINUOUS
 62
     7
 10
-60.29929317281444
 20
186.6821152674833
  0
VERTEX
  8
1
  6
CONTINUOUS
 62
     7
 10
-60.29406758280047
 20
186.663961979976
  0
VERTEX
  8
1
  6
CONTINUOUS
 62
     7
 10
-60.28920351142818
 20
186.6446803774523
  0
VERTEX
  8
1
  6
CONTINUOUS
 62
     7
 10
-60.28491248763471
 20
186.6249733736988
  0
VERTEX
  8
1
  6
CONTINUOUS
 62
     7
 10
-60.28120848212979
 20
186.604913576176
  0
VERTEX
  8
1
  6
CONTINUOUS
 62
     7
 10
-60.27810546562311
 20
186.5845735923451
  0
VERTEX
  8
1
  6
CONTINUOUS
 62
     7
 10
-60.27579588620318
 20
186.5657151864876
  0
VERTEX
  8
1
  6
CONTINUOUS
 62
     7
 10
-60.27399408547372
 20
186.5466519480139
  0
VERTEX
  8
1
  6
CONTINUOUS
 62
     7
 10
-60.27270320070868
 20
186.5274483459495
  0
VERTEX
  8
1
  6
CONTINUOUS
 62
     7
 10
-60.27192636918205
 20
186.5081688493195
  0
VERTEX
  8
1
  6
CONTINUOUS
 62
     7
 10
-60.27166672816786
 20
186.4888779271494
  0
SEQEND
  8
1
  6
CONTINUOUS
 62
     7
  0
LINE
  8
1
  6
CONTINUOUS
 62
     7
 10
-60.73405283251417
 20
209.9765985833741
 11
-62.27494641543147
 21
209.9362488648653
  0
LINE
  8
1
  6
CONTINUOUS
 62
     7
 10
-60.73405283251417
 20
186.9765985833741
 11
-62.27494641543147
 21
186.9362488648654
  0
LINE
  8
1
  6
CONTINUOUS
 62
     7
 10
-60.73405283251417
 20
232.9765985833741
 11
-62.27494641543147
 21
232.9362488648653
  0
LINE
  8
1
  6
CONTINUOUS
 62
     7
 10
-62.27494641543147
 20
223.0637511351347
 11
-60.73405283251417
 21
223.023401416626
  0
LINE
  8
1
  6
CONTINUOUS
 62
     7
 10
-62.27494641543147
 20
177.0637511351347
 11
-60.73405283251417
 21
177.023401416626
  0
LINE
  8
1
  6
CONTINUOUS
 62
     7
 10
-62.27494641543147
 20
200.0637511351347
 11
-60.73405283251417
 21
200.023401416626
  0
LINE
  8
1
  6
CONTINUOUS
 62
     7
 10
-57.84038878620115
 20
176.75
 11
-57.84038878620115
 21
172.75
  0
ARC
  8
1
  6
CONTINUOUS
 62
     7
 10
-58.84038878620115
 20
172.75
 40
1.000000000000001
 50
270.0
 51
0.0
  0
LINE
  8
1
  6
CONTINUOUS
 62
     7
 10
-59.84038878620115
 20
171.75
 11
-58.84038878620115
 21
171.75
  0
LINE
  8
1
  6
CONTINUOUS
 62
     7
 10
-57.84038878620115
 20
233.25
 11
-57.84038878620115
 21
176.75
  0
ARC
  8
1
  6
CONTINUOUS
 62
     7
 10
-58.84038878620115
 20
237.25
 40
1.000000000000001
 50
0.0
 51
90.0
  0
LINE
  8
1
  6
CONTINUOUS
 62
     7
 10
-57.84038878620115
 20
237.25
 11
-57.84038878620115
 21
233.25
  0
LINE
  8
1
  6
CONTINUOUS
 62
     7
 10
-59.84038878620115
 20
238.25
 11
-58.84038878620115
 21
238.25
  0
ENDBLK
  8
0
  0
BLOCK
  8
0
  2
D_FRAME_VIEW_2664
 70
     0
 10
0.0
 20
0.0
  0
LINE
  8
1
  6
CONTINUOUS
 62
     7
 10
-294.1096904749483
 20
89.34038878620112
 11
-295.6091764624117
 21
89.34038878620112
  0
ARC
  8
1
  6
CONTINUOUS
 62
     7
 10
-295.6091764624117
 20
90.34038878620112
 40
1.000000000000001
 50
181.5
 51
270.0
  0
LINE
  8
1
  6
CONTINUOUS
 62
     7
 10
-157.5569761917184
 20
89.34038878620112
 11
-294.1096904749483
 21
89.34038878620112
  0
LINE
  8
1
  6
CONTINUOUS
 62
     7
 10
-156.057490204255
 20
89.34038878620112
 11
-157.5569761917184
 21
89.34038878620112
  0
ARC
  8
1
  6
CONTINUOUS
 62
     7
 10
-156.057490204255
 20
90.34038878620112
 40
1.000000000000001
 50
270.0000000000007
 51
358.5
  0
LINE
  8
1
  6
CONTINUOUS
 62
     7
 10
-191.5176629855906
 20
69.37965420866293
 11
-191.397084468468
 21
64.77494641543146
  0
ARC
  8
1
  6
CONTINUOUS
 62
     7
 10
-193.017148973054
 20
69.34038878620112
 40
1.500000000000001
 50
1.500000000000114
 51
90.0
  0
LINE
  8
1
  6
CONTINUOUS
 62
     7
 10
-193.6495176936128
 20
70.84038878620112
 11
-193.017148973054
 21
70.84038878620112
  0
ARC
  8
1
  6
CONTINUOUS
 62
     7
 10
-193.6495176936128
 20
69.34038878620112
 40
1.500000000000001
 50
90.0
 51
178.4999999999999
  0
LINE
  8
1
  6
CONTINUOUS
 62
     7
 10
-195.2695821981987
 20
64.77494641543146
 11
-195.1490036810761
 21
69.37965420866293
  0
LINE
  8
1
  6
CONTINUOUS
 62
     7
 10
-210.5176629855906
 20
69.37965420866293
 11
-210.3970844684681
 21
64.77494641543146
  0
ARC
  8
1
  6
CONTINUOUS
 62
     7
 10
-212.017148973054
 20
69.34038878620112
 40
1.500000000000001
 50
1.500000000000114
 51
90.0
  0
LINE
  8
1
  6
CONTINUOUS
 62
     7
 10
-212.6495176936127
 20
70.84038878620112
 11
-212.017148973054
 21
70.84038878620112
  0
ARC
  8
1
  6
CONTINUOUS
 62
     7
 10
-212.6495176936128
 20
69.34038878620112
 40
1.500000000000001
 50
89.99999999999892
 51
178.4999999999999
  0
LINE
  8
1
  6
CONTINUOUS
 62
     7
 10
-214.2695821981987
 20
64.77494641543146
 11
-214.1490036810761
 21
69.37965420866293
  0
LINE
  8
1
  6
CONTINUOUS
 62
     7
 10
-220.9666620774829
 20
67.43200810527868
 11
-220.8970844684681
 21
64.77494641543146
  0
ARC
  8
1
  6
CONTINUOUS
 62
     7
 10
-224.4654627148973
 20
67.34038878620113
 40
3.500000000000003
 50
1.5
 51
90.0
  0
LINE
  8
1
  6
CONTINUOUS
 62
     7
 10
-227.2012039517694
 20
70.84038878620112
 11
-224.4654627148973
 21
70.84038878620112
  0
ARC
  8
1
  6
CONTINUOUS
 62
     7
 10
-227.2012039517694
 20
67.34038878620113
 40
3.500000000000003
 50
90.00000000000045
 51
178.5
  0
LINE
  8
1
  6
CONTINUOUS
 62
     7
 10
-230.7695821981986
 20
64.77494641543146
 11
-230.7000045891838
 21
67.43200810527868
  0
LINE
  8
1
  6
CONTINUOUS
 62
     7
 10
-237.5176629855906
 20
69.37965420866293
 11
-237.3970844684681
 21
64.77494641543146
  0
ARC
  8
1
  6
CONTINUOUS
 62
     7
 10
-239.017148973054
 20
69.34038878620112
 40
1.500000000000001
 50
1.500000000000114
 51
90.0
  0
LINE
  8
1
  6
CONTINUOUS
 62
     7
 10
-239.6495176936128
 20
70.84038878620112
 11
-239.017148973054
 21
70.84038878620112
  0
ARC
  8
1
  6
CONTINUOUS
 62
     7
 10
-239.6495176936128
 20
69.34038878620112
 40
1.500000000000001
 50
90.0
 51
178.4999999999999
  0
LINE
  8
1
  6
CONTINUOUS
 62
     7
 10
-241.2695821981987
 20
64.77494641543146
 11
-241.1490036810761
 21
69.37965420866293
  0
LINE
  8
1
  6
CONTINUOUS
 62
     7
 10
-256.5176629855906
 20
69.37965420866294
 11
-256.3970844684681
 21
64.77494641543146
  0
ARC
  8
1
  6
CONTINUOUS
 62
     7
 10
-258.017148973054
 20
69.34038878620112
 40
1.500000000000001
 50
1.500000000000682
 51
90.0
  0
LINE
  8
1
  6
CONTINUOUS
 62
     7
 10
-258.6495176936128
 20
70.84038878620112
 11
-258.017148973054
 21
70.84038878620112
  0
ARC
  8
1
  6
CONTINUOUS
 62
     7
 10
-258.6495176936128
 20
69.34038878620112
 40
1.500000000000001
 50
90.0
 51
178.4999999999999
  0
LINE
  8
1
  6
CONTINUOUS
 62
     7
 10
-260.2695821981987
 20
64.77494641543146
 11
-260.1490036810761
 21
69.37965420866293
  0
LINE
  8
1
  6
CONTINUOUS
 62
     7
 10
-266.9666620774829
 20
67.43200810527868
 11
-266.8970844684681
 21
64.77494641543146
  0
ARC
  8
1
  6
CONTINUOUS
 62
     7
 10
-270.4654627148973
 20
67.34038878620113
 40
3.500000000000003
 50
1.499999999999773
 51
90.0
  0
LINE
  8
1
  6
CONTINUOUS
 62
     7
 10
-273.2012039517694
 20
70.84038878620112
 11
-270.4654627148973
 21
70.84038878620112
  0
ARC
  8
1
  6
CONTINUOUS
 62
     7
 10
-273.2012039517694
 20
67.34038878620113
 40
3.500000000000003
 50
90.0
 51
178.5
  0
LINE
  8
1
  6
CONTINUOUS
 62
     7
 10
-276.7695821981987
 20
64.77494641543146
 11
-276.7000045891838
 21
67.43200810527868
  0
LINE
  8
1
  6
CONTINUOUS
 62
     7
 10
-283.5176629855906
 20
69.37965420866293
 11
-283.3970844684681
 21
64.77494641543146
  0
ARC
  8
1
  6
CONTINUOUS
 62
     7
 10
-285.017148973054
 20
69.34038878620112
 40
1.500000000000001
 50
1.500000000000057
 51
90.0
  0
LINE
  8
1
  6
CONTINUOUS
 62
     7
 10
-285.6495176936127
 20
70.84038878620112
 11
-285.017148973054
 21
70.84038878620112
  0
ARC
  8
1
  6
CONTINUOUS
 62
     7
 10
-285.6495176936127
 20
69.34038878620112
 40
1.500000000000001
 50
90.0
 51
178.4999999999999
  0
LINE
  8
1
  6
CONTINUOUS
 62
     7
 10
-287.2695821981986
 20
64.77494641543146
 11
-287.1490036810761
 21
69.37965420866293
  0
LINE
  8
1
  6
CONTINUOUS
 62
     7
 10
-164.5176629855906
 20
69.37965420866293
 11
-164.3970844684681
 21
64.77494641543146
  0
ARC
  8
1
  6
CONTINUOUS
 62
     7
 10
-166.017148973054
 20
69.34038878620112
 40
1.500000000000001
 50
1.500000000000057
 51
90.0
  0
LINE
  8
1
  6
CONTINUOUS
 62
     7
 10
-166.6495176936128
 20
70.84038878620112
 11
-166.017148973054
 21
70.84038878620112
  0
ARC
  8
1
  6
CONTINUOUS
 62
     7
 10
-166.6495176936128
 20
69.34038878620112
 40
1.500000000000001
 50
90.0
 51
178.4999999999999
  0
LINE
  8
1
  6
CONTINUOUS
 62
     7
 10
-168.2695821981987
 20
64.77494641543146
 11
-168.1490036810761
 21
69.37965420866293
  0
LINE
  8
1
  6
CONTINUOUS
 62
     7
 10
-174.9666620774829
 20
67.43200810527868
 11
-174.8970844684681
 21
64.77494641543146
  0
ARC
  8
1
  6
CONTINUOUS
 62
     7
 10
-178.4654627148973
 20
67.34038878620113
 40
3.500000000000003
 50
1.5
 51
90.0
  0
LINE
  8
1
  6
CONTINUOUS
 62
     7
 10
-181.2012039517694
 20
70.84038878620112
 11
-178.4654627148973
 21
70.84038878620112
  0
ARC
  8
1
  6
CONTINUOUS
 62
     7
 10
-181.2012039517694
 20
67.34038878620113
 40
3.500000000000003
 50
90.0
 51
178.5000000000003
  0
LINE
  8
1
  6
CONTINUOUS
 62
     7
 10
-184.7695821981987
 20
64.77494641543146
 11
-184.7000045891838
 21
67.43200810527867
  0
LINE
  8
1
  6
CONTINUOUS
 62
     7
 10
-155.0578328792795
 20
90.31421183789325
 11
-155.0833333333333
 21
89.34038878620112
  0
LINE
  8
1
  6
CONTINUOUS
 62
     7
 10
-155.0833333333333
 20
89.34038878620112
 11
-155.7266020805667
 21
64.77494641543144
  0
LINE
  8
1
  6
CONTINUOUS
 62
     7
 10
-295.9400645861
 20
64.77494641543144
 11
-296.5833333333334
 21
89.34038878620112
  0
LINE
  8
1
  6
CONTINUOUS
 62
     7
 10
-296.5833333333334
 20
89.34038878620112
 11
-296.6088337873872
 21
90.31421183789325
  0
ARC
  8
1
  6
CONTINUOUS
 62
     7
 10
-158.2257453930056
 20
64.84038878620113
 40
2.500000000000002
 50
270.0
 51
358.5
  0
ARC
  8
1
  6
CONTINUOUS
 62
     7
 10
-293.4409212736611
 20
64.84038878620113
 40
2.500000000000002
 50
181.5
 51
270.0
  0
POLYLINE
  8
1
  6
CONTINUOUS
 62
     7
 66
     1
  0
VERTEX
  8
1
  6
CONTINUOUS
 62
     7
 10
-184.3170155699918
 20
62.97008214299913
  0
VERTEX
  8
1
  6
CONTINUOUS
 62
     7
 10
-184.3331685740562
 20
62.97032049839396
  0
VERTEX
  8
1
  6
CONTINUOUS
 62
     7
 10
-184.3493056516479
 20
62.97103384145839
  0
VERTEX
  8
1
  6
CONTINUOUS
 62
     7
 10
-184.3653797761073
 20
62.97221958751242
  0
VERTEX
  8
1
  6
CONTINUOUS
 62
     7
 10
-184.3813439207752
 20
62.97387515187602
  0
VERTEX
  8
1
  6
CONTINUOUS
 62
     7
 10
-184.3976962288098
 20
62.97607755067263
  0
VERTEX
  8
1
  6
CONTINUOUS
 62
     7
 10
-184.413899183245
 20
62.97877528204257
  0
VERTEX
  8
1
  6
CONTINUOUS
 62
     7
 10
-184.4299065941412
 20
62.98195778179863
  0
VERTEX
  8
1
  6
CONTINUOUS
 62
     7
 10
-184.4456722715587
 20
62.98561448575359
  0
VERTEX
  8
1
  6
CONTINUOUS
 62
     7
 10
-184.4606878803345
 20
62.98960120881705
  0
VERTEX
  8
1
  6
CONTINUOUS
 62
     7
 10
-184.4754557024272
 20
62.99402027554614
  0
VERTEX
  8
1
  6
CONTINUOUS
 62
     7
 10
-184.4899434758872
 20
62.99885702713038
  0
VERTEX
  8
1
  6
CONTINUOUS
 62
     7
 10
-184.5041189387648
 20
63.00409680475935
  0
VERTEX
  8
1
  6
CONTINUOUS
 62
     7
 10
-184.5230066682541
 20
63.01191147391463
  0
VERTEX
  8
1
  6
CONTINUOUS
 62
     7
 10
-184.5412772988766
 20
63.02044091839426
  0
VERTEX
  8
1
  6
CONTINUOUS
 62
     7
 10
-184.5588766207424
 20
63.02964118755347
  0
VERTEX
  8
1
  6
CONTINUOUS
 62
     7
 10
-184.5747099210365
 20
63.03882772541913
  0
VERTEX
  8
1
  6
CONTINUOUS
 62
     7
 10
-184.5899474443688
 20
63.04855938293788
  0
VERTEX
  8
1
  6
CONTINUOUS
 62
     7
 10
-184.6045684596676
 20
63.05880013033069
  0
VERTEX
  8
1
  6
CONTINUOUS
 62
     7
 10
-184.6185522358612
 20
63.06951393781862
  0
VERTEX
  8
1
  6
CONTINUOUS
 62
     7
 10
-184.6367141182791
 20
63.08495006546581
  0
VERTEX
  8
1
  6
CONTINUOUS
 62
     7
 10
-184.6537229563814
 20
63.10119308064255
  0
VERTEX
  8
1
  6
CONTINUOUS
 62
     7
 10
-184.6695733613619
 20
63.11816106825847
  0
VERTEX
  8
1
  6
CONTINUOUS
 62
     7
 10
-184.6845043009531
 20
63.13607368353973
  0
VERTEX
  8
1
  6
CONTINUOUS
 62
     7
 10
-184.698323525713
 20
63.15464867780138
  0
VERTEX
  8
1
  6
CONTINUOUS
 62
     7
 10
-184.7110566664821
 20
63.17381940978048
  0
VERTEX
  8
1
  6
CONTINUOUS
 62
     7
 10
-184.7227293541007
 20
63.19351923821409
  0
VERTEX
  8
1
  6
CONTINUOUS
 62
     7
 10
-184.7370926373496
 20
63.22131920768913
  0
VERTEX
  8
1
  6
CONTINUOUS
 62
     7
 10
-184.7496867459969
 20
63.24998597306636
  0
VERTEX
  8
1
  6
CONTINUOUS
 62
     7
 10
-184.7606084715393
 20
63.27939958889381
  0
VERTEX
  8
1
  6
CONTINUOUS
 62
     7
 10
-184.7721095258727
 20
63.31720657973636
  0
VERTEX
  8
1
  6
CONTINUOUS
 62
     7
 10
-184.7813857397813
 20
63.35600647023799
  0
VERTEX
  8
1
  6
CONTINUOUS
 62
     7
 10
-184.7886193606628
 20
63.39565704721358
  0
VERTEX
  8
1
  6
CONTINUOUS
 62
     7
 10
-184.7939926359153
 20
63.43601609747792
  0
VERTEX
  8
1
  6
CONTINUOUS
 62
     7
 10
-184.7986723951159
 20
63.49245472312614
  0
VERTEX
  8
1
  6
CONTINUOUS
 62
     7
 10
-184.8005946221172
 20
63.55003137130989
  0
VERTEX
  8
1
  6
CONTINUOUS
 62
     7
 10
-184.8001253208174
 20
63.60855162050244
  0
SEQEND
  8
1
  6
CONTINUOUS
 62
     7
  0
LINE
  8
1
  6
CONTINUOUS
 62
     7
 10
-184.3170155699918
 20
62.97008214299913
 11
-175.3496510966749
 21
62.97008214299913
  0
POLYLINE
  8
1
  6
CONTINUOUS
 62
     7
 66
     1
  0
VERTEX
  8
1
  6
CONTINUOUS
 62
     7
 10
-174.8665413458493
 20
63.60855162050244
  0
VERTEX
  8
1
  6
CONTINUOUS
 62
     7
 10
-174.8660293635766
 20
63.5523419530052
  0
VERTEX
  8
1
  6
CONTINUOUS
 62
     7
 10
-174.8676981632505
 20
63.49685478116368
  0
VERTEX
  8
1
  6
CONTINUOUS
 62
     7
 10
-174.8719170106385
 20
63.44232804523175
  0
VERTEX
  8
1
  6
CONTINUOUS
 62
     7
 10
-174.8790551715082
 20
63.38899968546333
  0
VERTEX
  8
1
  6
CONTINUOUS
 62
     7
 10
-174.8894819116271
 20
63.33710764211226
  0
VERTEX
  8
1
  6
CONTINUOUS
 62
     7
 10
-174.9035664967628
 20
63.28688985543243
  0
VERTEX
  8
1
  6
CONTINUOUS
 62
     7
 10
-174.9129426767719
 20
63.26029163991742
  0
VERTEX
  8
1
  6
CONTINUOUS
 62
     7
 10
-174.9236591865615
 20
63.23422597093644
  0
VERTEX
  8
1
  6
CONTINUOUS
 62
     7
 10
-174.9357811678796
 20
63.20879128210162
  0
VERTEX
  8
1
  6
CONTINUOUS
 62
     7
 10
-174.9493737624746
 20
63.18408600702509
  0
VERTEX
  8
1
  6
CONTINUOUS
 62
     7
 10
-174.9645021120945
 20
63.16020857931898
  0
VERTEX
  8
1
  6
CONTINUOUS
 62
     7
 10
-174.9812313584877
 20
63.13725743259543
  0
VERTEX
  8
1
  6
CONTINUOUS
 62
     7
 10
-174.9960223241035
 20
63.11938174044557
  0
VERTEX
  8
1
  6
CONTINUOUS
 62
     7
 10
-175.0119662507301
 20
63.10218485613139
  0
VERTEX
  8
1
  6
CONTINUOUS
 62
     7
 10
-175.0290697852392
 20
63.08574571483327
  0
VERTEX
  8
1
  6
CONTINUOUS
 62
     7
 10
-175.0430385370444
 20
63.07364858297613
  0
VERTEX
  8
1
  6
CONTINUOUS
 62
     7
 10
-175.057730103025
 20
63.06204856822312
  0
VERTEX
  8
1
  6
CONTINUOUS
 62
     7
 10
-175.073127829713
 20
63.0509880420656
  0
VERTEX
  8
1
  6
CONTINUOUS
 62
     7
 10
-175.0892150636402
 20
63.04050937599498
  0
VERTEX
  8
1
  6
CONTINUOUS
 62
     7
 10
-175.1065955606143
 20
63.03030482179199
  0
VERTEX
  8
1
  6
CONTINUOUS
 62
     7
 10
-175.1247140884445
 20
63.02077560267816
  0
VERTEX
  8
1
  6
CONTINUOUS
 62
     7
 10
-175.1435219143146
 20
63.01197069733585
  0
VERTEX
  8
1
  6
CONTINUOUS
 62
     7
 10
-175.1584705824342
 20
63.00570271144326
  0
VERTEX
  8
1
  6
CONTINUOUS
 62
     7
 10
-175.1738138618742
 20
62.99989242734308
  0
VERTEX
  8
1
  6
CONTINUOUS
 62
     7
 10
-175.1895145091836
 20
62.99455996940937
  0
VERTEX
  8
1
  6
CONTINUOUS
 62
     7
 10
-175.2055352809113
 20
62.98972546201625
  0
VERTEX
  8
1
  6
CONTINUOUS
 62
     7
 10
-175.2224029659837
 20
62.9852679979824
  0
VERTEX
  8
1
  6
CONTINUOUS
 62
     7
 10
-175.2395865020581
 20
62.98135935731387
  0
VERTEX
  8
1
  6
CONTINUOUS
 62
     7
 10
-175.2570291148889
 20
62.97801485808486
  0
VERTEX
  8
1
  6
CONTINUOUS
 62
     7
 10
-175.2746740302304
 20
62.97524981836955
  0
VERTEX
  8
1
  6
CONTINUOUS
 62
     7
 10
-175.2932312364645
 20
62.9729965955772
  0
VERTEX
  8
1
  6
CONTINUOUS
 62
     7
 10
-175.3119627904848
 20
62.97138084867038
  0
VERTEX
  8
1
  6
CONTINUOUS
 62
     7
 10
-175.3307942309891
 20
62.97040766777054
  0
VERTEX
  8
1
  6
CONTINUOUS
 62
     7
 10
-175.3496510966749
 20
62.97008214299913
  0
SEQEND
  8
1
  6
CONTINUOUS
 62
     7
  0
POLYLINE
  8
1
  6
CONTINUOUS
 62
     7
 66
     1
  0
VERTEX
  8
1
  6
CONTINUOUS
 62
     7
 10
-167.8170155699918
 20
62.97008214299913
  0
VERTEX
  8
1
  6
CONTINUOUS
 62
     7
 10
-167.8331685740563
 20
62.97032049839396
  0
VERTEX
  8
1
  6
CONTINUOUS
 62
     7
 10
-167.8493056516479
 20
62.97103384145839
  0
VERTEX
  8
1
  6
CONTINUOUS
 62
     7
 10
-167.8653797761073
 20
62.97221958751242
  0
VERTEX
  8
1
  6
CONTINUOUS
 62
     7
 10
-167.8813439207752
 20
62.97387515187602
  0
VERTEX
  8
1
  6
CONTINUOUS
 62
     7
 10
-167.8976962288098
 20
62.97607755067263
  0
VERTEX
  8
1
  6
CONTINUOUS
 62
     7
 10
-167.913899183245
 20
62.97877528204257
  0
VERTEX
  8
1
  6
CONTINUOUS
 62
     7
 10
-167.9299065941412
 20
62.98195778179863
  0
VERTEX
  8
1
  6
CONTINUOUS
 62
     7
 10
-167.9456722715587
 20
62.98561448575359
  0
VERTEX
  8
1
  6
CONTINUOUS
 62
     7
 10
-167.9606878803345
 20
62.98960120881705
  0
VERTEX
  8
1
  6
CONTINUOUS
 62
     7
 10
-167.9754557024272
 20
62.99402027554614
  0
VERTEX
  8
1
  6
CONTINUOUS
 62
     7
 10
-167.9899434758872
 20
62.99885702713038
  0
VERTEX
  8
1
  6
CONTINUOUS
 62
     7
 10
-168.0041189387648
 20
63.00409680475935
  0
VERTEX
  8
1
  6
CONTINUOUS
 62
     7
 10
-168.0230066682541
 20
63.01191147391463
  0
VERTEX
  8
1
  6
CONTINUOUS
 62
     7
 10
-168.0412772988766
 20
63.02044091839426
  0
VERTEX
  8
1
  6
CONTINUOUS
 62
     7
 10
-168.0588766207424
 20
63.02964118755347
  0
VERTEX
  8
1
  6
CONTINUOUS
 62
     7
 10
-168.0747099210365
 20
63.03882772541913
  0
VERTEX
  8
1
  6
CONTINUOUS
 62
     7
 10
-168.0899474443688
 20
63.04855938293788
  0
VERTEX
  8
1
  6
CONTINUOUS
 62
     7
 10
-168.1045684596676
 20
63.05880013033069
  0
VERTEX
  8
1
  6
CONTINUOUS
 62
     7
 10
-168.1185522358612
 20
63.06951393781862
  0
VERTEX
  8
1
  6
CONTINUOUS
 62
     7
 10
-168.1367141182791
 20
63.08495006546581
  0
VERTEX
  8
1
  6
CONTINUOUS
 62
     7
 10
-168.1537229563814
 20
63.10119308064255
  0
VERTEX
  8
1
  6
CONTINUOUS
 62
     7
 10
-168.1695733613619
 20
63.11816106825847
  0
VERTEX
  8
1
  6
CONTINUOUS
 62
     7
 10
-168.1845043009531
 20
63.13607368353973
  0
VERTEX
  8
1
  6
CONTINUOUS
 62
     7
 10
-168.198323525713
 20
63.15464867780138
  0
VERTEX
  8
1
  6
CONTINUOUS
 62
     7
 10
-168.2110566664821
 20
63.17381940978048
  0
VERTEX
  8
1
  6
CONTINUOUS
 62
     7
 10
-168.2227293541007
 20
63.19351923821409
  0
VERTEX
  8
1
  6
CONTINUOUS
 62
     7
 10
-168.2370926373496
 20
63.22131920768913
  0
VERTEX
  8
1
  6
CONTINUOUS
 62
     7
 10
-168.2496867459969
 20
63.24998597306636
  0
VERTEX
  8
1
  6
CONTINUOUS
 62
     7
 10
-168.2606084715393
 20
63.27939958889381
  0
VERTEX
  8
1
  6
CONTINUOUS
 62
     7
 10
-168.2721095258727
 20
63.31720657973636
  0
VERTEX
  8
1
  6
CONTINUOUS
 62
     7
 10
-168.2813857397813
 20
63.35600647023799
  0
VERTEX
  8
1
  6
CONTINUOUS
 62
     7
 10
-168.2886193606629
 20
63.39565704721358
  0
VERTEX
  8
1
  6
CONTINUOUS
 62
     7
 10
-168.2939926359153
 20
63.43601609747792
  0
VERTEX
  8
1
  6
CONTINUOUS
 62
     7
 10
-168.2986723951159
 20
63.49245472312613
  0
VERTEX
  8
1
  6
CONTINUOUS
 62
     7
 10
-168.3005946221172
 20
63.55003137130989
  0
VERTEX
  8
1
  6
CONTINUOUS
 62
     7
 10
-168.3001253208174
 20
63.60855162050244
  0
SEQEND
  8
1
  6
CONTINUOUS
 62
     7
  0
LINE
  8
1
  6
CONTINUOUS
 62
     7
 10
-167.8170155699918
 20
62.97008214299913
 11
-164.8496510966749
 21
62.97008214299913
  0
POLYLINE
  8
1
  6
CONTINUOUS
 62
     7
 66
     1
  0
VERTEX
  8
1
  6
CONTINUOUS
 62
     7
 10
-164.3665413458493
 20
63.60855162050244
  0
VERTEX
  8
1
  6
CONTINUOUS
 62
     7
 10
-164.3660293635766
 20
63.5523419530052
  0
VERTEX
  8
1
  6
CONTINUOUS
 62
     7
 10
-164.3676981632505
 20
63.49685478116368
  0
VERTEX
  8
1
  6
CONTINUOUS
 62
     7
 10
-164.3719170106385
 20
63.44232804523175
  0
VERTEX
  8
1
  6
CONTINUOUS
 62
     7
 10
-164.3790551715082
 20
63.38899968546333
  0
VERTEX
  8
1
  6
CONTINUOUS
 62
     7
 10
-164.3894819116271
 20
63.33710764211226
  0
VERTEX
  8
1
  6
CONTINUOUS
 62
     7
 10
-164.4035664967628
 20
63.28688985543243
  0
VERTEX
  8
1
  6
CONTINUOUS
 62
     7
 10
-164.4129426767719
 20
63.26029163991742
  0
VERTEX
  8
1
  6
CONTINUOUS
 62
     7
 10
-164.4236591865615
 20
63.23422597093644
  0
VERTEX
  8
1
  6
CONTINUOUS
 62
     7
 10
-164.4357811678796
 20
63.20879128210164
  0
VERTEX
  8
1
  6
CONTINUOUS
 62
     7
 10
-164.4493737624746
 20
63.1840860070251
  0
VERTEX
  8
1
  6
CONTINUOUS
 62
     7
 10
-164.4645021120945
 20
63.16020857931899
  0
VERTEX
  8
1
  6
CONTINUOUS
 62
     7
 10
-164.4812313584877
 20
63.13725743259543
  0
VERTEX
  8
1
  6
CONTINUOUS
 62
     7
 10
-164.4960223241035
 20
63.11938174044557
  0
VERTEX
  8
1
  6
CONTINUOUS
 62
     7
 10
-164.51196625073
 20
63.10218485613139
  0
VERTEX
  8
1
  6
CONTINUOUS
 62
     7
 10
-164.5290697852392
 20
63.08574571483327
  0
VERTEX
  8
1
  6
CONTINUOUS
 62
     7
 10
-164.5430385370444
 20
63.07364858297615
  0
VERTEX
  8
1
  6
CONTINUOUS
 62
     7
 10
-164.557730103025
 20
63.06204856822312
  0
VERTEX
  8
1
  6
CONTINUOUS
 62
     7
 10
-164.573127829713
 20
63.0509880420656
  0
VERTEX
  8
1
  6
CONTINUOUS
 62
     7
 10
-164.5892150636402
 20
63.04050937599498
  0
VERTEX
  8
1
  6
CONTINUOUS
 62
     7
 10
-164.6065955606143
 20
63.030304821792
  0
VERTEX
  8
1
  6
CONTINUOUS
 62
     7
 10
-164.6247140884445
 20
63.02077560267817
  0
VERTEX
  8
1
  6
CONTINUOUS
 62
     7
 10
-164.6435219143146
 20
63.01197069733585
  0
VERTEX
  8
1
  6
CONTINUOUS
 62
     7
 10
-164.6584705824342
 20
63.00570271144329
  0
VERTEX
  8
1
  6
CONTINUOUS
 62
     7
 10
-164.6738138618742
 20
62.99989242734311
  0
VERTEX
  8
1
  6
CONTINUOUS
 62
     7
 10
-164.6895145091836
 20
62.99455996940939
  0
VERTEX
  8
1
  6
CONTINUOUS
 62
     7
 10
-164.7055352809113
 20
62.98972546201625
  0
VERTEX
  8
1
  6
CONTINUOUS
 62
     7
 10
-164.7224029659837
 20
62.9852679979824
  0
VERTEX
  8
1
  6
CONTINUOUS
 62
     7
 10
-164.7395865020581
 20
62.98135935731388
  0
VERTEX
  8
1
  6
CONTINUOUS
 62
     7
 10
-164.7570291148889
 20
62.97801485808488
  0
VERTEX
  8
1
  6
CONTINUOUS
 62
     7
 10
-164.7746740302304
 20
62.97524981836955
  0
VERTEX
  8
1
  6
CONTINUOUS
 62
     7
 10
-164.7932312364645
 20
62.9729965955772
  0
VERTEX
  8
1
  6
CONTINUOUS
 62
     7
 10
-164.8119627904848
 20
62.97138084867038
  0
VERTEX
  8
1
  6
CONTINUOUS
 62
     7
 10
-164.8307942309891
 20
62.97040766777054
  0
VERTEX
  8
1
  6
CONTINUOUS
 62
     7
 10
-164.8496510966749
 20
62.97008214299913
  0
SEQEND
  8
1
  6
CONTINUOUS
 62
     7
  0
LINE
  8
1
  6
CONTINUOUS
 62
     7
 10
-158.2257453930056
 20
62.34038878620112
 11
-293.4409212736611
 21
62.34038878620112
  0
POLYLINE
  8
1
  6
CONTINUOUS
 62
     7
 66
     1
  0
VERTEX
  8
1
  6
CONTINUOUS
 62
     7
 10
-286.8170155699918
 20
62.97008214299913
  0
VERTEX
  8
1
  6
CONTINUOUS
 62
     7
 10
-286.8331685740563
 20
62.97032049839396
  0
VERTEX
  8
1
  6
CONTINUOUS
 62
     7
 10
-286.8493056516479
 20
62.97103384145839
  0
VERTEX
  8
1
  6
CONTINUOUS
 62
     7
 10
-286.8653797761073
 20
62.97221958751242
  0
VERTEX
  8
1
  6
CONTINUOUS
 62
     7
 10
-286.8813439207752
 20
62.97387515187602
  0
VERTEX
  8
1
  6
CONTINUOUS
 62
     7
 10
-286.8976962288098
 20
62.97607755067263
  0
VERTEX
  8
1
  6
CONTINUOUS
 62
     7
 10
-286.9138991832451
 20
62.97877528204257
  0
VERTEX
  8
1
  6
CONTINUOUS
 62
     7
 10
-286.9299065941412
 20
62.98195778179863
  0
VERTEX
  8
1
  6
CONTINUOUS
 62
     7
 10
-286.9456722715586
 20
62.98561448575359
  0
VERTEX
  8
1
  6
CONTINUOUS
 62
     7
 10
-286.9606878803345
 20
62.98960120881705
  0
VERTEX
  8
1
  6
CONTINUOUS
 62
     7
 10
-286.9754557024272
 20
62.99402027554614
  0
VERTEX
  8
1
  6
CONTINUOUS
 62
     7
 10
-286.9899434758872
 20
62.99885702713038
  0
VERTEX
  8
1
  6
CONTINUOUS
 62
     7
 10
-287.0041189387648
 20
63.00409680475935
  0
VERTEX
  8
1
  6
CONTINUOUS
 62
     7
 10
-287.0230066682541
 20
63.01191147391463
  0
VERTEX
  8
1
  6
CONTINUOUS
 62
     7
 10
-287.0412772988766
 20
63.02044091839426
  0
VERTEX
  8
1
  6
CONTINUOUS
 62
     7
 10
-287.0588766207424
 20
63.02964118755347
  0
VERTEX
  8
1
  6
CONTINUOUS
 62
     7
 10
-287.0747099210365
 20
63.03882772541913
  0
VERTEX
  8
1
  6
CONTINUOUS
 62
     7
 10
-287.0899474443688
 20
63.04855938293788
  0
VERTEX
  8
1
  6
CONTINUOUS
 62
     7
 10
-287.1045684596676
 20
63.05880013033069
  0
VERTEX
  8
1
  6
CONTINUOUS
 62
     7
 10
-287.1185522358612
 20
63.06951393781862
  0
VERTEX
  8
1
  6
CONTINUOUS
 62
     7
 10
-287.1367141182792
 20
63.08495006546581
  0
VERTEX
  8
1
  6
CONTINUOUS
 62
     7
 10
-287.1537229563813
 20
63.10119308064255
  0
VERTEX
  8
1
  6
CONTINUOUS
 62
     7
 10
-287.1695733613619
 20
63.11816106825847
  0
VERTEX
  8
1
  6
CONTINUOUS
 62
     7
 10
-287.1845043009531
 20
63.13607368353973
  0
VERTEX
  8
1
  6
CONTINUOUS
 62
     7
 10
-287.198323525713
 20
63.15464867780138
  0
VERTEX
  8
1
  6
CONTINUOUS
 62
     7
 10
-287.211056666482
 20
63.17381940978048
  0
VERTEX
  8
1
  6
CONTINUOUS
 62
     7
 10
-287.2227293541007
 20
63.19351923821409
  0
VERTEX
  8
1
  6
CONTINUOUS
 62
     7
 10
-287.2370926373496
 20
63.22131920768913
  0
VERTEX
  8
1
  6
CONTINUOUS
 62
     7
 10
-287.2496867459969
 20
63.24998597306636
  0
VERTEX
  8
1
  6
CONTINUOUS
 62
     7
 10
-287.2606084715393
 20
63.27939958889381
  0
VERTEX
  8
1
  6
CONTINUOUS
 62
     7
 10
-287.2721095258727
 20
63.31720657973636
  0
VERTEX
  8
1
  6
CONTINUOUS
 62
     7
 10
-287.2813857397813
 20
63.35600647023799
  0
VERTEX
  8
1
  6
CONTINUOUS
 62
     7
 10
-287.2886193606628
 20
63.39565704721358
  0
VERTEX
  8
1
  6
CONTINUOUS
 62
     7
 10
-287.2939926359153
 20
63.43601609747792
  0
VERTEX
  8
1
  6
CONTINUOUS
 62
     7
 10
-287.2986723951159
 20
63.49245472312613
  0
VERTEX
  8
1
  6
CONTINUOUS
 62
     7
 10
-287.3005946221172
 20
63.55003137130989
  0
VERTEX
  8
1
  6
CONTINUOUS
 62
     7
 10
-287.3001253208174
 20
63.60855162050244
  0
SEQEND
  8
1
  6
CONTINUOUS
 62
     7
  0
LINE
  8
1
  6
CONTINUOUS
 62
     7
 10
-286.8170155699918
 20
62.97008214299913
 11
-283.8496510966748
 21
62.97008214299913
  0
POLYLINE
  8
1
  6
CONTINUOUS
 62
     7
 66
     1
  0
VERTEX
  8
1
  6
CONTINUOUS
 62
     7
 10
-283.3665413458493
 20
63.60855162050244
  0
VERTEX
  8
1
  6
CONTINUOUS
 62
     7
 10
-283.3660293635766
 20
63.5523419530052
  0
VERTEX
  8
1
  6
CONTINUOUS
 62
     7
 10
-283.3676981632505
 20
63.49685478116368
  0
VERTEX
  8
1
  6
CONTINUOUS
 62
     7
 10
-283.3719170106385
 20
63.44232804523175
  0
VERTEX
  8
1
  6
CONTINUOUS
 62
     7
 10
-283.3790551715082
 20
63.38899968546333
  0
VERTEX
  8
1
  6
CONTINUOUS
 62
     7
 10
-283.3894819116272
 20
63.33710764211226
  0
VERTEX
  8
1
  6
CONTINUOUS
 62
     7
 10
-283.4035664967628
 20
63.28688985543243
  0
VERTEX
  8
1
  6
CONTINUOUS
 62
     7
 10
-283.4129426767719
 20
63.26029163991742
  0
VERTEX
  8
1
  6
CONTINUOUS
 62
     7
 10
-283.4236591865615
 20
63.23422597093644
  0
VERTEX
  8
1
  6
CONTINUOUS
 62
     7
 10
-283.4357811678796
 20
63.20879128210162
  0
VERTEX
  8
1
  6
CONTINUOUS
 62
     7
 10
-283.4493737624746
 20
63.1840860070251
  0
VERTEX
  8
1
  6
CONTINUOUS
 62
     7
 10
-283.4645021120945
 20
63.16020857931899
  0
VERTEX
  8
1
  6
CONTINUOUS
 62
     7
 10
-283.4812313584877
 20
63.13725743259543
  0
VERTEX
  8
1
  6
CONTINUOUS
 62
     7
 10
-283.4960223241035
 20
63.11938174044557
  0
VERTEX
  8
1
  6
CONTINUOUS
 62
     7
 10
-283.51196625073
 20
63.10218485613139
  0
VERTEX
  8
1
  6
CONTINUOUS
 62
     7
 10
-283.5290697852392
 20
63.08574571483327
  0
VERTEX
  8
1
  6
CONTINUOUS
 62
     7
 10
-283.5430385370444
 20
63.07364858297613
  0
VERTEX
  8
1
  6
CONTINUOUS
 62
     7
 10
-283.557730103025
 20
63.06204856822312
  0
VERTEX
  8
1
  6
CONTINUOUS
 62
     7
 10
-283.573127829713
 20
63.0509880420656
  0
VERTEX
  8
1
  6
CONTINUOUS
 62
     7
 10
-283.5892150636402
 20
63.04050937599498
  0
VERTEX
  8
1
  6
CONTINUOUS
 62
     7
 10
-283.6065955606143
 20
63.03030482179199
  0
VERTEX
  8
1
  6
CONTINUOUS
 62
     7
 10
-283.6247140884445
 20
63.02077560267816
  0
VERTEX
  8
1
  6
CONTINUOUS
 62
     7
 10
-283.6435219143146
 20
63.01197069733585
  0
VERTEX
  8
1
  6
CONTINUOUS
 62
     7
 10
-283.6584705824342
 20
63.00570271144326
  0
VERTEX
  8
1
  6
CONTINUOUS
 62
     7
 10
-283.6738138618742
 20
62.99989242734308
  0
VERTEX
  8
1
  6
CONTINUOUS
 62
     7
 10
-283.6895145091835
 20
62.99455996940937
  0
VERTEX
  8
1
  6
CONTINUOUS
 62
     7
 10
-283.7055352809113
 20
62.98972546201625
  0
VERTEX
  8
1
  6
CONTINUOUS
 62
     7
 10
-283.7224029659836
 20
62.9852679979824
  0
VERTEX
  8
1
  6
CONTINUOUS
 62
     7
 10
-283.7395865020581
 20
62.98135935731387
  0
VERTEX
  8
1
  6
CONTINUOUS
 62
     7
 10
-283.7570291148889
 20
62.97801485808486
  0
VERTEX
  8
1
  6
CONTINUOUS
 62
     7
 10
-283.7746740302304
 20
62.97524981836955
  0
VERTEX
  8
1
  6
CONTINUOUS
 62
     7
 10
-283.7932312364645
 20
62.9729965955772
  0
VERTEX
  8
1
  6
CONTINUOUS
 62
     7
 10
-283.8119627904848
 20
62.97138084867038
  0
VERTEX
  8
1
  6
CONTINUOUS
 62
     7
 10
-283.8307942309891
 20
62.97040766777054
  0
VERTEX
  8
1
  6
CONTINUOUS
 62
     7
 10
-283.8496510966748
 20
62.97008214299913
  0
SEQEND
  8
1
  6
CONTINUOUS
 62
     7
  0
POLYLINE
  8
1
  6
CONTINUOUS
 62
     7
 66
     1
  0
VERTEX
  8
1
  6
CONTINUOUS
 62
     7
 10
-276.3170155699918
 20
62.97008214299913
  0
VERTEX
  8
1
  6
CONTINUOUS
 62
     7
 10
-276.3331685740563
 20
62.97032049839396
  0
VERTEX
  8
1
  6
CONTINUOUS
 62
     7
 10
-276.3493056516479
 20
62.97103384145839
  0
VERTEX
  8
1
  6
CONTINUOUS
 62
     7
 10
-276.3653797761073
 20
62.97221958751242
  0
VERTEX
  8
1
  6
CONTINUOUS
 62
     7
 10
-276.3813439207752
 20
62.97387515187602
  0
VERTEX
  8
1
  6
CONTINUOUS
 62
     7
 10
-276.3976962288098
 20
62.97607755067263
  0
VERTEX
  8
1
  6
CONTINUOUS
 62
     7
 10
-276.4138991832451
 20
62.97877528204257
  0
VERTEX
  8
1
  6
CONTINUOUS
 62
     7
 10
-276.4299065941412
 20
62.98195778179863
  0
VERTEX
  8
1
  6
CONTINUOUS
 62
     7
 10
-276.4456722715586
 20
62.98561448575359
  0
VERTEX
  8
1
  6
CONTINUOUS
 62
     7
 10
-276.4606878803345
 20
62.98960120881705
  0
VERTEX
  8
1
  6
CONTINUOUS
 62
     7
 10
-276.4754557024272
 20
62.99402027554614
  0
VERTEX
  8
1
  6
CONTINUOUS
 62
     7
 10
-276.4899434758872
 20
62.99885702713038
  0
VERTEX
  8
1
  6
CONTINUOUS
 62
     7
 10
-276.5041189387648
 20
63.00409680475935
  0
VERTEX
  8
1
  6
CONTINUOUS
 62
     7
 10
-276.5230066682541
 20
63.01191147391463
  0
VERTEX
  8
1
  6
CONTINUOUS
 62
     7
 10
-276.5412772988765
 20
63.02044091839426
  0
VERTEX
  8
1
  6
CONTINUOUS
 62
     7
 10
-276.5588766207424
 20
63.02964118755347
  0
VERTEX
  8
1
  6
CONTINUOUS
 62
     7
 10
-276.5747099210365
 20
63.03882772541913
  0
VERTEX
  8
1
  6
CONTINUOUS
 62
     7
 10
-276.5899474443688
 20
63.04855938293788
  0
VERTEX
  8
1
  6
CONTINUOUS
 62
     7
 10
-276.6045684596676
 20
63.05880013033069
  0
VERTEX
  8
1
  6
CONTINUOUS
 62
     7
 10
-276.6185522358612
 20
63.06951393781862
  0
VERTEX
  8
1
  6
CONTINUOUS
 62
     7
 10
-276.6367141182791
 20
63.08495006546581
  0
VERTEX
  8
1
  6
CONTINUOUS
 62
     7
 10
-276.6537229563813
 20
63.10119308064255
  0
VERTEX
  8
1
  6
CONTINUOUS
 62
     7
 10
-276.6695733613619
 20
63.11816106825847
  0
VERTEX
  8
1
  6
CONTINUOUS
 62
     7
 10
-276.6845043009532
 20
63.13607368353973
  0
VERTEX
  8
1
  6
CONTINUOUS
 62
     7
 10
-276.698323525713
 20
63.15464867780138
  0
VERTEX
  8
1
  6
CONTINUOUS
 62
     7
 10
-276.711056666482
 20
63.17381940978048
  0
VERTEX
  8
1
  6
CONTINUOUS
 62
     7
 10
-276.7227293541007
 20
63.19351923821409
  0
VERTEX
  8
1
  6
CONTINUOUS
 62
     7
 10
-276.7370926373496
 20
63.22131920768913
  0
VERTEX
  8
1
  6
CONTINUOUS
 62
     7
 10
-276.7496867459969
 20
63.24998597306636
  0
VERTEX
  8
1
  6
CONTINUOUS
 62
     7
 10
-276.7606084715393
 20
63.27939958889381
  0
VERTEX
  8
1
  6
CONTINUOUS
 62
     7
 10
-276.7721095258727
 20
63.31720657973636
  0
VERTEX
  8
1
  6
CONTINUOUS
 62
     7
 10
-276.7813857397813
 20
63.35600647023799
  0
VERTEX
  8
1
  6
CONTINUOUS
 62
     7
 10
-276.7886193606628
 20
63.39565704721358
  0
VERTEX
  8
1
  6
CONTINUOUS
 62
     7
 10
-276.7939926359153
 20
63.43601609747792
  0
VERTEX
  8
1
  6
CONTINUOUS
 62
     7
 10
-276.7986723951159
 20
63.49245472312614
  0
VERTEX
  8
1
  6
CONTINUOUS
 62
     7
 10
-276.8005946221172
 20
63.55003137130989
  0
VERTEX
  8
1
  6
CONTINUOUS
 62
     7
 10
-276.8001253208174
 20
63.60855162050244
  0
SEQEND
  8
1
  6
CONTINUOUS
 62
     7
  0
LINE
  8
1
  6
CONTINUOUS
 62
     7
 10
-276.3170155699918
 20
62.97008214299913
 11
-267.3496510966749
 21
62.97008214299913
  0
POLYLINE
  8
1
  6
CONTINUOUS
 62
     7
 66
     1
  0
VERTEX
  8
1
  6
CONTINUOUS
 62
     7
 10
-266.8665413458493
 20
63.60855162050244
  0
VERTEX
  8
1
  6
CONTINUOUS
 62
     7
 10
-266.8660293635766
 20
63.5523419530052
  0
VERTEX
  8
1
  6
CONTINUOUS
 62
     7
 10
-266.8676981632505
 20
63.49685478116368
  0
VERTEX
  8
1
  6
CONTINUOUS
 62
     7
 10
-266.8719170106385
 20
63.44232804523175
  0
VERTEX
  8
1
  6
CONTINUOUS
 62
     7
 10
-266.8790551715082
 20
63.38899968546333
  0
VERTEX
  8
1
  6
CONTINUOUS
 62
     7
 10
-266.8894819116271
 20
63.33710764211226
  0
VERTEX
  8
1
  6
CONTINUOUS
 62
     7
 10
-266.9035664967628
 20
63.28688985543243
  0
VERTEX
  8
1
  6
CONTINUOUS
 62
     7
 10
-266.9129426767719
 20
63.26029163991742
  0
VERTEX
  8
1
  6
CONTINUOUS
 62
     7
 10
-266.9236591865615
 20
63.23422597093644
  0
VERTEX
  8
1
  6
CONTINUOUS
 62
     7
 10
-266.9357811678796
 20
63.20879128210162
  0
VERTEX
  8
1
  6
CONTINUOUS
 62
     7
 10
-266.9493737624746
 20
63.18408600702509
  0
VERTEX
  8
1
  6
CONTINUOUS
 62
     7
 10
-266.9645021120945
 20
63.16020857931898
  0
VERTEX
  8
1
  6
CONTINUOUS
 62
     7
 10
-266.9812313584877
 20
63.13725743259543
  0
VERTEX
  8
1
  6
CONTINUOUS
 62
     7
 10
-266.9960223241035
 20
63.11938174044557
  0
VERTEX
  8
1
  6
CONTINUOUS
 62
     7
 10
-267.01196625073
 20
63.10218485613139
  0
VERTEX
  8
1
  6
CONTINUOUS
 62
     7
 10
-267.0290697852392
 20
63.08574571483327
  0
VERTEX
  8
1
  6
CONTINUOUS
 62
     7
 10
-267.0430385370444
 20
63.07364858297613
  0
VERTEX
  8
1
  6
CONTINUOUS
 62
     7
 10
-267.057730103025
 20
63.06204856822312
  0
VERTEX
  8
1
  6
CONTINUOUS
 62
     7
 10
-267.073127829713
 20
63.0509880420656
  0
VERTEX
  8
1
  6
CONTINUOUS
 62
     7
 10
-267.0892150636403
 20
63.04050937599498
  0
VERTEX
  8
1
  6
CONTINUOUS
 62
     7
 10
-267.1065955606143
 20
63.03030482179199
  0
VERTEX
  8
1
  6
CONTINUOUS
 62
     7
 10
-267.1247140884445
 20
63.02077560267816
  0
VERTEX
  8
1
  6
CONTINUOUS
 62
     7
 10
-267.1435219143146
 20
63.01197069733585
  0
VERTEX
  8
1
  6
CONTINUOUS
 62
     7
 10
-267.1584705824342
 20
63.00570271144326
  0
VERTEX
  8
1
  6
CONTINUOUS
 62
     7
 10
-267.1738138618742
 20
62.99989242734308
  0
VERTEX
  8
1
  6
CONTINUOUS
 62
     7
 10
-267.1895145091836
 20
62.99455996940937
  0
VERTEX
  8
1
  6
CONTINUOUS
 62
     7
 10
-267.2055352809113
 20
62.98972546201625
  0
VERTEX
  8
1
  6
CONTINUOUS
 62
     7
 10
-267.2224029659837
 20
62.9852679979824
  0
VERTEX
  8
1
  6
CONTINUOUS
 62
     7
 10
-267.2395865020581
 20
62.98135935731387
  0
VERTEX
  8
1
  6
CONTINUOUS
 62
     7
 10
-267.2570291148889
 20
62.97801485808486
  0
VERTEX
  8
1
  6
CONTINUOUS
 62
     7
 10
-267.2746740302304
 20
62.97524981836955
  0
VERTEX
  8
1
  6
CONTINUOUS
 62
     7
 10
-267.2932312364645
 20
62.9729965955772
  0
VERTEX
  8
1
  6
CONTINUOUS
 62
     7
 10
-267.3119627904848
 20
62.97138084867038
  0
VERTEX
  8
1
  6
CONTINUOUS
 62
     7
 10
-267.3307942309891
 20
62.97040766777054
  0
VERTEX
  8
1
  6
CONTINUOUS
 62
     7
 10
-267.3496510966749
 20
62.97008214299913
  0
SEQEND
  8
1
  6
CONTINUOUS
 62
     7
  0
POLYLINE
  8
1
  6
CONTINUOUS
 62
     7
 66
     1
  0
VERTEX
  8
1
  6
CONTINUOUS
 62
     7
 10
-259.8170155699918
 20
62.97008214299913
  0
VERTEX
  8
1
  6
CONTINUOUS
 62
     7
 10
-259.8331685740562
 20
62.97032049839396
  0
VERTEX
  8
1
  6
CONTINUOUS
 62
     7
 10
-259.8493056516479
 20
62.97103384145839
  0
VERTEX
  8
1
  6
CONTINUOUS
 62
     7
 10
-259.8653797761074
 20
62.97221958751242
  0
VERTEX
  8
1
  6
CONTINUOUS
 62
     7
 10
-259.8813439207752
 20
62.97387515187602
  0
VERTEX
  8
1
  6
CONTINUOUS
 62
     7
 10
-259.8976962288098
 20
62.97607755067263
  0
VERTEX
  8
1
  6
CONTINUOUS
 62
     7
 10
-259.913899183245
 20
62.97877528204257
  0
VERTEX
  8
1
  6
CONTINUOUS
 62
     7
 10
-259.9299065941412
 20
62.98195778179863
  0
VERTEX
  8
1
  6
CONTINUOUS
 62
     7
 10
-259.9456722715587
 20
62.98561448575359
  0
VERTEX
  8
1
  6
CONTINUOUS
 62
     7
 10
-259.9606878803345
 20
62.98960120881705
  0
VERTEX
  8
1
  6
CONTINUOUS
 62
     7
 10
-259.9754557024272
 20
62.99402027554614
  0
VERTEX
  8
1
  6
CONTINUOUS
 62
     7
 10
-259.9899434758872
 20
62.99885702713038
  0
VERTEX
  8
1
  6
CONTINUOUS
 62
     7
 10
-260.0041189387649
 20
63.00409680475935
  0
VERTEX
  8
1
  6
CONTINUOUS
 62
     7
 10
-260.0230066682542
 20
63.01191147391463
  0
VERTEX
  8
1
  6
CONTINUOUS
 62
     7
 10
-260.0412772988765
 20
63.02044091839426
  0
VERTEX
  8
1
  6
CONTINUOUS
 62
     7
 10
-260.0588766207425
 20
63.02964118755347
  0
VERTEX
  8
1
  6
CONTINUOUS
 62
     7
 10
-260.0747099210365
 20
63.03882772541913
  0
VERTEX
  8
1
  6
CONTINUOUS
 62
     7
 10
-260.0899474443688
 20
63.04855938293788
  0
VERTEX
  8
1
  6
CONTINUOUS
 62
     7
 10
-260.1045684596676
 20
63.05880013033069
  0
VERTEX
  8
1
  6
CONTINUOUS
 62
     7
 10
-260.1185522358612
 20
63.06951393781862
  0
VERTEX
  8
1
  6
CONTINUOUS
 62
     7
 10
-260.1367141182791
 20
63.08495006546581
  0
VERTEX
  8
1
  6
CONTINUOUS
 62
     7
 10
-260.1537229563814
 20
63.10119308064255
  0
VERTEX
  8
1
  6
CONTINUOUS
 62
     7
 10
-260.1695733613619
 20
63.11816106825847
  0
VERTEX
  8
1
  6
CONTINUOUS
 62
     7
 10
-260.1845043009531
 20
63.13607368353973
  0
VERTEX
  8
1
  6
CONTINUOUS
 62
     7
 10
-260.198323525713
 20
63.15464867780138
  0
VERTEX
  8
1
  6
CONTINUOUS
 62
     7
 10
-260.211056666482
 20
63.17381940978048
  0
VERTEX
  8
1
  6
CONTINUOUS
 62
     7
 10
-260.2227293541007
 20
63.19351923821409
  0
VERTEX
  8
1
  6
CONTINUOUS
 62
     7
 10
-260.2370926373496
 20
63.22131920768913
  0
VERTEX
  8
1
  6
CONTINUOUS
 62
     7
 10
-260.2496867459969
 20
63.24998597306636
  0
VERTEX
  8
1
  6
CONTINUOUS
 62
     7
 10
-260.2606084715393
 20
63.27939958889381
  0
VERTEX
  8
1
  6
CONTINUOUS
 62
     7
 10
-260.2721095258727
 20
63.31720657973636
  0
VERTEX
  8
1
  6
CONTINUOUS
 62
     7
 10
-260.2813857397813
 20
63.35600647023799
  0
VERTEX
  8
1
  6
CONTINUOUS
 62
     7
 10
-260.2886193606628
 20
63.39565704721358
  0
VERTEX
  8
1
  6
CONTINUOUS
 62
     7
 10
-260.2939926359153
 20
63.43601609747792
  0
VERTEX
  8
1
  6
CONTINUOUS
 62
     7
 10
-260.2986723951159
 20
63.49245472312613
  0
VERTEX
  8
1
  6
CONTINUOUS
 62
     7
 10
-260.3005946221172
 20
63.55003137130989
  0
VERTEX
  8
1
  6
CONTINUOUS
 62
     7
 10
-260.3001253208174
 20
63.60855162050244
  0
SEQEND
  8
1
  6
CONTINUOUS
 62
     7
  0
LINE
  8
1
  6
CONTINUOUS
 62
     7
 10
-259.8170155699918
 20
62.97008214299913
 11
-256.8496510966749
 21
62.97008214299913
  0
POLYLINE
  8
1
  6
CONTINUOUS
 62
     7
 66
     1
  0
VERTEX
  8
1
  6
CONTINUOUS
 62
     7
 10
-256.3665413458493
 20
63.60855162050244
  0
VERTEX
  8
1
  6
CONTINUOUS
 62
     7
 10
-256.3660293635766
 20
63.5523419530052
  0
VERTEX
  8
1
  6
CONTINUOUS
 62
     7
 10
-256.3676981632505
 20
63.49685478116368
  0
VERTEX
  8
1
  6
CONTINUOUS
 62
     7
 10
-256.3719170106385
 20
63.44232804523175
  0
VERTEX
  8
1
  6
CONTINUOUS
 62
     7
 10
-256.3790551715082
 20
63.38899968546333
  0
VERTEX
  8
1
  6
CONTINUOUS
 62
     7
 10
-256.3894819116271
 20
63.33710764211226
  0
VERTEX
  8
1
  6
CONTINUOUS
 62
     7
 10
-256.4035664967628
 20
63.28688985543243
  0
VERTEX
  8
1
  6
CONTINUOUS
 62
     7
 10
-256.4129426767719
 20
63.26029163991742
  0
VERTEX
  8
1
  6
CONTINUOUS
 62
     7
 10
-256.4236591865615
 20
63.23422597093644
  0
VERTEX
  8
1
  6
CONTINUOUS
 62
     7
 10
-256.4357811678796
 20
63.20879128210162
  0
VERTEX
  8
1
  6
CONTINUOUS
 62
     7
 10
-256.4493737624746
 20
63.1840860070251
  0
VERTEX
  8
1
  6
CONTINUOUS
 62
     7
 10
-256.4645021120945
 20
63.16020857931899
  0
VERTEX
  8
1
  6
CONTINUOUS
 62
     7
 10
-256.4812313584877
 20
63.13725743259543
  0
VERTEX
  8
1
  6
CONTINUOUS
 62
     7
 10
-256.4960223241035
 20
63.11938174044557
  0
VERTEX
  8
1
  6
CONTINUOUS
 62
     7
 10
-256.51196625073
 20
63.10218485613139
  0
VERTEX
  8
1
  6
CONTINUOUS
 62
     7
 10
-256.5290697852391
 20
63.08574571483327
  0
VERTEX
  8
1
  6
CONTINUOUS
 62
     7
 10
-256.5430385370444
 20
63.07364858297615
  0
VERTEX
  8
1
  6
CONTINUOUS
 62
     7
 10
-256.557730103025
 20
63.06204856822312
  0
VERTEX
  8
1
  6
CONTINUOUS
 62
     7
 10
-256.573127829713
 20
63.0509880420656
  0
VERTEX
  8
1
  6
CONTINUOUS
 62
     7
 10
-256.5892150636402
 20
63.04050937599498
  0
VERTEX
  8
1
  6
CONTINUOUS
 62
     7
 10
-256.6065955606143
 20
63.03030482179199
  0
VERTEX
  8
1
  6
CONTINUOUS
 62
     7
 10
-256.6247140884445
 20
63.02077560267816
  0
VERTEX
  8
1
  6
CONTINUOUS
 62
     7
 10
-256.6435219143146
 20
63.01197069733585
  0
VERTEX
  8
1
  6
CONTINUOUS
 62
     7
 10
-256.6584705824342
 20
63.00570271144328
  0
VERTEX
  8
1
  6
CONTINUOUS
 62
     7
 10
-256.6738138618742
 20
62.99989242734309
  0
VERTEX
  8
1
  6
CONTINUOUS
 62
     7
 10
-256.6895145091836
 20
62.99455996940939
  0
VERTEX
  8
1
  6
CONTINUOUS
 62
     7
 10
-256.7055352809112
 20
62.98972546201625
  0
VERTEX
  8
1
  6
CONTINUOUS
 62
     7
 10
-256.7224029659837
 20
62.9852679979824
  0
VERTEX
  8
1
  6
CONTINUOUS
 62
     7
 10
-256.7395865020581
 20
62.98135935731388
  0
VERTEX
  8
1
  6
CONTINUOUS
 62
     7
 10
-256.7570291148889
 20
62.97801485808486
  0
VERTEX
  8
1
  6
CONTINUOUS
 62
     7
 10
-256.7746740302305
 20
62.97524981836955
  0
VERTEX
  8
1
  6
CONTINUOUS
 62
     7
 10
-256.7932312364645
 20
62.9729965955772
  0
VERTEX
  8
1
  6
CONTINUOUS
 62
     7
 10
-256.8119627904848
 20
62.97138084867038
  0
VERTEX
  8
1
  6
CONTINUOUS
 62
     7
 10
-256.8307942309891
 20
62.97040766777054
  0
VERTEX
  8
1
  6
CONTINUOUS
 62
     7
 10
-256.8496510966749
 20
62.97008214299913
  0
SEQEND
  8
1
  6
CONTINUOUS
 62
     7
  0
POLYLINE
  8
1
  6
CONTINUOUS
 62
     7
 66
     1
  0
VERTEX
  8
1
  6
CONTINUOUS
 62
     7
 10
-240.8170155699918
 20
62.97008214299913
  0
VERTEX
  8
1
  6
CONTINUOUS
 62
     7
 10
-240.8331685740563
 20
62.97032049839396
  0
VERTEX
  8
1
  6
CONTINUOUS
 62
     7
 10
-240.8493056516479
 20
62.97103384145839
  0
VERTEX
  8
1
  6
CONTINUOUS
 62
     7
 10
-240.8653797761073
 20
62.97221958751242
  0
VERTEX
  8
1
  6
CONTINUOUS
 62
     7
 10
-240.8813439207753
 20
62.97387515187602
  0
VERTEX
  8
1
  6
CONTINUOUS
 62
     7
 10
-240.8976962288098
 20
62.97607755067263
  0
VERTEX
  8
1
  6
CONTINUOUS
 62
     7
 10
-240.913899183245
 20
62.97877528204257
  0
VERTEX
  8
1
  6
CONTINUOUS
 62
     7
 10
-240.9299065941412
 20
62.98195778179863
  0
VERTEX
  8
1
  6
CONTINUOUS
 62
     7
 10
-240.9456722715587
 20
62.98561448575359
  0
VERTEX
  8
1
  6
CONTINUOUS
 62
     7
 10
-240.9606878803345
 20
62.98960120881705
  0
VERTEX
  8
1
  6
CONTINUOUS
 62
     7
 10
-240.9754557024272
 20
62.99402027554614
  0
VERTEX
  8
1
  6
CONTINUOUS
 62
     7
 10
-240.9899434758872
 20
62.99885702713038
  0
VERTEX
  8
1
  6
CONTINUOUS
 62
     7
 10
-241.0041189387648
 20
63.00409680475935
  0
VERTEX
  8
1
  6
CONTINUOUS
 62
     7
 10
-241.0230066682541
 20
63.01191147391463
  0
VERTEX
  8
1
  6
CONTINUOUS
 62
     7
 10
-241.0412772988766
 20
63.02044091839426
  0
VERTEX
  8
1
  6
CONTINUOUS
 62
     7
 10
-241.0588766207424
 20
63.02964118755347
  0
VERTEX
  8
1
  6
CONTINUOUS
 62
     7
 10
-241.0747099210365
 20
63.03882772541913
  0
VERTEX
  8
1
  6
CONTINUOUS
 62
     7
 10
-241.0899474443688
 20
63.04855938293788
  0
VERTEX
  8
1
  6
CONTINUOUS
 62
     7
 10
-241.1045684596676
 20
63.0588001303307
  0
VERTEX
  8
1
  6
CONTINUOUS
 62
     7
 10
-241.1185522358612
 20
63.06951393781862
  0
VERTEX
  8
1
  6
CONTINUOUS
 62
     7
 10
-241.1367141182792
 20
63.08495006546581
  0
VERTEX
  8
1
  6
CONTINUOUS
 62
     7
 10
-241.1537229563814
 20
63.10119308064255
  0
VERTEX
  8
1
  6
CONTINUOUS
 62
     7
 10
-241.1695733613619
 20
63.11816106825847
  0
VERTEX
  8
1
  6
CONTINUOUS
 62
     7
 10
-241.1845043009531
 20
63.13607368353973
  0
VERTEX
  8
1
  6
CONTINUOUS
 62
     7
 10
-241.198323525713
 20
63.15464867780138
  0
VERTEX
  8
1
  6
CONTINUOUS
 62
     7
 10
-241.2110566664821
 20
63.17381940978049
  0
VERTEX
  8
1
  6
CONTINUOUS
 62
     7
 10
-241.2227293541007
 20
63.19351923821412
  0
VERTEX
  8
1
  6
CONTINUOUS
 62
     7
 10
-241.2370926373496
 20
63.22131920768914
  0
VERTEX
  8
1
  6
CONTINUOUS
 62
     7
 10
-241.2496867459969
 20
63.24998597306639
  0
VERTEX
  8
1
  6
CONTINUOUS
 62
     7
 10
-241.2606084715393
 20
63.27939958889384
  0
VERTEX
  8
1
  6
CONTINUOUS
 62
     7
 10
-241.2721095258727
 20
63.31720657973636
  0
VERTEX
  8
1
  6
CONTINUOUS
 62
     7
 10
-241.2813857397813
 20
63.35600647023801
  0
VERTEX
  8
1
  6
CONTINUOUS
 62
     7
 10
-241.2886193606628
 20
63.39565704721359
  0
VERTEX
  8
1
  6
CONTINUOUS
 62
     7
 10
-241.2939926359153
 20
63.43601609747792
  0
VERTEX
  8
1
  6
CONTINUOUS
 62
     7
 10
-241.2986723951159
 20
63.49245472312614
  0
VERTEX
  8
1
  6
CONTINUOUS
 62
     7
 10
-241.3005946221172
 20
63.55003137130991
  0
VERTEX
  8
1
  6
CONTINUOUS
 62
     7
 10
-241.3001253208174
 20
63.60855162050244
  0
SEQEND
  8
1
  6
CONTINUOUS
 62
     7
  0
LINE
  8
1
  6
CONTINUOUS
 62
     7
 10
-240.8170155699918
 20
62.97008214299913
 11
-237.8496510966749
 21
62.97008214299913
  0
POLYLINE
  8
1
  6
CONTINUOUS
 62
     7
 66
     1
  0
VERTEX
  8
1
  6
CONTINUOUS
 62
     7
 10
-237.3665413458493
 20
63.60855162050244
  0
VERTEX
  8
1
  6
CONTINUOUS
 62
     7
 10
-237.3660293635766
 20
63.5523419530052
  0
VERTEX
  8
1
  6
CONTINUOUS
 62
     7
 10
-237.3676981632505
 20
63.49685478116368
  0
VERTEX
  8
1
  6
CONTINUOUS
 62
     7
 10
-237.3719170106385
 20
63.44232804523175
  0
VERTEX
  8
1
  6
CONTINUOUS
 62
     7
 10
-237.3790551715082
 20
63.38899968546333
  0
VERTEX
  8
1
  6
CONTINUOUS
 62
     7
 10
-237.3894819116271
 20
63.33710764211226
  0
VERTEX
  8
1
  6
CONTINUOUS
 62
     7
 10
-237.4035664967628
 20
63.28688985543243
  0
VERTEX
  8
1
  6
CONTINUOUS
 62
     7
 10
-237.4129426767719
 20
63.26029163991742
  0
VERTEX
  8
1
  6
CONTINUOUS
 62
     7
 10
-237.4236591865615
 20
63.23422597093644
  0
VERTEX
  8
1
  6
CONTINUOUS
 62
     7
 10
-237.4357811678796
 20
63.20879128210164
  0
VERTEX
  8
1
  6
CONTINUOUS
 62
     7
 10
-237.4493737624746
 20
63.1840860070251
  0
VERTEX
  8
1
  6
CONTINUOUS
 62
     7
 10
-237.4645021120945
 20
63.16020857931899
  0
VERTEX
  8
1
  6
CONTINUOUS
 62
     7
 10
-237.4812313584877
 20
63.13725743259543
  0
VERTEX
  8
1
  6
CONTINUOUS
 62
     7
 10
-237.4960223241035
 20
63.11938174044557
  0
VERTEX
  8
1
  6
CONTINUOUS
 62
     7
 10
-237.51196625073
 20
63.10218485613139
  0
VERTEX
  8
1
  6
CONTINUOUS
 62
     7
 10
-237.5290697852392
 20
63.08574571483327
  0
VERTEX
  8
1
  6
CONTINUOUS
 62
     7
 10
-237.5430385370444
 20
63.07364858297615
  0
VERTEX
  8
1
  6
CONTINUOUS
 62
     7
 10
-237.557730103025
 20
63.06204856822312
  0
VERTEX
  8
1
  6
CONTINUOUS
 62
     7
 10
-237.573127829713
 20
63.0509880420656
  0
VERTEX
  8
1
  6
CONTINUOUS
 62
     7
 10
-237.5892150636402
 20
63.04050937599498
  0
VERTEX
  8
1
  6
CONTINUOUS
 62
     7
 10
-237.6065955606143
 20
63.030304821792
  0
VERTEX
  8
1
  6
CONTINUOUS
 62
     7
 10
-237.6247140884445
 20
63.02077560267817
  0
VERTEX
  8
1
  6
CONTINUOUS
 62
     7
 10
-237.6435219143146
 20
63.01197069733585
  0
VERTEX
  8
1
  6
CONTINUOUS
 62
     7
 10
-237.6584705824342
 20
63.00570271144328
  0
VERTEX
  8
1
  6
CONTINUOUS
 62
     7
 10
-237.6738138618742
 20
62.99989242734309
  0
VERTEX
  8
1
  6
CONTINUOUS
 62
     7
 10
-237.6895145091836
 20
62.99455996940939
  0
VERTEX
  8
1
  6
CONTINUOUS
 62
     7
 10
-237.7055352809113
 20
62.98972546201625
  0
VERTEX
  8
1
  6
CONTINUOUS
 62
     7
 10
-237.7224029659837
 20
62.9852679979824
  0
VERTEX
  8
1
  6
CONTINUOUS
 62
     7
 10
-237.7395865020581
 20
62.98135935731388
  0
VERTEX
  8
1
  6
CONTINUOUS
 62
     7
 10
-237.7570291148889
 20
62.97801485808486
  0
VERTEX
  8
1
  6
CONTINUOUS
 62
     7
 10
-237.7746740302304
 20
62.97524981836955
  0
VERTEX
  8
1
  6
CONTINUOUS
 62
     7
 10
-237.7932312364645
 20
62.9729965955772
  0
VERTEX
  8
1
  6
CONTINUOUS
 62
     7
 10
-237.8119627904848
 20
62.97138084867038
  0
VERTEX
  8
1
  6
CONTINUOUS
 62
     7
 10
-237.8307942309891
 20
62.97040766777054
  0
VERTEX
  8
1
  6
CONTINUOUS
 62
     7
 10
-237.8496510966749
 20
62.97008214299913
  0
SEQEND
  8
1
  6
CONTINUOUS
 62
     7
  0
POLYLINE
  8
1
  6
CONTINUOUS
 62
     7
 66
     1
  0
VERTEX
  8
1
  6
CONTINUOUS
 62
     7
 10
-230.3170155699918
 20
62.97008214299913
  0
VERTEX
  8
1
  6
CONTINUOUS
 62
     7
 10
-230.3331685740563
 20
62.97032049839396
  0
VERTEX
  8
1
  6
CONTINUOUS
 62
     7
 10
-230.3493056516479
 20
62.97103384145839
  0
VERTEX
  8
1
  6
CONTINUOUS
 62
     7
 10
-230.3653797761073
 20
62.97221958751242
  0
VERTEX
  8
1
  6
CONTINUOUS
 62
     7
 10
-230.3813439207752
 20
62.97387515187602
  0
VERTEX
  8
1
  6
CONTINUOUS
 62
     7
 10
-230.3976962288098
 20
62.97607755067263
  0
VERTEX
  8
1
  6
CONTINUOUS
 62
     7
 10
-230.413899183245
 20
62.97877528204257
  0
VERTEX
  8
1
  6
CONTINUOUS
 62
     7
 10
-230.4299065941412
 20
62.98195778179863
  0
VERTEX
  8
1
  6
CONTINUOUS
 62
     7
 10
-230.4456722715587
 20
62.98561448575359
  0
VERTEX
  8
1
  6
CONTINUOUS
 62
     7
 10
-230.4606878803345
 20
62.98960120881705
  0
VERTEX
  8
1
  6
CONTINUOUS
 62
     7
 10
-230.4754557024272
 20
62.99402027554614
  0
VERTEX
  8
1
  6
CONTINUOUS
 62
     7
 10
-230.4899434758872
 20
62.99885702713038
  0
VERTEX
  8
1
  6
CONTINUOUS
 62
     7
 10
-230.5041189387648
 20
63.00409680475935
  0
VERTEX
  8
1
  6
CONTINUOUS
 62
     7
 10
-230.5230066682541
 20
63.01191147391463
  0
VERTEX
  8
1
  6
CONTINUOUS
 62
     7
 10
-230.5412772988766
 20
63.02044091839426
  0
VERTEX
  8
1
  6
CONTINUOUS
 62
     7
 10
-230.5588766207424
 20
63.02964118755347
  0
VERTEX
  8
1
  6
CONTINUOUS
 62
     7
 10
-230.5747099210365
 20
63.03882772541913
  0
VERTEX
  8
1
  6
CONTINUOUS
 62
     7
 10
-230.5899474443688
 20
63.04855938293788
  0
VERTEX
  8
1
  6
CONTINUOUS
 62
     7
 10
-230.6045684596676
 20
63.0588001303307
  0
VERTEX
  8
1
  6
CONTINUOUS
 62
     7
 10
-230.6185522358612
 20
63.06951393781862
  0
VERTEX
  8
1
  6
CONTINUOUS
 62
     7
 10
-230.6367141182791
 20
63.08495006546581
  0
VERTEX
  8
1
  6
CONTINUOUS
 62
     7
 10
-230.6537229563814
 20
63.10119308064255
  0
VERTEX
  8
1
  6
CONTINUOUS
 62
     7
 10
-230.6695733613619
 20
63.11816106825847
  0
VERTEX
  8
1
  6
CONTINUOUS
 62
     7
 10
-230.6845043009531
 20
63.13607368353973
  0
VERTEX
  8
1
  6
CONTINUOUS
 62
     7
 10
-230.698323525713
 20
63.15464867780138
  0
VERTEX
  8
1
  6
CONTINUOUS
 62
     7
 10
-230.7110566664821
 20
63.17381940978048
  0
VERTEX
  8
1
  6
CONTINUOUS
 62
     7
 10
-230.7227293541007
 20
63.1935192382141
  0
VERTEX
  8
1
  6
CONTINUOUS
 62
     7
 10
-230.7370926373496
 20
63.22131920768914
  0
VERTEX
  8
1
  6
CONTINUOUS
 62
     7
 10
-230.7496867459969
 20
63.24998597306639
  0
VERTEX
  8
1
  6
CONTINUOUS
 62
     7
 10
-230.7606084715394
 20
63.27939958889384
  0
VERTEX
  8
1
  6
CONTINUOUS
 62
     7
 10
-230.7721095258727
 20
63.31720657973637
  0
VERTEX
  8
1
  6
CONTINUOUS
 62
     7
 10
-230.7813857397813
 20
63.35600647023801
  0
VERTEX
  8
1
  6
CONTINUOUS
 62
     7
 10
-230.7886193606629
 20
63.39565704721359
  0
VERTEX
  8
1
  6
CONTINUOUS
 62
     7
 10
-230.7939926359153
 20
63.43601609747792
  0
VERTEX
  8
1
  6
CONTINUOUS
 62
     7
 10
-230.7986723951159
 20
63.49245472312614
  0
VERTEX
  8
1
  6
CONTINUOUS
 62
     7
 10
-230.8005946221172
 20
63.55003137130991
  0
VERTEX
  8
1
  6
CONTINUOUS
 62
     7
 10
-230.8001253208174
 20
63.60855162050244
  0
SEQEND
  8
1
  6
CONTINUOUS
 62
     7
  0
LINE
  8
1
  6
CONTINUOUS
 62
     7
 10
-230.3170155699918
 20
62.97008214299913
 11
-221.3496510966749
 21
62.97008214299913
  0
POLYLINE
  8
1
  6
CONTINUOUS
 62
     7
 66
     1
  0
VERTEX
  8
1
  6
CONTINUOUS
 62
     7
 10
-220.8665413458493
 20
63.60855162050244
  0
VERTEX
  8
1
  6
CONTINUOUS
 62
     7
 10
-220.8660293635766
 20
63.5523419530052
  0
VERTEX
  8
1
  6
CONTINUOUS
 62
     7
 10
-220.8676981632505
 20
63.49685478116368
  0
VERTEX
  8
1
  6
CONTINUOUS
 62
     7
 10
-220.8719170106385
 20
63.44232804523175
  0
VERTEX
  8
1
  6
CONTINUOUS
 62
     7
 10
-220.8790551715082
 20
63.38899968546333
  0
VERTEX
  8
1
  6
CONTINUOUS
 62
     7
 10
-220.8894819116271
 20
63.33710764211226
  0
VERTEX
  8
1
  6
CONTINUOUS
 62
     7
 10
-220.9035664967628
 20
63.28688985543243
  0
VERTEX
  8
1
  6
CONTINUOUS
 62
     7
 10
-220.9129426767719
 20
63.26029163991742
  0
VERTEX
  8
1
  6
CONTINUOUS
 62
     7
 10
-220.9236591865615
 20
63.23422597093644
  0
VERTEX
  8
1
  6
CONTINUOUS
 62
     7
 10
-220.9357811678796
 20
63.20879128210162
  0
VERTEX
  8
1
  6
CONTINUOUS
 62
     7
 10
-220.9493737624746
 20
63.18408600702509
  0
VERTEX
  8
1
  6
CONTINUOUS
 62
     7
 10
-220.9645021120945
 20
63.16020857931898
  0
VERTEX
  8
1
  6
CONTINUOUS
 62
     7
 10
-220.9812313584877
 20
63.13725743259543
  0
VERTEX
  8
1
  6
CONTINUOUS
 62
     7
 10
-220.9960223241035
 20
63.11938174044557
  0
VERTEX
  8
1
  6
CONTINUOUS
 62
     7
 10
-221.01196625073
 20
63.10218485613139
  0
VERTEX
  8
1
  6
CONTINUOUS
 62
     7
 10
-221.0290697852392
 20
63.08574571483327
  0
VERTEX
  8
1
  6
CONTINUOUS
 62
     7
 10
-221.0430385370444
 20
63.07364858297613
  0
VERTEX
  8
1
  6
CONTINUOUS
 62
     7
 10
-221.057730103025
 20
63.06204856822312
  0
VERTEX
  8
1
  6
CONTINUOUS
 62
     7
 10
-221.073127829713
 20
63.0509880420656
  0
VERTEX
  8
1
  6
CONTINUOUS
 62
     7
 10
-221.0892150636402
 20
63.04050937599498
  0
VERTEX
  8
1
  6
CONTINUOUS
 62
     7
 10
-221.1065955606144
 20
63.03030482179199
  0
VERTEX
  8
1
  6
CONTINUOUS
 62
     7
 10
-221.1247140884445
 20
63.02077560267816
  0
VERTEX
  8
1
  6
CONTINUOUS
 62
     7
 10
-221.1435219143146
 20
63.01197069733585
  0
VERTEX
  8
1
  6
CONTINUOUS
 62
     7
 10
-221.1584705824342
 20
63.00570271144328
  0
VERTEX
  8
1
  6
CONTINUOUS
 62
     7
 10
-221.1738138618742
 20
62.99989242734309
  0
VERTEX
  8
1
  6
CONTINUOUS
 62
     7
 10
-221.1895145091836
 20
62.99455996940939
  0
VERTEX
  8
1
  6
CONTINUOUS
 62
     7
 10
-221.2055352809113
 20
62.98972546201625
  0
VERTEX
  8
1
  6
CONTINUOUS
 62
     7
 10
-221.2224029659837
 20
62.9852679979824
  0
VERTEX
  8
1
  6
CONTINUOUS
 62
     7
 10
-221.2395865020581
 20
62.98135935731388
  0
VERTEX
  8
1
  6
CONTINUOUS
 62
     7
 10
-221.2570291148889
 20
62.97801485808486
  0
VERTEX
  8
1
  6
CONTINUOUS
 62
     7
 10
-221.2746740302304
 20
62.97524981836955
  0
VERTEX
  8
1
  6
CONTINUOUS
 62
     7
 10
-221.2932312364645
 20
62.9729965955772
  0
VERTEX
  8
1
  6
CONTINUOUS
 62
     7
 10
-221.3119627904848
 20
62.97138084867038
  0
VERTEX
  8
1
  6
CONTINUOUS
 62
     7
 10
-221.3307942309891
 20
62.97040766777054
  0
VERTEX
  8
1
  6
CONTINUOUS
 62
     7
 10
-221.3496510966749
 20
62.97008214299913
  0
SEQEND
  8
1
  6
CONTINUOUS
 62
     7
  0
POLYLINE
  8
1
  6
CONTINUOUS
 62
     7
 66
     1
  0
VERTEX
  8
1
  6
CONTINUOUS
 62
     7
 10
-213.8170155699918
 20
62.97008214299913
  0
VERTEX
  8
1
  6
CONTINUOUS
 62
     7
 10
-213.8331685740563
 20
62.97032049839396
  0
VERTEX
  8
1
  6
CONTINUOUS
 62
     7
 10
-213.8493056516479
 20
62.97103384145839
  0
VERTEX
  8
1
  6
CONTINUOUS
 62
     7
 10
-213.8653797761073
 20
62.97221958751242
  0
VERTEX
  8
1
  6
CONTINUOUS
 62
     7
 10
-213.8813439207753
 20
62.97387515187602
  0
VERTEX
  8
1
  6
CONTINUOUS
 62
     7
 10
-213.8976962288098
 20
62.97607755067263
  0
VERTEX
  8
1
  6
CONTINUOUS
 62
     7
 10
-213.913899183245
 20
62.97877528204257
  0
VERTEX
  8
1
  6
CONTINUOUS
 62
     7
 10
-213.9299065941412
 20
62.98195778179863
  0
VERTEX
  8
1
  6
CONTINUOUS
 62
     7
 10
-213.9456722715587
 20
62.98561448575359
  0
VERTEX
  8
1
  6
CONTINUOUS
 62
     7
 10
-213.9606878803345
 20
62.98960120881705
  0
VERTEX
  8
1
  6
CONTINUOUS
 62
     7
 10
-213.9754557024272
 20
62.99402027554614
  0
VERTEX
  8
1
  6
CONTINUOUS
 62
     7
 10
-213.9899434758872
 20
62.99885702713038
  0
VERTEX
  8
1
  6
CONTINUOUS
 62
     7
 10
-214.0041189387648
 20
63.00409680475935
  0
VERTEX
  8
1
  6
CONTINUOUS
 62
     7
 10
-214.0230066682541
 20
63.01191147391463
  0
VERTEX
  8
1
  6
CONTINUOUS
 62
     7
 10
-214.0412772988766
 20
63.02044091839426
  0
VERTEX
  8
1
  6
CONTINUOUS
 62
     7
 10
-214.0588766207424
 20
63.02964118755347
  0
VERTEX
  8
1
  6
CONTINUOUS
 62
     7
 10
-214.0747099210365
 20
63.03882772541913
  0
VERTEX
  8
1
  6
CONTINUOUS
 62
     7
 10
-214.0899474443688
 20
63.04855938293788
  0
VERTEX
  8
1
  6
CONTINUOUS
 62
     7
 10
-214.1045684596676
 20
63.0588001303307
  0
VERTEX
  8
1
  6
CONTINUOUS
 62
     7
 10
-214.1185522358612
 20
63.06951393781862
  0
VERTEX
  8
1
  6
CONTINUOUS
 62
     7
 10
-214.1367141182792
 20
63.08495006546581
  0
VERTEX
  8
1
  6
CONTINUOUS
 62
     7
 10
-214.1537229563814
 20
63.10119308064255
  0
VERTEX
  8
1
  6
CONTINUOUS
 62
     7
 10
-214.1695733613619
 20
63.11816106825847
  0
VERTEX
  8
1
  6
CONTINUOUS
 62
     7
 10
-214.1845043009531
 20
63.13607368353973
  0
VERTEX
  8
1
  6
CONTINUOUS
 62
     7
 10
-214.198323525713
 20
63.15464867780138
  0
VERTEX
  8
1
  6
CONTINUOUS
 62
     7
 10
-214.2110566664821
 20
63.17381940978049
  0
VERTEX
  8
1
  6
CONTINUOUS
 62
     7
 10
-214.2227293541007
 20
63.19351923821412
  0
VERTEX
  8
1
  6
CONTINUOUS
 62
     7
 10
-214.2370926373496
 20
63.22131920768914
  0
VERTEX
  8
1
  6
CONTINUOUS
 62
     7
 10
-214.2496867459969
 20
63.24998597306639
  0
VERTEX
  8
1
  6
CONTINUOUS
 62
     7
 10
-214.2606084715393
 20
63.27939958889384
  0
VERTEX
  8
1
  6
CONTINUOUS
 62
     7
 10
-214.2721095258727
 20
63.31720657973636
  0
VERTEX
  8
1
  6
CONTINUOUS
 62
     7
 10
-214.2813857397813
 20
63.35600647023801
  0
VERTEX
  8
1
  6
CONTINUOUS
 62
     7
 10
-214.2886193606628
 20
63.39565704721359
  0
VERTEX
  8
1
  6
CONTINUOUS
 62
     7
 10
-214.2939926359153
 20
63.43601609747792
  0
VERTEX
  8
1
  6
CONTINUOUS
 62
     7
 10
-214.2986723951159
 20
63.49245472312614
  0
VERTEX
  8
1
  6
CONTINUOUS
 62
     7
 10
-214.3005946221172
 20
63.55003137130991
  0
VERTEX
  8
1
  6
CONTINUOUS
 62
     7
 10
-214.3001253208174
 20
63.60855162050244
  0
SEQEND
  8
1
  6
CONTINUOUS
 62
     7
  0
LINE
  8
1
  6
CONTINUOUS
 62
     7
 10
-213.8170155699918
 20
62.97008214299913
 11
-210.8496510966749
 21
62.97008214299913
  0
POLYLINE
  8
1
  6
CONTINUOUS
 62
     7
 66
     1
  0
VERTEX
  8
1
  6
CONTINUOUS
 62
     7
 10
-210.3665413458493
 20
63.60855162050244
  0
VERTEX
  8
1
  6
CONTINUOUS
 62
     7
 10
-210.3660293635766
 20
63.5523419530052
  0
VERTEX
  8
1
  6
CONTINUOUS
 62
     7
 10
-210.3676981632505
 20
63.49685478116368
  0
VERTEX
  8
1
  6
CONTINUOUS
 62
     7
 10
-210.3719170106385
 20
63.44232804523175
  0
VERTEX
  8
1
  6
CONTINUOUS
 62
     7
 10
-210.3790551715082
 20
63.38899968546333
  0
VERTEX
  8
1
  6
CONTINUOUS
 62
     7
 10
-210.3894819116271
 20
63.33710764211226
  0
VERTEX
  8
1
  6
CONTINUOUS
 62
     7
 10
-210.4035664967628
 20
63.28688985543243
  0
VERTEX
  8
1
  6
CONTINUOUS
 62
     7
 10
-210.4129426767719
 20
63.26029163991742
  0
VERTEX
  8
1
  6
CONTINUOUS
 62
     7
 10
-210.4236591865615
 20
63.23422597093644
  0
VERTEX
  8
1
  6
CONTINUOUS
 62
     7
 10
-210.4357811678796
 20
63.20879128210162
  0
VERTEX
  8
1
  6
CONTINUOUS
 62
     7
 10
-210.4493737624746
 20
63.1840860070251
  0
VERTEX
  8
1
  6
CONTINUOUS
 62
     7
 10
-210.4645021120945
 20
63.16020857931899
  0
VERTEX
  8
1
  6
CONTINUOUS
 62
     7
 10
-210.4812313584877
 20
63.13725743259543
  0
VERTEX
  8
1
  6
CONTINUOUS
 62
     7
 10
-210.4960223241035
 20
63.11938174044557
  0
VERTEX
  8
1
  6
CONTINUOUS
 62
     7
 10
-210.51196625073
 20
63.10218485613139
  0
VERTEX
  8
1
  6
CONTINUOUS
 62
     7
 10
-210.5290697852392
 20
63.08574571483327
  0
VERTEX
  8
1
  6
CONTINUOUS
 62
     7
 10
-210.5430385370444
 20
63.07364858297615
  0
VERTEX
  8
1
  6
CONTINUOUS
 62
     7
 10
-210.557730103025
 20
63.06204856822312
  0
VERTEX
  8
1
  6
CONTINUOUS
 62
     7
 10
-210.573127829713
 20
63.0509880420656
  0
VERTEX
  8
1
  6
CONTINUOUS
 62
     7
 10
-210.5892150636402
 20
63.04050937599498
  0
VERTEX
  8
1
  6
CONTINUOUS
 62
     7
 10
-210.6065955606143
 20
63.030304821792
  0
VERTEX
  8
1
  6
CONTINUOUS
 62
     7
 10
-210.6247140884445
 20
63.02077560267817
  0
VERTEX
  8
1
  6
CONTINUOUS
 62
     7
 10
-210.6435219143146
 20
63.01197069733585
  0
VERTEX
  8
1
  6
CONTINUOUS
 62
     7
 10
-210.6584705824342
 20
63.00570271144328
  0
VERTEX
  8
1
  6
CONTINUOUS
 62
     7
 10
-210.6738138618742
 20
62.99989242734309
  0
VERTEX
  8
1
  6
CONTINUOUS
 62
     7
 10
-210.6895145091836
 20
62.99455996940939
  0
VERTEX
  8
1
  6
CONTINUOUS
 62
     7
 10
-210.7055352809113
 20
62.98972546201625
  0
VERTEX
  8
1
  6
CONTINUOUS
 62
     7
 10
-210.7224029659837
 20
62.9852679979824
  0
VERTEX
  8
1
  6
CONTINUOUS
 62
     7
 10
-210.7395865020581
 20
62.98135935731388
  0
VERTEX
  8
1
  6
CONTINUOUS
 62
     7
 10
-210.7570291148889
 20
62.97801485808486
  0
VERTEX
  8
1
  6
CONTINUOUS
 62
     7
 10
-210.7746740302304
 20
62.97524981836955
  0
VERTEX
  8
1
  6
CONTINUOUS
 62
     7
 10
-210.7932312364645
 20
62.9729965955772
  0
VERTEX
  8
1
  6
CONTINUOUS
 62
     7
 10
-210.8119627904848
 20
62.97138084867038
  0
VERTEX
  8
1
  6
CONTINUOUS
 62
     7
 10
-210.8307942309891
 20
62.97040766777054
  0
VERTEX
  8
1
  6
CONTINUOUS
 62
     7
 10
-210.8496510966749
 20
62.97008214299913
  0
SEQEND
  8
1
  6
CONTINUOUS
 62
     7
  0
POLYLINE
  8
1
  6
CONTINUOUS
 62
     7
 66
     1
  0
VERTEX
  8
1
  6
CONTINUOUS
 62
     7
 10
-194.8170155699918
 20
62.97008214299913
  0
VERTEX
  8
1
  6
CONTINUOUS
 62
     7
 10
-194.8331685740562
 20
62.97032049839396
  0
VERTEX
  8
1
  6
CONTINUOUS
 62
     7
 10
-194.8493056516479
 20
62.97103384145839
  0
VERTEX
  8
1
  6
CONTINUOUS
 62
     7
 10
-194.8653797761073
 20
62.97221958751242
  0
VERTEX
  8
1
  6
CONTINUOUS
 62
     7
 10
-194.8813439207752
 20
62.97387515187602
  0
VERTEX
  8
1
  6
CONTINUOUS
 62
     7
 10
-194.8976962288098
 20
62.97607755067263
  0
VERTEX
  8
1
  6
CONTINUOUS
 62
     7
 10
-194.913899183245
 20
62.97877528204257
  0
VERTEX
  8
1
  6
CONTINUOUS
 62
     7
 10
-194.9299065941412
 20
62.98195778179863
  0
VERTEX
  8
1
  6
CONTINUOUS
 62
     7
 10
-194.9456722715587
 20
62.98561448575359
  0
VERTEX
  8
1
  6
CONTINUOUS
 62
     7
 10
-194.9606878803345
 20
62.98960120881705
  0
VERTEX
  8
1
  6
CONTINUOUS
 62
     7
 10
-194.9754557024272
 20
62.99402027554614
  0
VERTEX
  8
1
  6
CONTINUOUS
 62
     7
 10
-194.9899434758872
 20
62.99885702713038
  0
VERTEX
  8
1
  6
CONTINUOUS
 62
     7
 10
-195.0041189387648
 20
63.00409680475935
  0
VERTEX
  8
1
  6
CONTINUOUS
 62
     7
 10
-195.0230066682541
 20
63.01191147391463
  0
VERTEX
  8
1
  6
CONTINUOUS
 62
     7
 10
-195.0412772988766
 20
63.02044091839426
  0
VERTEX
  8
1
  6
CONTINUOUS
 62
     7
 10
-195.0588766207424
 20
63.02964118755347
  0
VERTEX
  8
1
  6
CONTINUOUS
 62
     7
 10
-195.0747099210365
 20
63.03882772541916
  0
VERTEX
  8
1
  6
CONTINUOUS
 62
     7
 10
-195.0899474443688
 20
63.04855938293788
  0
VERTEX
  8
1
  6
CONTINUOUS
 62
     7
 10
-195.1045684596676
 20
63.0588001303307
  0
VERTEX
  8
1
  6
CONTINUOUS
 62
     7
 10
-195.1185522358612
 20
63.06951393781862
  0
VERTEX
  8
1
  6
CONTINUOUS
 62
     7
 10
-195.1367141182792
 20
63.08495006546581
  0
VERTEX
  8
1
  6
CONTINUOUS
 62
     7
 10
-195.1537229563814
 20
63.10119308064255
  0
VERTEX
  8
1
  6
CONTINUOUS
 62
     7
 10
-195.1695733613619
 20
63.11816106825849
  0
VERTEX
  8
1
  6
CONTINUOUS
 62
     7
 10
-195.1845043009531
 20
63.13607368353974
  0
VERTEX
  8
1
  6
CONTINUOUS
 62
     7
 10
-195.198323525713
 20
63.15464867780139
  0
VERTEX
  8
1
  6
CONTINUOUS
 62
     7
 10
-195.2110566664821
 20
63.17381940978051
  0
VERTEX
  8
1
  6
CONTINUOUS
 62
     7
 10
-195.2227293541007
 20
63.19351923821412
  0
VERTEX
  8
1
  6
CONTINUOUS
 62
     7
 10
-195.2370926373496
 20
63.22131920768914
  0
VERTEX
  8
1
  6
CONTINUOUS
 62
     7
 10
-195.2496867459969
 20
63.24998597306639
  0
VERTEX
  8
1
  6
CONTINUOUS
 62
     7
 10
-195.2606084715394
 20
63.27939958889384
  0
VERTEX
  8
1
  6
CONTINUOUS
 62
     7
 10
-195.2721095258728
 20
63.31720657973636
  0
VERTEX
  8
1
  6
CONTINUOUS
 62
     7
 10
-195.2813857397813
 20
63.35600647023801
  0
VERTEX
  8
1
  6
CONTINUOUS
 62
     7
 10
-195.2886193606629
 20
63.39565704721359
  0
VERTEX
  8
1
  6
CONTINUOUS
 62
     7
 10
-195.2939926359153
 20
63.43601609747792
  0
VERTEX
  8
1
  6
CONTINUOUS
 62
     7
 10
-195.2986723951159
 20
63.49245472312614
  0
VERTEX
  8
1
  6
CONTINUOUS
 62
     7
 10
-195.3005946221172
 20
63.55003137130991
  0
VERTEX
  8
1
  6
CONTINUOUS
 62
     7
 10
-195.3001253208174
 20
63.60855162050244
  0
SEQEND
  8
1
  6
CONTINUOUS
 62
     7
  0
LINE
  8
1
  6
CONTINUOUS
 62
     7
 10
-194.8170155699918
 20
62.97008214299913
 11
-191.8496510966749
 21
62.97008214299913
  0
POLYLINE
  8
1
  6
CONTINUOUS
 62
     7
 66
     1
  0
VERTEX
  8
1
  6
CONTINUOUS
 62
     7
 10
-191.3665413458493
 20
63.60855162050244
  0
VERTEX
  8
1
  6
CONTINUOUS
 62
     7
 10
-191.3660293635766
 20
63.5523419530052
  0
VERTEX
  8
1
  6
CONTINUOUS
 62
     7
 10
-191.3676981632505
 20
63.49685478116368
  0
VERTEX
  8
1
  6
CONTINUOUS
 62
     7
 10
-191.3719170106385
 20
63.44232804523175
  0
VERTEX
  8
1
  6
CONTINUOUS
 62
     7
 10
-191.3790551715082
 20
63.38899968546333
  0
VERTEX
  8
1
  6
CONTINUOUS
 62
     7
 10
-191.3894819116271
 20
63.33710764211226
  0
VERTEX
  8
1
  6
CONTINUOUS
 62
     7
 10
-191.4035664967628
 20
63.28688985543243
  0
VERTEX
  8
1
  6
CONTINUOUS
 62
     7
 10
-191.4129426767719
 20
63.26029163991742
  0
VERTEX
  8
1
  6
CONTINUOUS
 62
     7
 10
-191.4236591865615
 20
63.23422597093644
  0
VERTEX
  8
1
  6
CONTINUOUS
 62
     7
 10
-191.4357811678796
 20
63.20879128210162
  0
VERTEX
  8
1
  6
CONTINUOUS
 62
     7
 10
-191.4493737624746
 20
63.1840860070251
  0
VERTEX
  8
1
  6
CONTINUOUS
 62
     7
 10
-191.4645021120945
 20
63.16020857931899
  0
VERTEX
  8
1
  6
CONTINUOUS
 62
     7
 10
-191.4812313584877
 20
63.13725743259543
  0
VERTEX
  8
1
  6
CONTINUOUS
 62
     7
 10
-191.4960223241035
 20
63.11938174044557
  0
VERTEX
  8
1
  6
CONTINUOUS
 62
     7
 10
-191.51196625073
 20
63.10218485613139
  0
VERTEX
  8
1
  6
CONTINUOUS
 62
     7
 10
-191.5290697852392
 20
63.08574571483327
  0
VERTEX
  8
1
  6
CONTINUOUS
 62
     7
 10
-191.5430385370444
 20
63.07364858297613
  0
VERTEX
  8
1
  6
CONTINUOUS
 62
     7
 10
-191.557730103025
 20
63.06204856822312
  0
VERTEX
  8
1
  6
CONTINUOUS
 62
     7
 10
-191.573127829713
 20
63.0509880420656
  0
VERTEX
  8
1
  6
CONTINUOUS
 62
     7
 10
-191.5892150636402
 20
63.04050937599498
  0
VERTEX
  8
1
  6
CONTINUOUS
 62
     7
 10
-191.6065955606143
 20
63.03030482179199
  0
VERTEX
  8
1
  6
CONTINUOUS
 62
     7
 10
-191.6247140884445
 20
63.02077560267816
  0
VERTEX
  8
1
  6
CONTINUOUS
 62
     7
 10
-191.6435219143146
 20
63.01197069733585
  0
VERTEX
  8
1
  6
CONTINUOUS
 62
     7
 10
-191.6584705824342
 20
63.00570271144326
  0
VERTEX
  8
1
  6
CONTINUOUS
 62
     7
 10
-191.6738138618742
 20
62.99989242734308
  0
VERTEX
  8
1
  6
CONTINUOUS
 62
     7
 10
-191.6895145091836
 20
62.99455996940937
  0
VERTEX
  8
1
  6
CONTINUOUS
 62
     7
 10
-191.7055352809113
 20
62.98972546201625
  0
VERTEX
  8
1
  6
CONTINUOUS
 62
     7
 10
-191.7224029659837
 20
62.9852679979824
  0
VERTEX
  8
1
  6
CONTINUOUS
 62
     7
 10
-191.7395865020581
 20
62.98135935731387
  0
VERTEX
  8
1
  6
CONTINUOUS
 62
     7
 10
-191.7570291148889
 20
62.97801485808486
  0
VERTEX
  8
1
  6
CONTINUOUS
 62
     7
 10
-191.7746740302304
 20
62.97524981836955
  0
VERTEX
  8
1
  6
CONTINUOUS
 62
     7
 10
-191.7932312364645
 20
62.9729965955772
  0
VERTEX
  8
1
  6
CONTINUOUS
 62
     7
 10
-191.8119627904848
 20
62.97138084867038
  0
VERTEX
  8
1
  6
CONTINUOUS
 62
     7
 10
-191.8307942309891
 20
62.97040766777054
  0
VERTEX
  8
1
  6
CONTINUOUS
 62
     7
 10
-191.8496510966749
 20
62.97008214299913
  0
SEQEND
  8
1
  6
CONTINUOUS
 62
     7
  0
LINE
  8
1
  6
CONTINUOUS
 62
     7
 10
-276.7695821981987
 20
64.77494641543146
 11
-276.8001253208174
 21
63.60855162050244
  0
LINE
  8
1
  6
CONTINUOUS
 62
     7
 10
-184.7695821981987
 20
64.77494641543146
 11
-184.8001253208174
 21
63.60855162050244
  0
LINE
  8
1
  6
CONTINUOUS
 62
     7
 10
-174.8665413458493
 20
63.60855162050244
 11
-174.8970844684681
 21
64.77494641543146
  0
LINE
  8
1
  6
CONTINUOUS
 62
     7
 10
-230.7695821981987
 20
64.77494641543146
 11
-230.8001253208174
 21
63.60855162050244
  0
LINE
  8
1
  6
CONTINUOUS
 62
     7
 10
-220.8665413458493
 20
63.60855162050244
 11
-220.897084468468
 21
64.77494641543146
  0
LINE
  8
1
  6
CONTINUOUS
 62
     7
 10
-266.8665413458493
 20
63.60855162050244
 11
-266.8970844684681
 21
64.77494641543146
  0
LINE
  8
1
  6
CONTINUOUS
 62
     7
 10
-260.2695821981987
 20
64.77494641543147
 11
-260.3001253208174
 21
63.60855162050244
  0
LINE
  8
1
  6
CONTINUOUS
 62
     7
 10
-287.2695821981986
 20
64.77494641543146
 11
-287.3001253208174
 21
63.60855162050244
  0
LINE
  8
1
  6
CONTINUOUS
 62
     7
 10
-214.2695821981987
 20
64.77494641543147
 11
-214.3001253208174
 21
63.60855162050244
  0
LINE
  8
1
  6
CONTINUOUS
 62
     7
 10
-256.3665413458493
 20
63.60855162050244
 11
-256.3970844684681
 21
64.77494641543146
  0
LINE
  8
1
  6
CONTINUOUS
 62
     7
 10
-241.2695821981987
 20
64.77494641543146
 11
-241.3001253208174
 21
63.60855162050244
  0
LINE
  8
1
  6
CONTINUOUS
 62
     7
 10
-210.3665413458493
 20
63.60855162050244
 11
-210.3970844684681
 21
64.77494641543146
  0
LINE
  8
1
  6
CONTINUOUS
 62
     7
 10
-191.3665413458493
 20
63.60855162050244
 11
-191.397084468468
 21
64.77494641543146
  0
LINE
  8
1
  6
CONTINUOUS
 62
     7
 10
-283.3665413458493
 20
63.60855162050244
 11
-283.3970844684681
 21
64.77494641543146
  0
LINE
  8
1
  6
CONTINUOUS
 62
     7
 10
-195.2695821981987
 20
64.77494641543146
 11
-195.3001253208174
 21
63.60855162050244
  0
LINE
  8
1
  6
CONTINUOUS
 62
     7
 10
-168.2695821981987
 20
64.77494641543147
 11
-168.3001253208174
 21
63.60855162050244
  0
LINE
  8
1
  6
CONTINUOUS
 62
     7
 10
-164.3665413458493
 20
63.60855162050244
 11
-164.3970844684681
 21
64.77494641543146
  0
LINE
  8
1
  6
CONTINUOUS
 62
     7
 10
-237.3665413458493
 20
63.60855162050244
 11
-237.3970844684681
 21
64.77494641543146
  0
LINE
  8
1
  6
CONTINUOUS
 62
     7
 10
-254.8333333333333
 20
60.34038878620112
 11
-258.8333333333334
 21
60.34038878620112
  0
ARC
  8
1
  6
CONTINUOUS
 62
     7
 10
-254.8333333333333
 20
61.34038878620112
 40
1.000000000000001
 50
270.0
 51
0.0
  0
LINE
  8
1
  6
CONTINUOUS
 62
     7
 10
-238.8333333333334
 20
60.34038878620112
 11
-242.8333333333333
 21
60.34038878620112
  0
ARC
  8
1
  6
CONTINUOUS
 62
     7
 10
-242.8333333333333
 20
61.34038878620112
 40
1.000000000000001
 50
180.0
 51
270.0
  0
LINE
  8
1
  6
CONTINUOUS
 62
     7
 10
-192.8333333333333
 20
60.34038878620112
 11
-196.8333333333333
 21
60.34038878620112
  0
ARC
  8
1
  6
CONTINUOUS
 62
     7
 10
-196.8333333333333
 20
61.34038878620112
 40
1.000000000000001
 50
180.0
 51
270.0
  0
LINE
  8
1
  6
CONTINUOUS
 62
     7
 10
-253.8333333333333
 20
62.34038878620112
 11
-253.8333333333333
 21
61.34038878620112
  0
LINE
  8
1
  6
CONTINUOUS
 62
     7
 10
-284.8333333333334
 20
60.34038878620112
 11
-288.8333333333334
 21
60.34038878620112
  0
ARC
  8
1
  6
CONTINUOUS
 62
     7
 10
-288.8333333333334
 20
61.34038878620112
 40
1.000000000000001
 50
180.0
 51
270.0
  0
LINE
  8
1
  6
CONTINUOUS
 62
     7
 10
-212.8333333333334
 20
60.34038878620112
 11
-238.8333333333333
 21
60.34038878620112
  0
LINE
  8
1
  6
CONTINUOUS
 62
     7
 10
-208.8333333333333
 20
60.34038878620112
 11
-212.8333333333334
 21
60.34038878620112
  0
ARC
  8
1
  6
CONTINUOUS
 62
     7
 10
-208.8333333333334
 20
61.34038878620112
 40
1.000000000000001
 50
270.0
 51
0.0
  0
LINE
  8
1
  6
CONTINUOUS
 62
     7
 10
-166.8333333333334
 20
60.34038878620112
 11
-192.8333333333333
 21
60.34038878620112
  0
LINE
  8
1
  6
CONTINUOUS
 62
     7
 10
-243.8333333333333
 20
62.34038878620112
 11
-243.8333333333333
 21
61.34038878620112
  0
LINE
  8
1
  6
CONTINUOUS
 62
     7
 10
-197.8333333333333
 20
62.34038878620112
 11
-197.8333333333333
 21
61.34038878620112
  0
LINE
  8
1
  6
CONTINUOUS
 62
     7
 10
-289.8333333333334
 20
62.34038878620112
 11
-289.8333333333334
 21
61.34038878620112
  0
LINE
  8
1
  6
CONTINUOUS
 62
     7
 10
-162.8333333333333
 20
60.34038878620112
 11
-166.8333333333334
 21
60.34038878620112
  0
ARC
  8
1
  6
CONTINUOUS
 62
     7
 10
-162.8333333333333
 20
61.34038878620112
 40
1.000000000000001
 50
270.0
 51
0.0
  0
LINE
  8
1
  6
CONTINUOUS
 62
     7
 10
-207.8333333333334
 20
62.34038878620112
 11
-207.8333333333333
 21
61.34038878620112
  0
LINE
  8
1
  6
CONTINUOUS
 62
     7
 10
-258.8333333333334
 20
60.34038878620112
 11
-284.8333333333334
 21
60.34038878620112
  0
LINE
  8
1
  6
CONTINUOUS
 62
     7
 10
-161.8333333333333
 20
62.34038878620112
 11
-161.8333333333333
 21
61.34038878620112
  0
ENDBLK
  8
0
  0
ENDSEC
  0
SECTION
  2
ENTITIES
  0
INSERT
  8
1
  6
CONTINUOUS
 62
     7
  2
D_FRAME_VIEW_1491
 10
0.0
 20
0.0
 30
0.0
  0
LINE
  8
1
  6
CONTINUOUS
 62
     7
 10
-87.81421183789328
 20
166.4744995459462
 11
-94.84038878620113
 21
166.2905126274466
  0
LINE
  8
1
  6
CONTINUOUS
 62
     7
 10
-97.84038878620113
 20
145.0
 11
-94.84038878620113
 21
145.0
  0
LINE
  8
1
  6
CENTER
 62
     1
 10
-225.8333333333333
 20
135.0
 11
-225.8333333333333
 21
270.0
  0
LINE
  8
1
  6
CENTER
 62
     1
 10
-225.8333333333333
 20
106.6666666666667
 11
-225.8333333333333
 21
51.66666666666666
  0
LINE
  8
1
  6
CONTINUOUS
 62
     7
 10
-94.84038878620113
 20
243.7094873725535
 11
-87.81421183789328
 21
243.5255004540539
  0
LINE
  8
1
  6
CONTINUOUS
 62
     7
 10
-86.84038878620115
 20
168.5
 11
-86.84038878620115
 21
167.4741568709217
  0
LINE
  8
1
  6
CENTER
 62
     1
 10
-104.1666666666667
 20
205.0
 11
-49.16666666666669
 21
205.0
  0
LINE
  8
1
  6
CONTINUOUS
 62
     7
 10
-94.84038878620113
 20
265.0
 11
-94.84038878620113
 21
145.0000000000001
  0
LINE
  8
1
  6
CONTINUOUS
 62
     7
 10
-97.84038878620113
 20
265.0
 11
-94.84038878620113
 21
265.0
  0
LINE
  8
1
  6
CONTINUOUS
 62
     7
 10
-86.84038878620115
 20
242.5258431290783
 11
-86.84038878620115
 21
241.5000000000001
  0
LINE
  8
1
  6
CONTINUOUS
 62
     7
 10
-144.8333333333333
 20
100.3403887862011
 11
-306.8333333333333
 21
100.3403887862011
  0
LINE
  8
1
  6
CONTINUOUS
 62
     7
 10
-144.8333333333333
 20
100.3403887862011
 11
-144.8333333333333
 21
97.34038878620113
  0
LINE
  8
1
  6
CONTINUOUS
 62
     7
 10
-154.8738459607798
 20
97.34038878620113
 11
-155.0578328792795
 21
90.31421183789325
  0
LINE
  8
1
  6
CONTINUOUS
 62
     7
 10
-144.8333333333333
 20
97.34038878620113
 11
-306.8333333333333
 21
97.34038878620113
  0
LINE
  8
1
  6
CONTINUOUS
 62
     7
 10
-296.6088337873872
 20
90.31421183789325
 11
-296.7928207058868
 21
97.34038878620113
  0
LINE
  8
1
  6
CONTINUOUS
 62
     7
 10
-306.8333333333333
 20
100.3403887862011
 11
-306.8333333333333
 21
97.34038878620113
  0
TEXT
  8
1
  6
CONTINUOUS
 62
     7
 10
-90.26077070568132
 20
93.3284200325122
 40
3.0
  1
BZ-3CRS
  0
LINE
  8
1
  6
CONTINUOUS
 62
     2
 10
-90.11893939393941
 20
92.77045454545456
 11
-78.21439393939396
 21
92.77045454545456
  0
INSERT
  8
1
  6
CONTINUOUS
 62
     7
  2
D_FRAME_VIEW_2376
 10
0.0
 20
0.0
 30
0.0
  0
INSERT
  8
1
  6
CONTINUOUS
 62
     7
  2
D_FRAME_VIEW_2664
 10
0.0
 20
0.0
 30
0.0
  0
LINE
  8
1
  6
CONTINUOUS
 62
     7
 10
-97.84038878620113
 20
265.0
 11
-97.84038878620113
 21
145.0000000000001
  0
ENDSEC
  0
EOF
