  0
SECTION
  2
HEADER
  9
$ACADVER
  1
AC1004
  9
$INSBASE
 10
0.0
 20
0.0
  9
$EXTMIN
 10
-355.6666666666667
 20
40.00000000000003
  9
$EXTMAX
 10
-60.83333333333332
 20
269.1666666666667
  9
$LIMMIN
 10
0.0
 20
0.0
  9
$LIMMAX
 10
12.0
 20
9.0
  9
$ORTHOMODE
 70
     0
  9
$REGENMODE
 70
     1
  9
$FILLMODE
 70
     1
  9
$QTEXTMODE
 70
     0
  9
$DRAGMODE
 70
     2
  9
$LTSCALE
 40
1.0
  9
$OSMODE
 70
    37
  9
$ATTMODE
 70
     1
  9
$TEXTSIZE
 40
0.2
  9
$TRACEWID
 40
0.05
  9
$TEXTSTYLE
  7
STANDARD
  9
$CLAYER
  8
0
  9
$CELTYPE
  6
BYLAYER
  9
$CECOLOR
 62
   256
  9
$DIMSCALE
 40
1.0
  9
$DIMASZ
 40
3.0
  9
$DIMEXO
 40
0.0625
  9
$DIMDLI
 40
0.38
  9
$DIMRND
 40
0.0
  9
$DIMDLE
 40
0.0
  9
$DIMEXE
 40
1.5
  9
$DIMTP
 40
0.0
  9
$DIMTM
 40
0.0
  9
$DIMTXT
 40
3.0
  9
$DIMCEN
 40
0.09
  9
$DIMTSZ
 40
0.0
  9
$DIMTOL
 70
     0
  9
$DIMLIM
 70
     0
  9
$DIMTIH
 70
     1
  9
$DIMTOH
 70
     1
  9
$DIMSE1
 70
     0
  9
$DIMSE2
 70
     0
  9
$DIMTAD
 70
     1
  9
$DIMZIN
 70
     0
  9
$DIMBLK
  1

  9
$DIMASO
 70
     1
  9
$DIMSHO
 70
     1
  9
$DIMPOST
  1

  9
$DIMAPOST
  1

  9
$DIMALT
 70
     0
  9
$DIMALTD
 70
     2
  9
$DIMALTF
 40
25.4
  9
$DIMLFAC
 40
1.0
  9
$DIMTOFL
 70
     0
  9
$DIMTVP
 40
0.0
  9
$DIMTIX
 70
     0
  9
$DIMSOXD
 70
     0
  9
$DIMSAH
 70
     0
  9
$DIMBLK1
  1

  9
$DIMBLK2
  1

  9
$LUNITS
 70
     2
  9
$LUPREC
 70
     4
  9
$SKETCHINC
 40
0.1
  9
$FILLETRAD
 40
0.5
  9
$AUNITS
 70
     0
  9
$AUPREC
 70
     0
  9
$MENU
  1
.
  9
$ELEVATION
 40
0.0
  9
$THICKNESS
 40
0.0
  9
$LIMCHECK
 70
     0
  9
$CHAMFERA
 40
0.0
  9
$CHAMFERB
 40
0.0
  9
$SKPOLY
 70
     0
  9
$TDCREATE
 40
2459984.622373102
  9
$TDUPDATE
 40
2459984.622373449
  9
$TDINDWG
 40
0.0000000116
  9
$TDUSRTIMER
 40
0.0000000116
  9
$USRTIMER
 70
     1
  9
$ANGBASE
 50
0.0
  9
$ANGDIR
 70
     0
  9
$PDMODE
 70
     0
  9
$PDSIZE
 40
0.0
  9
$PLINEWID
 40
0.0
  9
$COORDS
 70
     1
  9
$SPLFRAME
 70
     0
  9
$SPLINETYPE
 70
     6
  9
$SPLINESEGS
 70
     8
  9
$ATTDIA
 70
     0
  9
$ATTREQ
 70
     1
  9
$SURFTAB1
 70
     6
  9
$SURFTAB2
 70
     6
  9
$SURFTYPE
 70
     6
  9
$SURFU
 70
     6
  9
$SURFV
 70
     6
  9
$UCSNAME
  2

  9
$UCSORG
 10
0.0
 20
0.0
 30
0.0
  9
$UCSXDIR
 10
1.0
 20
0.0
 30
0.0
  9
$UCSYDIR
 10
0.0
 20
1.0
 30
0.0
  9
$USERI1
 70
     0
  9
$USERI2
 70
     0
  9
$USERI3
 70
     0
  9
$USERI4
 70
     0
  9
$USERI5
 70
     0
  9
$USERR1
 40
0.0
  9
$USERR2
 40
0.0
  9
$USERR3
 40
0.0
  9
$USERR4
 40
0.0
  9
$USERR5
 40
0.0
  9
$WORLDVIEW
 70
     1
  0
ENDSEC
  0
SECTION
  2
TABLES
  0
TABLE
  2
LTYPE
 70
     2
  0
LTYPE
  2
CONTINUOUS
 70
     0
  3
Solid line
 72
    65
 73
     0
 40
0.0
  0
LTYPE
  2
CENTER
 70
     0
  3

 72
    65
 73
     0
 40
0.0
  0
ENDTAB
  0
TABLE
  2
LAYER
 70
     2
  0
LAYER
  2
0
 70
     0
 62
     7
  6
CONTINUOUS
  0
LAYER
  2
1
 70
     0
 62
     7
  6
CONTINUOUS
  0
ENDTAB
  0
TABLE
  2
STYLE
 70
     2
  0
STYLE
  2
STANDARD
 70
     0
 40
0.0
 41
1.0
 50
0.0
 71
     0
 42
0.2
  3
txt
  4

  0
STYLE
  2
ＭＳ_ゴシック
 70
     0
 40
0.0
 41
1.0
 50
0.0
 71
     0
 42
0.2
  3
ＭＳ ゴシック.shx
  4

  0
ENDTAB
  0
TABLE
  2
VIEW
 70
     0
  0
ENDTAB
  0
ENDSEC
  0
SECTION
  2
BLOCKS
  0
BLOCK
  8
0
  2
D_FRAME_VIEW_2962
 70
     0
 10
0.0
 20
0.0
  0
ARC
  8
1
  6
CONTINUOUS
 62
     7
 10
-158.8908235375883
 20
83.67372211953447
 40
1.000000000000004
 50
270.0
 51
358.5
  0
LINE
  8
1
  6
CONTINUOUS
 62
     7
 10
-158.8908235375883
 20
82.67372211953447
 11
-160.3903095250517
 21
82.67372211953447
  0
LINE
  8
1
  6
CONTINUOUS
 62
     7
 10
-160.3903095250517
 20
82.67372211953447
 11
-342.9430238082817
 21
82.67372211953447
  0
LINE
  8
1
  6
CONTINUOUS
 62
     7
 10
-342.9430238082817
 20
82.67372211953447
 11
-344.4425097957451
 21
82.67372211953447
  0
ARC
  8
1
  6
CONTINUOUS
 62
     7
 10
-344.442509795745
 20
83.67372211953447
 40
1.000000000000032
 50
181.4999999999999
 51
269.9999999999992
  0
LINE
  8
1
  6
CONTINUOUS
 62
     7
 10
-344.7733979194334
 20
58.10827974876482
 11
-345.4166666666667
 21
82.67372211953447
  0
LINE
  8
1
  6
CONTINUOUS
 62
     7
 10
-345.4166666666667
 20
82.67372211953447
 11
-345.4421671207206
 21
83.64754517122661
  0
LINE
  8
1
  6
CONTINUOUS
 62
     7
 10
-157.8911662126128
 20
83.64754517122661
 11
-157.9166666666667
 21
82.67372211953341
  0
LINE
  8
1
  6
CONTINUOUS
 62
     7
 10
-157.9166666666667
 20
82.67372211953341
 11
-158.5599354139
 21
58.10827974876482
  0
LINE
  8
1
  6
CONTINUOUS
 62
     7
 10
-213.3509963189238
 20
62.71298754199626
 11
-213.2304178018012
 21
58.10827974876482
  0
ARC
  8
1
  6
CONTINUOUS
 62
     7
 10
-214.8504823063871
 20
62.67372211953445
 40
1.500000000000001
 50
1.500000000000114
 51
90.0
  0
LINE
  8
1
  6
CONTINUOUS
 62
     7
 10
-215.4828510269459
 20
64.17372211953445
 11
-214.8504823063871
 21
64.17372211953445
  0
ARC
  8
1
  6
CONTINUOUS
 62
     7
 10
-215.4828510269459
 20
62.67372211953445
 40
1.500000000000001
 50
90.0
 51
178.4999999999999
  0
LINE
  8
1
  6
CONTINUOUS
 62
     7
 10
-217.1029155315318
 20
58.10827974876482
 11
-216.9823370144093
 21
62.71298754199626
  0
LINE
  8
1
  6
CONTINUOUS
 62
     7
 10
-223.7999954108161
 20
60.76534143861202
 11
-223.7304178018013
 21
58.10827974876482
  0
ARC
  8
1
  6
CONTINUOUS
 62
     7
 10
-227.2987960482305
 20
60.67372211953446
 40
3.500000000000002
 50
1.5
 51
90.0
  0
LINE
  8
1
  6
CONTINUOUS
 62
     7
 10
-230.0345372851026
 20
64.17372211953445
 11
-227.2987960482305
 21
64.17372211953445
  0
ARC
  8
1
  6
CONTINUOUS
 62
     7
 10
-230.0345372851026
 20
60.67372211953446
 40
3.500000000000002
 50
90.0
 51
178.5
  0
LINE
  8
1
  6
CONTINUOUS
 62
     7
 10
-233.6029155315318
 20
58.10827974876482
 11
-233.533337922517
 21
60.76534143861202
  0
LINE
  8
1
  6
CONTINUOUS
 62
     7
 10
-240.3509963189241
 20
62.71298754199626
 11
-240.2304178018016
 21
58.10827974876482
  0
ARC
  8
1
  6
CONTINUOUS
 62
     7
 10
-241.8504823063875
 20
62.67372211953445
 40
1.500000000000001
 50
1.500000000000114
 51
90.0000000000011
  0
LINE
  8
1
  6
CONTINUOUS
 62
     7
 10
-242.4828510269462
 20
64.17372211953445
 11
-241.8504823063875
 21
64.17372211953445
  0
ARC
  8
1
  6
CONTINUOUS
 62
     7
 10
-242.4828510269462
 20
62.67372211953445
 40
1.500000000000001
 50
90.0
 51
178.4999999999999
  0
LINE
  8
1
  6
CONTINUOUS
 62
     7
 10
-244.1029155315322
 20
58.10827974876482
 11
-243.9823370144096
 21
62.71298754199626
  0
LINE
  8
1
  6
CONTINUOUS
 62
     7
 10
-259.3509963189238
 20
62.71298754199626
 11
-259.2304178018012
 21
58.10827974876482
  0
ARC
  8
1
  6
CONTINUOUS
 62
     7
 10
-260.8504823063871
 20
62.67372211953445
 40
1.500000000000001
 50
1.500000000000114
 51
90.0000000000021
  0
LINE
  8
1
  6
CONTINUOUS
 62
     7
 10
-261.4828510269459
 20
64.17372211953445
 11
-260.8504823063872
 21
64.17372211953445
  0
ARC
  8
1
  6
CONTINUOUS
 62
     7
 10
-261.4828510269459
 20
62.67372211953445
 40
1.500000000000001
 50
90.0
 51
178.4999999999999
  0
LINE
  8
1
  6
CONTINUOUS
 62
     7
 10
-263.1029155315318
 20
58.10827974876482
 11
-262.9823370144093
 21
62.71298754199626
  0
LINE
  8
1
  6
CONTINUOUS
 62
     7
 10
-269.7999954108164
 20
60.76534143861202
 11
-269.7304178018015
 21
58.10827974876482
  0
ARC
  8
1
  6
CONTINUOUS
 62
     7
 10
-273.2987960482308
 20
60.67372211953446
 40
3.500000000000002
 50
1.500000000000114
 51
90.0
  0
LINE
  8
1
  6
CONTINUOUS
 62
     7
 10
-276.0345372851028
 20
64.17372211953445
 11
-273.2987960482308
 21
64.17372211953445
  0
ARC
  8
1
  6
CONTINUOUS
 62
     7
 10
-276.0345372851028
 20
60.67372211953446
 40
3.500000000000002
 50
90.0
 51
178.5
  0
LINE
  8
1
  6
CONTINUOUS
 62
     7
 10
-279.6029155315322
 20
58.10827974876482
 11
-279.5333379225173
 21
60.76534143861202
  0
LINE
  8
1
  6
CONTINUOUS
 62
     7
 10
-286.3509963189241
 20
62.71298754199626
 11
-286.2304178018016
 21
58.10827974876482
  0
ARC
  8
1
  6
CONTINUOUS
 62
     7
 10
-287.8504823063875
 20
62.67372211953445
 40
1.500000000000001
 50
1.500000000000057
 51
90.0
  0
LINE
  8
1
  6
CONTINUOUS
 62
     7
 10
-288.4828510269463
 20
64.17372211953445
 11
-287.8504823063875
 21
64.17372211953445
  0
ARC
  8
1
  6
CONTINUOUS
 62
     7
 10
-288.4828510269463
 20
62.67372211953445
 40
1.500000000000001
 50
90.0
 51
178.4999999999999
  0
LINE
  8
1
  6
CONTINUOUS
 62
     7
 10
-290.1029155315322
 20
58.10827974876482
 11
-289.9823370144096
 21
62.71298754199626
  0
LINE
  8
1
  6
CONTINUOUS
 62
     7
 10
-305.3509963189238
 20
62.71298754199628
 11
-305.2304178018013
 21
58.10827974876482
  0
ARC
  8
1
  6
CONTINUOUS
 62
     7
 10
-306.8504823063872
 20
62.67372211953445
 40
1.500000000000001
 50
1.500000000000625
 51
90.0
  0
LINE
  8
1
  6
CONTINUOUS
 62
     7
 10
-307.4828510269459
 20
64.17372211953445
 11
-306.8504823063872
 21
64.17372211953445
  0
ARC
  8
1
  6
CONTINUOUS
 62
     7
 10
-307.4828510269459
 20
62.67372211953445
 40
1.500000000000001
 50
90.0
 51
178.4999999999999
  0
LINE
  8
1
  6
CONTINUOUS
 62
     7
 10
-309.1029155315318
 20
58.10827974876482
 11
-308.9823370144093
 21
62.71298754199626
  0
LINE
  8
1
  6
CONTINUOUS
 62
     7
 10
-315.7999954108164
 20
60.76534143861202
 11
-315.7304178018015
 21
58.10827974876482
  0
ARC
  8
1
  6
CONTINUOUS
 62
     7
 10
-319.2987960482308
 20
60.67372211953446
 40
3.500000000000002
 50
1.5
 51
90.0
  0
LINE
  8
1
  6
CONTINUOUS
 62
     7
 10
-322.0345372851029
 20
64.17372211953445
 11
-319.2987960482308
 21
64.17372211953445
  0
ARC
  8
1
  6
CONTINUOUS
 62
     7
 10
-322.0345372851029
 20
60.67372211953446
 40
3.500000000000002
 50
90.0
 51
178.5
  0
LINE
  8
1
  6
CONTINUOUS
 62
     7
 10
-325.6029155315321
 20
58.10827974876482
 11
-325.5333379225174
 21
60.76534143861202
  0
LINE
  8
1
  6
CONTINUOUS
 62
     7
 10
-332.3509963189242
 20
62.71298754199626
 11
-332.2304178018015
 21
58.10827974876482
  0
ARC
  8
1
  6
CONTINUOUS
 62
     7
 10
-333.8504823063874
 20
62.67372211953445
 40
1.500000000000001
 50
1.500000000000114
 51
90.0
  0
LINE
  8
1
  6
CONTINUOUS
 62
     7
 10
-334.4828510269463
 20
64.17372211953445
 11
-333.8504823063874
 21
64.17372211953445
  0
ARC
  8
1
  6
CONTINUOUS
 62
     7
 10
-334.4828510269463
 20
62.67372211953445
 40
1.500000000000001
 50
90.0
 51
178.4999999999999
  0
LINE
  8
1
  6
CONTINUOUS
 62
     7
 10
-336.1029155315321
 20
58.10827974876482
 11
-335.9823370144096
 21
62.71298754199626
  0
LINE
  8
1
  6
CONTINUOUS
 62
     7
 10
-167.3509963189238
 20
62.71298754199626
 11
-167.2304178018012
 21
58.10827974876482
  0
ARC
  8
1
  6
CONTINUOUS
 62
     7
 10
-168.8504823063872
 20
62.67372211953445
 40
1.500000000000001
 50
1.500000000000057
 51
90.0
  0
LINE
  8
1
  6
CONTINUOUS
 62
     7
 10
-169.4828510269459
 20
64.17372211953445
 11
-168.8504823063872
 21
64.17372211953445
  0
ARC
  8
1
  6
CONTINUOUS
 62
     7
 10
-169.4828510269459
 20
62.67372211953445
 40
1.500000000000001
 50
89.99999999999892
 51
178.4999999999999
  0
LINE
  8
1
  6
CONTINUOUS
 62
     7
 10
-171.1029155315318
 20
58.10827974876482
 11
-170.9823370144093
 21
62.71298754199626
  0
LINE
  8
1
  6
CONTINUOUS
 62
     7
 10
-177.799995410816
 20
60.76534143861202
 11
-177.7304178018013
 21
58.10827974876482
  0
ARC
  8
1
  6
CONTINUOUS
 62
     7
 10
-181.2987960482305
 20
60.67372211953446
 40
3.500000000000002
 50
1.5
 51
90.00000000000045
  0
LINE
  8
1
  6
CONTINUOUS
 62
     7
 10
-184.0345372851026
 20
64.17372211953445
 11
-181.2987960482305
 21
64.17372211953445
  0
ARC
  8
1
  6
CONTINUOUS
 62
     7
 10
-184.0345372851025
 20
60.67372211953446
 40
3.500000000000002
 50
90.00000000000045
 51
178.5
  0
LINE
  8
1
  6
CONTINUOUS
 62
     7
 10
-187.6029155315319
 20
58.10827974876482
 11
-187.533337922517
 21
60.76534143861202
  0
LINE
  8
1
  6
CONTINUOUS
 62
     7
 10
-194.3509963189242
 20
62.71298754199626
 11
-194.2304178018016
 21
58.10827974876482
  0
ARC
  8
1
  6
CONTINUOUS
 62
     7
 10
-195.8504823063875
 20
62.67372211953445
 40
1.500000000000001
 50
1.500000000000114
 51
90.0
  0
LINE
  8
1
  6
CONTINUOUS
 62
     7
 10
-196.4828510269463
 20
64.17372211953445
 11
-195.8504823063875
 21
64.17372211953445
  0
ARC
  8
1
  6
CONTINUOUS
 62
     7
 10
-196.4828510269463
 20
62.67372211953445
 40
1.500000000000001
 50
90.0
 51
178.4999999999999
  0
LINE
  8
1
  6
CONTINUOUS
 62
     7
 10
-198.1029155315321
 20
58.10827974876482
 11
-197.9823370144096
 21
62.71298754199626
  0
ARC
  8
1
  6
CONTINUOUS
 62
     7
 10
-342.2742546069945
 20
58.1737221195345
 40
2.500000000000002
 50
181.5
 51
270.0
  0
ARC
  8
1
  6
CONTINUOUS
 62
     7
 10
-161.0590787263389
 20
58.1737221195345
 40
2.500000000000002
 50
270.0
 51
358.5
  0
POLYLINE
  8
1
  6
CONTINUOUS
 62
     7
 66
     1
  0
VERTEX
  8
1
  6
CONTINUOUS
 62
     7
 10
-187.150348903325
 20
56.30341547633265
  0
VERTEX
  8
1
  6
CONTINUOUS
 62
     7
 10
-187.1665019073894
 20
56.30365383172747
  0
VERTEX
  8
1
  6
CONTINUOUS
 62
     7
 10
-187.1826389849811
 20
56.30436717479191
  0
VERTEX
  8
1
  6
CONTINUOUS
 62
     7
 10
-187.1987131094405
 20
56.30555292084593
  0
VERTEX
  8
1
  6
CONTINUOUS
 62
     7
 10
-187.2146772541084
 20
56.30720848520954
  0
VERTEX
  8
1
  6
CONTINUOUS
 62
     7
 10
-187.231029562143
 20
56.30941088400615
  0
VERTEX
  8
1
  6
CONTINUOUS
 62
     7
 10
-187.2472325165782
 20
56.31210861537609
  0
VERTEX
  8
1
  6
CONTINUOUS
 62
     7
 10
-187.2632399274744
 20
56.31529111513215
  0
VERTEX
  8
1
  6
CONTINUOUS
 62
     7
 10
-187.2790056048919
 20
56.3189478190871
  0
VERTEX
  8
1
  6
CONTINUOUS
 62
     7
 10
-187.2940212136677
 20
56.32293454215056
  0
VERTEX
  8
1
  6
CONTINUOUS
 62
     7
 10
-187.3087890357604
 20
56.32735360887965
  0
VERTEX
  8
1
  6
CONTINUOUS
 62
     7
 10
-187.3232768092203
 20
56.33219036046391
  0
VERTEX
  8
1
  6
CONTINUOUS
 62
     7
 10
-187.337452272098
 20
56.33743013809286
  0
VERTEX
  8
1
  6
CONTINUOUS
 62
     7
 10
-187.3563400015873
 20
56.34524480724815
  0
VERTEX
  8
1
  6
CONTINUOUS
 62
     7
 10
-187.3746106322097
 20
56.35377425172778
  0
VERTEX
  8
1
  6
CONTINUOUS
 62
     7
 10
-187.3922099540756
 20
56.36297452088698
  0
VERTEX
  8
1
  6
CONTINUOUS
 62
     7
 10
-187.4080432543697
 20
56.37216105875267
  0
VERTEX
  8
1
  6
CONTINUOUS
 62
     7
 10
-187.423280777702
 20
56.38189271627141
  0
VERTEX
  8
1
  6
CONTINUOUS
 62
     7
 10
-187.4379017930008
 20
56.39213346366424
  0
VERTEX
  8
1
  6
CONTINUOUS
 62
     7
 10
-187.4518855691944
 20
56.40284727115215
  0
VERTEX
  8
1
  6
CONTINUOUS
 62
     7
 10
-187.4700474516123
 20
56.41828339879935
  0
VERTEX
  8
1
  6
CONTINUOUS
 62
     7
 10
-187.4870562897146
 20
56.43452641397607
  0
VERTEX
  8
1
  6
CONTINUOUS
 62
     7
 10
-187.5029066946951
 20
56.45149440159202
  0
VERTEX
  8
1
  6
CONTINUOUS
 62
     7
 10
-187.5178376342863
 20
56.46940701687327
  0
VERTEX
  8
1
  6
CONTINUOUS
 62
     7
 10
-187.5316568590462
 20
56.48798201113493
  0
VERTEX
  8
1
  6
CONTINUOUS
 62
     7
 10
-187.5443899998152
 20
56.50715274311405
  0
VERTEX
  8
1
  6
CONTINUOUS
 62
     7
 10
-187.5560626874339
 20
56.52685257154766
  0
VERTEX
  8
1
  6
CONTINUOUS
 62
     7
 10
-187.5704259706828
 20
56.55465254102271
  0
VERTEX
  8
1
  6
CONTINUOUS
 62
     7
 10
-187.5830200793301
 20
56.58331930639995
  0
VERTEX
  8
1
  6
CONTINUOUS
 62
     7
 10
-187.5939418048725
 20
56.61273292222741
  0
VERTEX
  8
1
  6
CONTINUOUS
 62
     7
 10
-187.6054428592059
 20
56.65053991306995
  0
VERTEX
  8
1
  6
CONTINUOUS
 62
     7
 10
-187.6147190731144
 20
56.6893398035716
  0
VERTEX
  8
1
  6
CONTINUOUS
 62
     7
 10
-187.621952693996
 20
56.7289903805472
  0
VERTEX
  8
1
  6
CONTINUOUS
 62
     7
 10
-187.6273259692485
 20
56.76934943081155
  0
VERTEX
  8
1
  6
CONTINUOUS
 62
     7
 10
-187.6320057284491
 20
56.82578805645977
  0
VERTEX
  8
1
  6
CONTINUOUS
 62
     7
 10
-187.6339279554504
 20
56.88336470464354
  0
VERTEX
  8
1
  6
CONTINUOUS
 62
     7
 10
-187.6334586541505
 20
56.9418849538361
  0
SEQEND
  8
1
  6
CONTINUOUS
 62
     7
  0
LINE
  8
1
  6
CONTINUOUS
 62
     7
 10
-187.150348903325
 20
56.30341547633265
 11
-178.1829844300081
 21
56.30341547633265
  0
POLYLINE
  8
1
  6
CONTINUOUS
 62
     7
 66
     1
  0
VERTEX
  8
1
  6
CONTINUOUS
 62
     7
 10
-177.6998746791825
 20
56.9418849538361
  0
VERTEX
  8
1
  6
CONTINUOUS
 62
     7
 10
-177.6993626969098
 20
56.88567528633884
  0
VERTEX
  8
1
  6
CONTINUOUS
 62
     7
 10
-177.7010314965837
 20
56.8301881144973
  0
VERTEX
  8
1
  6
CONTINUOUS
 62
     7
 10
-177.7052503439717
 20
56.77566137856537
  0
VERTEX
  8
1
  6
CONTINUOUS
 62
     7
 10
-177.7123885048414
 20
56.72233301879694
  0
VERTEX
  8
1
  6
CONTINUOUS
 62
     7
 10
-177.7228152449604
 20
56.67044097544585
  0
VERTEX
  8
1
  6
CONTINUOUS
 62
     7
 10
-177.736899830096
 20
56.62022318876602
  0
VERTEX
  8
1
  6
CONTINUOUS
 62
     7
 10
-177.7462760101051
 20
56.593624973251
  0
VERTEX
  8
1
  6
CONTINUOUS
 62
     7
 10
-177.7569925198947
 20
56.56755930427001
  0
VERTEX
  8
1
  6
CONTINUOUS
 62
     7
 10
-177.7691145012128
 20
56.54212461543519
  0
VERTEX
  8
1
  6
CONTINUOUS
 62
     7
 10
-177.7827070958078
 20
56.51741934035866
  0
VERTEX
  8
1
  6
CONTINUOUS
 62
     7
 10
-177.7978354454277
 20
56.49354191265255
  0
VERTEX
  8
1
  6
CONTINUOUS
 62
     7
 10
-177.8145646918209
 20
56.47059076592899
  0
VERTEX
  8
1
  6
CONTINUOUS
 62
     7
 10
-177.8293556574367
 20
56.45271507377912
  0
VERTEX
  8
1
  6
CONTINUOUS
 62
     7
 10
-177.8452995840632
 20
56.43551818946493
  0
VERTEX
  8
1
  6
CONTINUOUS
 62
     7
 10
-177.8624031185724
 20
56.41907904816681
  0
VERTEX
  8
1
  6
CONTINUOUS
 62
     7
 10
-177.8763718703776
 20
56.40698191630968
  0
VERTEX
  8
1
  6
CONTINUOUS
 62
     7
 10
-177.8910634363582
 20
56.39538190155665
  0
VERTEX
  8
1
  6
CONTINUOUS
 62
     7
 10
-177.9064611630462
 20
56.38432137539914
  0
VERTEX
  8
1
  6
CONTINUOUS
 62
     7
 10
-177.9225483969734
 20
56.37384270932851
  0
VERTEX
  8
1
  6
CONTINUOUS
 62
     7
 10
-177.9399288939476
 20
56.36363815512552
  0
VERTEX
  8
1
  6
CONTINUOUS
 62
     7
 10
-177.9580474217777
 20
56.3541089360117
  0
VERTEX
  8
1
  6
CONTINUOUS
 62
     7
 10
-177.9768552476478
 20
56.34530403066938
  0
VERTEX
  8
1
  6
CONTINUOUS
 62
     7
 10
-177.9918039157674
 20
56.3390360447768
  0
VERTEX
  8
1
  6
CONTINUOUS
 62
     7
 10
-178.0071471952074
 20
56.3332257606766
  0
VERTEX
  8
1
  6
CONTINUOUS
 62
     7
 10
-178.0228478425168
 20
56.3278933027429
  0
VERTEX
  8
1
  6
CONTINUOUS
 62
     7
 10
-178.0388686142445
 20
56.32305879534977
  0
VERTEX
  8
1
  6
CONTINUOUS
 62
     7
 10
-178.0557362993169
 20
56.31860133131591
  0
VERTEX
  8
1
  6
CONTINUOUS
 62
     7
 10
-178.0729198353913
 20
56.31469269064739
  0
VERTEX
  8
1
  6
CONTINUOUS
 62
     7
 10
-178.0903624482221
 20
56.31134819141838
  0
VERTEX
  8
1
  6
CONTINUOUS
 62
     7
 10
-178.1080073635636
 20
56.30858315170306
  0
VERTEX
  8
1
  6
CONTINUOUS
 62
     7
 10
-178.1265645697977
 20
56.30632992891072
  0
VERTEX
  8
1
  6
CONTINUOUS
 62
     7
 10
-178.145296123818
 20
56.30471418200389
  0
VERTEX
  8
1
  6
CONTINUOUS
 62
     7
 10
-178.1641275643223
 20
56.30374100110404
  0
VERTEX
  8
1
  6
CONTINUOUS
 62
     7
 10
-178.1829844300081
 20
56.30341547633265
  0
SEQEND
  8
1
  6
CONTINUOUS
 62
     7
  0
POLYLINE
  8
1
  6
CONTINUOUS
 62
     7
 66
     1
  0
VERTEX
  8
1
  6
CONTINUOUS
 62
     7
 10
-170.650348903325
 20
56.30341547633266
  0
VERTEX
  8
1
  6
CONTINUOUS
 62
     7
 10
-170.6665019073894
 20
56.30365383172748
  0
VERTEX
  8
1
  6
CONTINUOUS
 62
     7
 10
-170.682638984981
 20
56.30436717479191
  0
VERTEX
  8
1
  6
CONTINUOUS
 62
     7
 10
-170.6987131094405
 20
56.30555292084594
  0
VERTEX
  8
1
  6
CONTINUOUS
 62
     7
 10
-170.7146772541084
 20
56.30720848520955
  0
VERTEX
  8
1
  6
CONTINUOUS
 62
     7
 10
-170.731029562143
 20
56.30941088400616
  0
VERTEX
  8
1
  6
CONTINUOUS
 62
     7
 10
-170.7472325165782
 20
56.3121086153761
  0
VERTEX
  8
1
  6
CONTINUOUS
 62
     7
 10
-170.7632399274744
 20
56.31529111513215
  0
VERTEX
  8
1
  6
CONTINUOUS
 62
     7
 10
-170.7790056048918
 20
56.31894781908711
  0
VERTEX
  8
1
  6
CONTINUOUS
 62
     7
 10
-170.7940212136677
 20
56.32293454215058
  0
VERTEX
  8
1
  6
CONTINUOUS
 62
     7
 10
-170.8087890357604
 20
56.32735360887967
  0
VERTEX
  8
1
  6
CONTINUOUS
 62
     7
 10
-170.8232768092203
 20
56.33219036046392
  0
VERTEX
  8
1
  6
CONTINUOUS
 62
     7
 10
-170.837452272098
 20
56.33743013809288
  0
VERTEX
  8
1
  6
CONTINUOUS
 62
     7
 10
-170.8563400015873
 20
56.34524480724816
  0
VERTEX
  8
1
  6
CONTINUOUS
 62
     7
 10
-170.8746106322097
 20
56.3537742517278
  0
VERTEX
  8
1
  6
CONTINUOUS
 62
     7
 10
-170.8922099540756
 20
56.36297452088699
  0
VERTEX
  8
1
  6
CONTINUOUS
 62
     7
 10
-170.9080432543697
 20
56.37216105875267
  0
VERTEX
  8
1
  6
CONTINUOUS
 62
     7
 10
-170.923280777702
 20
56.38189271627142
  0
VERTEX
  8
1
  6
CONTINUOUS
 62
     7
 10
-170.9379017930008
 20
56.39213346366424
  0
VERTEX
  8
1
  6
CONTINUOUS
 62
     7
 10
-170.9518855691944
 20
56.40284727115216
  0
VERTEX
  8
1
  6
CONTINUOUS
 62
     7
 10
-170.9700474516123
 20
56.41828339879936
  0
VERTEX
  8
1
  6
CONTINUOUS
 62
     7
 10
-170.9870562897146
 20
56.43452641397609
  0
VERTEX
  8
1
  6
CONTINUOUS
 62
     7
 10
-171.0029066946951
 20
56.45149440159203
  0
VERTEX
  8
1
  6
CONTINUOUS
 62
     7
 10
-171.0178376342863
 20
56.46940701687328
  0
VERTEX
  8
1
  6
CONTINUOUS
 62
     7
 10
-171.0316568590462
 20
56.48798201113494
  0
VERTEX
  8
1
  6
CONTINUOUS
 62
     7
 10
-171.0443899998153
 20
56.50715274311406
  0
VERTEX
  8
1
  6
CONTINUOUS
 62
     7
 10
-171.0560626874339
 20
56.52685257154767
  0
VERTEX
  8
1
  6
CONTINUOUS
 62
     7
 10
-171.0704259706828
 20
56.55465254102271
  0
VERTEX
  8
1
  6
CONTINUOUS
 62
     7
 10
-171.0830200793301
 20
56.58331930639996
  0
VERTEX
  8
1
  6
CONTINUOUS
 62
     7
 10
-171.0939418048725
 20
56.61273292222742
  0
VERTEX
  8
1
  6
CONTINUOUS
 62
     7
 10
-171.1054428592059
 20
56.65053991306996
  0
VERTEX
  8
1
  6
CONTINUOUS
 62
     7
 10
-171.1147190731145
 20
56.68933980357161
  0
VERTEX
  8
1
  6
CONTINUOUS
 62
     7
 10
-171.121952693996
 20
56.7289903805472
  0
VERTEX
  8
1
  6
CONTINUOUS
 62
     7
 10
-171.1273259692485
 20
56.76934943081157
  0
VERTEX
  8
1
  6
CONTINUOUS
 62
     7
 10
-171.1320057284491
 20
56.82578805645979
  0
VERTEX
  8
1
  6
CONTINUOUS
 62
     7
 10
-171.1339279554504
 20
56.88336470464356
  0
VERTEX
  8
1
  6
CONTINUOUS
 62
     7
 10
-171.1334586541506
 20
56.94188495383613
  0
SEQEND
  8
1
  6
CONTINUOUS
 62
     7
  0
LINE
  8
1
  6
CONTINUOUS
 62
     7
 10
-170.650348903325
 20
56.30341547633266
 11
-167.6829844300081
 21
56.30341547633266
  0
POLYLINE
  8
1
  6
CONTINUOUS
 62
     7
 66
     1
  0
VERTEX
  8
1
  6
CONTINUOUS
 62
     7
 10
-167.1998746791825
 20
56.94188495383612
  0
VERTEX
  8
1
  6
CONTINUOUS
 62
     7
 10
-167.1993626969098
 20
56.88567528633886
  0
VERTEX
  8
1
  6
CONTINUOUS
 62
     7
 10
-167.2010314965837
 20
56.83018811449733
  0
VERTEX
  8
1
  6
CONTINUOUS
 62
     7
 10
-167.2052503439717
 20
56.77566137856539
  0
VERTEX
  8
1
  6
CONTINUOUS
 62
     7
 10
-167.2123885048414
 20
56.72233301879695
  0
VERTEX
  8
1
  6
CONTINUOUS
 62
     7
 10
-167.2228152449603
 20
56.67044097544586
  0
VERTEX
  8
1
  6
CONTINUOUS
 62
     7
 10
-167.236899830096
 20
56.62022318876603
  0
VERTEX
  8
1
  6
CONTINUOUS
 62
     7
 10
-167.2462760101051
 20
56.59362497325101
  0
VERTEX
  8
1
  6
CONTINUOUS
 62
     7
 10
-167.2569925198947
 20
56.56755930427002
  0
VERTEX
  8
1
  6
CONTINUOUS
 62
     7
 10
-167.2691145012128
 20
56.5421246154352
  0
VERTEX
  8
1
  6
CONTINUOUS
 62
     7
 10
-167.2827070958078
 20
56.51741934035866
  0
VERTEX
  8
1
  6
CONTINUOUS
 62
     7
 10
-167.2978354454277
 20
56.49354191265255
  0
VERTEX
  8
1
  6
CONTINUOUS
 62
     7
 10
-167.3145646918209
 20
56.470590765929
  0
VERTEX
  8
1
  6
CONTINUOUS
 62
     7
 10
-167.3293556574367
 20
56.45271507377912
  0
VERTEX
  8
1
  6
CONTINUOUS
 62
     7
 10
-167.3452995840632
 20
56.43551818946495
  0
VERTEX
  8
1
  6
CONTINUOUS
 62
     7
 10
-167.3624031185724
 20
56.41907904816684
  0
VERTEX
  8
1
  6
CONTINUOUS
 62
     7
 10
-167.3763718703776
 20
56.4069819163097
  0
VERTEX
  8
1
  6
CONTINUOUS
 62
     7
 10
-167.3910634363582
 20
56.39538190155668
  0
VERTEX
  8
1
  6
CONTINUOUS
 62
     7
 10
-167.4064611630462
 20
56.38432137539915
  0
VERTEX
  8
1
  6
CONTINUOUS
 62
     7
 10
-167.4225483969734
 20
56.37384270932853
  0
VERTEX
  8
1
  6
CONTINUOUS
 62
     7
 10
-167.4399288939476
 20
56.36363815512553
  0
VERTEX
  8
1
  6
CONTINUOUS
 62
     7
 10
-167.4580474217777
 20
56.35410893601171
  0
VERTEX
  8
1
  6
CONTINUOUS
 62
     7
 10
-167.4768552476478
 20
56.34530403066938
  0
VERTEX
  8
1
  6
CONTINUOUS
 62
     7
 10
-167.4918039157674
 20
56.3390360447768
  0
VERTEX
  8
1
  6
CONTINUOUS
 62
     7
 10
-167.5071471952074
 20
56.33322576067662
  0
VERTEX
  8
1
  6
CONTINUOUS
 62
     7
 10
-167.5228478425167
 20
56.32789330274291
  0
VERTEX
  8
1
  6
CONTINUOUS
 62
     7
 10
-167.5388686142445
 20
56.32305879534978
  0
VERTEX
  8
1
  6
CONTINUOUS
 62
     7
 10
-167.5557362993169
 20
56.31860133131593
  0
VERTEX
  8
1
  6
CONTINUOUS
 62
     7
 10
-167.5729198353913
 20
56.31469269064741
  0
VERTEX
  8
1
  6
CONTINUOUS
 62
     7
 10
-167.5903624482221
 20
56.31134819141839
  0
VERTEX
  8
1
  6
CONTINUOUS
 62
     7
 10
-167.6080073635636
 20
56.30858315170307
  0
VERTEX
  8
1
  6
CONTINUOUS
 62
     7
 10
-167.6265645697977
 20
56.30632992891073
  0
VERTEX
  8
1
  6
CONTINUOUS
 62
     7
 10
-167.645296123818
 20
56.3047141820039
  0
VERTEX
  8
1
  6
CONTINUOUS
 62
     7
 10
-167.6641275643223
 20
56.30374100110405
  0
VERTEX
  8
1
  6
CONTINUOUS
 62
     7
 10
-167.6829844300081
 20
56.30341547633266
  0
SEQEND
  8
1
  6
CONTINUOUS
 62
     7
  0
LINE
  8
1
  6
CONTINUOUS
 62
     7
 10
-161.0590787263389
 20
55.6737221195345
 11
-342.2742546069945
 21
55.6737221195345
  0
POLYLINE
  8
1
  6
CONTINUOUS
 62
     7
 66
     1
  0
VERTEX
  8
1
  6
CONTINUOUS
 62
     7
 10
-335.6503489033253
 20
56.30341547633266
  0
VERTEX
  8
1
  6
CONTINUOUS
 62
     7
 10
-335.6665019073898
 20
56.30365383172748
  0
VERTEX
  8
1
  6
CONTINUOUS
 62
     7
 10
-335.6826389849814
 20
56.30436717479191
  0
VERTEX
  8
1
  6
CONTINUOUS
 62
     7
 10
-335.6987131094408
 20
56.30555292084594
  0
VERTEX
  8
1
  6
CONTINUOUS
 62
     7
 10
-335.7146772541087
 20
56.30720848520955
  0
VERTEX
  8
1
  6
CONTINUOUS
 62
     7
 10
-335.7310295621433
 20
56.30941088400616
  0
VERTEX
  8
1
  6
CONTINUOUS
 62
     7
 10
-335.7472325165785
 20
56.3121086153761
  0
VERTEX
  8
1
  6
CONTINUOUS
 62
     7
 10
-335.7632399274747
 20
56.31529111513215
  0
VERTEX
  8
1
  6
CONTINUOUS
 62
     7
 10
-335.7790056048922
 20
56.31894781908711
  0
VERTEX
  8
1
  6
CONTINUOUS
 62
     7
 10
-335.794021213668
 20
56.32293454215058
  0
VERTEX
  8
1
  6
CONTINUOUS
 62
     7
 10
-335.8087890357607
 20
56.32735360887967
  0
VERTEX
  8
1
  6
CONTINUOUS
 62
     7
 10
-335.8232768092207
 20
56.33219036046392
  0
VERTEX
  8
1
  6
CONTINUOUS
 62
     7
 10
-335.8374522720983
 20
56.33743013809288
  0
VERTEX
  8
1
  6
CONTINUOUS
 62
     7
 10
-335.8563400015876
 20
56.34524480724816
  0
VERTEX
  8
1
  6
CONTINUOUS
 62
     7
 10
-335.8746106322101
 20
56.3537742517278
  0
VERTEX
  8
1
  6
CONTINUOUS
 62
     7
 10
-335.8922099540759
 20
56.36297452088699
  0
VERTEX
  8
1
  6
CONTINUOUS
 62
     7
 10
-335.90804325437
 20
56.37216105875267
  0
VERTEX
  8
1
  6
CONTINUOUS
 62
     7
 10
-335.9232807777023
 20
56.38189271627142
  0
VERTEX
  8
1
  6
CONTINUOUS
 62
     7
 10
-335.9379017930011
 20
56.39213346366424
  0
VERTEX
  8
1
  6
CONTINUOUS
 62
     7
 10
-335.9518855691948
 20
56.40284727115216
  0
VERTEX
  8
1
  6
CONTINUOUS
 62
     7
 10
-335.9700474516127
 20
56.41828339879936
  0
VERTEX
  8
1
  6
CONTINUOUS
 62
     7
 10
-335.9870562897149
 20
56.43452641397609
  0
VERTEX
  8
1
  6
CONTINUOUS
 62
     7
 10
-336.0029066946955
 20
56.45149440159203
  0
VERTEX
  8
1
  6
CONTINUOUS
 62
     7
 10
-336.0178376342866
 20
56.46940701687328
  0
VERTEX
  8
1
  6
CONTINUOUS
 62
     7
 10
-336.0316568590465
 20
56.48798201113494
  0
VERTEX
  8
1
  6
CONTINUOUS
 62
     7
 10
-336.0443899998156
 20
56.50715274311406
  0
VERTEX
  8
1
  6
CONTINUOUS
 62
     7
 10
-336.0560626874342
 20
56.52685257154767
  0
VERTEX
  8
1
  6
CONTINUOUS
 62
     7
 10
-336.0704259706831
 20
56.55465254102271
  0
VERTEX
  8
1
  6
CONTINUOUS
 62
     7
 10
-336.0830200793304
 20
56.58331930639996
  0
VERTEX
  8
1
  6
CONTINUOUS
 62
     7
 10
-336.0939418048728
 20
56.61273292222742
  0
VERTEX
  8
1
  6
CONTINUOUS
 62
     7
 10
-336.1054428592063
 20
56.65053991306996
  0
VERTEX
  8
1
  6
CONTINUOUS
 62
     7
 10
-336.1147190731148
 20
56.68933980357161
  0
VERTEX
  8
1
  6
CONTINUOUS
 62
     7
 10
-336.1219526939964
 20
56.7289903805472
  0
VERTEX
  8
1
  6
CONTINUOUS
 62
     7
 10
-336.1273259692488
 20
56.76934943081157
  0
VERTEX
  8
1
  6
CONTINUOUS
 62
     7
 10
-336.1320057284494
 20
56.82578805645979
  0
VERTEX
  8
1
  6
CONTINUOUS
 62
     7
 10
-336.1339279554507
 20
56.88336470464356
  0
VERTEX
  8
1
  6
CONTINUOUS
 62
     7
 10
-336.1334586541509
 20
56.94188495383613
  0
SEQEND
  8
1
  6
CONTINUOUS
 62
     7
  0
LINE
  8
1
  6
CONTINUOUS
 62
     7
 10
-335.6503489033253
 20
56.30341547633266
 11
-332.6829844300084
 21
56.30341547633266
  0
POLYLINE
  8
1
  6
CONTINUOUS
 62
     7
 66
     1
  0
VERTEX
  8
1
  6
CONTINUOUS
 62
     7
 10
-332.1998746791829
 20
56.94188495383612
  0
VERTEX
  8
1
  6
CONTINUOUS
 62
     7
 10
-332.1993626969102
 20
56.88567528633886
  0
VERTEX
  8
1
  6
CONTINUOUS
 62
     7
 10
-332.2010314965841
 20
56.83018811449733
  0
VERTEX
  8
1
  6
CONTINUOUS
 62
     7
 10
-332.205250343972
 20
56.7756613785654
  0
VERTEX
  8
1
  6
CONTINUOUS
 62
     7
 10
-332.2123885048417
 20
56.72233301879695
  0
VERTEX
  8
1
  6
CONTINUOUS
 62
     7
 10
-332.2228152449607
 20
56.67044097544586
  0
VERTEX
  8
1
  6
CONTINUOUS
 62
     7
 10
-332.2368998300963
 20
56.62022318876603
  0
VERTEX
  8
1
  6
CONTINUOUS
 62
     7
 10
-332.2462760101055
 20
56.59362497325102
  0
VERTEX
  8
1
  6
CONTINUOUS
 62
     7
 10
-332.256992519895
 20
56.56755930427003
  0
VERTEX
  8
1
  6
CONTINUOUS
 62
     7
 10
-332.2691145012131
 20
56.5421246154352
  0
VERTEX
  8
1
  6
CONTINUOUS
 62
     7
 10
-332.2827070958081
 20
56.51741934035866
  0
VERTEX
  8
1
  6
CONTINUOUS
 62
     7
 10
-332.297835445428
 20
56.49354191265255
  0
VERTEX
  8
1
  6
CONTINUOUS
 62
     7
 10
-332.3145646918212
 20
56.470590765929
  0
VERTEX
  8
1
  6
CONTINUOUS
 62
     7
 10
-332.329355657437
 20
56.45271507377912
  0
VERTEX
  8
1
  6
CONTINUOUS
 62
     7
 10
-332.3452995840635
 20
56.43551818946495
  0
VERTEX
  8
1
  6
CONTINUOUS
 62
     7
 10
-332.3624031185727
 20
56.41907904816684
  0
VERTEX
  8
1
  6
CONTINUOUS
 62
     7
 10
-332.3763718703779
 20
56.4069819163097
  0
VERTEX
  8
1
  6
CONTINUOUS
 62
     7
 10
-332.3910634363585
 20
56.39538190155668
  0
VERTEX
  8
1
  6
CONTINUOUS
 62
     7
 10
-332.4064611630465
 20
56.38432137539915
  0
VERTEX
  8
1
  6
CONTINUOUS
 62
     7
 10
-332.4225483969737
 20
56.37384270932853
  0
VERTEX
  8
1
  6
CONTINUOUS
 62
     7
 10
-332.4399288939479
 20
56.36363815512554
  0
VERTEX
  8
1
  6
CONTINUOUS
 62
     7
 10
-332.458047421778
 20
56.35410893601171
  0
VERTEX
  8
1
  6
CONTINUOUS
 62
     7
 10
-332.4768552476481
 20
56.34530403066939
  0
VERTEX
  8
1
  6
CONTINUOUS
 62
     7
 10
-332.4918039157677
 20
56.3390360447768
  0
VERTEX
  8
1
  6
CONTINUOUS
 62
     7
 10
-332.5071471952077
 20
56.33322576067663
  0
VERTEX
  8
1
  6
CONTINUOUS
 62
     7
 10
-332.5228478425171
 20
56.32789330274291
  0
VERTEX
  8
1
  6
CONTINUOUS
 62
     7
 10
-332.5388686142448
 20
56.32305879534979
  0
VERTEX
  8
1
  6
CONTINUOUS
 62
     7
 10
-332.5557362993172
 20
56.31860133131593
  0
VERTEX
  8
1
  6
CONTINUOUS
 62
     7
 10
-332.5729198353916
 20
56.31469269064741
  0
VERTEX
  8
1
  6
CONTINUOUS
 62
     7
 10
-332.5903624482224
 20
56.3113481914184
  0
VERTEX
  8
1
  6
CONTINUOUS
 62
     7
 10
-332.608007363564
 20
56.30858315170308
  0
VERTEX
  8
1
  6
CONTINUOUS
 62
     7
 10
-332.626564569798
 20
56.30632992891073
  0
VERTEX
  8
1
  6
CONTINUOUS
 62
     7
 10
-332.6452961238183
 20
56.30471418200391
  0
VERTEX
  8
1
  6
CONTINUOUS
 62
     7
 10
-332.6641275643225
 20
56.30374100110405
  0
VERTEX
  8
1
  6
CONTINUOUS
 62
     7
 10
-332.6829844300084
 20
56.30341547633266
  0
SEQEND
  8
1
  6
CONTINUOUS
 62
     7
  0
POLYLINE
  8
1
  6
CONTINUOUS
 62
     7
 66
     1
  0
VERTEX
  8
1
  6
CONTINUOUS
 62
     7
 10
-325.1503489033253
 20
56.30341547633265
  0
VERTEX
  8
1
  6
CONTINUOUS
 62
     7
 10
-325.1665019073897
 20
56.30365383172747
  0
VERTEX
  8
1
  6
CONTINUOUS
 62
     7
 10
-325.1826389849813
 20
56.30436717479191
  0
VERTEX
  8
1
  6
CONTINUOUS
 62
     7
 10
-325.1987131094408
 20
56.30555292084593
  0
VERTEX
  8
1
  6
CONTINUOUS
 62
     7
 10
-325.2146772541087
 20
56.30720848520954
  0
VERTEX
  8
1
  6
CONTINUOUS
 62
     7
 10
-325.2310295621432
 20
56.30941088400615
  0
VERTEX
  8
1
  6
CONTINUOUS
 62
     7
 10
-325.2472325165785
 20
56.31210861537609
  0
VERTEX
  8
1
  6
CONTINUOUS
 62
     7
 10
-325.2632399274747
 20
56.31529111513215
  0
VERTEX
  8
1
  6
CONTINUOUS
 62
     7
 10
-325.2790056048921
 20
56.3189478190871
  0
VERTEX
  8
1
  6
CONTINUOUS
 62
     7
 10
-325.294021213668
 20
56.32293454215056
  0
VERTEX
  8
1
  6
CONTINUOUS
 62
     7
 10
-325.3087890357607
 20
56.32735360887965
  0
VERTEX
  8
1
  6
CONTINUOUS
 62
     7
 10
-325.3232768092207
 20
56.33219036046391
  0
VERTEX
  8
1
  6
CONTINUOUS
 62
     7
 10
-325.3374522720983
 20
56.33743013809286
  0
VERTEX
  8
1
  6
CONTINUOUS
 62
     7
 10
-325.3563400015876
 20
56.34524480724815
  0
VERTEX
  8
1
  6
CONTINUOUS
 62
     7
 10
-325.3746106322101
 20
56.35377425172778
  0
VERTEX
  8
1
  6
CONTINUOUS
 62
     7
 10
-325.3922099540759
 20
56.36297452088698
  0
VERTEX
  8
1
  6
CONTINUOUS
 62
     7
 10
-325.40804325437
 20
56.37216105875267
  0
VERTEX
  8
1
  6
CONTINUOUS
 62
     7
 10
-325.4232807777023
 20
56.38189271627141
  0
VERTEX
  8
1
  6
CONTINUOUS
 62
     7
 10
-325.4379017930011
 20
56.39213346366424
  0
VERTEX
  8
1
  6
CONTINUOUS
 62
     7
 10
-325.4518855691948
 20
56.40284727115215
  0
VERTEX
  8
1
  6
CONTINUOUS
 62
     7
 10
-325.4700474516127
 20
56.41828339879935
  0
VERTEX
  8
1
  6
CONTINUOUS
 62
     7
 10
-325.4870562897149
 20
56.43452641397607
  0
VERTEX
  8
1
  6
CONTINUOUS
 62
     7
 10
-325.5029066946954
 20
56.45149440159202
  0
VERTEX
  8
1
  6
CONTINUOUS
 62
     7
 10
-325.5178376342866
 20
56.46940701687327
  0
VERTEX
  8
1
  6
CONTINUOUS
 62
     7
 10
-325.5316568590465
 20
56.48798201113493
  0
VERTEX
  8
1
  6
CONTINUOUS
 62
     7
 10
-325.5443899998156
 20
56.50715274311405
  0
VERTEX
  8
1
  6
CONTINUOUS
 62
     7
 10
-325.5560626874342
 20
56.52685257154766
  0
VERTEX
  8
1
  6
CONTINUOUS
 62
     7
 10
-325.5704259706831
 20
56.55465254102271
  0
VERTEX
  8
1
  6
CONTINUOUS
 62
     7
 10
-325.5830200793304
 20
56.58331930639995
  0
VERTEX
  8
1
  6
CONTINUOUS
 62
     7
 10
-325.5939418048728
 20
56.61273292222741
  0
VERTEX
  8
1
  6
CONTINUOUS
 62
     7
 10
-325.6054428592062
 20
56.65053991306995
  0
VERTEX
  8
1
  6
CONTINUOUS
 62
     7
 10
-325.6147190731148
 20
56.6893398035716
  0
VERTEX
  8
1
  6
CONTINUOUS
 62
     7
 10
-325.6219526939963
 20
56.7289903805472
  0
VERTEX
  8
1
  6
CONTINUOUS
 62
     7
 10
-325.6273259692488
 20
56.76934943081155
  0
VERTEX
  8
1
  6
CONTINUOUS
 62
     7
 10
-325.6320057284494
 20
56.82578805645977
  0
VERTEX
  8
1
  6
CONTINUOUS
 62
     7
 10
-325.6339279554507
 20
56.88336470464354
  0
VERTEX
  8
1
  6
CONTINUOUS
 62
     7
 10
-325.6334586541509
 20
56.94188495383611
  0
SEQEND
  8
1
  6
CONTINUOUS
 62
     7
  0
LINE
  8
1
  6
CONTINUOUS
 62
     7
 10
-325.1503489033253
 20
56.30341547633265
 11
-316.1829844300084
 21
56.30341547633265
  0
POLYLINE
  8
1
  6
CONTINUOUS
 62
     7
 66
     1
  0
VERTEX
  8
1
  6
CONTINUOUS
 62
     7
 10
-315.6998746791829
 20
56.94188495383609
  0
VERTEX
  8
1
  6
CONTINUOUS
 62
     7
 10
-315.6993626969101
 20
56.88567528633883
  0
VERTEX
  8
1
  6
CONTINUOUS
 62
     7
 10
-315.701031496584
 20
56.8301881144973
  0
VERTEX
  8
1
  6
CONTINUOUS
 62
     7
 10
-315.705250343972
 20
56.77566137856537
  0
VERTEX
  8
1
  6
CONTINUOUS
 62
     7
 10
-315.7123885048417
 20
56.72233301879692
  0
VERTEX
  8
1
  6
CONTINUOUS
 62
     7
 10
-315.7228152449607
 20
56.67044097544584
  0
VERTEX
  8
1
  6
CONTINUOUS
 62
     7
 10
-315.7368998300963
 20
56.62022318876601
  0
VERTEX
  8
1
  6
CONTINUOUS
 62
     7
 10
-315.7462760101055
 20
56.593624973251
  0
VERTEX
  8
1
  6
CONTINUOUS
 62
     7
 10
-315.756992519895
 20
56.56755930427001
  0
VERTEX
  8
1
  6
CONTINUOUS
 62
     7
 10
-315.7691145012132
 20
56.54212461543518
  0
VERTEX
  8
1
  6
CONTINUOUS
 62
     7
 10
-315.7827070958081
 20
56.51741934035865
  0
VERTEX
  8
1
  6
CONTINUOUS
 62
     7
 10
-315.7978354454281
 20
56.49354191265255
  0
VERTEX
  8
1
  6
CONTINUOUS
 62
     7
 10
-315.8145646918212
 20
56.47059076592899
  0
VERTEX
  8
1
  6
CONTINUOUS
 62
     7
 10
-315.829355657437
 20
56.45271507377912
  0
VERTEX
  8
1
  6
CONTINUOUS
 62
     7
 10
-315.8452995840636
 20
56.43551818946493
  0
VERTEX
  8
1
  6
CONTINUOUS
 62
     7
 10
-315.8624031185727
 20
56.41907904816681
  0
VERTEX
  8
1
  6
CONTINUOUS
 62
     7
 10
-315.8763718703779
 20
56.40698191630968
  0
VERTEX
  8
1
  6
CONTINUOUS
 62
     7
 10
-315.8910634363585
 20
56.39538190155665
  0
VERTEX
  8
1
  6
CONTINUOUS
 62
     7
 10
-315.9064611630465
 20
56.38432137539913
  0
VERTEX
  8
1
  6
CONTINUOUS
 62
     7
 10
-315.9225483969738
 20
56.37384270932851
  0
VERTEX
  8
1
  6
CONTINUOUS
 62
     7
 10
-315.9399288939478
 20
56.36363815512551
  0
VERTEX
  8
1
  6
CONTINUOUS
 62
     7
 10
-315.958047421778
 20
56.35410893601169
  0
VERTEX
  8
1
  6
CONTINUOUS
 62
     7
 10
-315.9768552476481
 20
56.34530403066938
  0
VERTEX
  8
1
  6
CONTINUOUS
 62
     7
 10
-315.9918039157678
 20
56.3390360447768
  0
VERTEX
  8
1
  6
CONTINUOUS
 62
     7
 10
-316.0071471952077
 20
56.3332257606766
  0
VERTEX
  8
1
  6
CONTINUOUS
 62
     7
 10
-316.0228478425171
 20
56.3278933027429
  0
VERTEX
  8
1
  6
CONTINUOUS
 62
     7
 10
-316.0388686142448
 20
56.32305879534977
  0
VERTEX
  8
1
  6
CONTINUOUS
 62
     7
 10
-316.0557362993172
 20
56.31860133131591
  0
VERTEX
  8
1
  6
CONTINUOUS
 62
     7
 10
-316.0729198353916
 20
56.31469269064739
  0
VERTEX
  8
1
  6
CONTINUOUS
 62
     7
 10
-316.0903624482224
 20
56.31134819141838
  0
VERTEX
  8
1
  6
CONTINUOUS
 62
     7
 10
-316.1080073635639
 20
56.30858315170306
  0
VERTEX
  8
1
  6
CONTINUOUS
 62
     7
 10
-316.126564569798
 20
56.30632992891072
  0
VERTEX
  8
1
  6
CONTINUOUS
 62
     7
 10
-316.1452961238183
 20
56.30471418200389
  0
VERTEX
  8
1
  6
CONTINUOUS
 62
     7
 10
-316.1641275643225
 20
56.30374100110404
  0
VERTEX
  8
1
  6
CONTINUOUS
 62
     7
 10
-316.1829844300084
 20
56.30341547633265
  0
SEQEND
  8
1
  6
CONTINUOUS
 62
     7
  0
POLYLINE
  8
1
  6
CONTINUOUS
 62
     7
 66
     1
  0
VERTEX
  8
1
  6
CONTINUOUS
 62
     7
 10
-308.650348903325
 20
56.30341547633266
  0
VERTEX
  8
1
  6
CONTINUOUS
 62
     7
 10
-308.6665019073894
 20
56.30365383172748
  0
VERTEX
  8
1
  6
CONTINUOUS
 62
     7
 10
-308.6826389849811
 20
56.30436717479191
  0
VERTEX
  8
1
  6
CONTINUOUS
 62
     7
 10
-308.6987131094405
 20
56.30555292084594
  0
VERTEX
  8
1
  6
CONTINUOUS
 62
     7
 10
-308.7146772541084
 20
56.30720848520955
  0
VERTEX
  8
1
  6
CONTINUOUS
 62
     7
 10
-308.7310295621429
 20
56.30941088400616
  0
VERTEX
  8
1
  6
CONTINUOUS
 62
     7
 10
-308.7472325165782
 20
56.3121086153761
  0
VERTEX
  8
1
  6
CONTINUOUS
 62
     7
 10
-308.7632399274744
 20
56.31529111513215
  0
VERTEX
  8
1
  6
CONTINUOUS
 62
     7
 10
-308.7790056048918
 20
56.31894781908711
  0
VERTEX
  8
1
  6
CONTINUOUS
 62
     7
 10
-308.7940212136677
 20
56.32293454215058
  0
VERTEX
  8
1
  6
CONTINUOUS
 62
     7
 10
-308.8087890357604
 20
56.32735360887966
  0
VERTEX
  8
1
  6
CONTINUOUS
 62
     7
 10
-308.8232768092203
 20
56.33219036046391
  0
VERTEX
  8
1
  6
CONTINUOUS
 62
     7
 10
-308.8374522720979
 20
56.33743013809287
  0
VERTEX
  8
1
  6
CONTINUOUS
 62
     7
 10
-308.8563400015873
 20
56.34524480724816
  0
VERTEX
  8
1
  6
CONTINUOUS
 62
     7
 10
-308.8746106322097
 20
56.35377425172779
  0
VERTEX
  8
1
  6
CONTINUOUS
 62
     7
 10
-308.8922099540756
 20
56.36297452088699
  0
VERTEX
  8
1
  6
CONTINUOUS
 62
     7
 10
-308.9080432543697
 20
56.37216105875267
  0
VERTEX
  8
1
  6
CONTINUOUS
 62
     7
 10
-308.9232807777019
 20
56.38189271627141
  0
VERTEX
  8
1
  6
CONTINUOUS
 62
     7
 10
-308.9379017930007
 20
56.39213346366423
  0
VERTEX
  8
1
  6
CONTINUOUS
 62
     7
 10
-308.9518855691944
 20
56.40284727115215
  0
VERTEX
  8
1
  6
CONTINUOUS
 62
     7
 10
-308.9700474516123
 20
56.41828339879935
  0
VERTEX
  8
1
  6
CONTINUOUS
 62
     7
 10
-308.9870562897146
 20
56.43452641397607
  0
VERTEX
  8
1
  6
CONTINUOUS
 62
     7
 10
-309.0029066946951
 20
56.45149440159202
  0
VERTEX
  8
1
  6
CONTINUOUS
 62
     7
 10
-309.0178376342863
 20
56.46940701687327
  0
VERTEX
  8
1
  6
CONTINUOUS
 62
     7
 10
-309.0316568590462
 20
56.48798201113493
  0
VERTEX
  8
1
  6
CONTINUOUS
 62
     7
 10
-309.0443899998152
 20
56.50715274311404
  0
VERTEX
  8
1
  6
CONTINUOUS
 62
     7
 10
-309.0560626874339
 20
56.52685257154766
  0
VERTEX
  8
1
  6
CONTINUOUS
 62
     7
 10
-309.0704259706828
 20
56.5546525410227
  0
VERTEX
  8
1
  6
CONTINUOUS
 62
     7
 10
-309.0830200793301
 20
56.58331930639994
  0
VERTEX
  8
1
  6
CONTINUOUS
 62
     7
 10
-309.0939418048725
 20
56.6127329222274
  0
VERTEX
  8
1
  6
CONTINUOUS
 62
     7
 10
-309.1054428592059
 20
56.65053991306995
  0
VERTEX
  8
1
  6
CONTINUOUS
 62
     7
 10
-309.1147190731144
 20
56.6893398035716
  0
VERTEX
  8
1
  6
CONTINUOUS
 62
     7
 10
-309.121952693996
 20
56.7289903805472
  0
VERTEX
  8
1
  6
CONTINUOUS
 62
     7
 10
-309.1273259692485
 20
56.76934943081156
  0
VERTEX
  8
1
  6
CONTINUOUS
 62
     7
 10
-309.1320057284491
 20
56.82578805645979
  0
VERTEX
  8
1
  6
CONTINUOUS
 62
     7
 10
-309.1339279554504
 20
56.88336470464356
  0
VERTEX
  8
1
  6
CONTINUOUS
 62
     7
 10
-309.1334586541506
 20
56.94188495383613
  0
SEQEND
  8
1
  6
CONTINUOUS
 62
     7
  0
LINE
  8
1
  6
CONTINUOUS
 62
     7
 10
-308.650348903325
 20
56.30341547633266
 11
-305.682984430008
 21
56.30341547633266
  0
POLYLINE
  8
1
  6
CONTINUOUS
 62
     7
 66
     1
  0
VERTEX
  8
1
  6
CONTINUOUS
 62
     7
 10
-305.1998746791825
 20
56.94188495383612
  0
VERTEX
  8
1
  6
CONTINUOUS
 62
     7
 10
-305.1993626969098
 20
56.88567528633886
  0
VERTEX
  8
1
  6
CONTINUOUS
 62
     7
 10
-305.2010314965837
 20
56.83018811449733
  0
VERTEX
  8
1
  6
CONTINUOUS
 62
     7
 10
-305.2052503439717
 20
56.77566137856539
  0
VERTEX
  8
1
  6
CONTINUOUS
 62
     7
 10
-305.2123885048414
 20
56.72233301879695
  0
VERTEX
  8
1
  6
CONTINUOUS
 62
     7
 10
-305.2228152449603
 20
56.67044097544586
  0
VERTEX
  8
1
  6
CONTINUOUS
 62
     7
 10
-305.236899830096
 20
56.62022318876603
  0
VERTEX
  8
1
  6
CONTINUOUS
 62
     7
 10
-305.2462760101051
 20
56.59362497325101
  0
VERTEX
  8
1
  6
CONTINUOUS
 62
     7
 10
-305.2569925198947
 20
56.56755930427002
  0
VERTEX
  8
1
  6
CONTINUOUS
 62
     7
 10
-305.2691145012128
 20
56.54212461543521
  0
VERTEX
  8
1
  6
CONTINUOUS
 62
     7
 10
-305.2827070958077
 20
56.51741934035867
  0
VERTEX
  8
1
  6
CONTINUOUS
 62
     7
 10
-305.2978354454277
 20
56.49354191265256
  0
VERTEX
  8
1
  6
CONTINUOUS
 62
     7
 10
-305.3145646918209
 20
56.47059076592901
  0
VERTEX
  8
1
  6
CONTINUOUS
 62
     7
 10
-305.3293556574367
 20
56.45271507377913
  0
VERTEX
  8
1
  6
CONTINUOUS
 62
     7
 10
-305.3452995840632
 20
56.43551818946495
  0
VERTEX
  8
1
  6
CONTINUOUS
 62
     7
 10
-305.3624031185724
 20
56.41907904816684
  0
VERTEX
  8
1
  6
CONTINUOUS
 62
     7
 10
-305.3763718703776
 20
56.4069819163097
  0
VERTEX
  8
1
  6
CONTINUOUS
 62
     7
 10
-305.3910634363582
 20
56.39538190155668
  0
VERTEX
  8
1
  6
CONTINUOUS
 62
     7
 10
-305.4064611630461
 20
56.38432137539915
  0
VERTEX
  8
1
  6
CONTINUOUS
 62
     7
 10
-305.4225483969734
 20
56.37384270932853
  0
VERTEX
  8
1
  6
CONTINUOUS
 62
     7
 10
-305.4399288939475
 20
56.36363815512554
  0
VERTEX
  8
1
  6
CONTINUOUS
 62
     7
 10
-305.4580474217777
 20
56.35410893601171
  0
VERTEX
  8
1
  6
CONTINUOUS
 62
     7
 10
-305.4768552476478
 20
56.3453040306694
  0
VERTEX
  8
1
  6
CONTINUOUS
 62
     7
 10
-305.4918039157674
 20
56.33903604477681
  0
VERTEX
  8
1
  6
CONTINUOUS
 62
     7
 10
-305.5071471952074
 20
56.33322576067663
  0
VERTEX
  8
1
  6
CONTINUOUS
 62
     7
 10
-305.5228478425167
 20
56.32789330274291
  0
VERTEX
  8
1
  6
CONTINUOUS
 62
     7
 10
-305.5388686142444
 20
56.32305879534979
  0
VERTEX
  8
1
  6
CONTINUOUS
 62
     7
 10
-305.5557362993169
 20
56.31860133131593
  0
VERTEX
  8
1
  6
CONTINUOUS
 62
     7
 10
-305.5729198353912
 20
56.31469269064741
  0
VERTEX
  8
1
  6
CONTINUOUS
 62
     7
 10
-305.5903624482221
 20
56.3113481914184
  0
VERTEX
  8
1
  6
CONTINUOUS
 62
     7
 10
-305.6080073635636
 20
56.30858315170308
  0
VERTEX
  8
1
  6
CONTINUOUS
 62
     7
 10
-305.6265645697976
 20
56.30632992891073
  0
VERTEX
  8
1
  6
CONTINUOUS
 62
     7
 10
-305.645296123818
 20
56.3047141820039
  0
VERTEX
  8
1
  6
CONTINUOUS
 62
     7
 10
-305.6641275643223
 20
56.30374100110405
  0
VERTEX
  8
1
  6
CONTINUOUS
 62
     7
 10
-305.682984430008
 20
56.30341547633266
  0
SEQEND
  8
1
  6
CONTINUOUS
 62
     7
  0
POLYLINE
  8
1
  6
CONTINUOUS
 62
     7
 66
     1
  0
VERTEX
  8
1
  6
CONTINUOUS
 62
     7
 10
-289.6503489033253
 20
56.30341547633266
  0
VERTEX
  8
1
  6
CONTINUOUS
 62
     7
 10
-289.6665019073897
 20
56.30365383172748
  0
VERTEX
  8
1
  6
CONTINUOUS
 62
     7
 10
-289.6826389849813
 20
56.30436717479191
  0
VERTEX
  8
1
  6
CONTINUOUS
 62
     7
 10
-289.6987131094409
 20
56.30555292084594
  0
VERTEX
  8
1
  6
CONTINUOUS
 62
     7
 10
-289.7146772541088
 20
56.30720848520955
  0
VERTEX
  8
1
  6
CONTINUOUS
 62
     7
 10
-289.7310295621433
 20
56.30941088400616
  0
VERTEX
  8
1
  6
CONTINUOUS
 62
     7
 10
-289.7472325165785
 20
56.3121086153761
  0
VERTEX
  8
1
  6
CONTINUOUS
 62
     7
 10
-289.7632399274748
 20
56.31529111513215
  0
VERTEX
  8
1
  6
CONTINUOUS
 62
     7
 10
-289.7790056048922
 20
56.31894781908711
  0
VERTEX
  8
1
  6
CONTINUOUS
 62
     7
 10
-289.794021213668
 20
56.32293454215058
  0
VERTEX
  8
1
  6
CONTINUOUS
 62
     7
 10
-289.8087890357607
 20
56.32735360887966
  0
VERTEX
  8
1
  6
CONTINUOUS
 62
     7
 10
-289.8232768092207
 20
56.33219036046391
  0
VERTEX
  8
1
  6
CONTINUOUS
 62
     7
 10
-289.8374522720983
 20
56.33743013809287
  0
VERTEX
  8
1
  6
CONTINUOUS
 62
     7
 10
-289.8563400015876
 20
56.34524480724816
  0
VERTEX
  8
1
  6
CONTINUOUS
 62
     7
 10
-289.87461063221
 20
56.35377425172779
  0
VERTEX
  8
1
  6
CONTINUOUS
 62
     7
 10
-289.892209954076
 20
56.36297452088699
  0
VERTEX
  8
1
  6
CONTINUOUS
 62
     7
 10
-289.90804325437
 20
56.37216105875267
  0
VERTEX
  8
1
  6
CONTINUOUS
 62
     7
 10
-289.9232807777023
 20
56.38189271627141
  0
VERTEX
  8
1
  6
CONTINUOUS
 62
     7
 10
-289.9379017930011
 20
56.39213346366423
  0
VERTEX
  8
1
  6
CONTINUOUS
 62
     7
 10
-289.9518855691947
 20
56.40284727115215
  0
VERTEX
  8
1
  6
CONTINUOUS
 62
     7
 10
-289.9700474516126
 20
56.41828339879935
  0
VERTEX
  8
1
  6
CONTINUOUS
 62
     7
 10
-289.9870562897149
 20
56.43452641397607
  0
VERTEX
  8
1
  6
CONTINUOUS
 62
     7
 10
-290.0029066946954
 20
56.45149440159202
  0
VERTEX
  8
1
  6
CONTINUOUS
 62
     7
 10
-290.0178376342866
 20
56.46940701687327
  0
VERTEX
  8
1
  6
CONTINUOUS
 62
     7
 10
-290.0316568590465
 20
56.48798201113493
  0
VERTEX
  8
1
  6
CONTINUOUS
 62
     7
 10
-290.0443899998155
 20
56.50715274311404
  0
VERTEX
  8
1
  6
CONTINUOUS
 62
     7
 10
-290.0560626874342
 20
56.52685257154766
  0
VERTEX
  8
1
  6
CONTINUOUS
 62
     7
 10
-290.0704259706831
 20
56.5546525410227
  0
VERTEX
  8
1
  6
CONTINUOUS
 62
     7
 10
-290.0830200793304
 20
56.58331930639994
  0
VERTEX
  8
1
  6
CONTINUOUS
 62
     7
 10
-290.0939418048728
 20
56.6127329222274
  0
VERTEX
  8
1
  6
CONTINUOUS
 62
     7
 10
-290.1054428592062
 20
56.65053991306995
  0
VERTEX
  8
1
  6
CONTINUOUS
 62
     7
 10
-290.1147190731148
 20
56.6893398035716
  0
VERTEX
  8
1
  6
CONTINUOUS
 62
     7
 10
-290.1219526939963
 20
56.7289903805472
  0
VERTEX
  8
1
  6
CONTINUOUS
 62
     7
 10
-290.1273259692488
 20
56.76934943081156
  0
VERTEX
  8
1
  6
CONTINUOUS
 62
     7
 10
-290.1320057284494
 20
56.82578805645979
  0
VERTEX
  8
1
  6
CONTINUOUS
 62
     7
 10
-290.1339279554506
 20
56.88336470464356
  0
VERTEX
  8
1
  6
CONTINUOUS
 62
     7
 10
-290.1334586541509
 20
56.94188495383613
  0
SEQEND
  8
1
  6
CONTINUOUS
 62
     7
  0
LINE
  8
1
  6
CONTINUOUS
 62
     7
 10
-289.6503489033253
 20
56.30341547633266
 11
-286.6829844300084
 21
56.30341547633266
  0
POLYLINE
  8
1
  6
CONTINUOUS
 62
     7
 66
     1
  0
VERTEX
  8
1
  6
CONTINUOUS
 62
     7
 10
-286.1998746791828
 20
56.94188495383612
  0
VERTEX
  8
1
  6
CONTINUOUS
 62
     7
 10
-286.1993626969102
 20
56.88567528633886
  0
VERTEX
  8
1
  6
CONTINUOUS
 62
     7
 10
-286.201031496584
 20
56.83018811449733
  0
VERTEX
  8
1
  6
CONTINUOUS
 62
     7
 10
-286.205250343972
 20
56.7756613785654
  0
VERTEX
  8
1
  6
CONTINUOUS
 62
     7
 10
-286.2123885048418
 20
56.72233301879695
  0
VERTEX
  8
1
  6
CONTINUOUS
 62
     7
 10
-286.2228152449606
 20
56.67044097544586
  0
VERTEX
  8
1
  6
CONTINUOUS
 62
     7
 10
-286.2368998300963
 20
56.62022318876603
  0
VERTEX
  8
1
  6
CONTINUOUS
 62
     7
 10
-286.2462760101054
 20
56.59362497325102
  0
VERTEX
  8
1
  6
CONTINUOUS
 62
     7
 10
-286.256992519895
 20
56.56755930427003
  0
VERTEX
  8
1
  6
CONTINUOUS
 62
     7
 10
-286.2691145012131
 20
56.54212461543521
  0
VERTEX
  8
1
  6
CONTINUOUS
 62
     7
 10
-286.2827070958081
 20
56.51741934035867
  0
VERTEX
  8
1
  6
CONTINUOUS
 62
     7
 10
-286.297835445428
 20
56.49354191265256
  0
VERTEX
  8
1
  6
CONTINUOUS
 62
     7
 10
-286.3145646918212
 20
56.47059076592901
  0
VERTEX
  8
1
  6
CONTINUOUS
 62
     7
 10
-286.329355657437
 20
56.45271507377913
  0
VERTEX
  8
1
  6
CONTINUOUS
 62
     7
 10
-286.3452995840636
 20
56.43551818946495
  0
VERTEX
  8
1
  6
CONTINUOUS
 62
     7
 10
-286.3624031185727
 20
56.41907904816684
  0
VERTEX
  8
1
  6
CONTINUOUS
 62
     7
 10
-286.3763718703779
 20
56.4069819163097
  0
VERTEX
  8
1
  6
CONTINUOUS
 62
     7
 10
-286.3910634363585
 20
56.39538190155668
  0
VERTEX
  8
1
  6
CONTINUOUS
 62
     7
 10
-286.4064611630465
 20
56.38432137539915
  0
VERTEX
  8
1
  6
CONTINUOUS
 62
     7
 10
-286.4225483969738
 20
56.37384270932853
  0
VERTEX
  8
1
  6
CONTINUOUS
 62
     7
 10
-286.4399288939479
 20
56.36363815512554
  0
VERTEX
  8
1
  6
CONTINUOUS
 62
     7
 10
-286.458047421778
 20
56.35410893601171
  0
VERTEX
  8
1
  6
CONTINUOUS
 62
     7
 10
-286.4768552476481
 20
56.34530403066939
  0
VERTEX
  8
1
  6
CONTINUOUS
 62
     7
 10
-286.4918039157677
 20
56.3390360447768
  0
VERTEX
  8
1
  6
CONTINUOUS
 62
     7
 10
-286.5071471952077
 20
56.33322576067663
  0
VERTEX
  8
1
  6
CONTINUOUS
 62
     7
 10
-286.5228478425171
 20
56.32789330274291
  0
VERTEX
  8
1
  6
CONTINUOUS
 62
     7
 10
-286.5388686142448
 20
56.32305879534979
  0
VERTEX
  8
1
  6
CONTINUOUS
 62
     7
 10
-286.5557362993172
 20
56.31860133131593
  0
VERTEX
  8
1
  6
CONTINUOUS
 62
     7
 10
-286.5729198353916
 20
56.31469269064741
  0
VERTEX
  8
1
  6
CONTINUOUS
 62
     7
 10
-286.5903624482224
 20
56.3113481914184
  0
VERTEX
  8
1
  6
CONTINUOUS
 62
     7
 10
-286.608007363564
 20
56.30858315170308
  0
VERTEX
  8
1
  6
CONTINUOUS
 62
     7
 10
-286.6265645697979
 20
56.30632992891073
  0
VERTEX
  8
1
  6
CONTINUOUS
 62
     7
 10
-286.6452961238183
 20
56.3047141820039
  0
VERTEX
  8
1
  6
CONTINUOUS
 62
     7
 10
-286.6641275643226
 20
56.30374100110405
  0
VERTEX
  8
1
  6
CONTINUOUS
 62
     7
 10
-286.6829844300084
 20
56.30341547633266
  0
SEQEND
  8
1
  6
CONTINUOUS
 62
     7
  0
POLYLINE
  8
1
  6
CONTINUOUS
 62
     7
 66
     1
  0
VERTEX
  8
1
  6
CONTINUOUS
 62
     7
 10
-279.1503489033253
 20
56.30341547633265
  0
VERTEX
  8
1
  6
CONTINUOUS
 62
     7
 10
-279.1665019073897
 20
56.30365383172747
  0
VERTEX
  8
1
  6
CONTINUOUS
 62
     7
 10
-279.1826389849813
 20
56.30436717479191
  0
VERTEX
  8
1
  6
CONTINUOUS
 62
     7
 10
-279.1987131094408
 20
56.30555292084593
  0
VERTEX
  8
1
  6
CONTINUOUS
 62
     7
 10
-279.2146772541088
 20
56.30720848520954
  0
VERTEX
  8
1
  6
CONTINUOUS
 62
     7
 10
-279.2310295621433
 20
56.30941088400615
  0
VERTEX
  8
1
  6
CONTINUOUS
 62
     7
 10
-279.2472325165785
 20
56.31210861537609
  0
VERTEX
  8
1
  6
CONTINUOUS
 62
     7
 10
-279.2632399274747
 20
56.31529111513215
  0
VERTEX
  8
1
  6
CONTINUOUS
 62
     7
 10
-279.2790056048922
 20
56.3189478190871
  0
VERTEX
  8
1
  6
CONTINUOUS
 62
     7
 10
-279.294021213668
 20
56.32293454215056
  0
VERTEX
  8
1
  6
CONTINUOUS
 62
     7
 10
-279.3087890357607
 20
56.32735360887965
  0
VERTEX
  8
1
  6
CONTINUOUS
 62
     7
 10
-279.3232768092207
 20
56.3321903604639
  0
VERTEX
  8
1
  6
CONTINUOUS
 62
     7
 10
-279.3374522720983
 20
56.33743013809286
  0
VERTEX
  8
1
  6
CONTINUOUS
 62
     7
 10
-279.3563400015876
 20
56.34524480724814
  0
VERTEX
  8
1
  6
CONTINUOUS
 62
     7
 10
-279.37461063221
 20
56.35377425172778
  0
VERTEX
  8
1
  6
CONTINUOUS
 62
     7
 10
-279.392209954076
 20
56.36297452088698
  0
VERTEX
  8
1
  6
CONTINUOUS
 62
     7
 10
-279.40804325437
 20
56.37216105875266
  0
VERTEX
  8
1
  6
CONTINUOUS
 62
     7
 10
-279.4232807777023
 20
56.3818927162714
  0
VERTEX
  8
1
  6
CONTINUOUS
 62
     7
 10
-279.4379017930011
 20
56.39213346366422
  0
VERTEX
  8
1
  6
CONTINUOUS
 62
     7
 10
-279.4518855691948
 20
56.40284727115214
  0
VERTEX
  8
1
  6
CONTINUOUS
 62
     7
 10
-279.4700474516126
 20
56.41828339879934
  0
VERTEX
  8
1
  6
CONTINUOUS
 62
     7
 10
-279.4870562897149
 20
56.43452641397606
  0
VERTEX
  8
1
  6
CONTINUOUS
 62
     7
 10
-279.5029066946954
 20
56.451494401592
  0
VERTEX
  8
1
  6
CONTINUOUS
 62
     7
 10
-279.5178376342866
 20
56.46940701687326
  0
VERTEX
  8
1
  6
CONTINUOUS
 62
     7
 10
-279.5316568590465
 20
56.48798201113491
  0
VERTEX
  8
1
  6
CONTINUOUS
 62
     7
 10
-279.5443899998156
 20
56.50715274311403
  0
VERTEX
  8
1
  6
CONTINUOUS
 62
     7
 10
-279.5560626874342
 20
56.52685257154764
  0
VERTEX
  8
1
  6
CONTINUOUS
 62
     7
 10
-279.5704259706831
 20
56.55465254102268
  0
VERTEX
  8
1
  6
CONTINUOUS
 62
     7
 10
-279.5830200793304
 20
56.58331930639992
  0
VERTEX
  8
1
  6
CONTINUOUS
 62
     7
 10
-279.5939418048728
 20
56.61273292222737
  0
VERTEX
  8
1
  6
CONTINUOUS
 62
     7
 10
-279.6054428592062
 20
56.65053991306992
  0
VERTEX
  8
1
  6
CONTINUOUS
 62
     7
 10
-279.6147190731148
 20
56.68933980357158
  0
VERTEX
  8
1
  6
CONTINUOUS
 62
     7
 10
-279.6219526939964
 20
56.72899038054717
  0
VERTEX
  8
1
  6
CONTINUOUS
 62
     7
 10
-279.6273259692488
 20
56.76934943081153
  0
VERTEX
  8
1
  6
CONTINUOUS
 62
     7
 10
-279.6320057284494
 20
56.82578805645976
  0
VERTEX
  8
1
  6
CONTINUOUS
 62
     7
 10
-279.6339279554507
 20
56.88336470464353
  0
VERTEX
  8
1
  6
CONTINUOUS
 62
     7
 10
-279.6334586541509
 20
56.94188495383611
  0
SEQEND
  8
1
  6
CONTINUOUS
 62
     7
  0
LINE
  8
1
  6
CONTINUOUS
 62
     7
 10
-279.1503489033253
 20
56.30341547633265
 11
-270.1829844300084
 21
56.30341547633265
  0
POLYLINE
  8
1
  6
CONTINUOUS
 62
     7
 66
     1
  0
VERTEX
  8
1
  6
CONTINUOUS
 62
     7
 10
-269.6998746791828
 20
56.94188495383609
  0
VERTEX
  8
1
  6
CONTINUOUS
 62
     7
 10
-269.6993626969102
 20
56.88567528633883
  0
VERTEX
  8
1
  6
CONTINUOUS
 62
     7
 10
-269.7010314965841
 20
56.8301881144973
  0
VERTEX
  8
1
  6
CONTINUOUS
 62
     7
 10
-269.705250343972
 20
56.77566137856537
  0
VERTEX
  8
1
  6
CONTINUOUS
 62
     7
 10
-269.7123885048417
 20
56.72233301879692
  0
VERTEX
  8
1
  6
CONTINUOUS
 62
     7
 10
-269.7228152449607
 20
56.67044097544584
  0
VERTEX
  8
1
  6
CONTINUOUS
 62
     7
 10
-269.7368998300963
 20
56.62022318876601
  0
VERTEX
  8
1
  6
CONTINUOUS
 62
     7
 10
-269.7462760101055
 20
56.593624973251
  0
VERTEX
  8
1
  6
CONTINUOUS
 62
     7
 10
-269.756992519895
 20
56.56755930427001
  0
VERTEX
  8
1
  6
CONTINUOUS
 62
     7
 10
-269.7691145012131
 20
56.54212461543519
  0
VERTEX
  8
1
  6
CONTINUOUS
 62
     7
 10
-269.7827070958081
 20
56.51741934035866
  0
VERTEX
  8
1
  6
CONTINUOUS
 62
     7
 10
-269.797835445428
 20
56.49354191265255
  0
VERTEX
  8
1
  6
CONTINUOUS
 62
     7
 10
-269.8145646918212
 20
56.470590765929
  0
VERTEX
  8
1
  6
CONTINUOUS
 62
     7
 10
-269.829355657437
 20
56.45271507377912
  0
VERTEX
  8
1
  6
CONTINUOUS
 62
     7
 10
-269.8452995840635
 20
56.43551818946494
  0
VERTEX
  8
1
  6
CONTINUOUS
 62
     7
 10
-269.8624031185727
 20
56.41907904816682
  0
VERTEX
  8
1
  6
CONTINUOUS
 62
     7
 10
-269.8763718703779
 20
56.40698191630969
  0
VERTEX
  8
1
  6
CONTINUOUS
 62
     7
 10
-269.8910634363585
 20
56.39538190155666
  0
VERTEX
  8
1
  6
CONTINUOUS
 62
     7
 10
-269.9064611630465
 20
56.38432137539914
  0
VERTEX
  8
1
  6
CONTINUOUS
 62
     7
 10
-269.9225483969737
 20
56.37384270932851
  0
VERTEX
  8
1
  6
CONTINUOUS
 62
     7
 10
-269.9399288939479
 20
56.36363815512553
  0
VERTEX
  8
1
  6
CONTINUOUS
 62
     7
 10
-269.958047421778
 20
56.3541089360117
  0
VERTEX
  8
1
  6
CONTINUOUS
 62
     7
 10
-269.9768552476481
 20
56.34530403066938
  0
VERTEX
  8
1
  6
CONTINUOUS
 62
     7
 10
-269.9918039157677
 20
56.3390360447768
  0
VERTEX
  8
1
  6
CONTINUOUS
 62
     7
 10
-270.0071471952077
 20
56.33322576067662
  0
VERTEX
  8
1
  6
CONTINUOUS
 62
     7
 10
-270.0228478425171
 20
56.3278933027429
  0
VERTEX
  8
1
  6
CONTINUOUS
 62
     7
 10
-270.0388686142448
 20
56.32305879534977
  0
VERTEX
  8
1
  6
CONTINUOUS
 62
     7
 10
-270.0557362993172
 20
56.31860133131592
  0
VERTEX
  8
1
  6
CONTINUOUS
 62
     7
 10
-270.0729198353916
 20
56.3146926906474
  0
VERTEX
  8
1
  6
CONTINUOUS
 62
     7
 10
-270.0903624482224
 20
56.31134819141838
  0
VERTEX
  8
1
  6
CONTINUOUS
 62
     7
 10
-270.108007363564
 20
56.30858315170306
  0
VERTEX
  8
1
  6
CONTINUOUS
 62
     7
 10
-270.126564569798
 20
56.30632992891072
  0
VERTEX
  8
1
  6
CONTINUOUS
 62
     7
 10
-270.1452961238183
 20
56.30471418200389
  0
VERTEX
  8
1
  6
CONTINUOUS
 62
     7
 10
-270.1641275643225
 20
56.30374100110404
  0
VERTEX
  8
1
  6
CONTINUOUS
 62
     7
 10
-270.1829844300084
 20
56.30341547633265
  0
SEQEND
  8
1
  6
CONTINUOUS
 62
     7
  0
POLYLINE
  8
1
  6
CONTINUOUS
 62
     7
 66
     1
  0
VERTEX
  8
1
  6
CONTINUOUS
 62
     7
 10
-262.650348903325
 20
56.30341547633266
  0
VERTEX
  8
1
  6
CONTINUOUS
 62
     7
 10
-262.6665019073894
 20
56.30365383172748
  0
VERTEX
  8
1
  6
CONTINUOUS
 62
     7
 10
-262.6826389849811
 20
56.30436717479191
  0
VERTEX
  8
1
  6
CONTINUOUS
 62
     7
 10
-262.6987131094405
 20
56.30555292084594
  0
VERTEX
  8
1
  6
CONTINUOUS
 62
     7
 10
-262.7146772541084
 20
56.30720848520955
  0
VERTEX
  8
1
  6
CONTINUOUS
 62
     7
 10
-262.731029562143
 20
56.30941088400616
  0
VERTEX
  8
1
  6
CONTINUOUS
 62
     7
 10
-262.7472325165782
 20
56.3121086153761
  0
VERTEX
  8
1
  6
CONTINUOUS
 62
     7
 10
-262.7632399274744
 20
56.31529111513215
  0
VERTEX
  8
1
  6
CONTINUOUS
 62
     7
 10
-262.7790056048918
 20
56.31894781908711
  0
VERTEX
  8
1
  6
CONTINUOUS
 62
     7
 10
-262.7940212136677
 20
56.32293454215058
  0
VERTEX
  8
1
  6
CONTINUOUS
 62
     7
 10
-262.8087890357604
 20
56.32735360887966
  0
VERTEX
  8
1
  6
CONTINUOUS
 62
     7
 10
-262.8232768092204
 20
56.33219036046391
  0
VERTEX
  8
1
  6
CONTINUOUS
 62
     7
 10
-262.8374522720979
 20
56.33743013809287
  0
VERTEX
  8
1
  6
CONTINUOUS
 62
     7
 10
-262.8563400015873
 20
56.34524480724816
  0
VERTEX
  8
1
  6
CONTINUOUS
 62
     7
 10
-262.8746106322097
 20
56.3537742517278
  0
VERTEX
  8
1
  6
CONTINUOUS
 62
     7
 10
-262.8922099540756
 20
56.36297452088699
  0
VERTEX
  8
1
  6
CONTINUOUS
 62
     7
 10
-262.9080432543697
 20
56.37216105875267
  0
VERTEX
  8
1
  6
CONTINUOUS
 62
     7
 10
-262.923280777702
 20
56.38189271627141
  0
VERTEX
  8
1
  6
CONTINUOUS
 62
     7
 10
-262.9379017930007
 20
56.39213346366424
  0
VERTEX
  8
1
  6
CONTINUOUS
 62
     7
 10
-262.9518855691944
 20
56.40284727115215
  0
VERTEX
  8
1
  6
CONTINUOUS
 62
     7
 10
-262.9700474516123
 20
56.41828339879935
  0
VERTEX
  8
1
  6
CONTINUOUS
 62
     7
 10
-262.9870562897145
 20
56.43452641397607
  0
VERTEX
  8
1
  6
CONTINUOUS
 62
     7
 10
-263.0029066946951
 20
56.45149440159202
  0
VERTEX
  8
1
  6
CONTINUOUS
 62
     7
 10
-263.0178376342863
 20
56.46940701687327
  0
VERTEX
  8
1
  6
CONTINUOUS
 62
     7
 10
-263.0316568590462
 20
56.48798201113492
  0
VERTEX
  8
1
  6
CONTINUOUS
 62
     7
 10
-263.0443899998152
 20
56.50715274311404
  0
VERTEX
  8
1
  6
CONTINUOUS
 62
     7
 10
-263.0560626874339
 20
56.52685257154766
  0
VERTEX
  8
1
  6
CONTINUOUS
 62
     7
 10
-263.0704259706828
 20
56.5546525410227
  0
VERTEX
  8
1
  6
CONTINUOUS
 62
     7
 10
-263.0830200793301
 20
56.58331930639994
  0
VERTEX
  8
1
  6
CONTINUOUS
 62
     7
 10
-263.0939418048725
 20
56.61273292222739
  0
VERTEX
  8
1
  6
CONTINUOUS
 62
     7
 10
-263.1054428592059
 20
56.65053991306993
  0
VERTEX
  8
1
  6
CONTINUOUS
 62
     7
 10
-263.1147190731144
 20
56.68933980357159
  0
VERTEX
  8
1
  6
CONTINUOUS
 62
     7
 10
-263.121952693996
 20
56.72899038054719
  0
VERTEX
  8
1
  6
CONTINUOUS
 62
     7
 10
-263.1273259692485
 20
56.76934943081155
  0
VERTEX
  8
1
  6
CONTINUOUS
 62
     7
 10
-263.1320057284491
 20
56.82578805645978
  0
VERTEX
  8
1
  6
CONTINUOUS
 62
     7
 10
-263.1339279554504
 20
56.88336470464356
  0
VERTEX
  8
1
  6
CONTINUOUS
 62
     7
 10
-263.1334586541506
 20
56.94188495383613
  0
SEQEND
  8
1
  6
CONTINUOUS
 62
     7
  0
LINE
  8
1
  6
CONTINUOUS
 62
     7
 10
-262.650348903325
 20
56.30341547633266
 11
-259.6829844300081
 21
56.30341547633266
  0
POLYLINE
  8
1
  6
CONTINUOUS
 62
     7
 66
     1
  0
VERTEX
  8
1
  6
CONTINUOUS
 62
     7
 10
-259.1998746791825
 20
56.94188495383612
  0
VERTEX
  8
1
  6
CONTINUOUS
 62
     7
 10
-259.1993626969098
 20
56.88567528633886
  0
VERTEX
  8
1
  6
CONTINUOUS
 62
     7
 10
-259.2010314965837
 20
56.83018811449733
  0
VERTEX
  8
1
  6
CONTINUOUS
 62
     7
 10
-259.2052503439717
 20
56.77566137856539
  0
VERTEX
  8
1
  6
CONTINUOUS
 62
     7
 10
-259.2123885048414
 20
56.72233301879695
  0
VERTEX
  8
1
  6
CONTINUOUS
 62
     7
 10
-259.2228152449603
 20
56.67044097544586
  0
VERTEX
  8
1
  6
CONTINUOUS
 62
     7
 10
-259.236899830096
 20
56.62022318876603
  0
VERTEX
  8
1
  6
CONTINUOUS
 62
     7
 10
-259.2462760101051
 20
56.59362497325101
  0
VERTEX
  8
1
  6
CONTINUOUS
 62
     7
 10
-259.2569925198947
 20
56.56755930427002
  0
VERTEX
  8
1
  6
CONTINUOUS
 62
     7
 10
-259.2691145012128
 20
56.5421246154352
  0
VERTEX
  8
1
  6
CONTINUOUS
 62
     7
 10
-259.2827070958077
 20
56.51741934035866
  0
VERTEX
  8
1
  6
CONTINUOUS
 62
     7
 10
-259.2978354454277
 20
56.49354191265255
  0
VERTEX
  8
1
  6
CONTINUOUS
 62
     7
 10
-259.3145646918209
 20
56.470590765929
  0
VERTEX
  8
1
  6
CONTINUOUS
 62
     7
 10
-259.3293556574367
 20
56.45271507377912
  0
VERTEX
  8
1
  6
CONTINUOUS
 62
     7
 10
-259.3452995840632
 20
56.43551818946494
  0
VERTEX
  8
1
  6
CONTINUOUS
 62
     7
 10
-259.3624031185724
 20
56.41907904816683
  0
VERTEX
  8
1
  6
CONTINUOUS
 62
     7
 10
-259.3763718703775
 20
56.4069819163097
  0
VERTEX
  8
1
  6
CONTINUOUS
 62
     7
 10
-259.3910634363582
 20
56.39538190155667
  0
VERTEX
  8
1
  6
CONTINUOUS
 62
     7
 10
-259.4064611630462
 20
56.38432137539915
  0
VERTEX
  8
1
  6
CONTINUOUS
 62
     7
 10
-259.4225483969734
 20
56.37384270932852
  0
VERTEX
  8
1
  6
CONTINUOUS
 62
     7
 10
-259.4399288939475
 20
56.36363815512554
  0
VERTEX
  8
1
  6
CONTINUOUS
 62
     7
 10
-259.4580474217777
 20
56.35410893601171
  0
VERTEX
  8
1
  6
CONTINUOUS
 62
     7
 10
-259.4768552476478
 20
56.34530403066939
  0
VERTEX
  8
1
  6
CONTINUOUS
 62
     7
 10
-259.4918039157674
 20
56.3390360447768
  0
VERTEX
  8
1
  6
CONTINUOUS
 62
     7
 10
-259.5071471952074
 20
56.33322576067662
  0
VERTEX
  8
1
  6
CONTINUOUS
 62
     7
 10
-259.5228478425168
 20
56.32789330274291
  0
VERTEX
  8
1
  6
CONTINUOUS
 62
     7
 10
-259.5388686142444
 20
56.32305879534978
  0
VERTEX
  8
1
  6
CONTINUOUS
 62
     7
 10
-259.5557362993169
 20
56.31860133131593
  0
VERTEX
  8
1
  6
CONTINUOUS
 62
     7
 10
-259.5729198353912
 20
56.31469269064741
  0
VERTEX
  8
1
  6
CONTINUOUS
 62
     7
 10
-259.5903624482221
 20
56.31134819141839
  0
VERTEX
  8
1
  6
CONTINUOUS
 62
     7
 10
-259.6080073635636
 20
56.30858315170308
  0
VERTEX
  8
1
  6
CONTINUOUS
 62
     7
 10
-259.6265645697977
 20
56.30632992891073
  0
VERTEX
  8
1
  6
CONTINUOUS
 62
     7
 10
-259.645296123818
 20
56.30471418200391
  0
VERTEX
  8
1
  6
CONTINUOUS
 62
     7
 10
-259.6641275643223
 20
56.30374100110405
  0
VERTEX
  8
1
  6
CONTINUOUS
 62
     7
 10
-259.6829844300081
 20
56.30341547633266
  0
SEQEND
  8
1
  6
CONTINUOUS
 62
     7
  0
POLYLINE
  8
1
  6
CONTINUOUS
 62
     7
 66
     1
  0
VERTEX
  8
1
  6
CONTINUOUS
 62
     7
 10
-243.6503489033253
 20
56.30341547633266
  0
VERTEX
  8
1
  6
CONTINUOUS
 62
     7
 10
-243.6665019073897
 20
56.30365383172748
  0
VERTEX
  8
1
  6
CONTINUOUS
 62
     7
 10
-243.6826389849814
 20
56.30436717479191
  0
VERTEX
  8
1
  6
CONTINUOUS
 62
     7
 10
-243.6987131094408
 20
56.30555292084594
  0
VERTEX
  8
1
  6
CONTINUOUS
 62
     7
 10
-243.7146772541088
 20
56.30720848520955
  0
VERTEX
  8
1
  6
CONTINUOUS
 62
     7
 10
-243.7310295621433
 20
56.30941088400616
  0
VERTEX
  8
1
  6
CONTINUOUS
 62
     7
 10
-243.7472325165785
 20
56.3121086153761
  0
VERTEX
  8
1
  6
CONTINUOUS
 62
     7
 10
-243.7632399274747
 20
56.31529111513215
  0
VERTEX
  8
1
  6
CONTINUOUS
 62
     7
 10
-243.7790056048921
 20
56.31894781908711
  0
VERTEX
  8
1
  6
CONTINUOUS
 62
     7
 10
-243.794021213668
 20
56.32293454215058
  0
VERTEX
  8
1
  6
CONTINUOUS
 62
     7
 10
-243.8087890357607
 20
56.32735360887966
  0
VERTEX
  8
1
  6
CONTINUOUS
 62
     7
 10
-243.8232768092207
 20
56.33219036046391
  0
VERTEX
  8
1
  6
CONTINUOUS
 62
     7
 10
-243.8374522720983
 20
56.33743013809287
  0
VERTEX
  8
1
  6
CONTINUOUS
 62
     7
 10
-243.8563400015877
 20
56.34524480724816
  0
VERTEX
  8
1
  6
CONTINUOUS
 62
     7
 10
-243.8746106322101
 20
56.3537742517278
  0
VERTEX
  8
1
  6
CONTINUOUS
 62
     7
 10
-243.8922099540759
 20
56.36297452088699
  0
VERTEX
  8
1
  6
CONTINUOUS
 62
     7
 10
-243.90804325437
 20
56.37216105875267
  0
VERTEX
  8
1
  6
CONTINUOUS
 62
     7
 10
-243.9232807777023
 20
56.38189271627141
  0
VERTEX
  8
1
  6
CONTINUOUS
 62
     7
 10
-243.9379017930011
 20
56.39213346366424
  0
VERTEX
  8
1
  6
CONTINUOUS
 62
     7
 10
-243.9518855691947
 20
56.40284727115215
  0
VERTEX
  8
1
  6
CONTINUOUS
 62
     7
 10
-243.9700474516127
 20
56.41828339879935
  0
VERTEX
  8
1
  6
CONTINUOUS
 62
     7
 10
-243.9870562897149
 20
56.43452641397608
  0
VERTEX
  8
1
  6
CONTINUOUS
 62
     7
 10
-244.0029066946954
 20
56.45149440159202
  0
VERTEX
  8
1
  6
CONTINUOUS
 62
     7
 10
-244.0178376342866
 20
56.46940701687328
  0
VERTEX
  8
1
  6
CONTINUOUS
 62
     7
 10
-244.0316568590465
 20
56.48798201113493
  0
VERTEX
  8
1
  6
CONTINUOUS
 62
     7
 10
-244.0443899998156
 20
56.50715274311405
  0
VERTEX
  8
1
  6
CONTINUOUS
 62
     7
 10
-244.0560626874342
 20
56.52685257154766
  0
VERTEX
  8
1
  6
CONTINUOUS
 62
     7
 10
-244.0704259706831
 20
56.55465254102271
  0
VERTEX
  8
1
  6
CONTINUOUS
 62
     7
 10
-244.0830200793304
 20
56.58331930639994
  0
VERTEX
  8
1
  6
CONTINUOUS
 62
     7
 10
-244.0939418048728
 20
56.6127329222274
  0
VERTEX
  8
1
  6
CONTINUOUS
 62
     7
 10
-244.1054428592062
 20
56.65053991306995
  0
VERTEX
  8
1
  6
CONTINUOUS
 62
     7
 10
-244.1147190731148
 20
56.6893398035716
  0
VERTEX
  8
1
  6
CONTINUOUS
 62
     7
 10
-244.1219526939963
 20
56.7289903805472
  0
VERTEX
  8
1
  6
CONTINUOUS
 62
     7
 10
-244.1273259692488
 20
56.76934943081156
  0
VERTEX
  8
1
  6
CONTINUOUS
 62
     7
 10
-244.1320057284494
 20
56.82578805645979
  0
VERTEX
  8
1
  6
CONTINUOUS
 62
     7
 10
-244.1339279554507
 20
56.88336470464356
  0
VERTEX
  8
1
  6
CONTINUOUS
 62
     7
 10
-244.1334586541509
 20
56.94188495383613
  0
SEQEND
  8
1
  6
CONTINUOUS
 62
     7
  0
LINE
  8
1
  6
CONTINUOUS
 62
     7
 10
-243.6503489033253
 20
56.30341547633266
 11
-240.6829844300084
 21
56.30341547633266
  0
POLYLINE
  8
1
  6
CONTINUOUS
 62
     7
 66
     1
  0
VERTEX
  8
1
  6
CONTINUOUS
 62
     7
 10
-240.1998746791828
 20
56.94188495383612
  0
VERTEX
  8
1
  6
CONTINUOUS
 62
     7
 10
-240.1993626969101
 20
56.88567528633886
  0
VERTEX
  8
1
  6
CONTINUOUS
 62
     7
 10
-240.201031496584
 20
56.83018811449733
  0
VERTEX
  8
1
  6
CONTINUOUS
 62
     7
 10
-240.205250343972
 20
56.7756613785654
  0
VERTEX
  8
1
  6
CONTINUOUS
 62
     7
 10
-240.2123885048418
 20
56.72233301879695
  0
VERTEX
  8
1
  6
CONTINUOUS
 62
     7
 10
-240.2228152449607
 20
56.67044097544586
  0
VERTEX
  8
1
  6
CONTINUOUS
 62
     7
 10
-240.2368998300963
 20
56.62022318876603
  0
VERTEX
  8
1
  6
CONTINUOUS
 62
     7
 10
-240.2462760101054
 20
56.59362497325102
  0
VERTEX
  8
1
  6
CONTINUOUS
 62
     7
 10
-240.256992519895
 20
56.56755930427003
  0
VERTEX
  8
1
  6
CONTINUOUS
 62
     7
 10
-240.2691145012131
 20
56.54212461543521
  0
VERTEX
  8
1
  6
CONTINUOUS
 62
     7
 10
-240.2827070958081
 20
56.51741934035867
  0
VERTEX
  8
1
  6
CONTINUOUS
 62
     7
 10
-240.297835445428
 20
56.49354191265256
  0
VERTEX
  8
1
  6
CONTINUOUS
 62
     7
 10
-240.3145646918212
 20
56.47059076592901
  0
VERTEX
  8
1
  6
CONTINUOUS
 62
     7
 10
-240.329355657437
 20
56.45271507377913
  0
VERTEX
  8
1
  6
CONTINUOUS
 62
     7
 10
-240.3452995840636
 20
56.43551818946495
  0
VERTEX
  8
1
  6
CONTINUOUS
 62
     7
 10
-240.3624031185727
 20
56.41907904816684
  0
VERTEX
  8
1
  6
CONTINUOUS
 62
     7
 10
-240.3763718703779
 20
56.4069819163097
  0
VERTEX
  8
1
  6
CONTINUOUS
 62
     7
 10
-240.3910634363585
 20
56.39538190155668
  0
VERTEX
  8
1
  6
CONTINUOUS
 62
     7
 10
-240.4064611630465
 20
56.38432137539915
  0
VERTEX
  8
1
  6
CONTINUOUS
 62
     7
 10
-240.4225483969737
 20
56.37384270932853
  0
VERTEX
  8
1
  6
CONTINUOUS
 62
     7
 10
-240.4399288939478
 20
56.36363815512554
  0
VERTEX
  8
1
  6
CONTINUOUS
 62
     7
 10
-240.458047421778
 20
56.35410893601171
  0
VERTEX
  8
1
  6
CONTINUOUS
 62
     7
 10
-240.4768552476481
 20
56.3453040306694
  0
VERTEX
  8
1
  6
CONTINUOUS
 62
     7
 10
-240.4918039157677
 20
56.33903604477681
  0
VERTEX
  8
1
  6
CONTINUOUS
 62
     7
 10
-240.5071471952077
 20
56.33322576067663
  0
VERTEX
  8
1
  6
CONTINUOUS
 62
     7
 10
-240.5228478425171
 20
56.32789330274291
  0
VERTEX
  8
1
  6
CONTINUOUS
 62
     7
 10
-240.5388686142448
 20
56.32305879534979
  0
VERTEX
  8
1
  6
CONTINUOUS
 62
     7
 10
-240.5557362993172
 20
56.31860133131593
  0
VERTEX
  8
1
  6
CONTINUOUS
 62
     7
 10
-240.5729198353916
 20
56.31469269064741
  0
VERTEX
  8
1
  6
CONTINUOUS
 62
     7
 10
-240.5903624482224
 20
56.3113481914184
  0
VERTEX
  8
1
  6
CONTINUOUS
 62
     7
 10
-240.6080073635639
 20
56.30858315170308
  0
VERTEX
  8
1
  6
CONTINUOUS
 62
     7
 10
-240.626564569798
 20
56.30632992891073
  0
VERTEX
  8
1
  6
CONTINUOUS
 62
     7
 10
-240.6452961238183
 20
56.30471418200391
  0
VERTEX
  8
1
  6
CONTINUOUS
 62
     7
 10
-240.6641275643226
 20
56.30374100110405
  0
VERTEX
  8
1
  6
CONTINUOUS
 62
     7
 10
-240.6829844300084
 20
56.30341547633266
  0
SEQEND
  8
1
  6
CONTINUOUS
 62
     7
  0
POLYLINE
  8
1
  6
CONTINUOUS
 62
     7
 66
     1
  0
VERTEX
  8
1
  6
CONTINUOUS
 62
     7
 10
-233.150348903325
 20
56.30341547633265
  0
VERTEX
  8
1
  6
CONTINUOUS
 62
     7
 10
-233.1665019073894
 20
56.30365383172747
  0
VERTEX
  8
1
  6
CONTINUOUS
 62
     7
 10
-233.1826389849811
 20
56.30436717479191
  0
VERTEX
  8
1
  6
CONTINUOUS
 62
     7
 10
-233.1987131094405
 20
56.30555292084593
  0
VERTEX
  8
1
  6
CONTINUOUS
 62
     7
 10
-233.2146772541084
 20
56.30720848520954
  0
VERTEX
  8
1
  6
CONTINUOUS
 62
     7
 10
-233.231029562143
 20
56.30941088400615
  0
VERTEX
  8
1
  6
CONTINUOUS
 62
     7
 10
-233.2472325165782
 20
56.31210861537609
  0
VERTEX
  8
1
  6
CONTINUOUS
 62
     7
 10
-233.2632399274744
 20
56.31529111513215
  0
VERTEX
  8
1
  6
CONTINUOUS
 62
     7
 10
-233.2790056048918
 20
56.3189478190871
  0
VERTEX
  8
1
  6
CONTINUOUS
 62
     7
 10
-233.2940212136677
 20
56.32293454215056
  0
VERTEX
  8
1
  6
CONTINUOUS
 62
     7
 10
-233.3087890357604
 20
56.32735360887965
  0
VERTEX
  8
1
  6
CONTINUOUS
 62
     7
 10
-233.3232768092203
 20
56.3321903604639
  0
VERTEX
  8
1
  6
CONTINUOUS
 62
     7
 10
-233.337452272098
 20
56.33743013809286
  0
VERTEX
  8
1
  6
CONTINUOUS
 62
     7
 10
-233.3563400015873
 20
56.34524480724814
  0
VERTEX
  8
1
  6
CONTINUOUS
 62
     7
 10
-233.3746106322097
 20
56.35377425172778
  0
VERTEX
  8
1
  6
CONTINUOUS
 62
     7
 10
-233.3922099540756
 20
56.36297452088698
  0
VERTEX
  8
1
  6
CONTINUOUS
 62
     7
 10
-233.4080432543697
 20
56.37216105875266
  0
VERTEX
  8
1
  6
CONTINUOUS
 62
     7
 10
-233.423280777702
 20
56.3818927162714
  0
VERTEX
  8
1
  6
CONTINUOUS
 62
     7
 10
-233.4379017930008
 20
56.39213346366422
  0
VERTEX
  8
1
  6
CONTINUOUS
 62
     7
 10
-233.4518855691944
 20
56.40284727115214
  0
VERTEX
  8
1
  6
CONTINUOUS
 62
     7
 10
-233.4700474516123
 20
56.41828339879934
  0
VERTEX
  8
1
  6
CONTINUOUS
 62
     7
 10
-233.4870562897146
 20
56.43452641397606
  0
VERTEX
  8
1
  6
CONTINUOUS
 62
     7
 10
-233.5029066946951
 20
56.451494401592
  0
VERTEX
  8
1
  6
CONTINUOUS
 62
     7
 10
-233.5178376342863
 20
56.46940701687326
  0
VERTEX
  8
1
  6
CONTINUOUS
 62
     7
 10
-233.5316568590462
 20
56.48798201113491
  0
VERTEX
  8
1
  6
CONTINUOUS
 62
     7
 10
-233.5443899998152
 20
56.50715274311403
  0
VERTEX
  8
1
  6
CONTINUOUS
 62
     7
 10
-233.5560626874339
 20
56.52685257154764
  0
VERTEX
  8
1
  6
CONTINUOUS
 62
     7
 10
-233.5704259706828
 20
56.55465254102268
  0
VERTEX
  8
1
  6
CONTINUOUS
 62
     7
 10
-233.5830200793301
 20
56.58331930639992
  0
VERTEX
  8
1
  6
CONTINUOUS
 62
     7
 10
-233.5939418048725
 20
56.61273292222737
  0
VERTEX
  8
1
  6
CONTINUOUS
 62
     7
 10
-233.6054428592059
 20
56.65053991306992
  0
VERTEX
  8
1
  6
CONTINUOUS
 62
     7
 10
-233.6147190731145
 20
56.68933980357158
  0
VERTEX
  8
1
  6
CONTINUOUS
 62
     7
 10
-233.621952693996
 20
56.72899038054717
  0
VERTEX
  8
1
  6
CONTINUOUS
 62
     7
 10
-233.6273259692485
 20
56.76934943081153
  0
VERTEX
  8
1
  6
CONTINUOUS
 62
     7
 10
-233.6320057284491
 20
56.82578805645976
  0
VERTEX
  8
1
  6
CONTINUOUS
 62
     7
 10
-233.6339279554504
 20
56.88336470464353
  0
VERTEX
  8
1
  6
CONTINUOUS
 62
     7
 10
-233.6334586541506
 20
56.9418849538361
  0
SEQEND
  8
1
  6
CONTINUOUS
 62
     7
  0
LINE
  8
1
  6
CONTINUOUS
 62
     7
 10
-233.150348903325
 20
56.30341547633265
 11
-224.1829844300081
 21
56.30341547633265
  0
POLYLINE
  8
1
  6
CONTINUOUS
 62
     7
 66
     1
  0
VERTEX
  8
1
  6
CONTINUOUS
 62
     7
 10
-223.6998746791825
 20
56.9418849538361
  0
VERTEX
  8
1
  6
CONTINUOUS
 62
     7
 10
-223.6993626969098
 20
56.88567528633884
  0
VERTEX
  8
1
  6
CONTINUOUS
 62
     7
 10
-223.7010314965837
 20
56.8301881144973
  0
VERTEX
  8
1
  6
CONTINUOUS
 62
     7
 10
-223.7052503439717
 20
56.77566137856537
  0
VERTEX
  8
1
  6
CONTINUOUS
 62
     7
 10
-223.7123885048414
 20
56.72233301879694
  0
VERTEX
  8
1
  6
CONTINUOUS
 62
     7
 10
-223.7228152449603
 20
56.67044097544585
  0
VERTEX
  8
1
  6
CONTINUOUS
 62
     7
 10
-223.736899830096
 20
56.62022318876602
  0
VERTEX
  8
1
  6
CONTINUOUS
 62
     7
 10
-223.7462760101051
 20
56.59362497325101
  0
VERTEX
  8
1
  6
CONTINUOUS
 62
     7
 10
-223.7569925198947
 20
56.56755930427001
  0
VERTEX
  8
1
  6
CONTINUOUS
 62
     7
 10
-223.7691145012128
 20
56.54212461543519
  0
VERTEX
  8
1
  6
CONTINUOUS
 62
     7
 10
-223.7827070958078
 20
56.51741934035866
  0
VERTEX
  8
1
  6
CONTINUOUS
 62
     7
 10
-223.7978354454277
 20
56.49354191265255
  0
VERTEX
  8
1
  6
CONTINUOUS
 62
     7
 10
-223.8145646918209
 20
56.470590765929
  0
VERTEX
  8
1
  6
CONTINUOUS
 62
     7
 10
-223.8293556574367
 20
56.45271507377912
  0
VERTEX
  8
1
  6
CONTINUOUS
 62
     7
 10
-223.8452995840632
 20
56.43551818946494
  0
VERTEX
  8
1
  6
CONTINUOUS
 62
     7
 10
-223.8624031185724
 20
56.41907904816682
  0
VERTEX
  8
1
  6
CONTINUOUS
 62
     7
 10
-223.8763718703776
 20
56.40698191630969
  0
VERTEX
  8
1
  6
CONTINUOUS
 62
     7
 10
-223.8910634363582
 20
56.39538190155666
  0
VERTEX
  8
1
  6
CONTINUOUS
 62
     7
 10
-223.9064611630462
 20
56.38432137539915
  0
VERTEX
  8
1
  6
CONTINUOUS
 62
     7
 10
-223.9225483969734
 20
56.37384270932852
  0
VERTEX
  8
1
  6
CONTINUOUS
 62
     7
 10
-223.9399288939475
 20
56.36363815512553
  0
VERTEX
  8
1
  6
CONTINUOUS
 62
     7
 10
-223.9580474217777
 20
56.3541089360117
  0
VERTEX
  8
1
  6
CONTINUOUS
 62
     7
 10
-223.9768552476478
 20
56.34530403066938
  0
VERTEX
  8
1
  6
CONTINUOUS
 62
     7
 10
-223.9918039157674
 20
56.3390360447768
  0
VERTEX
  8
1
  6
CONTINUOUS
 62
     7
 10
-224.0071471952074
 20
56.33322576067662
  0
VERTEX
  8
1
  6
CONTINUOUS
 62
     7
 10
-224.0228478425167
 20
56.3278933027429
  0
VERTEX
  8
1
  6
CONTINUOUS
 62
     7
 10
-224.0388686142445
 20
56.32305879534977
  0
VERTEX
  8
1
  6
CONTINUOUS
 62
     7
 10
-224.0557362993169
 20
56.31860133131592
  0
VERTEX
  8
1
  6
CONTINUOUS
 62
     7
 10
-224.0729198353913
 20
56.3146926906474
  0
VERTEX
  8
1
  6
CONTINUOUS
 62
     7
 10
-224.0903624482221
 20
56.31134819141838
  0
VERTEX
  8
1
  6
CONTINUOUS
 62
     7
 10
-224.1080073635636
 20
56.30858315170306
  0
VERTEX
  8
1
  6
CONTINUOUS
 62
     7
 10
-224.1265645697977
 20
56.30632992891072
  0
VERTEX
  8
1
  6
CONTINUOUS
 62
     7
 10
-224.145296123818
 20
56.30471418200389
  0
VERTEX
  8
1
  6
CONTINUOUS
 62
     7
 10
-224.1641275643223
 20
56.30374100110404
  0
VERTEX
  8
1
  6
CONTINUOUS
 62
     7
 10
-224.1829844300081
 20
56.30341547633265
  0
SEQEND
  8
1
  6
CONTINUOUS
 62
     7
  0
POLYLINE
  8
1
  6
CONTINUOUS
 62
     7
 66
     1
  0
VERTEX
  8
1
  6
CONTINUOUS
 62
     7
 10
-216.650348903325
 20
56.30341547633266
  0
VERTEX
  8
1
  6
CONTINUOUS
 62
     7
 10
-216.6665019073894
 20
56.30365383172748
  0
VERTEX
  8
1
  6
CONTINUOUS
 62
     7
 10
-216.6826389849811
 20
56.30436717479191
  0
VERTEX
  8
1
  6
CONTINUOUS
 62
     7
 10
-216.6987131094405
 20
56.30555292084594
  0
VERTEX
  8
1
  6
CONTINUOUS
 62
     7
 10
-216.7146772541084
 20
56.30720848520955
  0
VERTEX
  8
1
  6
CONTINUOUS
 62
     7
 10
-216.731029562143
 20
56.30941088400616
  0
VERTEX
  8
1
  6
CONTINUOUS
 62
     7
 10
-216.7472325165782
 20
56.3121086153761
  0
VERTEX
  8
1
  6
CONTINUOUS
 62
     7
 10
-216.7632399274744
 20
56.31529111513215
  0
VERTEX
  8
1
  6
CONTINUOUS
 62
     7
 10
-216.7790056048918
 20
56.31894781908711
  0
VERTEX
  8
1
  6
CONTINUOUS
 62
     7
 10
-216.7940212136677
 20
56.32293454215058
  0
VERTEX
  8
1
  6
CONTINUOUS
 62
     7
 10
-216.8087890357604
 20
56.32735360887966
  0
VERTEX
  8
1
  6
CONTINUOUS
 62
     7
 10
-216.8232768092203
 20
56.33219036046391
  0
VERTEX
  8
1
  6
CONTINUOUS
 62
     7
 10
-216.837452272098
 20
56.33743013809287
  0
VERTEX
  8
1
  6
CONTINUOUS
 62
     7
 10
-216.8563400015873
 20
56.34524480724816
  0
VERTEX
  8
1
  6
CONTINUOUS
 62
     7
 10
-216.8746106322097
 20
56.35377425172779
  0
VERTEX
  8
1
  6
CONTINUOUS
 62
     7
 10
-216.8922099540756
 20
56.36297452088699
  0
VERTEX
  8
1
  6
CONTINUOUS
 62
     7
 10
-216.9080432543697
 20
56.37216105875267
  0
VERTEX
  8
1
  6
CONTINUOUS
 62
     7
 10
-216.923280777702
 20
56.38189271627141
  0
VERTEX
  8
1
  6
CONTINUOUS
 62
     7
 10
-216.9379017930007
 20
56.39213346366423
  0
VERTEX
  8
1
  6
CONTINUOUS
 62
     7
 10
-216.9518855691944
 20
56.40284727115215
  0
VERTEX
  8
1
  6
CONTINUOUS
 62
     7
 10
-216.9700474516123
 20
56.41828339879935
  0
VERTEX
  8
1
  6
CONTINUOUS
 62
     7
 10
-216.9870562897145
 20
56.43452641397607
  0
VERTEX
  8
1
  6
CONTINUOUS
 62
     7
 10
-217.0029066946951
 20
56.45149440159202
  0
VERTEX
  8
1
  6
CONTINUOUS
 62
     7
 10
-217.0178376342863
 20
56.46940701687327
  0
VERTEX
  8
1
  6
CONTINUOUS
 62
     7
 10
-217.0316568590462
 20
56.48798201113493
  0
VERTEX
  8
1
  6
CONTINUOUS
 62
     7
 10
-217.0443899998152
 20
56.50715274311404
  0
VERTEX
  8
1
  6
CONTINUOUS
 62
     7
 10
-217.0560626874339
 20
56.52685257154766
  0
VERTEX
  8
1
  6
CONTINUOUS
 62
     7
 10
-217.0704259706828
 20
56.5546525410227
  0
VERTEX
  8
1
  6
CONTINUOUS
 62
     7
 10
-217.0830200793301
 20
56.58331930639994
  0
VERTEX
  8
1
  6
CONTINUOUS
 62
     7
 10
-217.0939418048725
 20
56.6127329222274
  0
VERTEX
  8
1
  6
CONTINUOUS
 62
     7
 10
-217.1054428592059
 20
56.65053991306995
  0
VERTEX
  8
1
  6
CONTINUOUS
 62
     7
 10
-217.1147190731144
 20
56.6893398035716
  0
VERTEX
  8
1
  6
CONTINUOUS
 62
     7
 10
-217.121952693996
 20
56.7289903805472
  0
VERTEX
  8
1
  6
CONTINUOUS
 62
     7
 10
-217.1273259692485
 20
56.76934943081156
  0
VERTEX
  8
1
  6
CONTINUOUS
 62
     7
 10
-217.1320057284491
 20
56.82578805645979
  0
VERTEX
  8
1
  6
CONTINUOUS
 62
     7
 10
-217.1339279554504
 20
56.88336470464356
  0
VERTEX
  8
1
  6
CONTINUOUS
 62
     7
 10
-217.1334586541506
 20
56.94188495383613
  0
SEQEND
  8
1
  6
CONTINUOUS
 62
     7
  0
LINE
  8
1
  6
CONTINUOUS
 62
     7
 10
-216.650348903325
 20
56.30341547633266
 11
-213.6829844300081
 21
56.30341547633266
  0
POLYLINE
  8
1
  6
CONTINUOUS
 62
     7
 66
     1
  0
VERTEX
  8
1
  6
CONTINUOUS
 62
     7
 10
-213.1998746791825
 20
56.94188495383612
  0
VERTEX
  8
1
  6
CONTINUOUS
 62
     7
 10
-213.1993626969098
 20
56.88567528633886
  0
VERTEX
  8
1
  6
CONTINUOUS
 62
     7
 10
-213.2010314965837
 20
56.83018811449733
  0
VERTEX
  8
1
  6
CONTINUOUS
 62
     7
 10
-213.2052503439717
 20
56.77566137856539
  0
VERTEX
  8
1
  6
CONTINUOUS
 62
     7
 10
-213.2123885048414
 20
56.72233301879695
  0
VERTEX
  8
1
  6
CONTINUOUS
 62
     7
 10
-213.2228152449603
 20
56.67044097544586
  0
VERTEX
  8
1
  6
CONTINUOUS
 62
     7
 10
-213.236899830096
 20
56.62022318876603
  0
VERTEX
  8
1
  6
CONTINUOUS
 62
     7
 10
-213.2462760101051
 20
56.59362497325101
  0
VERTEX
  8
1
  6
CONTINUOUS
 62
     7
 10
-213.2569925198947
 20
56.56755930427002
  0
VERTEX
  8
1
  6
CONTINUOUS
 62
     7
 10
-213.2691145012128
 20
56.54212461543521
  0
VERTEX
  8
1
  6
CONTINUOUS
 62
     7
 10
-213.2827070958078
 20
56.51741934035867
  0
VERTEX
  8
1
  6
CONTINUOUS
 62
     7
 10
-213.2978354454277
 20
56.49354191265256
  0
VERTEX
  8
1
  6
CONTINUOUS
 62
     7
 10
-213.3145646918209
 20
56.47059076592901
  0
VERTEX
  8
1
  6
CONTINUOUS
 62
     7
 10
-213.3293556574367
 20
56.45271507377913
  0
VERTEX
  8
1
  6
CONTINUOUS
 62
     7
 10
-213.3452995840632
 20
56.43551818946495
  0
VERTEX
  8
1
  6
CONTINUOUS
 62
     7
 10
-213.3624031185724
 20
56.41907904816684
  0
VERTEX
  8
1
  6
CONTINUOUS
 62
     7
 10
-213.3763718703775
 20
56.4069819163097
  0
VERTEX
  8
1
  6
CONTINUOUS
 62
     7
 10
-213.3910634363582
 20
56.39538190155668
  0
VERTEX
  8
1
  6
CONTINUOUS
 62
     7
 10
-213.4064611630462
 20
56.38432137539915
  0
VERTEX
  8
1
  6
CONTINUOUS
 62
     7
 10
-213.4225483969734
 20
56.37384270932853
  0
VERTEX
  8
1
  6
CONTINUOUS
 62
     7
 10
-213.4399288939475
 20
56.36363815512554
  0
VERTEX
  8
1
  6
CONTINUOUS
 62
     7
 10
-213.4580474217776
 20
56.35410893601171
  0
VERTEX
  8
1
  6
CONTINUOUS
 62
     7
 10
-213.4768552476478
 20
56.3453040306694
  0
VERTEX
  8
1
  6
CONTINUOUS
 62
     7
 10
-213.4918039157674
 20
56.33903604477681
  0
VERTEX
  8
1
  6
CONTINUOUS
 62
     7
 10
-213.5071471952074
 20
56.33322576067663
  0
VERTEX
  8
1
  6
CONTINUOUS
 62
     7
 10
-213.5228478425167
 20
56.32789330274291
  0
VERTEX
  8
1
  6
CONTINUOUS
 62
     7
 10
-213.5388686142445
 20
56.32305879534979
  0
VERTEX
  8
1
  6
CONTINUOUS
 62
     7
 10
-213.5557362993168
 20
56.31860133131593
  0
VERTEX
  8
1
  6
CONTINUOUS
 62
     7
 10
-213.5729198353912
 20
56.31469269064741
  0
VERTEX
  8
1
  6
CONTINUOUS
 62
     7
 10
-213.5903624482221
 20
56.3113481914184
  0
VERTEX
  8
1
  6
CONTINUOUS
 62
     7
 10
-213.6080073635636
 20
56.30858315170308
  0
VERTEX
  8
1
  6
CONTINUOUS
 62
     7
 10
-213.6265645697976
 20
56.30632992891073
  0
VERTEX
  8
1
  6
CONTINUOUS
 62
     7
 10
-213.645296123818
 20
56.3047141820039
  0
VERTEX
  8
1
  6
CONTINUOUS
 62
     7
 10
-213.6641275643222
 20
56.30374100110405
  0
VERTEX
  8
1
  6
CONTINUOUS
 62
     7
 10
-213.6829844300081
 20
56.30341547633266
  0
SEQEND
  8
1
  6
CONTINUOUS
 62
     7
  0
POLYLINE
  8
1
  6
CONTINUOUS
 62
     7
 66
     1
  0
VERTEX
  8
1
  6
CONTINUOUS
 62
     7
 10
-197.6503489033253
 20
56.30341547633266
  0
VERTEX
  8
1
  6
CONTINUOUS
 62
     7
 10
-197.6665019073898
 20
56.30365383172748
  0
VERTEX
  8
1
  6
CONTINUOUS
 62
     7
 10
-197.6826389849814
 20
56.30436717479191
  0
VERTEX
  8
1
  6
CONTINUOUS
 62
     7
 10
-197.6987131094408
 20
56.30555292084594
  0
VERTEX
  8
1
  6
CONTINUOUS
 62
     7
 10
-197.7146772541087
 20
56.30720848520955
  0
VERTEX
  8
1
  6
CONTINUOUS
 62
     7
 10
-197.7310295621433
 20
56.30941088400616
  0
VERTEX
  8
1
  6
CONTINUOUS
 62
     7
 10
-197.7472325165785
 20
56.3121086153761
  0
VERTEX
  8
1
  6
CONTINUOUS
 62
     7
 10
-197.7632399274747
 20
56.31529111513215
  0
VERTEX
  8
1
  6
CONTINUOUS
 62
     7
 10
-197.7790056048921
 20
56.31894781908711
  0
VERTEX
  8
1
  6
CONTINUOUS
 62
     7
 10
-197.794021213668
 20
56.32293454215058
  0
VERTEX
  8
1
  6
CONTINUOUS
 62
     7
 10
-197.8087890357607
 20
56.32735360887966
  0
VERTEX
  8
1
  6
CONTINUOUS
 62
     7
 10
-197.8232768092207
 20
56.33219036046391
  0
VERTEX
  8
1
  6
CONTINUOUS
 62
     7
 10
-197.8374522720983
 20
56.33743013809287
  0
VERTEX
  8
1
  6
CONTINUOUS
 62
     7
 10
-197.8563400015876
 20
56.34524480724816
  0
VERTEX
  8
1
  6
CONTINUOUS
 62
     7
 10
-197.8746106322101
 20
56.35377425172779
  0
VERTEX
  8
1
  6
CONTINUOUS
 62
     7
 10
-197.8922099540759
 20
56.36297452088699
  0
VERTEX
  8
1
  6
CONTINUOUS
 62
     7
 10
-197.90804325437
 20
56.37216105875267
  0
VERTEX
  8
1
  6
CONTINUOUS
 62
     7
 10
-197.9232807777023
 20
56.38189271627141
  0
VERTEX
  8
1
  6
CONTINUOUS
 62
     7
 10
-197.9379017930011
 20
56.39213346366423
  0
VERTEX
  8
1
  6
CONTINUOUS
 62
     7
 10
-197.9518855691947
 20
56.40284727115215
  0
VERTEX
  8
1
  6
CONTINUOUS
 62
     7
 10
-197.9700474516126
 20
56.41828339879935
  0
VERTEX
  8
1
  6
CONTINUOUS
 62
     7
 10
-197.9870562897148
 20
56.43452641397607
  0
VERTEX
  8
1
  6
CONTINUOUS
 62
     7
 10
-198.0029066946954
 20
56.45149440159202
  0
VERTEX
  8
1
  6
CONTINUOUS
 62
     7
 10
-198.0178376342866
 20
56.46940701687327
  0
VERTEX
  8
1
  6
CONTINUOUS
 62
     7
 10
-198.0316568590465
 20
56.48798201113493
  0
VERTEX
  8
1
  6
CONTINUOUS
 62
     7
 10
-198.0443899998155
 20
56.50715274311404
  0
VERTEX
  8
1
  6
CONTINUOUS
 62
     7
 10
-198.0560626874342
 20
56.52685257154766
  0
VERTEX
  8
1
  6
CONTINUOUS
 62
     7
 10
-198.0704259706831
 20
56.5546525410227
  0
VERTEX
  8
1
  6
CONTINUOUS
 62
     7
 10
-198.0830200793304
 20
56.58331930639994
  0
VERTEX
  8
1
  6
CONTINUOUS
 62
     7
 10
-198.0939418048728
 20
56.6127329222274
  0
VERTEX
  8
1
  6
CONTINUOUS
 62
     7
 10
-198.1054428592062
 20
56.65053991306995
  0
VERTEX
  8
1
  6
CONTINUOUS
 62
     7
 10
-198.1147190731148
 20
56.6893398035716
  0
VERTEX
  8
1
  6
CONTINUOUS
 62
     7
 10
-198.1219526939963
 20
56.7289903805472
  0
VERTEX
  8
1
  6
CONTINUOUS
 62
     7
 10
-198.1273259692488
 20
56.76934943081156
  0
VERTEX
  8
1
  6
CONTINUOUS
 62
     7
 10
-198.1320057284494
 20
56.82578805645979
  0
VERTEX
  8
1
  6
CONTINUOUS
 62
     7
 10
-198.1339279554507
 20
56.88336470464356
  0
VERTEX
  8
1
  6
CONTINUOUS
 62
     7
 10
-198.1334586541509
 20
56.94188495383613
  0
SEQEND
  8
1
  6
CONTINUOUS
 62
     7
  0
LINE
  8
1
  6
CONTINUOUS
 62
     7
 10
-197.6503489033253
 20
56.30341547633266
 11
-194.6829844300084
 21
56.30341547633266
  0
POLYLINE
  8
1
  6
CONTINUOUS
 62
     7
 66
     1
  0
VERTEX
  8
1
  6
CONTINUOUS
 62
     7
 10
-194.1998746791829
 20
56.94188495383612
  0
VERTEX
  8
1
  6
CONTINUOUS
 62
     7
 10
-194.1993626969101
 20
56.88567528633886
  0
VERTEX
  8
1
  6
CONTINUOUS
 62
     7
 10
-194.201031496584
 20
56.83018811449733
  0
VERTEX
  8
1
  6
CONTINUOUS
 62
     7
 10
-194.205250343972
 20
56.7756613785654
  0
VERTEX
  8
1
  6
CONTINUOUS
 62
     7
 10
-194.2123885048417
 20
56.72233301879695
  0
VERTEX
  8
1
  6
CONTINUOUS
 62
     7
 10
-194.2228152449607
 20
56.67044097544586
  0
VERTEX
  8
1
  6
CONTINUOUS
 62
     7
 10
-194.2368998300963
 20
56.62022318876603
  0
VERTEX
  8
1
  6
CONTINUOUS
 62
     7
 10
-194.2462760101055
 20
56.59362497325102
  0
VERTEX
  8
1
  6
CONTINUOUS
 62
     7
 10
-194.256992519895
 20
56.56755930427003
  0
VERTEX
  8
1
  6
CONTINUOUS
 62
     7
 10
-194.2691145012132
 20
56.54212461543521
  0
VERTEX
  8
1
  6
CONTINUOUS
 62
     7
 10
-194.2827070958081
 20
56.51741934035867
  0
VERTEX
  8
1
  6
CONTINUOUS
 62
     7
 10
-194.297835445428
 20
56.49354191265256
  0
VERTEX
  8
1
  6
CONTINUOUS
 62
     7
 10
-194.3145646918212
 20
56.47059076592901
  0
VERTEX
  8
1
  6
CONTINUOUS
 62
     7
 10
-194.329355657437
 20
56.45271507377913
  0
VERTEX
  8
1
  6
CONTINUOUS
 62
     7
 10
-194.3452995840636
 20
56.43551818946495
  0
VERTEX
  8
1
  6
CONTINUOUS
 62
     7
 10
-194.3624031185727
 20
56.41907904816684
  0
VERTEX
  8
1
  6
CONTINUOUS
 62
     7
 10
-194.3763718703779
 20
56.4069819163097
  0
VERTEX
  8
1
  6
CONTINUOUS
 62
     7
 10
-194.3910634363585
 20
56.39538190155668
  0
VERTEX
  8
1
  6
CONTINUOUS
 62
     7
 10
-194.4064611630465
 20
56.38432137539915
  0
VERTEX
  8
1
  6
CONTINUOUS
 62
     7
 10
-194.4225483969737
 20
56.37384270932853
  0
VERTEX
  8
1
  6
CONTINUOUS
 62
     7
 10
-194.4399288939478
 20
56.36363815512554
  0
VERTEX
  8
1
  6
CONTINUOUS
 62
     7
 10
-194.458047421778
 20
56.35410893601171
  0
VERTEX
  8
1
  6
CONTINUOUS
 62
     7
 10
-194.4768552476481
 20
56.34530403066939
  0
VERTEX
  8
1
  6
CONTINUOUS
 62
     7
 10
-194.4918039157677
 20
56.3390360447768
  0
VERTEX
  8
1
  6
CONTINUOUS
 62
     7
 10
-194.5071471952077
 20
56.33322576067663
  0
VERTEX
  8
1
  6
CONTINUOUS
 62
     7
 10
-194.5228478425171
 20
56.32789330274291
  0
VERTEX
  8
1
  6
CONTINUOUS
 62
     7
 10
-194.5388686142448
 20
56.32305879534979
  0
VERTEX
  8
1
  6
CONTINUOUS
 62
     7
 10
-194.5557362993172
 20
56.31860133131593
  0
VERTEX
  8
1
  6
CONTINUOUS
 62
     7
 10
-194.5729198353916
 20
56.31469269064741
  0
VERTEX
  8
1
  6
CONTINUOUS
 62
     7
 10
-194.5903624482224
 20
56.3113481914184
  0
VERTEX
  8
1
  6
CONTINUOUS
 62
     7
 10
-194.6080073635639
 20
56.30858315170308
  0
VERTEX
  8
1
  6
CONTINUOUS
 62
     7
 10
-194.626564569798
 20
56.30632992891073
  0
VERTEX
  8
1
  6
CONTINUOUS
 62
     7
 10
-194.6452961238183
 20
56.3047141820039
  0
VERTEX
  8
1
  6
CONTINUOUS
 62
     7
 10
-194.6641275643226
 20
56.30374100110405
  0
VERTEX
  8
1
  6
CONTINUOUS
 62
     7
 10
-194.6829844300084
 20
56.30341547633266
  0
SEQEND
  8
1
  6
CONTINUOUS
 62
     7
  0
LINE
  8
1
  6
CONTINUOUS
 62
     7
 10
-177.6998746791825
 20
56.9418849538361
 11
-177.7304178018013
 21
58.10827974876482
  0
LINE
  8
1
  6
CONTINUOUS
 62
     7
 10
-233.6029155315318
 20
58.10827974876482
 11
-233.6334586541506
 21
56.9418849538361
  0
LINE
  8
1
  6
CONTINUOUS
 62
     7
 10
-269.6998746791828
 20
56.94188495383609
 11
-269.7304178018015
 21
58.10827974876482
  0
LINE
  8
1
  6
CONTINUOUS
 62
     7
 10
-223.6998746791825
 20
56.9418849538361
 11
-223.7304178018013
 21
58.10827974876482
  0
LINE
  8
1
  6
CONTINUOUS
 62
     7
 10
-279.6029155315322
 20
58.10827974876482
 11
-279.6334586541509
 21
56.94188495383611
  0
LINE
  8
1
  6
CONTINUOUS
 62
     7
 10
-325.6029155315321
 20
58.10827974876482
 11
-325.6334586541509
 21
56.94188495383611
  0
LINE
  8
1
  6
CONTINUOUS
 62
     7
 10
-315.6998746791829
 20
56.94188495383609
 11
-315.7304178018015
 21
58.10827974876482
  0
LINE
  8
1
  6
CONTINUOUS
 62
     7
 10
-187.6029155315319
 20
58.10827974876482
 11
-187.6334586541505
 21
56.9418849538361
  0
LINE
  8
1
  6
CONTINUOUS
 62
     7
 10
-305.1998746791825
 20
56.94188495383612
 11
-305.2304178018013
 21
58.10827974876482
  0
LINE
  8
1
  6
CONTINUOUS
 62
     7
 10
-167.1998746791825
 20
56.94188495383612
 11
-167.2304178018013
 21
58.10827974876482
  0
LINE
  8
1
  6
CONTINUOUS
 62
     7
 10
-263.1029155315318
 20
58.10827974876482
 11
-263.1334586541506
 21
56.94188495383613
  0
LINE
  8
1
  6
CONTINUOUS
 62
     7
 10
-240.1998746791828
 20
56.94188495383612
 11
-240.2304178018015
 21
58.10827974876482
  0
LINE
  8
1
  6
CONTINUOUS
 62
     7
 10
-336.1029155315321
 20
58.10827974876482
 11
-336.1334586541509
 21
56.94188495383613
  0
LINE
  8
1
  6
CONTINUOUS
 62
     7
 10
-309.1029155315318
 20
58.10827974876482
 11
-309.1334586541506
 21
56.94188495383613
  0
LINE
  8
1
  6
CONTINUOUS
 62
     7
 10
-194.1998746791829
 20
56.94188495383612
 11
-194.2304178018016
 21
58.10827974876482
  0
LINE
  8
1
  6
CONTINUOUS
 62
     7
 10
-198.1029155315321
 20
58.10827974876482
 11
-198.1334586541509
 21
56.94188495383613
  0
LINE
  8
1
  6
CONTINUOUS
 62
     7
 10
-171.1029155315318
 20
58.10827974876482
 11
-171.1334586541506
 21
56.94188495383613
  0
LINE
  8
1
  6
CONTINUOUS
 62
     7
 10
-244.1029155315322
 20
58.10827974876482
 11
-244.1334586541509
 21
56.94188495383613
  0
LINE
  8
1
  6
CONTINUOUS
 62
     7
 10
-332.1998746791829
 20
56.94188495383612
 11
-332.2304178018015
 21
58.10827974876482
  0
LINE
  8
1
  6
CONTINUOUS
 62
     7
 10
-290.1029155315322
 20
58.10827974876482
 11
-290.1334586541509
 21
56.94188495383613
  0
LINE
  8
1
  6
CONTINUOUS
 62
     7
 10
-217.1029155315318
 20
58.10827974876482
 11
-217.1334586541506
 21
56.94188495383613
  0
LINE
  8
1
  6
CONTINUOUS
 62
     7
 10
-286.1998746791828
 20
56.94188495383612
 11
-286.2304178018016
 21
58.10827974876482
  0
LINE
  8
1
  6
CONTINUOUS
 62
     7
 10
-213.1998746791825
 20
56.94188495383612
 11
-213.2304178018012
 21
58.10827974876482
  0
LINE
  8
1
  6
CONTINUOUS
 62
     7
 10
-259.1998746791825
 20
56.94188495383612
 11
-259.2304178018012
 21
58.10827974876482
  0
LINE
  8
1
  6
CONTINUOUS
 62
     7
 10
-246.6666666666667
 20
55.6737221195345
 11
-246.6666666666667
 21
54.67372211953481
  0
LINE
  8
1
  6
CONTINUOUS
 62
     7
 10
-256.6666666666667
 20
55.6737221195345
 11
-256.6666666666667
 21
54.67372211953478
  0
LINE
  8
1
  6
CONTINUOUS
 62
     7
 10
-257.6666666666667
 20
53.67372211953457
 11
-261.6666666666667
 21
53.67372211953457
  0
ARC
  8
1
  6
CONTINUOUS
 62
     7
 10
-257.6666666666667
 20
54.67372211953457
 40
1.000000000000001
 50
270.0
 51
0.0000000000115392
  0
LINE
  8
1
  6
CONTINUOUS
 62
     7
 10
-307.6666666666667
 20
53.67372211953457
 11
-333.6666666666668
 21
53.67372211953457
  0
LINE
  8
1
  6
CONTINUOUS
 62
     7
 10
-302.6666666666667
 20
55.67372211953456
 11
-302.6666666666667
 21
54.67372211953494
  0
LINE
  8
1
  6
CONTINUOUS
 62
     7
 10
-303.6666666666667
 20
53.67372211953457
 11
-307.6666666666667
 21
53.67372211953457
  0
ARC
  8
1
  6
CONTINUOUS
 62
     7
 10
-303.6666666666667
 20
54.67372211953457
 40
1.000000000000001
 50
270.0
 51
0.0000000000210889
  0
LINE
  8
1
  6
CONTINUOUS
 62
     7
 10
-261.6666666666667
 20
53.67372211953457
 11
-287.6666666666667
 21
53.67372211953457
  0
LINE
  8
1
  6
CONTINUOUS
 62
     7
 10
-200.6666666666667
 20
55.67372211953456
 11
-200.6666666666667
 21
54.673722119535
  0
LINE
  8
1
  6
CONTINUOUS
 62
     7
 10
-211.6666666666667
 20
53.67372211953457
 11
-215.6666666666667
 21
53.67372211953457
  0
ARC
  8
1
  6
CONTINUOUS
 62
     7
 10
-211.6666666666667
 20
54.67372211953457
 40
1.000000000000001
 50
270.0
 51
0.0000000000131308
  0
LINE
  8
1
  6
CONTINUOUS
 62
     7
 10
-169.6666666666666
 20
53.67372211953457
 11
-195.6666666666667
 21
53.67372211953457
  0
LINE
  8
1
  6
CONTINUOUS
 62
     7
 10
-215.6666666666667
 20
53.67372211953457
 11
-241.6666666666667
 21
53.67372211953457
  0
LINE
  8
1
  6
CONTINUOUS
 62
     7
 10
-241.6666666666667
 20
53.67372211953457
 11
-245.6666666666667
 21
53.67372211953457
  0
ARC
  8
1
  6
CONTINUOUS
 62
     7
 10
-245.6666666666667
 20
54.67372211953457
 40
1.000000000000001
 50
179.9999999999869
 51
269.9999999999998
  0
LINE
  8
1
  6
CONTINUOUS
 62
     7
 10
-195.6666666666667
 20
53.67372211953457
 11
-199.6666666666667
 21
53.67372211953457
  0
ARC
  8
1
  6
CONTINUOUS
 62
     7
 10
-199.6666666666667
 20
54.67372211953457
 40
1.000000000000001
 50
179.9999999999758
 51
270.0
  0
LINE
  8
1
  6
CONTINUOUS
 62
     7
 10
-165.6666666666666
 20
53.67372211953457
 11
-169.6666666666666
 21
53.67372211953457
  0
ARC
  8
1
  6
CONTINUOUS
 62
     7
 10
-165.6666666666666
 20
54.67372211953457
 40
1.000000000000001
 50
270.0
 51
0.0000000000242721
  0
LINE
  8
1
  6
CONTINUOUS
 62
     7
 10
-333.6666666666668
 20
53.67372211953457
 11
-337.6666666666668
 21
53.67372211953457
  0
ARC
  8
1
  6
CONTINUOUS
 62
     7
 10
-337.6666666666668
 20
54.6737221195345
 40
1.000000000000001
 50
179.9999999999746
 51
270.0
  0
LINE
  8
1
  6
CONTINUOUS
 62
     7
 10
-338.6666666666668
 20
55.67372211953456
 11
-338.6666666666668
 21
54.67372211953494
  0
LINE
  8
1
  6
CONTINUOUS
 62
     7
 10
-210.6666666666667
 20
55.67372211953472
 11
-210.6666666666667
 21
54.67372211953481
  0
LINE
  8
1
  6
CONTINUOUS
 62
     7
 10
-164.6666666666666
 20
55.673722119535
 11
-164.6666666666666
 21
54.673722119535
  0
LINE
  8
1
  6
CONTINUOUS
 62
     7
 10
-287.6666666666667
 20
53.67372211953457
 11
-291.6666666666667
 21
53.67372211953457
  0
ARC
  8
1
  6
CONTINUOUS
 62
     7
 10
-291.6666666666667
 20
54.67372211953455
 40
1.000000000000001
 50
179.9999999999873
 51
270.0
  0
LINE
  8
1
  6
CONTINUOUS
 62
     7
 10
-292.6666666666667
 20
55.6737221195345
 11
-292.6666666666667
 21
54.67372211953478
  0
ENDBLK
  8
0
  0
BLOCK
  8
0
  2
D_FRAME_VIEW_2590
 70
     0
 10
0.0
 20
0.0
  0
LINE
  8
1
  6
CONTINUOUS
 62
     7
 10
-103.5070554528678
 20
235.6666666666666
 11
-78.94161308209813
 21
235.0233979194333
  0
LINE
  8
1
  6
CONTINUOUS
 62
     7
 10
-78.94161308209813
 20
163.3099354139
 11
-103.5070554528678
 21
162.6666666666667
  0
ARC
  8
1
  6
CONTINUOUS
 62
     7
 10
-104.5070554528678
 20
161.6408235375884
 40
1.000000000000004
 50
271.4999999999999
 51
359.9999999999997
  0
ARC
  8
1
  6
CONTINUOUS
 62
     7
 10
-104.5070554528678
 20
236.692509795745
 40
1.000000000000004
 50
359.9999999999996
 51
88.50000000000011
  0
LINE
  8
1
  6
CONTINUOUS
 62
     7
 10
-78.94161308209813
 20
227.1029155315321
 11
-81.59867477194534
 21
227.0333379225173
  0
ARC
  8
1
  6
CONTINUOUS
 62
     7
 10
-81.50705545286776
 20
223.5345372851028
 40
3.500000000000002
 50
91.50000000000023
 51
180.0
  0
LINE
  8
1
  6
CONTINUOUS
 62
     7
 10
-85.00705545286776
 20
223.5345372851028
 11
-85.00705545286776
 21
220.7987960482308
  0
ARC
  8
1
  6
CONTINUOUS
 62
     7
 10
-81.50705545286776
 20
220.7987960482308
 40
3.500000000000002
 50
180.0
 51
268.5
  0
LINE
  8
1
  6
CONTINUOUS
 62
     7
 10
-81.59867477194533
 20
217.2999954108163
 11
-78.94161308209813
 21
217.2304178018015
  0
LINE
  8
1
  6
CONTINUOUS
 62
     7
 10
-78.94161308209813
 20
204.1029155315321
 11
-81.59867477194534
 21
204.0333379225173
  0
ARC
  8
1
  6
CONTINUOUS
 62
     7
 10
-81.50705545286776
 20
200.5345372851028
 40
3.500000000000002
 50
91.50000000000023
 51
180.0
  0
LINE
  8
1
  6
CONTINUOUS
 62
     7
 10
-85.00705545286776
 20
200.5345372851028
 11
-85.00705545286776
 21
197.7987960482308
  0
ARC
  8
1
  6
CONTINUOUS
 62
     7
 10
-81.50705545286776
 20
197.7987960482308
 40
3.500000000000002
 50
180.0
 51
268.5
  0
LINE
  8
1
  6
CONTINUOUS
 62
     7
 10
-81.59867477194533
 20
194.2999954108163
 11
-78.94161308209813
 21
194.2304178018015
  0
LINE
  8
1
  6
CONTINUOUS
 62
     7
 10
-78.94161308209813
 20
181.1029155315321
 11
-81.59867477194534
 21
181.0333379225173
  0
ARC
  8
1
  6
CONTINUOUS
 62
     7
 10
-81.50705545286776
 20
177.5345372851028
 40
3.500000000000002
 50
91.50000000000023
 51
180.0
  0
LINE
  8
1
  6
CONTINUOUS
 62
     7
 10
-85.00705545286776
 20
177.5345372851028
 11
-85.00705545286776
 21
174.7987960482308
  0
ARC
  8
1
  6
CONTINUOUS
 62
     7
 10
-81.50705545286776
 20
174.7987960482308
 40
3.500000000000002
 50
180.0
 51
268.4999999999997
  0
LINE
  8
1
  6
CONTINUOUS
 62
     7
 10
-81.59867477194534
 20
171.2999954108163
 11
-78.94161308209813
 21
171.2304178018015
  0
ARC
  8
1
  6
CONTINUOUS
 62
     7
 10
-79.0070554528678
 20
165.8090787263389
 40
2.500000000000002
 50
271.5
 51
359.9999999999998
  0
POLYLINE
  8
1
  6
CONTINUOUS
 62
     7
 66
     1
  0
VERTEX
  8
1
  6
CONTINUOUS
 62
     7
 10
-76.9383333948348
 20
171.6777887395174
  0
VERTEX
  8
1
  6
CONTINUOUS
 62
     7
 10
-76.93854432683196
 20
171.6603574873003
  0
VERTEX
  8
1
  6
CONTINUOUS
 62
     7
 10
-76.9391761636446
 20
171.6429423792516
  0
VERTEX
  8
1
  6
CONTINUOUS
 62
     7
 10
-76.94022746650452
 20
171.6255913586409
  0
VERTEX
  8
1
  6
CONTINUOUS
 62
     7
 10
-76.9416967966435
 20
171.6083523687379
  0
VERTEX
  8
1
  6
CONTINUOUS
 62
     7
 10
-76.94364998098254
 20
171.5907161518952
  0
VERTEX
  8
1
  6
CONTINUOUS
 62
     7
 10
-76.94604599209717
 20
171.5732323235308
  0
VERTEX
  8
1
  6
CONTINUOUS
 62
     7
 10
-76.94887828912539
 20
171.555949425075
  0
VERTEX
  8
1
  6
CONTINUOUS
 62
     7
 10
-76.95214033120509
 20
171.5389159979583
  0
VERTEX
  8
1
  6
CONTINUOUS
 62
     7
 10
-76.95571329600914
 20
171.5226508652048
  0
VERTEX
  8
1
  6
CONTINUOUS
 62
     7
 10
-76.95968582462737
 20
171.5066453941433
  0
VERTEX
  8
1
  6
CONTINUOUS
 62
     7
 10
-76.9640479904626
 20
171.4909362856707
  0
VERTEX
  8
1
  6
CONTINUOUS
 62
     7
 10
-76.96878986691782
 20
171.4755602406838
  0
VERTEX
  8
1
  6
CONTINUOUS
 62
     7
 10
-76.97405338064512
 20
171.4601237603472
  0
VERTEX
  8
1
  6
CONTINUOUS
 62
     7
 10
-76.97970969988465
 20
171.4450550938952
  0
VERTEX
  8
1
  6
CONTINUOUS
 62
     7
 10
-76.98574495946553
 20
171.4303833437854
  0
VERTEX
  8
1
  6
CONTINUOUS
 62
     7
 10
-76.99214529421678
 20
171.4161376124751
  0
VERTEX
  8
1
  6
CONTINUOUS
 62
     7
 10
-77.00144574444886
 20
171.3974356030095
  0
VERTEX
  8
1
  6
CONTINUOUS
 62
     7
 10
-77.01141438107273
 20
171.3795221581915
  0
VERTEX
  8
1
  6
CONTINUOUS
 62
     7
 10
-77.0220113986992
 20
171.3624295859738
  0
VERTEX
  8
1
  6
CONTINUOUS
 62
     7
 10
-77.03319699193916
 20
171.3461901943091
  0
VERTEX
  8
1
  6
CONTINUOUS
 62
     7
 10
-77.04493135540343
 20
171.3308362911501
  0
VERTEX
  8
1
  6
CONTINUOUS
 62
     7
 10
-77.05717468370288
 20
171.3164001844498
  0
VERTEX
  8
1
  6
CONTINUOUS
 62
     7
 10
-77.0706699107111
 20
171.3021043845202
  0
VERTEX
  8
1
  6
CONTINUOUS
 62
     7
 10
-77.08471409728612
 20
171.2887636596249
  0
VERTEX
  8
1
  6
CONTINUOUS
 62
     7
 10
-77.09926396924388
 20
171.2763763411387
  0
VERTEX
  8
1
  6
CONTINUOUS
 62
     7
 10
-77.11427625240036
 20
171.2649407604363
  0
VERTEX
  8
1
  6
CONTINUOUS
 62
     7
 10
-77.13559062222402
 20
171.2507550467273
  0
VERTEX
  8
1
  6
CONTINUOUS
 62
     7
 10
-77.15769379503433
 20
171.2382337712585
  0
VERTEX
  8
1
  6
CONTINUOUS
 62
     7
 10
-77.18049272238129
 20
171.2273297635847
  0
VERTEX
  8
1
  6
CONTINUOUS
 62
     7
 10
-77.20558496037151
 20
171.2173810416981
  0
VERTEX
  8
1
  6
CONTINUOUS
 62
     7
 10
-77.23138132188726
 20
171.2091014006852
  0
VERTEX
  8
1
  6
CONTINUOUS
 62
     7
 10
-77.25779690426096
 20
171.2024128984753
  0
VERTEX
  8
1
  6
CONTINUOUS
 62
     7
 10
-77.28474680482505
 20
171.1972375929981
  0
VERTEX
  8
1
  6
CONTINUOUS
 62
     7
 10
-77.32257864923456
 20
171.1924342800323
  0
VERTEX
  8
1
  6
CONTINUOUS
 62
     7
 10
-77.36128610809733
 20
171.1901076368844
  0
VERTEX
  8
1
  6
CONTINUOUS
 62
     7
 10
-77.40071949918133
 20
171.1900680832928
  0
SEQEND
  8
1
  6
CONTINUOUS
 62
     7
  0
LINE
  8
1
  6
CONTINUOUS
 62
     7
 10
-76.9383333948348
 20
171.6777887395174
 11
-76.9383333948348
 21
180.6555445938162
  0
POLYLINE
  8
1
  6
CONTINUOUS
 62
     7
 66
     1
  0
VERTEX
  8
1
  6
CONTINUOUS
 62
     7
 10
-77.40071949918133
 20
181.1432652500409
  0
VERTEX
  8
1
  6
CONTINUOUS
 62
     7
 10
-77.3602871442575
 20
181.1431955284558
  0
VERTEX
  8
1
  6
CONTINUOUS
 62
     7
 10
-77.32062022388227
 20
181.1407150367789
  0
VERTEX
  8
1
  6
CONTINUOUS
 62
     7
 10
-77.28188103911782
 20
181.1356188754626
  0
VERTEX
  8
1
  6
CONTINUOUS
 62
     7
 10
-77.25264786178049
 20
181.129747684556
  0
VERTEX
  8
1
  6
CONTINUOUS
 62
     7
 10
-77.22405577914141
 20
181.1220642128523
  0
VERTEX
  8
1
  6
CONTINUOUS
 62
     7
 10
-77.19621705620882
 20
181.1124689361568
  0
VERTEX
  8
1
  6
CONTINUOUS
 62
     7
 10
-77.16924395799109
 20
181.1008623302752
  0
VERTEX
  8
1
  6
CONTINUOUS
 62
     7
 10
-77.14860761679745
 20
181.090188482084
  0
VERTEX
  8
1
  6
CONTINUOUS
 62
     7
 10
-77.1285386613611
 20
181.0780921243152
  0
VERTEX
  8
1
  6
CONTINUOUS
 62
     7
 10
-77.10911796283347
 20
181.0645545796582
  0
VERTEX
  8
1
  6
CONTINUOUS
 62
     7
 10
-77.09042639236601
 20
181.0495571708025
  0
VERTEX
  8
1
  6
CONTINUOUS
 62
     7
 10
-77.07254482111016
 20
181.0330812204377
  0
VERTEX
  8
1
  6
CONTINUOUS
 62
     7
 10
-77.05555412021737
 20
181.0151080512535
  0
VERTEX
  8
1
  6
CONTINUOUS
 62
     7
 10
-77.04209214826518
 20
180.9989430819283
  0
VERTEX
  8
1
  6
CONTINUOUS
 62
     7
 10
-77.02928493732905
 20
180.9816954220181
  0
VERTEX
  8
1
  6
CONTINUOUS
 62
     7
 10
-77.01718663408867
 20
180.9633953671548
  0
VERTEX
  8
1
  6
CONTINUOUS
 62
     7
 10
-77.00836959118475
 20
180.9485774200438
  0
VERTEX
  8
1
  6
CONTINUOUS
 62
     7
 10
-76.99999896498579
 20
180.9331324974833
  0
VERTEX
  8
1
  6
CONTINUOUS
 62
     7
 10
-76.99209878633594
 20
180.917092416953
  0
VERTEX
  8
1
  6
CONTINUOUS
 62
     7
 10
-76.98469308607937
 20
180.9004889959322
  0
VERTEX
  8
1
  6
CONTINUOUS
 62
     7
 10
-76.97795803441461
 20
180.8837603762007
  0
VERTEX
  8
1
  6
CONTINUOUS
 62
     7
 10
-76.9717073600062
 20
180.8665085998047
  0
VERTEX
  8
1
  6
CONTINUOUS
 62
     7
 10
-76.9659598394814
 20
180.8487819341501
  0
VERTEX
  8
1
  6
CONTINUOUS
 62
     7
 10
-76.96073424946742
 20
180.8306286466427
  0
VERTEX
  8
1
  6
CONTINUOUS
 62
     7
 10
-76.95587017809513
 20
180.8113470441191
  0
VERTEX
  8
1
  6
CONTINUOUS
 62
     7
 10
-76.95157915430167
 20
180.7916400403655
  0
VERTEX
  8
1
  6
CONTINUOUS
 62
     7
 10
-76.94787514879675
 20
180.7715802428428
  0
VERTEX
  8
1
  6
CONTINUOUS
 62
     7
 10
-76.94477213229005
 20
180.7512402590118
  0
VERTEX
  8
1
  6
CONTINUOUS
 62
     7
 10
-76.94246255287014
 20
180.7323818531543
  0
VERTEX
  8
1
  6
CONTINUOUS
 62
     7
 10
-76.94066075214067
 20
180.7133186146807
  0
VERTEX
  8
1
  6
CONTINUOUS
 62
     7
 10
-76.93936986737562
 20
180.6941150126162
  0
VERTEX
  8
1
  6
CONTINUOUS
 62
     7
 10
-76.93859303584901
 20
180.6748355159862
  0
VERTEX
  8
1
  6
CONTINUOUS
 62
     7
 10
-76.9383333948348
 20
180.6555445938162
  0
SEQEND
  8
1
  6
CONTINUOUS
 62
     7
  0
POLYLINE
  8
1
  6
CONTINUOUS
 62
     7
 66
     1
  0
VERTEX
  8
1
  6
CONTINUOUS
 62
     7
 10
-76.9383333948348
 20
194.6777887395175
  0
VERTEX
  8
1
  6
CONTINUOUS
 62
     7
 10
-76.93854432683196
 20
194.6603574873003
  0
VERTEX
  8
1
  6
CONTINUOUS
 62
     7
 10
-76.9391761636446
 20
194.6429423792516
  0
VERTEX
  8
1
  6
CONTINUOUS
 62
     7
 10
-76.94022746650452
 20
194.6255913586409
  0
VERTEX
  8
1
  6
CONTINUOUS
 62
     7
 10
-76.9416967966435
 20
194.6083523687379
  0
VERTEX
  8
1
  6
CONTINUOUS
 62
     7
 10
-76.94364998098254
 20
194.5907161518953
  0
VERTEX
  8
1
  6
CONTINUOUS
 62
     7
 10
-76.94604599209717
 20
194.5732323235308
  0
VERTEX
  8
1
  6
CONTINUOUS
 62
     7
 10
-76.94887828912539
 20
194.555949425075
  0
VERTEX
  8
1
  6
CONTINUOUS
 62
     7
 10
-76.95214033120509
 20
194.5389159979583
  0
VERTEX
  8
1
  6
CONTINUOUS
 62
     7
 10
-76.95571329600914
 20
194.5226508652048
  0
VERTEX
  8
1
  6
CONTINUOUS
 62
     7
 10
-76.95968582462737
 20
194.5066453941433
  0
VERTEX
  8
1
  6
CONTINUOUS
 62
     7
 10
-76.9640479904626
 20
194.4909362856707
  0
VERTEX
  8
1
  6
CONTINUOUS
 62
     7
 10
-76.96878986691782
 20
194.4755602406838
  0
VERTEX
  8
1
  6
CONTINUOUS
 62
     7
 10
-76.97405338064512
 20
194.4601237603472
  0
VERTEX
  8
1
  6
CONTINUOUS
 62
     7
 10
-76.97970969988465
 20
194.4450550938953
  0
VERTEX
  8
1
  6
CONTINUOUS
 62
     7
 10
-76.98574495946553
 20
194.4303833437854
  0
VERTEX
  8
1
  6
CONTINUOUS
 62
     7
 10
-76.99214529421677
 20
194.4161376124751
  0
VERTEX
  8
1
  6
CONTINUOUS
 62
     7
 10
-77.00144574444886
 20
194.3974356030096
  0
VERTEX
  8
1
  6
CONTINUOUS
 62
     7
 10
-77.01141438107273
 20
194.3795221581915
  0
VERTEX
  8
1
  6
CONTINUOUS
 62
     7
 10
-77.0220113986992
 20
194.3624295859738
  0
VERTEX
  8
1
  6
CONTINUOUS
 62
     7
 10
-77.03319699193916
 20
194.3461901943091
  0
VERTEX
  8
1
  6
CONTINUOUS
 62
     7
 10
-77.04493135540343
 20
194.3308362911501
  0
VERTEX
  8
1
  6
CONTINUOUS
 62
     7
 10
-77.05717468370288
 20
194.3164001844498
  0
VERTEX
  8
1
  6
CONTINUOUS
 62
     7
 10
-77.0706699107111
 20
194.3021043845202
  0
VERTEX
  8
1
  6
CONTINUOUS
 62
     7
 10
-77.08471409728612
 20
194.2887636596249
  0
VERTEX
  8
1
  6
CONTINUOUS
 62
     7
 10
-77.09926396924388
 20
194.2763763411387
  0
VERTEX
  8
1
  6
CONTINUOUS
 62
     7
 10
-77.11427625240036
 20
194.2649407604363
  0
VERTEX
  8
1
  6
CONTINUOUS
 62
     7
 10
-77.13559062222402
 20
194.2507550467273
  0
VERTEX
  8
1
  6
CONTINUOUS
 62
     7
 10
-77.15769379503433
 20
194.2382337712585
  0
VERTEX
  8
1
  6
CONTINUOUS
 62
     7
 10
-77.18049272238129
 20
194.2273297635847
  0
VERTEX
  8
1
  6
CONTINUOUS
 62
     7
 10
-77.20558496037151
 20
194.2173810416981
  0
VERTEX
  8
1
  6
CONTINUOUS
 62
     7
 10
-77.23138132188726
 20
194.2091014006852
  0
VERTEX
  8
1
  6
CONTINUOUS
 62
     7
 10
-77.25779690426096
 20
194.2024128984753
  0
VERTEX
  8
1
  6
CONTINUOUS
 62
     7
 10
-77.28474680482505
 20
194.1972375929981
  0
VERTEX
  8
1
  6
CONTINUOUS
 62
     7
 10
-77.32257864923456
 20
194.1924342800323
  0
VERTEX
  8
1
  6
CONTINUOUS
 62
     7
 10
-77.36128610809733
 20
194.1901076368844
  0
VERTEX
  8
1
  6
CONTINUOUS
 62
     7
 10
-77.40071949918133
 20
194.1900680832928
  0
SEQEND
  8
1
  6
CONTINUOUS
 62
     7
  0
LINE
  8
1
  6
CONTINUOUS
 62
     7
 10
-76.9383333948348
 20
194.6777887395175
 11
-76.9383333948348
 21
203.6555445938162
  0
POLYLINE
  8
1
  6
CONTINUOUS
 62
     7
 66
     1
  0
VERTEX
  8
1
  6
CONTINUOUS
 62
     7
 10
-77.40071949918133
 20
204.1432652500408
  0
VERTEX
  8
1
  6
CONTINUOUS
 62
     7
 10
-77.3602871442575
 20
204.1431955284559
  0
VERTEX
  8
1
  6
CONTINUOUS
 62
     7
 10
-77.32062022388227
 20
204.1407150367789
  0
VERTEX
  8
1
  6
CONTINUOUS
 62
     7
 10
-77.28188103911782
 20
204.1356188754625
  0
VERTEX
  8
1
  6
CONTINUOUS
 62
     7
 10
-77.25264786178049
 20
204.129747684556
  0
VERTEX
  8
1
  6
CONTINUOUS
 62
     7
 10
-77.22405577914141
 20
204.1220642128523
  0
VERTEX
  8
1
  6
CONTINUOUS
 62
     7
 10
-77.19621705620882
 20
204.1124689361568
  0
VERTEX
  8
1
  6
CONTINUOUS
 62
     7
 10
-77.16924395799109
 20
204.1008623302752
  0
VERTEX
  8
1
  6
CONTINUOUS
 62
     7
 10
-77.14860761679745
 20
204.0901884820841
  0
VERTEX
  8
1
  6
CONTINUOUS
 62
     7
 10
-77.1285386613611
 20
204.0780921243152
  0
VERTEX
  8
1
  6
CONTINUOUS
 62
     7
 10
-77.10911796283347
 20
204.0645545796582
  0
VERTEX
  8
1
  6
CONTINUOUS
 62
     7
 10
-77.09042639236601
 20
204.0495571708025
  0
VERTEX
  8
1
  6
CONTINUOUS
 62
     7
 10
-77.07254482111016
 20
204.0330812204377
  0
VERTEX
  8
1
  6
CONTINUOUS
 62
     7
 10
-77.05555412021737
 20
204.0151080512535
  0
VERTEX
  8
1
  6
CONTINUOUS
 62
     7
 10
-77.04209214826518
 20
203.9989430819283
  0
VERTEX
  8
1
  6
CONTINUOUS
 62
     7
 10
-77.02928493732905
 20
203.9816954220181
  0
VERTEX
  8
1
  6
CONTINUOUS
 62
     7
 10
-77.01718663408869
 20
203.9633953671547
  0
VERTEX
  8
1
  6
CONTINUOUS
 62
     7
 10
-77.00836959118476
 20
203.9485774200438
  0
VERTEX
  8
1
  6
CONTINUOUS
 62
     7
 10
-76.99999896498579
 20
203.9331324974833
  0
VERTEX
  8
1
  6
CONTINUOUS
 62
     7
 10
-76.99209878633594
 20
203.917092416953
  0
VERTEX
  8
1
  6
CONTINUOUS
 62
     7
 10
-76.98469308607937
 20
203.9004889959322
  0
VERTEX
  8
1
  6
CONTINUOUS
 62
     7
 10
-76.97795803441461
 20
203.8837603762008
  0
VERTEX
  8
1
  6
CONTINUOUS
 62
     7
 10
-76.9717073600062
 20
203.8665085998047
  0
VERTEX
  8
1
  6
CONTINUOUS
 62
     7
 10
-76.9659598394814
 20
203.8487819341501
  0
VERTEX
  8
1
  6
CONTINUOUS
 62
     7
 10
-76.96073424946742
 20
203.8306286466427
  0
VERTEX
  8
1
  6
CONTINUOUS
 62
     7
 10
-76.95587017809513
 20
203.8113470441191
  0
VERTEX
  8
1
  6
CONTINUOUS
 62
     7
 10
-76.95157915430167
 20
203.7916400403655
  0
VERTEX
  8
1
  6
CONTINUOUS
 62
     7
 10
-76.94787514879675
 20
203.7715802428428
  0
VERTEX
  8
1
  6
CONTINUOUS
 62
     7
 10
-76.94477213229005
 20
203.7512402590118
  0
VERTEX
  8
1
  6
CONTINUOUS
 62
     7
 10
-76.94246255287014
 20
203.7323818531543
  0
VERTEX
  8
1
  6
CONTINUOUS
 62
     7
 10
-76.94066075214067
 20
203.7133186146807
  0
VERTEX
  8
1
  6
CONTINUOUS
 62
     7
 10
-76.93936986737562
 20
203.6941150126162
  0
VERTEX
  8
1
  6
CONTINUOUS
 62
     7
 10
-76.93859303584901
 20
203.6748355159862
  0
VERTEX
  8
1
  6
CONTINUOUS
 62
     7
 10
-76.9383333948348
 20
203.6555445938162
  0
SEQEND
  8
1
  6
CONTINUOUS
 62
     7
  0
POLYLINE
  8
1
  6
CONTINUOUS
 62
     7
 66
     1
  0
VERTEX
  8
1
  6
CONTINUOUS
 62
     7
 10
-76.9383333948348
 20
217.6777887395175
  0
VERTEX
  8
1
  6
CONTINUOUS
 62
     7
 10
-76.93854432683196
 20
217.6603574873003
  0
VERTEX
  8
1
  6
CONTINUOUS
 62
     7
 10
-76.9391761636446
 20
217.6429423792516
  0
VERTEX
  8
1
  6
CONTINUOUS
 62
     7
 10
-76.94022746650452
 20
217.6255913586409
  0
VERTEX
  8
1
  6
CONTINUOUS
 62
     7
 10
-76.9416967966435
 20
217.6083523687379
  0
VERTEX
  8
1
  6
CONTINUOUS
 62
     7
 10
-76.94364998098254
 20
217.5907161518953
  0
VERTEX
  8
1
  6
CONTINUOUS
 62
     7
 10
-76.94604599209717
 20
217.5732323235308
  0
VERTEX
  8
1
  6
CONTINUOUS
 62
     7
 10
-76.94887828912539
 20
217.555949425075
  0
VERTEX
  8
1
  6
CONTINUOUS
 62
     7
 10
-76.95214033120509
 20
217.5389159979583
  0
VERTEX
  8
1
  6
CONTINUOUS
 62
     7
 10
-76.95571329600914
 20
217.5226508652048
  0
VERTEX
  8
1
  6
CONTINUOUS
 62
     7
 10
-76.95968582462737
 20
217.5066453941433
  0
VERTEX
  8
1
  6
CONTINUOUS
 62
     7
 10
-76.9640479904626
 20
217.4909362856707
  0
VERTEX
  8
1
  6
CONTINUOUS
 62
     7
 10
-76.96878986691782
 20
217.4755602406838
  0
VERTEX
  8
1
  6
CONTINUOUS
 62
     7
 10
-76.97405338064512
 20
217.4601237603472
  0
VERTEX
  8
1
  6
CONTINUOUS
 62
     7
 10
-76.97970969988465
 20
217.4450550938952
  0
VERTEX
  8
1
  6
CONTINUOUS
 62
     7
 10
-76.98574495946553
 20
217.4303833437854
  0
VERTEX
  8
1
  6
CONTINUOUS
 62
     7
 10
-76.99214529421678
 20
217.4161376124751
  0
VERTEX
  8
1
  6
CONTINUOUS
 62
     7
 10
-77.00144574444886
 20
217.3974356030095
  0
VERTEX
  8
1
  6
CONTINUOUS
 62
     7
 10
-77.01141438107273
 20
217.3795221581915
  0
VERTEX
  8
1
  6
CONTINUOUS
 62
     7
 10
-77.0220113986992
 20
217.3624295859738
  0
VERTEX
  8
1
  6
CONTINUOUS
 62
     7
 10
-77.03319699193916
 20
217.3461901943091
  0
VERTEX
  8
1
  6
CONTINUOUS
 62
     7
 10
-77.04493135540343
 20
217.3308362911501
  0
VERTEX
  8
1
  6
CONTINUOUS
 62
     7
 10
-77.05717468370288
 20
217.3164001844498
  0
VERTEX
  8
1
  6
CONTINUOUS
 62
     7
 10
-77.0706699107111
 20
217.3021043845202
  0
VERTEX
  8
1
  6
CONTINUOUS
 62
     7
 10
-77.08471409728612
 20
217.2887636596249
  0
VERTEX
  8
1
  6
CONTINUOUS
 62
     7
 10
-77.09926396924388
 20
217.2763763411387
  0
VERTEX
  8
1
  6
CONTINUOUS
 62
     7
 10
-77.11427625240036
 20
217.2649407604363
  0
VERTEX
  8
1
  6
CONTINUOUS
 62
     7
 10
-77.13559062222402
 20
217.2507550467273
  0
VERTEX
  8
1
  6
CONTINUOUS
 62
     7
 10
-77.15769379503433
 20
217.2382337712585
  0
VERTEX
  8
1
  6
CONTINUOUS
 62
     7
 10
-77.18049272238129
 20
217.2273297635847
  0
VERTEX
  8
1
  6
CONTINUOUS
 62
     7
 10
-77.20558496037151
 20
217.2173810416981
  0
VERTEX
  8
1
  6
CONTINUOUS
 62
     7
 10
-77.23138132188726
 20
217.2091014006852
  0
VERTEX
  8
1
  6
CONTINUOUS
 62
     7
 10
-77.25779690426096
 20
217.2024128984753
  0
VERTEX
  8
1
  6
CONTINUOUS
 62
     7
 10
-77.28474680482505
 20
217.1972375929981
  0
VERTEX
  8
1
  6
CONTINUOUS
 62
     7
 10
-77.32257864923456
 20
217.1924342800323
  0
VERTEX
  8
1
  6
CONTINUOUS
 62
     7
 10
-77.36128610809733
 20
217.1901076368844
  0
VERTEX
  8
1
  6
CONTINUOUS
 62
     7
 10
-77.40071949918133
 20
217.1900680832928
  0
SEQEND
  8
1
  6
CONTINUOUS
 62
     7
  0
LINE
  8
1
  6
CONTINUOUS
 62
     7
 10
-76.9383333948348
 20
217.6777887395175
 11
-76.9383333948348
 21
226.6555445938161
  0
POLYLINE
  8
1
  6
CONTINUOUS
 62
     7
 66
     1
  0
VERTEX
  8
1
  6
CONTINUOUS
 62
     7
 10
-77.40071949918133
 20
227.1432652500409
  0
VERTEX
  8
1
  6
CONTINUOUS
 62
     7
 10
-77.3602871442575
 20
227.1431955284559
  0
VERTEX
  8
1
  6
CONTINUOUS
 62
     7
 10
-77.32062022388227
 20
227.1407150367789
  0
VERTEX
  8
1
  6
CONTINUOUS
 62
     7
 10
-77.28188103911782
 20
227.1356188754625
  0
VERTEX
  8
1
  6
CONTINUOUS
 62
     7
 10
-77.25264786178049
 20
227.129747684556
  0
VERTEX
  8
1
  6
CONTINUOUS
 62
     7
 10
-77.22405577914141
 20
227.1220642128523
  0
VERTEX
  8
1
  6
CONTINUOUS
 62
     7
 10
-77.19621705620882
 20
227.1124689361568
  0
VERTEX
  8
1
  6
CONTINUOUS
 62
     7
 10
-77.16924395799109
 20
227.1008623302752
  0
VERTEX
  8
1
  6
CONTINUOUS
 62
     7
 10
-77.14860761679745
 20
227.0901884820841
  0
VERTEX
  8
1
  6
CONTINUOUS
 62
     7
 10
-77.1285386613611
 20
227.0780921243152
  0
VERTEX
  8
1
  6
CONTINUOUS
 62
     7
 10
-77.10911796283347
 20
227.0645545796582
  0
VERTEX
  8
1
  6
CONTINUOUS
 62
     7
 10
-77.09042639236601
 20
227.0495571708025
  0
VERTEX
  8
1
  6
CONTINUOUS
 62
     7
 10
-77.07254482111016
 20
227.0330812204377
  0
VERTEX
  8
1
  6
CONTINUOUS
 62
     7
 10
-77.05555412021737
 20
227.0151080512535
  0
VERTEX
  8
1
  6
CONTINUOUS
 62
     7
 10
-77.04209214826518
 20
226.9989430819283
  0
VERTEX
  8
1
  6
CONTINUOUS
 62
     7
 10
-77.02928493732905
 20
226.9816954220181
  0
VERTEX
  8
1
  6
CONTINUOUS
 62
     7
 10
-77.01718663408867
 20
226.9633953671547
  0
VERTEX
  8
1
  6
CONTINUOUS
 62
     7
 10
-77.00836959118475
 20
226.9485774200438
  0
VERTEX
  8
1
  6
CONTINUOUS
 62
     7
 10
-76.99999896498579
 20
226.9331324974833
  0
VERTEX
  8
1
  6
CONTINUOUS
 62
     7
 10
-76.99209878633594
 20
226.917092416953
  0
VERTEX
  8
1
  6
CONTINUOUS
 62
     7
 10
-76.98469308607937
 20
226.9004889959322
  0
VERTEX
  8
1
  6
CONTINUOUS
 62
     7
 10
-76.97795803441461
 20
226.8837603762007
  0
VERTEX
  8
1
  6
CONTINUOUS
 62
     7
 10
-76.9717073600062
 20
226.8665085998047
  0
VERTEX
  8
1
  6
CONTINUOUS
 62
     7
 10
-76.9659598394814
 20
226.8487819341501
  0
VERTEX
  8
1
  6
CONTINUOUS
 62
     7
 10
-76.96073424946742
 20
226.8306286466427
  0
VERTEX
  8
1
  6
CONTINUOUS
 62
     7
 10
-76.95587017809513
 20
226.8113470441191
  0
VERTEX
  8
1
  6
CONTINUOUS
 62
     7
 10
-76.95157915430167
 20
226.7916400403655
  0
VERTEX
  8
1
  6
CONTINUOUS
 62
     7
 10
-76.94787514879675
 20
226.7715802428428
  0
VERTEX
  8
1
  6
CONTINUOUS
 62
     7
 10
-76.94477213229005
 20
226.7512402590119
  0
VERTEX
  8
1
  6
CONTINUOUS
 62
     7
 10
-76.94246255287014
 20
226.7323818531543
  0
VERTEX
  8
1
  6
CONTINUOUS
 62
     7
 10
-76.94066075214067
 20
226.7133186146807
  0
VERTEX
  8
1
  6
CONTINUOUS
 62
     7
 10
-76.93936986737562
 20
226.6941150126162
  0
VERTEX
  8
1
  6
CONTINUOUS
 62
     7
 10
-76.93859303584901
 20
226.6748355159862
  0
VERTEX
  8
1
  6
CONTINUOUS
 62
     7
 10
-76.9383333948348
 20
226.6555445938161
  0
SEQEND
  8
1
  6
CONTINUOUS
 62
     7
  0
LINE
  8
1
  6
CONTINUOUS
 62
     7
 10
-76.5070554528678
 20
232.5242546069944
 11
-76.5070554528678
 21
165.8090787263389
  0
LINE
  8
1
  6
CONTINUOUS
 62
     7
 10
-77.40071949918133
 20
181.1432652500409
 11
-78.94161308209813
 21
181.1029155315321
  0
LINE
  8
1
  6
CONTINUOUS
 62
     7
 10
-77.40071949918133
 20
227.1432652500409
 11
-78.94161308209813
 21
227.1029155315321
  0
LINE
  8
1
  6
CONTINUOUS
 62
     7
 10
-77.40071949918133
 20
204.1432652500408
 11
-78.94161308209813
 21
204.1029155315321
  0
LINE
  8
1
  6
CONTINUOUS
 62
     7
 10
-78.94161308209813
 20
194.2304178018015
 11
-77.40071949918133
 21
194.1900680832928
  0
LINE
  8
1
  6
CONTINUOUS
 62
     7
 10
-78.94161308209813
 20
217.2304178018015
 11
-77.40071949918133
 21
217.1900680832928
  0
LINE
  8
1
  6
CONTINUOUS
 62
     7
 10
-78.94161308209813
 20
171.2304178018015
 11
-77.40071949918133
 21
171.1900680832928
  0
ARC
  8
1
  6
CONTINUOUS
 62
     7
 10
-79.0070554528678
 20
232.5242546069944
 40
2.499999999999996
 50
0.0
 51
88.5
  0
LINE
  8
1
  6
CONTINUOUS
 62
     7
 10
-76.50705545286782
 20
232.4166666666665
 11
-75.5070554528682
 21
232.4166666666665
  0
LINE
  8
1
  6
CONTINUOUS
 62
     7
 10
-74.50705545286789
 20
227.4166666666665
 11
-74.50705545286789
 21
170.9166666666667
  0
LINE
  8
1
  6
CONTINUOUS
 62
     7
 10
-74.50705545286789
 20
231.4166666666665
 11
-74.50705545286789
 21
227.4166666666665
  0
ARC
  8
1
  6
CONTINUOUS
 62
     7
 10
-75.50705545286789
 20
231.4166666666665
 40
1.000000000000001
 50
0.0
 51
90.0000000000179
  0
LINE
  8
1
  6
CONTINUOUS
 62
     7
 10
-74.50705545286789
 20
170.9166666666667
 11
-74.50705545286789
 21
166.9166666666667
  0
ARC
  8
1
  6
CONTINUOUS
 62
     7
 10
-75.50705545286789
 20
166.9166666666667
 40
1.000000000000001
 50
269.9999999999757
 51
0.0
  0
LINE
  8
1
  6
CONTINUOUS
 62
     7
 10
-76.50705545286782
 20
165.9166666666667
 11
-75.50705545286831
 21
165.9166666666667
  0
ENDBLK
  8
0
  0
BLOCK
  8
0
  2
D_FRAME_VIEW_1491
 70
     0
 10
0.0
 20
0.0
  0
ARC
  8
1
  6
CONTINUOUS
 62
     7
 10
-181.2666666666667
 20
146.3666666666667
 40
1.000000000000001
 50
180.0
 51
270.0
  0
ARC
  8
1
  6
CONTINUOUS
 62
     7
 10
-181.2666666666667
 20
152.9666666666667
 40
1.000000000000001
 50
90.0
 51
180.0
  0
LINE
  8
1
  6
CONTINUOUS
 62
     7
 10
-181.2666666666667
 20
153.9666666666667
 11
-171.9666666666667
 21
153.9666666666667
  0
LINE
  8
1
  6
CONTINUOUS
 62
     7
 10
-171.9666666666667
 20
153.9666666666667
 11
-171.9666666666667
 21
158.9666666666667
  0
ARC
  8
1
  6
CONTINUOUS
 62
     7
 10
-170.9666666666667
 20
158.9666666666667
 40
1.000000000000001
 50
90.0
 51
180.0
  0
LINE
  8
1
  6
CONTINUOUS
 62
     7
 10
-170.9666666666667
 20
159.9666666666667
 11
-157.5666666666667
 21
159.9666666666667
  0
LINE
  8
1
  6
CONTINUOUS
 62
     7
 10
-157.5666666666667
 20
159.9666666666667
 11
-157.5666666666667
 21
238.3666666666667
  0
LINE
  8
1
  6
CONTINUOUS
 62
     7
 10
-157.5666666666667
 20
238.3666666666667
 11
-170.9666666666667
 21
238.3666666666667
  0
ARC
  8
1
  6
CONTINUOUS
 62
     7
 10
-170.9666666666667
 20
239.3666666666667
 40
1.000000000000001
 50
180.0
 51
270.0
  0
LINE
  8
1
  6
CONTINUOUS
 62
     7
 10
-171.9666666666667
 20
239.3666666666667
 11
-171.9666666666667
 21
244.3666666666667
  0
LINE
  8
1
  6
CONTINUOUS
 62
     7
 10
-171.9666666666667
 20
244.3666666666667
 11
-181.2666666666667
 21
244.3666666666667
  0
ARC
  8
1
  6
CONTINUOUS
 62
     7
 10
-181.2666666666667
 20
245.3666666666667
 40
1.000000000000001
 50
180.0
 51
270.0
  0
ARC
  8
1
  6
CONTINUOUS
 62
     7
 10
-181.2666666666667
 20
251.9666666666667
 40
1.000000000000001
 50
90.0
 51
180.0
  0
ARC
  8
1
  6
CONTINUOUS
 62
     7
 10
-177.7666666666667
 20
255.4666666666667
 40
1.000000000000001
 50
90.0
 51
180.0
  0
LINE
  8
1
  6
CONTINUOUS
 62
     7
 10
-172.9666666666667
 20
256.4666666666667
 11
-177.7666666666667
 21
256.4666666666667
  0
ARC
  8
1
  6
CONTINUOUS
 62
     7
 10
-172.9666666666667
 20
255.4666666666667
 40
1.000000000000001
 50
0.0
 51
90.0
  0
LINE
  8
1
  6
CONTINUOUS
 62
     7
 10
-171.9666666666667
 20
252.9666666666667
 11
-171.9666666666667
 21
255.4666666666667
  0
LINE
  8
1
  6
CONTINUOUS
 62
     7
 10
-163.9666666666667
 20
252.9666666666667
 11
-171.9666666666667
 21
252.9666666666667
  0
ARC
  8
1
  6
CONTINUOUS
 62
     7
 10
-163.9666666666667
 20
251.9666666666667
 40
1.000000000000001
 50
0.0
 51
90.0
  0
LINE
  8
1
  6
CONTINUOUS
 62
     7
 10
-162.9666666666667
 20
247.9666666666667
 11
-162.9666666666667
 21
251.9666666666667
  0
LINE
  8
1
  6
CONTINUOUS
 62
     7
 10
-157.5666666666667
 20
247.9666666666667
 11
-162.9666666666667
 21
247.9666666666667
  0
LINE
  8
1
  6
CONTINUOUS
 62
     7
 10
-157.5666666666667
 20
255.4666666666667
 11
-157.5666666666667
 21
247.9666666666667
  0
ARC
  8
1
  6
CONTINUOUS
 62
     7
 10
-156.5666666666667
 20
255.4666666666667
 40
1.000000000000001
 50
90.0
 51
180.0
  0
LINE
  8
1
  6
CONTINUOUS
 62
     7
 10
-155.4666666666667
 20
256.4666666666667
 11
-156.5666666666667
 21
256.4666666666667
  0
ARC
  8
1
  6
CONTINUOUS
 62
     7
 10
-155.4666666666667
 20
251.4666666666667
 40
4.999999999999997
 50
18.0
 51
90.0
  0
ARC
  8
1
  6
CONTINUOUS
 62
     7
 10
-155.4666666666667
 20
251.4666666666667
 40
5.000000000000002
 50
2.638732881323164
 51
18.0
  0
ARC
  8
1
  6
CONTINUOUS
 62
     7
 10
-155.4666666666667
 20
251.4666666666667
 40
5.000000000000004
 50
0.0
 51
2.638732881323108
  0
LINE
  8
1
  6
CONTINUOUS
 62
     7
 10
-150.4666666666667
 20
146.8666666666667
 11
-150.4666666666667
 21
251.4666666666667
  0
ARC
  8
1
  6
CONTINUOUS
 62
     7
 10
-155.4666666666667
 20
146.8666666666667
 40
5.000000000000004
 50
357.3615917173228
 51
0.0
  0
ARC
  8
1
  6
CONTINUOUS
 62
     7
 10
-155.4666666666667
 20
146.8666666666667
 40
5.000000000000005
 50
270.0
 51
357.3615917173229
  0
LINE
  8
1
  6
CONTINUOUS
 62
     7
 10
-156.5666666666667
 20
141.8666666666667
 11
-155.4666666666667
 21
141.8666666666667
  0
ARC
  8
1
  6
CONTINUOUS
 62
     7
 10
-156.5666666666667
 20
142.8666666666667
 40
1.000000000000001
 50
180.0
 51
270.0
  0
LINE
  8
1
  6
CONTINUOUS
 62
     7
 10
-157.5666666666667
 20
150.3666666666667
 11
-157.5666666666667
 21
142.8666666666667
  0
LINE
  8
1
  6
CONTINUOUS
 62
     7
 10
-162.9666666666667
 20
150.3666666666667
 11
-157.5666666666667
 21
150.3666666666667
  0
LINE
  8
1
  6
CONTINUOUS
 62
     7
 10
-162.9666666666667
 20
146.3666666666667
 11
-162.9666666666667
 21
150.3666666666667
  0
ARC
  8
1
  6
CONTINUOUS
 62
     7
 10
-163.9666666666667
 20
146.3666666666667
 40
1.000000000000001
 50
270.0
 51
0.0
  0
LINE
  8
1
  6
CONTINUOUS
 62
     7
 10
-171.9666666666667
 20
145.3666666666667
 11
-163.9666666666667
 21
145.3666666666667
  0
LINE
  8
1
  6
CONTINUOUS
 62
     7
 10
-171.9666666666667
 20
142.8666666666667
 11
-171.9666666666667
 21
145.3666666666667
  0
ARC
  8
1
  6
CONTINUOUS
 62
     7
 10
-172.9666666666667
 20
142.8666666666667
 40
1.000000000000001
 50
270.0
 51
0.0
  0
LINE
  8
1
  6
CONTINUOUS
 62
     7
 10
-177.7666666666667
 20
141.8666666666667
 11
-172.9666666666667
 21
141.8666666666667
  0
ARC
  8
1
  6
CONTINUOUS
 62
     7
 10
-177.7666666666667
 20
142.8666666666667
 40
1.000000000000001
 50
180.0
 51
270.0
  0
LINE
  8
1
  6
CONTINUOUS
 62
     7
 10
-182.2666666666667
 20
147.5210227429277
 11
-182.2666666666667
 21
146.3666666666667
  0
LINE
  8
1
  6
CONTINUOUS
 62
     7
 10
-182.2666666666667
 20
251.9666666666667
 11
-182.2666666666667
 21
250.8123105904056
  0
ARC
  8
1
  6
CONTINUOUS
 62
     7
 10
-182.7666666666667
 20
249.6666666666667
 40
1.250000000000002
 50
293.5781784782018
 51
66.42182152179817
  0
LINE
  8
1
  6
CONTINUOUS
 62
     7
 10
-178.7666666666667
 20
255.4666666666667
 11
-178.7666666666667
 21
252.9666666666667
  0
LINE
  8
1
  6
CONTINUOUS
 62
     7
 10
-178.7666666666667
 20
145.3666666666667
 11
-178.7666666666667
 21
142.8666666666667
  0
LINE
  8
1
  6
CONTINUOUS
 62
     7
 10
-182.2666666666667
 20
152.9666666666667
 11
-182.2666666666667
 21
149.8123105904056
  0
ARC
  8
1
  6
CONTINUOUS
 62
     7
 10
-182.7666666666667
 20
148.6666666666667
 40
1.250000000000002
 50
293.5781784782019
 51
66.42182152179805
  0
LINE
  8
1
  6
CONTINUOUS
 62
     7
 10
-182.2666666666667
 20
248.5210227429277
 11
-182.2666666666667
 21
245.3666666666667
  0
LINE
  8
1
  6
CONTINUOUS
 62
     7
 10
-181.2666666666667
 20
145.3666666666667
 11
-178.7666666666667
 21
145.3666666666667
  0
LINE
  8
1
  6
CONTINUOUS
 62
     7
 10
-178.7666666666667
 20
252.9666666666667
 11
-181.2666666666667
 21
252.9666666666667
  0
LINE
  8
1
  6
CONTINUOUS
 62
     7
 10
-324.5666666666667
 20
145.3666666666667
 11
-324.5666666666667
 21
142.8666666666667
  0
ARC
  8
1
  6
CONTINUOUS
 62
     7
 10
-325.5666666666667
 20
142.8666666666667
 40
1.000000000000001
 50
270.0
 51
0.0
  0
LINE
  8
1
  6
CONTINUOUS
 62
     7
 10
-325.5666666666667
 20
141.8666666666667
 11
-330.3666666666667
 21
141.8666666666667
  0
ARC
  8
1
  6
CONTINUOUS
 62
     7
 10
-330.3666666666667
 20
142.8666666666667
 40
1.000000000000001
 50
180.0
 51
270.0
  0
LINE
  8
1
  6
CONTINUOUS
 62
     7
 10
-331.3666666666667
 20
142.8666666666667
 11
-331.3666666666667
 21
145.3666666666667
  0
LINE
  8
1
  6
CONTINUOUS
 62
     7
 10
-331.3666666666667
 20
145.3666666666667
 11
-339.3666666666667
 21
145.3666666666667
  0
ARC
  8
1
  6
CONTINUOUS
 62
     7
 10
-339.3666666666667
 20
146.3666666666667
 40
1.000000000000001
 50
180.0
 51
270.0
  0
LINE
  8
1
  6
CONTINUOUS
 62
     7
 10
-340.3666666666667
 20
146.3666666666667
 11
-340.3666666666667
 21
150.3666666666667
  0
LINE
  8
1
  6
CONTINUOUS
 62
     7
 10
-340.3666666666667
 20
150.3666666666667
 11
-345.7666666666667
 21
150.3666666666667
  0
LINE
  8
1
  6
CONTINUOUS
 62
     7
 10
-345.7666666666667
 20
150.3666666666667
 11
-345.7666666666667
 21
142.8666666666667
  0
ARC
  8
1
  6
CONTINUOUS
 62
     7
 10
-346.7666666666667
 20
142.8666666666667
 40
1.000000000000001
 50
270.0
 51
0.0
  0
LINE
  8
1
  6
CONTINUOUS
 62
     7
 10
-346.7666666666667
 20
141.8666666666667
 11
-347.8666666666667
 21
141.8666666666667
  0
ARC
  8
1
  6
CONTINUOUS
 62
     7
 10
-347.8666666666667
 20
146.8666666666667
 40
5.000000000000004
 50
180.0
 51
182.6387328813231
  0
ARC
  8
1
  6
CONTINUOUS
 62
     7
 10
-347.8666666666667
 20
146.8666666666667
 40
5.000000000000004
 50
182.6387328813231
 51
269.9999999999999
  0
LINE
  8
1
  6
CONTINUOUS
 62
     7
 10
-352.8666666666667
 20
146.8666666666667
 11
-352.8666666666667
 21
251.4666666666667
  0
ARC
  8
1
  6
CONTINUOUS
 62
     7
 10
-347.8666666666667
 20
251.4666666666667
 40
4.999999999999997
 50
90.0
 51
177.3615917173229
  0
ARC
  8
1
  6
CONTINUOUS
 62
     7
 10
-347.8666666666667
 20
251.4666666666667
 40
5.000000000000004
 50
177.361591717323
 51
180.0
  0
LINE
  8
1
  6
CONTINUOUS
 62
     7
 10
-347.8666666666667
 20
256.4666666666667
 11
-346.7666666666667
 21
256.4666666666667
  0
ARC
  8
1
  6
CONTINUOUS
 62
     7
 10
-346.7666666666667
 20
255.4666666666667
 40
1.000000000000001
 50
0.0
 51
90.0
  0
LINE
  8
1
  6
CONTINUOUS
 62
     7
 10
-345.7666666666667
 20
255.4666666666667
 11
-345.7666666666667
 21
247.9666666666667
  0
LINE
  8
1
  6
CONTINUOUS
 62
     7
 10
-345.7666666666667
 20
247.9666666666667
 11
-340.3666666666667
 21
247.9666666666667
  0
LINE
  8
1
  6
CONTINUOUS
 62
     7
 10
-340.3666666666667
 20
247.9666666666667
 11
-340.3666666666667
 21
251.9666666666667
  0
ARC
  8
1
  6
CONTINUOUS
 62
     7
 10
-339.3666666666667
 20
251.9666666666667
 40
1.000000000000001
 50
90.0
 51
180.0
  0
LINE
  8
1
  6
CONTINUOUS
 62
     7
 10
-339.3666666666667
 20
252.9666666666667
 11
-331.3666666666667
 21
252.9666666666667
  0
LINE
  8
1
  6
CONTINUOUS
 62
     7
 10
-331.3666666666667
 20
252.9666666666667
 11
-331.3666666666667
 21
255.4666666666667
  0
ARC
  8
1
  6
CONTINUOUS
 62
     7
 10
-330.3666666666667
 20
255.4666666666667
 40
1.000000000000001
 50
90.0
 51
180.0
  0
LINE
  8
1
  6
CONTINUOUS
 62
     7
 10
-330.3666666666667
 20
256.4666666666667
 11
-325.5666666666667
 21
256.4666666666667
  0
ARC
  8
1
  6
CONTINUOUS
 62
     7
 10
-325.5666666666667
 20
255.4666666666667
 40
1.000000000000001
 50
0.0
 51
90.0
  0
LINE
  8
1
  6
CONTINUOUS
 62
     7
 10
-324.5666666666667
 20
252.9666666666667
 11
-322.0666666666667
 21
252.9666666666667
  0
ARC
  8
1
  6
CONTINUOUS
 62
     7
 10
-322.0666666666667
 20
251.9666666666667
 40
1.000000000000001
 50
0.0
 51
90.0
  0
ARC
  8
1
  6
CONTINUOUS
 62
     7
 10
-320.5666666666667
 20
249.6666666666667
 40
1.250000000000002
 50
113.5781784782018
 51
246.4218215217982
  0
LINE
  8
1
  6
CONTINUOUS
 62
     7
 10
-321.0666666666667
 20
248.5210227429277
 11
-321.0666666666667
 21
245.3666666666667
  0
ARC
  8
1
  6
CONTINUOUS
 62
     7
 10
-322.0666666666667
 20
245.3666666666667
 40
1.000000000000001
 50
270.0
 51
0.0
  0
LINE
  8
1
  6
CONTINUOUS
 62
     7
 10
-331.3666666666667
 20
244.3666666666667
 11
-322.0666666666667
 21
244.3666666666667
  0
LINE
  8
1
  6
CONTINUOUS
 62
     7
 10
-331.3666666666667
 20
239.3666666666667
 11
-331.3666666666667
 21
244.3666666666667
  0
ARC
  8
1
  6
CONTINUOUS
 62
     7
 10
-332.3666666666667
 20
239.3666666666667
 40
1.000000000000001
 50
270.0
 51
0.0
  0
LINE
  8
1
  6
CONTINUOUS
 62
     7
 10
-345.7666666666667
 20
238.3666666666667
 11
-332.3666666666667
 21
238.3666666666667
  0
LINE
  8
1
  6
CONTINUOUS
 62
     7
 10
-345.7666666666667
 20
159.9666666666667
 11
-345.7666666666667
 21
238.3666666666667
  0
LINE
  8
1
  6
CONTINUOUS
 62
     7
 10
-332.3666666666667
 20
159.9666666666667
 11
-345.7666666666667
 21
159.9666666666667
  0
ARC
  8
1
  6
CONTINUOUS
 62
     7
 10
-332.3666666666667
 20
158.9666666666667
 40
1.000000000000001
 50
0.0
 51
90.0
  0
LINE
  8
1
  6
CONTINUOUS
 62
     7
 10
-331.3666666666667
 20
153.9666666666667
 11
-331.3666666666667
 21
158.9666666666667
  0
LINE
  8
1
  6
CONTINUOUS
 62
     7
 10
-322.0666666666667
 20
153.9666666666667
 11
-331.3666666666667
 21
153.9666666666667
  0
ARC
  8
1
  6
CONTINUOUS
 62
     7
 10
-322.0666666666667
 20
152.9666666666667
 40
1.000000000000001
 50
0.0
 51
90.0
  0
LINE
  8
1
  6
CONTINUOUS
 62
     7
 10
-321.0666666666667
 20
152.9666666666667
 11
-321.0666666666667
 21
149.8123105904056
  0
ARC
  8
1
  6
CONTINUOUS
 62
     7
 10
-320.5666666666667
 20
148.6666666666667
 40
1.250000000000002
 50
113.5781784782019
 51
246.4218215217981
  0
LINE
  8
1
  6
CONTINUOUS
 62
     7
 10
-321.0666666666667
 20
147.5210227429277
 11
-321.0666666666667
 21
146.3666666666667
  0
ARC
  8
1
  6
CONTINUOUS
 62
     7
 10
-322.0666666666667
 20
146.3666666666667
 40
1.000000000000001
 50
270.0
 51
0.0
  0
LINE
  8
1
  6
CONTINUOUS
 62
     7
 10
-322.0666666666667
 20
145.3666666666667
 11
-324.5666666666667
 21
145.3666666666667
  0
LINE
  8
1
  6
CONTINUOUS
 62
     7
 10
-321.0666666666667
 20
251.9666666666667
 11
-321.0666666666667
 21
250.8123105904056
  0
LINE
  8
1
  6
CONTINUOUS
 62
     7
 10
-324.5666666666667
 20
255.4666666666667
 11
-324.5666666666667
 21
252.9666666666667
  0
ARC
  8
1
  6
CONTINUOUS
 62
     7
 10
-348.1768878382176
 20
146.8564429343369
 40
7.489783241997249
 50
180.0622009418437
 51
270.0781905369488
  0
LINE
  8
1
  6
CONTINUOUS
 62
     7
 10
-355.6666666666667
 20
146.8483119431137
 11
-355.6666666666667
 21
147.0725718355989
  0
CIRCLE
  8
1
  6
CONTINUOUS
 62
     7
 10
-228.6666239780336
 20
249.6668515127691
 40
1.249957325034582
  0
LINE
  8
1
  6
CONTINUOUS
 62
     7
 10
-320.6666666666667
 20
149.9166666666667
 11
-320.6666666666667
 21
153.1666666666667
  0
POLYLINE
  8
1
  6
CONTINUOUS
 62
     7
 66
     1
  0
VERTEX
  8
1
  6
CONTINUOUS
 62
     7
 10
-321.6666666666667
 20
154.1666666666667
  0
VERTEX
  8
1
  6
CONTINUOUS
 62
     7
 10
-321.6186896029629
 20
154.1654909778208
  0
VERTEX
  8
1
  6
CONTINUOUS
 62
     7
 10
-321.5706879972558
 20
154.1619826482952
  0
VERTEX
  8
1
  6
CONTINUOUS
 62
     7
 10
-321.5228260651327
 20
154.1561697836078
  0
VERTEX
  8
1
  6
CONTINUOUS
 62
     7
 10
-321.4752680221808
 20
154.1480804892764
  0
VERTEX
  8
1
  6
CONTINUOUS
 62
     7
 10
-321.4281780839876
 20
154.137742870819
  0
VERTEX
  8
1
  6
CONTINUOUS
 62
     7
 10
-321.3817204661403
 20
154.1251850337537
  0
VERTEX
  8
1
  6
CONTINUOUS
 62
     7
 10
-321.3360593842262
 20
154.1104350835981
  0
VERTEX
  8
1
  6
CONTINUOUS
 62
     7
 10
-321.2911789747912
 20
154.0934681502141
  0
VERTEX
  8
1
  6
CONTINUOUS
 62
     7
 10
-321.2470484969894
 20
154.0742937561209
  0
VERTEX
  8
1
  6
CONTINUOUS
 62
     7
 10
-321.2038131763995
 20
154.0529927609675
  0
VERTEX
  8
1
  6
CONTINUOUS
 62
     7
 10
-321.1616182386003
 20
154.0296460244023
  0
VERTEX
  8
1
  6
CONTINUOUS
 62
     7
 10
-321.1206089091701
 20
154.0043344060742
  0
VERTEX
  8
1
  6
CONTINUOUS
 62
     7
 10
-321.0809304136877
 20
153.9771387656317
  0
VERTEX
  8
1
  6
CONTINUOUS
 62
     7
 10
-321.0427279777317
 20
153.9481399627236
  0
VERTEX
  8
1
  6
CONTINUOUS
 62
     7
 10
-321.0059682132784
 20
153.9172862161587
  0
VERTEX
  8
1
  6
CONTINUOUS
 62
     7
 10
-320.9706474877808
 20
153.8845970823548
  0
VERTEX
  8
1
  6
CONTINUOUS
 62
     7
 10
-320.9368759150638
 20
153.850196757928
  0
VERTEX
  8
1
  6
CONTINUOUS
 62
     7
 10
-320.9047636089521
 20
153.8142094394949
  0
VERTEX
  8
1
  6
CONTINUOUS
 62
     7
 10
-320.8744206832705
 20
153.7767593236716
  0
VERTEX
  8
1
  6
CONTINUOUS
 62
     7
 10
-320.8459572518439
 20
153.7379706070745
  0
VERTEX
  8
1
  6
CONTINUOUS
 62
     7
 10
-320.819483428497
 20
153.69796748632
  0
VERTEX
  8
1
  6
CONTINUOUS
 62
     7
 10
-320.794965645558
 20
153.6566559224681
  0
VERTEX
  8
1
  6
CONTINUOUS
 62
     7
 10
-320.7724164561611
 20
153.6140851563241
  0
VERTEX
  8
1
  6
CONTINUOUS
 62
     7
 10
-320.7518989048712
 20
153.5704089374802
  0
VERTEX
  8
1
  6
CONTINUOUS
 62
     7
 10
-320.7334760362531
 20
153.5257810155283
  0
VERTEX
  8
1
  6
CONTINUOUS
 62
     7
 10
-320.7172108948717
 20
153.4803551400609
  0
VERTEX
  8
1
  6
CONTINUOUS
 62
     7
 10
-320.703166525292
 20
153.4342850606699
  0
VERTEX
  8
1
  6
CONTINUOUS
 62
     7
 10
-320.6914059720788
 20
153.3877245269475
  0
VERTEX
  8
1
  6
CONTINUOUS
 62
     7
 10
-320.6825386854114
 20
153.3440827571151
  0
VERTEX
  8
1
  6
CONTINUOUS
 62
     7
 10
-320.6756165378061
 20
153.3000248308652
  0
VERTEX
  8
1
  6
CONTINUOUS
 62
     7
 10
-320.6706541029934
 20
153.2556820035033
  0
VERTEX
  8
1
  6
CONTINUOUS
 62
     7
 10
-320.6676659547034
 20
153.2111855303353
  0
VERTEX
  8
1
  6
CONTINUOUS
 62
     7
 10
-320.6666666666667
 20
153.1666666666667
  0
SEQEND
  8
1
  6
CONTINUOUS
 62
     7
  0
LINE
  8
1
  6
CONTINUOUS
 62
     7
 10
-330.2666666666667
 20
154.1666666666667
 11
-321.6666666666667
 21
154.1666666666667
  0
POLYLINE
  8
1
  6
CONTINUOUS
 62
     7
 66
     1
  0
VERTEX
  8
1
  6
CONTINUOUS
 62
     7
 10
-331.2666666666667
 20
155.1666666666667
  0
VERTEX
  8
1
  6
CONTINUOUS
 62
     7
 10
-331.2654855349859
 20
155.118575526402
  0
VERTEX
  8
1
  6
CONTINUOUS
 62
     7
 10
-331.2619607430426
 20
155.0704598339737
  0
VERTEX
  8
1
  6
CONTINUOUS
 62
     7
 10
-331.2561201954851
 20
155.0224841014096
  0
VERTEX
  8
1
  6
CONTINUOUS
 62
     7
 10
-331.2479917969619
 20
154.9748128407375
  0
VERTEX
  8
1
  6
CONTINUOUS
 62
     7
 10
-331.2376034521213
 20
154.927610563985
  0
VERTEX
  8
1
  6
CONTINUOUS
 62
     7
 10
-331.2249830656118
 20
154.8810417831799
  0
VERTEX
  8
1
  6
CONTINUOUS
 62
     7
 10
-331.2101585420819
 20
154.8352710103501
  0
VERTEX
  8
1
  6
CONTINUOUS
 62
     7
 10
-331.1931032942003
 20
154.7902800518226
  0
VERTEX
  8
1
  6
CONTINUOUS
 62
     7
 10
-331.1738267092278
 20
154.7460406902705
  0
VERTEX
  8
1
  6
CONTINUOUS
 62
     7
 10
-331.1524095763
 20
154.7026993348514
  0
VERTEX
  8
1
  6
CONTINUOUS
 62
     7
 10
-331.1289326845527
 20
154.6604023947228
  0
VERTEX
  8
1
  6
CONTINUOUS
 62
     7
 10
-331.1034768231211
 20
154.6192962790425
  0
VERTEX
  8
1
  6
CONTINUOUS
 62
     7
 10
-331.076122781141
 20
154.579527396968
  0
VERTEX
  8
1
  6
CONTINUOUS
 62
     7
 10
-331.0469513477478
 20
154.541242157657
  0
VERTEX
  8
1
  6
CONTINUOUS
 62
     7
 10
-331.0159531841735
 20
154.504457287803
  0
VERTEX
  8
1
  6
CONTINUOUS
 62
     7
 10
-330.9831082052945
 20
154.469116218579
  0
VERTEX
  8
1
  6
CONTINUOUS
 62
     7
 10
-330.9485412887631
 20
154.4353305319113
  0
VERTEX
  8
1
  6
CONTINUOUS
 62
     7
 10
-330.9123773122312
 20
154.4032118097261
  0
VERTEX
  8
1
  6
CONTINUOUS
 62
     7
 10
-330.8747411533511
 20
154.3728716339496
  0
VERTEX
  8
1
  6
CONTINUOUS
 62
     7
 10
-330.8357576897749
 20
154.3444215865084
  0
VERTEX
  8
1
  6
CONTINUOUS
 62
     7
 10
-330.7955517991546
 20
154.3179732493284
  0
VERTEX
  8
1
  6
CONTINUOUS
 62
     7
 10
-330.7541544512936
 20
154.2935645993478
  0
VERTEX
  8
1
  6
CONTINUOUS
 62
     7
 10
-330.7114958817116
 20
154.2711265445525
  0
VERTEX
  8
1
  6
CONTINUOUS
 62
     7
 10
-330.6677307593565
 20
154.2507227913927
  0
VERTEX
  8
1
  6
CONTINUOUS
 62
     7
 10
-330.6230137531762
 20
154.232417046319
  0
VERTEX
  8
1
  6
CONTINUOUS
 62
     7
 10
-330.5774995321183
 20
154.2162730157816
  0
VERTEX
  8
1
  6
CONTINUOUS
 62
     7
 10
-330.5313427651308
 20
154.2023544062308
  0
VERTEX
  8
1
  6
CONTINUOUS
 62
     7
 10
-330.4846981211615
 20
154.190724924117
  0
VERTEX
  8
1
  6
CONTINUOUS
 62
     7
 10
-330.4416419742873
 20
154.1821014538106
  0
VERTEX
  8
1
  6
CONTINUOUS
 62
     7
 10
-330.3981841033149
 20
154.1753698295214
  0
VERTEX
  8
1
  6
CONTINUOUS
 62
     7
 10
-330.3544511603299
 20
154.1705441146405
  0
VERTEX
  8
1
  6
CONTINUOUS
 62
     7
 10
-330.3105697974186
 20
154.1676383725586
  0
VERTEX
  8
1
  6
CONTINUOUS
 62
     7
 10
-330.2666666666667
 20
154.1666666666667
  0
SEQEND
  8
1
  6
CONTINUOUS
 62
     7
  0
LINE
  8
1
  6
CONTINUOUS
 62
     7
 10
-331.2666666666667
 20
155.1666666666667
 11
-331.2666666666667
 21
159.1666666666667
  0
POLYLINE
  8
1
  6
CONTINUOUS
 62
     7
 66
     1
  0
VERTEX
  8
1
  6
CONTINUOUS
 62
     7
 10
-332.2666666666667
 20
160.1666666666667
  0
VERTEX
  8
1
  6
CONTINUOUS
 62
     7
 10
-332.2186753558128
 20
160.1654902988081
  0
VERTEX
  8
1
  6
CONTINUOUS
 62
     7
 10
-332.1706594800738
 20
160.1619799134493
  0
VERTEX
  8
1
  6
CONTINUOUS
 62
     7
 10
-332.1227832923175
 20
160.1561635879159
  0
VERTEX
  8
1
  6
CONTINUOUS
 62
     7
 10
-332.075211045411
 20
160.1480693995333
  0
VERTEX
  8
1
  6
CONTINUOUS
 62
     7
 10
-332.028106992222
 20
160.1377254256271
  0
VERTEX
  8
1
  6
CONTINUOUS
 62
     7
 10
-331.9816353856178
 20
160.1251597435228
  0
VERTEX
  8
1
  6
CONTINUOUS
 62
     7
 10
-331.9359604784658
 20
160.1104004305459
  0
VERTEX
  8
1
  6
CONTINUOUS
 62
     7
 10
-331.8910661059801
 20
160.0934223937145
  0
VERTEX
  8
1
  6
CONTINUOUS
 62
     7
 10
-331.8469218578785
 20
160.0742351400151
  0
VERTEX
  8
1
  6
CONTINUOUS
 62
     7
 10
-331.8036731116891
 20
160.0529195202972
  0
VERTEX
  8
1
  6
CONTINUOUS
 62
     7
 10
-331.7614652449399
 20
160.0295563854103
  0
VERTEX
  8
1
  6
CONTINUOUS
 62
     7
 10
-331.720443635159
 20
160.0042265862039
  0
VERTEX
  8
1
  6
CONTINUOUS
 62
     7
 10
-331.6807536598744
 20
159.9770109735277
  0
VERTEX
  8
1
  6
CONTINUOUS
 62
     7
 10
-331.642540696614
 20
159.9479903982311
  0
VERTEX
  8
1
  6
CONTINUOUS
 62
     7
 10
-331.6057778133045
 20
159.9171185312239
  0
VERTEX
  8
1
  6
CONTINUOUS
 62
     7
 10
-331.5704545584874
 20
159.8844098434724
  0
VERTEX
  8
1
  6
CONTINUOUS
 62
     7
 10
-331.5366812308167
 20
159.849988617483
  0
VERTEX
  8
1
  6
CONTINUOUS
 62
     7
 10
-331.5045681289463
 20
159.8139791357622
  0
VERTEX
  8
1
  6
CONTINUOUS
 62
     7
 10
-331.4742255515299
 20
159.7765056808164
  0
VERTEX
  8
1
  6
CONTINUOUS
 62
     7
 10
-331.4457637972214
 20
159.7376925351521
  0
VERTEX
  8
1
  6
CONTINUOUS
 62
     7
 10
-331.4192931646749
 20
159.6976639812758
  0
VERTEX
  8
1
  6
CONTINUOUS
 62
     7
 10
-331.3947891223688
 20
159.6563416775756
  0
VERTEX
  8
1
  6
CONTINUOUS
 62
     7
 10
-331.37225391858
 20
159.6137599232067
  0
VERTEX
  8
1
  6
CONTINUOUS
 62
     7
 10
-331.351750680777
 20
159.5700725819308
  0
VERTEX
  8
1
  6
CONTINUOUS
 62
     7
 10
-331.3333425364277
 20
159.5254335175091
  0
VERTEX
  8
1
  6
CONTINUOUS
 62
     7
 10
-331.317092613
 20
159.4799965937034
  0
VERTEX
  8
1
  6
CONTINUOUS
 62
     7
 10
-331.3030640379622
 20
159.4339156742753
  0
VERTEX
  8
1
  6
CONTINUOUS
 62
     7
 10
-331.2913199387824
 20
159.3873446229862
  0
VERTEX
  8
1
  6
CONTINUOUS
 62
     7
 10
-331.28248345244
 20
159.3437763441388
  0
VERTEX
  8
1
  6
CONTINUOUS
 62
     7
 10
-331.2755853727
 20
159.2997937373472
  0
VERTEX
  8
1
  6
CONTINUOUS
 62
     7
 10
-331.2706402089196
 20
159.2555274743473
  0
VERTEX
  8
1
  6
CONTINUOUS
 62
     7
 10
-331.2676624704561
 20
159.2111082268751
  0
VERTEX
  8
1
  6
CONTINUOUS
 62
     7
 10
-331.2666666666667
 20
159.1666666666667
  0
SEQEND
  8
1
  6
CONTINUOUS
 62
     7
  0
LINE
  8
1
  6
CONTINUOUS
 62
     7
 10
-344.6666666666667
 20
160.1666666666667
 11
-332.2666666666667
 21
160.1666666666667
  0
POLYLINE
  8
1
  6
CONTINUOUS
 62
     7
 66
     1
  0
VERTEX
  8
1
  6
CONTINUOUS
 62
     7
 10
-345.6666666666667
 20
161.1666666666667
  0
VERTEX
  8
1
  6
CONTINUOUS
 62
     7
 10
-345.6654862137849
 20
161.1185897394248
  0
VERTEX
  8
1
  6
CONTINUOUS
 62
     7
 10
-345.6619634748142
 20
161.0704882592839
  0
VERTEX
  8
1
  6
CONTINUOUS
 62
     7
 10
-345.6561263792667
 20
161.0225267012589
  0
VERTEX
  8
1
  6
CONTINUOUS
 62
     7
 10
-345.6480028566546
 20
160.9748695403646
  0
VERTEX
  8
1
  6
CONTINUOUS
 62
     7
 10
-345.6376208364899
 20
160.9276812516159
  0
VERTEX
  8
1
  6
CONTINUOUS
 62
     7
 10
-345.6250082482847
 20
160.8811263100276
  0
VERTEX
  8
1
  6
CONTINUOUS
 62
     7
 10
-345.6101930215511
 20
160.8353691906146
  0
VERTEX
  8
1
  6
CONTINUOUS
 62
     7
 10
-345.5931487845028
 20
160.7903919925414
  0
VERTEX
  8
1
  6
CONTINUOUS
 62
     7
 10
-345.5738849404288
 20
160.7461661814779
  0
VERTEX
  8
1
  6
CONTINUOUS
 62
     7
 10
-345.5524822865014
 20
160.7028380181887
  0
VERTEX
  8
1
  6
CONTINUOUS
 62
     7
 10
-345.5290216198926
 20
160.6605537634389
  0
VERTEX
  8
1
  6
CONTINUOUS
 62
     7
 10
-345.5035837377744
 20
160.6194596779932
  0
VERTEX
  8
1
  6
CONTINUOUS
 62
     7
 10
-345.4762494373188
 20
160.5797020226166
  0
VERTEX
  8
1
  6
CONTINUOUS
 62
     7
 10
-345.4470995156977
 20
160.5414270580739
  0
VERTEX
  8
1
  6
CONTINUOUS
 62
     7
 10
-345.4161192632018
 20
160.5046451951908
  0
VERTEX
  8
1
  6
CONTINUOUS
 62
     7
 10
-345.3832936046713
 20
160.4693065387652
  0
VERTEX
  8
1
  6
CONTINUOUS
 62
     7
 10
-345.348747331128
 20
160.4355224884998
  0
VERTEX
  8
1
  6
CONTINUOUS
 62
     7
 10
-345.3126052335934
 20
160.4034044440973
  0
VERTEX
  8
1
  6
CONTINUOUS
 62
     7
 10
-345.2749921030893
 20
160.3730638052607
  0
VERTEX
  8
1
  6
CONTINUOUS
 62
     7
 10
-345.2360327306374
 20
160.3446119716927
  0
VERTEX
  8
1
  6
CONTINUOUS
 62
     7
 10
-345.195851907259
 20
160.3181603430961
  0
VERTEX
  8
1
  6
CONTINUOUS
 62
     7
 10
-345.1544649807122
 20
160.2937380117399
  0
VERTEX
  8
1
  6
CONTINUOUS
 62
     7
 10
-345.1118170512106
 20
160.2712860359704
  0
VERTEX
  8
1
  6
CONTINUOUS
 62
     7
 10
-345.0680626737089
 20
160.2508680439771
  0
VERTEX
  8
1
  6
CONTINUOUS
 62
     7
 10
-345.023356403162
 20
160.2325476639497
  0
VERTEX
  8
1
  6
CONTINUOUS
 62
     7
 10
-344.9778527945248
 20
160.2163885240779
  0
VERTEX
  8
1
  6
CONTINUOUS
 62
     7
 10
-344.9317064027522
 20
160.2024542525513
  0
VERTEX
  8
1
  6
CONTINUOUS
 62
     7
 10
-344.8850717827988
 20
160.1908084775596
  0
VERTEX
  8
1
  6
CONTINUOUS
 62
     7
 10
-344.8419433468101
 20
160.1821551020816
  0
VERTEX
  8
1
  6
CONTINUOUS
 62
     7
 10
-344.7984114015847
 20
160.1754001045871
  0
VERTEX
  8
1
  6
CONTINUOUS
 62
     7
 10
-344.7546031627404
 20
160.1705576137421
  0
VERTEX
  8
1
  6
CONTINUOUS
 62
     7
 10
-344.7106458458952
 20
160.1676417582133
  0
VERTEX
  8
1
  6
CONTINUOUS
 62
     7
 10
-344.6666666666667
 20
160.1666666666667
  0
SEQEND
  8
1
  6
CONTINUOUS
 62
     7
  0
LINE
  8
1
  6
CONTINUOUS
 62
     7
 10
-345.6666666666667
 20
161.1666666666686
 11
-345.6666666666667
 21
237.1666666666667
  0
POLYLINE
  8
1
  6
CONTINUOUS
 62
     7
 66
     1
  0
VERTEX
  8
1
  6
CONTINUOUS
 62
     7
 10
-344.6666666666667
 20
238.1666666666667
  0
VERTEX
  8
1
  6
CONTINUOUS
 62
     7
 10
-344.714658583011
 20
238.1654902694232
  0
VERTEX
  8
1
  6
CONTINUOUS
 62
     7
 10
-344.7626750623181
 20
238.1619797960104
  0
VERTEX
  8
1
  6
CONTINUOUS
 62
     7
 10
-344.8105518485694
 20
238.1561633239047
  0
VERTEX
  8
1
  6
CONTINUOUS
 62
     7
 10
-344.8581246857464
 20
238.1480689305828
  0
VERTEX
  8
1
  6
CONTINUOUS
 62
     7
 10
-344.9052293178305
 20
238.1377246935209
  0
VERTEX
  8
1
  6
CONTINUOUS
 62
     7
 10
-344.9517014888032
 20
238.1251586901957
  0
VERTEX
  8
1
  6
CONTINUOUS
 62
     7
 10
-344.9973769426459
 20
238.1103989980837
  0
VERTEX
  8
1
  6
CONTINUOUS
 62
     7
 10
-345.0422718159521
 20
238.0934205382537
  0
VERTEX
  8
1
  6
CONTINUOUS
 62
     7
 10
-345.0864165566915
 20
238.0742328021204
  0
VERTEX
  8
1
  6
CONTINUOUS
 62
     7
 10
-345.1296657930167
 20
238.0529166277968
  0
VERTEX
  8
1
  6
CONTINUOUS
 62
     7
 10
-345.1718741530809
 20
238.0295528533958
  0
VERTEX
  8
1
  6
CONTINUOUS
 62
     7
 10
-345.2128962650366
 20
238.0042223170304
  0
VERTEX
  8
1
  6
CONTINUOUS
 62
     7
 10
-345.252586757037
 20
237.9770058568135
  0
VERTEX
  8
1
  6
CONTINUOUS
 62
     7
 10
-345.2908002572347
 20
237.9479843108581
  0
VERTEX
  8
1
  6
CONTINUOUS
 62
     7
 10
-345.3275642976193
 20
237.9171108047889
  0
VERTEX
  8
1
  6
CONTINUOUS
 62
     7
 10
-345.3628886863639
 20
237.8844002402529
  0
VERTEX
  8
1
  6
CONTINUOUS
 62
     7
 10
-345.3966631055088
 20
237.8499768803285
  0
VERTEX
  8
1
  6
CONTINUOUS
 62
     7
 10
-345.4287772370942
 20
237.8139649880941
  0
VERTEX
  8
1
  6
CONTINUOUS
 62
     7
 10
-345.4591207631602
 20
237.7764888266281
  0
VERTEX
  8
1
  6
CONTINUOUS
 62
     7
 10
-345.4875833657471
 20
237.7376726590089
  0
VERTEX
  8
1
  6
CONTINUOUS
 62
     7
 10
-345.5140547268952
 20
237.6976407483149
  0
VERTEX
  8
1
  6
CONTINUOUS
 62
     7
 10
-345.5385590861583
 20
237.6563151786555
  0
VERTEX
  8
1
  6
CONTINUOUS
 62
     7
 10
-345.5610944765519
 20
237.6137297540494
  0
VERTEX
  8
1
  6
CONTINUOUS
 62
     7
 10
-345.581597718964
 20
237.5700383529684
  0
VERTEX
  8
1
  6
CONTINUOUS
 62
     7
 10
-345.6000056342825
 20
237.5253948538843
  0
VERTEX
  8
1
  6
CONTINUOUS
 62
     7
 10
-345.6162550433951
 20
237.4799531352689
  0
VERTEX
  8
1
  6
CONTINUOUS
 62
     7
 10
-345.6302827671898
 20
237.4338670755937
  0
VERTEX
  8
1
  6
CONTINUOUS
 62
     7
 10
-345.6420256265544
 20
237.3872905533307
  0
VERTEX
  8
1
  6
CONTINUOUS
 62
     7
 10
-345.6508576419392
 20
237.3437332405378
  0
VERTEX
  8
1
  6
CONTINUOUS
 62
     7
 10
-345.6577522882887
 20
237.2997616042539
  0
VERTEX
  8
1
  6
CONTINUOUS
 62
     7
 10
-345.662695030957
 20
237.2555062357001
  0
VERTEX
  8
1
  6
CONTINUOUS
 62
     7
 10
-345.6656713352983
 20
237.2110977260973
  0
VERTEX
  8
1
  6
CONTINUOUS
 62
     7
 10
-345.6666666666667
 20
237.1666666666667
  0
SEQEND
  8
1
  6
CONTINUOUS
 62
     7
  0
LINE
  8
1
  6
CONTINUOUS
 62
     7
 10
-332.2666666666667
 20
238.1666666666667
 11
-344.6666666666667
 21
238.1666666666667
  0
POLYLINE
  8
1
  6
CONTINUOUS
 62
     7
 66
     1
  0
VERTEX
  8
1
  6
CONTINUOUS
 62
     7
 10
-331.2666666666667
 20
239.1666666666667
  0
VERTEX
  8
1
  6
CONTINUOUS
 62
     7
 10
-331.2678471574979
 20
239.1185889210639
  0
VERTEX
  8
1
  6
CONTINUOUS
 62
     7
 10
-331.2713700419767
 20
239.0704863142496
  0
VERTEX
  8
1
  6
CONTINUOUS
 62
     7
 10
-331.2772074380809
 20
239.0225233292447
  0
VERTEX
  8
1
  6
CONTINUOUS
 62
     7
 10
-331.2853314637886
 20
238.9748644490702
  0
VERTEX
  8
1
  6
CONTINUOUS
 62
     7
 10
-331.2957142370773
 20
238.927674156747
  0
VERTEX
  8
1
  6
CONTINUOUS
 62
     7
 10
-331.3083278759249
 20
238.8811169352961
  0
VERTEX
  8
1
  6
CONTINUOUS
 62
     7
 10
-331.3231444983093
 20
238.8353572677383
  0
VERTEX
  8
1
  6
CONTINUOUS
 62
     7
 10
-331.3401906232928
 20
238.7903770749388
  0
VERTEX
  8
1
  6
CONTINUOUS
 62
     7
 10
-331.3594568309489
 20
238.7461480730321
  0
VERTEX
  8
1
  6
CONTINUOUS
 62
     7
 10
-331.3808623277418
 20
238.7028165987174
  0
VERTEX
  8
1
  6
CONTINUOUS
 62
     7
 10
-331.4043263201353
 20
238.660528988694
  0
VERTEX
  8
1
  6
CONTINUOUS
 62
     7
 10
-331.4297680145935
 20
238.6194315796611
  0
VERTEX
  8
1
  6
CONTINUOUS
 62
     7
 10
-331.4571066175805
 20
238.5796707083179
  0
VERTEX
  8
1
  6
CONTINUOUS
 62
     7
 10
-331.4862613355599
 20
238.5413927113638
  0
VERTEX
  8
1
  6
CONTINUOUS
 62
     7
 10
-331.5172437482217
 20
238.5046116155776
  0
VERTEX
  8
1
  6
CONTINUOUS
 62
     7
 10
-331.5500717338788
 20
238.4692736939946
  0
VERTEX
  8
1
  6
CONTINUOUS
 62
     7
 10
-331.5846204801101
 20
238.4354903847149
  0
VERTEX
  8
1
  6
CONTINUOUS
 62
     7
 10
-331.6207651744941
 20
238.4033731258388
  0
VERTEX
  8
1
  6
CONTINUOUS
 62
     7
 10
-331.6583810046095
 20
238.3730333554662
  0
VERTEX
  8
1
  6
CONTINUOUS
 62
     7
 10
-331.6973431580352
 20
238.3445825116973
  0
VERTEX
  8
1
  6
CONTINUOUS
 62
     7
 10
-331.7375268223498
 20
238.3181320326321
  0
VERTEX
  8
1
  6
CONTINUOUS
 62
     7
 10
-331.7789137265494
 20
238.2937126592485
  0
VERTEX
  8
1
  6
CONTINUOUS
 62
     7
 10
-331.8215615104153
 20
238.2712635547764
  0
VERTEX
  8
1
  6
CONTINUOUS
 62
     7
 10
-331.8653156190616
 20
238.2508483439675
  0
VERTEX
  8
1
  6
CONTINUOUS
 62
     7
 10
-331.9100214976025
 20
238.2325306515736
  0
VERTEX
  8
1
  6
CONTINUOUS
 62
     7
 10
-331.9555245911521
 20
238.2163741023466
  0
VERTEX
  8
1
  6
CONTINUOUS
 62
     7
 10
-332.0016703448246
 20
238.2024423210383
  0
VERTEX
  8
1
  6
CONTINUOUS
 62
     7
 10
-332.0483042037342
 20
238.1907989324004
  0
VERTEX
  8
1
  6
CONTINUOUS
 62
     7
 10
-332.0914244330701
 20
238.1821489641115
  0
VERTEX
  8
1
  6
CONTINUOUS
 62
     7
 10
-332.1349479354567
 20
238.175396635628
  0
VERTEX
  8
1
  6
CONTINUOUS
 62
     7
 10
-332.1787475694686
 20
238.1705560647155
  0
VERTEX
  8
1
  6
CONTINUOUS
 62
     7
 10
-332.2226961936803
 20
238.1676413691399
  0
VERTEX
  8
1
  6
CONTINUOUS
 62
     7
 10
-332.2666666666667
 20
238.1666666666667
  0
SEQEND
  8
1
  6
CONTINUOUS
 62
     7
  0
LINE
  8
1
  6
CONTINUOUS
 62
     7
 10
-331.2666666666667
 20
239.1666666666667
 11
-331.2666666666667
 21
243.1666666666667
  0
POLYLINE
  8
1
  6
CONTINUOUS
 62
     7
 66
     1
  0
VERTEX
  8
1
  6
CONTINUOUS
 62
     7
 10
-330.2666666666667
 20
244.1666666666667
  0
VERTEX
  8
1
  6
CONTINUOUS
 62
     7
 10
-330.3146444292273
 20
244.1654909439134
  0
VERTEX
  8
1
  6
CONTINUOUS
 62
     7
 10
-330.3626467315726
 20
244.1619825127836
  0
VERTEX
  8
1
  6
CONTINUOUS
 62
     7
 10
-330.4105093544771
 20
244.1561694789725
  0
VERTEX
  8
1
  6
CONTINUOUS
 62
     7
 10
-330.4580680787157
 20
244.1480799481752
  0
VERTEX
  8
1
  6
CONTINUOUS
 62
     7
 10
-330.5051586850627
 20
244.1377420260868
  0
VERTEX
  8
1
  6
CONTINUOUS
 62
     7
 10
-330.551616954293
 20
244.1251838184026
  0
VERTEX
  8
1
  6
CONTINUOUS
 62
     7
 10
-330.597278667181
 20
244.1104334308176
  0
VERTEX
  8
1
  6
CONTINUOUS
 62
     7
 10
-330.6421596546452
 20
244.0934660094047
  0
VERTEX
  8
1
  6
CONTINUOUS
 62
     7
 10
-330.6862907010256
 20
244.074291058726
  0
VERTEX
  8
1
  6
CONTINUOUS
 62
     7
 10
-330.7295265872997
 20
244.0529894237539
  0
VERTEX
  8
1
  6
CONTINUOUS
 62
     7
 10
-330.7717220944451
 20
244.0296419494604
  0
VERTEX
  8
1
  6
CONTINUOUS
 62
     7
 10
-330.8127320034391
 20
244.0043294808175
  0
VERTEX
  8
1
  6
CONTINUOUS
 62
     7
 10
-330.8524110952594
 20
243.9771328627975
  0
VERTEX
  8
1
  6
CONTINUOUS
 62
     7
 10
-330.8906141508834
 20
243.9481329403725
  0
VERTEX
  8
1
  6
CONTINUOUS
 62
     7
 10
-330.9273752508788
 20
243.9172773030861
  0
VERTEX
  8
1
  6
CONTINUOUS
 62
     7
 10
-330.9626972852205
 20
243.884586004442
  0
VERTEX
  8
1
  6
CONTINUOUS
 62
     7
 10
-330.9964701178537
 20
243.8501832186575
  0
VERTEX
  8
1
  6
CONTINUOUS
 62
     7
 10
-331.028583612723
 20
243.8141931199503
  0
VERTEX
  8
1
  6
CONTINUOUS
 62
     7
 10
-331.0589276337736
 20
243.7767398825378
  0
VERTEX
  8
1
  6
CONTINUOUS
 62
     7
 10
-331.0873920449504
 20
243.7379476806377
  0
VERTEX
  8
1
  6
CONTINUOUS
 62
     7
 10
-331.1138667101981
 20
243.6979406884675
  0
VERTEX
  8
1
  6
CONTINUOUS
 62
     7
 10
-331.138384861527
 20
243.6566253545347
  0
VERTEX
  8
1
  6
CONTINUOUS
 62
     7
 10
-331.1609342689216
 20
243.6140503517473
  0
VERTEX
  8
1
  6
CONTINUOUS
 62
     7
 10
-331.1814518282366
 20
243.5703694466099
  0
VERTEX
  8
1
  6
CONTINUOUS
 62
     7
 10
-331.1998744353259
 20
243.5257364056275
  0
VERTEX
  8
1
  6
CONTINUOUS
 62
     7
 10
-331.216138986044
 20
243.4803049953046
  0
VERTEX
  8
1
  6
CONTINUOUS
 62
     7
 10
-331.230182376245
 20
243.4342289821461
  0
VERTEX
  8
1
  6
CONTINUOUS
 62
     7
 10
-331.2419415017833
 20
243.3876621326567
  0
VERTEX
  8
1
  6
CONTINUOUS
 62
     7
 10
-331.2508036194485
 20
243.3440330186214
  0
VERTEX
  8
1
  6
CONTINUOUS
 62
     7
 10
-331.2577217979043
 20
243.2999877528552
  0
VERTEX
  8
1
  6
CONTINUOUS
 62
     7
 10
-331.2626814340157
 20
243.2556574975077
  0
VERTEX
  8
1
  6
CONTINUOUS
 62
     7
 10
-331.2656679246482
 20
243.2111734147283
  0
VERTEX
  8
1
  6
CONTINUOUS
 62
     7
 10
-331.2666666666667
 20
243.1666666666667
  0
SEQEND
  8
1
  6
CONTINUOUS
 62
     7
  0
LINE
  8
1
  6
CONTINUOUS
 62
     7
 10
-321.6666666666666
 20
244.1666666666667
 11
-330.2666666666667
 21
244.1666666666667
  0
POLYLINE
  8
1
  6
CONTINUOUS
 62
     7
 66
     1
  0
VERTEX
  8
1
  6
CONTINUOUS
 62
     7
 10
-320.6666666666666
 20
245.1666666666667
  0
VERTEX
  8
1
  6
CONTINUOUS
 62
     7
 10
-320.6678478423997
 20
245.1185745769881
  0
VERTEX
  8
1
  6
CONTINUOUS
 62
     7
 10
-320.671372803088
 20
245.0704575789047
  0
VERTEX
  8
1
  6
CONTINUOUS
 62
     7
 10
-320.6772136989651
 20
245.0224801937448
  0
VERTEX
  8
1
  6
CONTINUOUS
 62
     7
 10
-320.6853426802647
 20
244.9748069428369
  0
VERTEX
  8
1
  6
CONTINUOUS
 62
     7
 10
-320.6957318972205
 20
244.9276023475095
  0
VERTEX
  8
1
  6
CONTINUOUS
 62
     7
 10
-320.708353500066
 20
244.8810309290909
  0
VERTEX
  8
1
  6
CONTINUOUS
 62
     7
 10
-320.723179639035
 20
244.8352572089096
  0
VERTEX
  8
1
  6
CONTINUOUS
 62
     7
 10
-320.7402370717419
 20
244.7902627872072
  0
VERTEX
  8
1
  6
CONTINUOUS
 62
     7
 10
-320.7595163917164
 20
244.7460197360821
  0
VERTEX
  8
1
  6
CONTINUOUS
 62
     7
 10
-320.780936814017
 20
244.7026745525115
  0
VERTEX
  8
1
  6
CONTINUOUS
 62
     7
 10
-320.8044175537017
 20
244.6603737334728
  0
VERTEX
  8
1
  6
CONTINUOUS
 62
     7
 10
-320.8298778258289
 20
244.6192637759431
  0
VERTEX
  8
1
  6
CONTINUOUS
 62
     7
 10
-320.8572368454566
 20
244.5794911768999
  0
VERTEX
  8
1
  6
CONTINUOUS
 62
     7
 10
-320.8864138276429
 20
244.5412024333204
  0
VERTEX
  8
1
  6
CONTINUOUS
 62
     7
 10
-320.9174144886766
 20
244.5044184538564
  0
VERTEX
  8
1
  6
CONTINUOUS
 62
     7
 10
-320.9502621577369
 20
244.469078237958
  0
VERTEX
  8
1
  6
CONTINUOUS
 62
     7
 10
-320.9848319324166
 20
244.435293411905
  0
VERTEX
  8
1
  6
CONTINUOUS
 62
     7
 10
-321.0209989103087
 20
244.4031756019767
  0
VERTEX
  8
1
  6
CONTINUOUS
 62
     7
 10
-321.058638189006
 20
244.3728364344528
  0
VERTEX
  8
1
  6
CONTINUOUS
 62
     7
 10
-321.0976248661013
 20
244.3443875356128
  0
VERTEX
  8
1
  6
CONTINUOUS
 62
     7
 10
-321.1378340391876
 20
244.3179405317365
  0
VERTEX
  8
1
  6
CONTINUOUS
 62
     7
 10
-321.1792313605338
 20
244.2935353019637
  0
VERTEX
  8
1
  6
CONTINUOUS
 62
     7
 10
-321.2218897608118
 20
244.271100567334
  0
VERTEX
  8
1
  6
CONTINUOUS
 62
     7
 10
-321.2656545711694
 20
244.2507000302694
  0
VERTEX
  8
1
  6
CONTINUOUS
 62
     7
 10
-321.310371122754
 20
244.2323973931916
  0
VERTEX
  8
1
  6
CONTINUOUS
 62
     7
 10
-321.3558847467134
 20
244.2162563585226
  0
VERTEX
  8
1
  6
CONTINUOUS
 62
     7
 10
-321.4020407741953
 20
244.2023406286841
  0
VERTEX
  8
1
  6
CONTINUOUS
 62
     7
 10
-321.4486845363474
 20
244.1907139060981
  0
VERTEX
  8
1
  6
CONTINUOUS
 62
     7
 10
-321.4917311920201
 20
244.182094368759
  0
VERTEX
  8
1
  6
CONTINUOUS
 62
     7
 10
-321.535179299412
 20
244.1753658253253
  0
VERTEX
  8
1
  6
CONTINUOUS
 62
     7
 10
-321.5789022919995
 20
244.1705423266179
  0
VERTEX
  8
1
  6
CONTINUOUS
 62
     7
 10
-321.6227736032589
 20
244.167637923458
  0
VERTEX
  8
1
  6
CONTINUOUS
 62
     7
 10
-321.6666666666666
 20
244.1666666666667
  0
SEQEND
  8
1
  6
CONTINUOUS
 62
     7
  0
LINE
  8
1
  6
CONTINUOUS
 62
     7
 10
-320.6666666666666
 20
245.1666666666667
 11
-320.6666666666666
 21
248.4166666666667
  0
ARC
  8
1
  6
CONTINUOUS
 62
     7
 10
-320.666750285685
 20
249.6666666666667
 40
1.250000002796857
 50
270.0038328134656
 51
89.99616718653436
  0
LINE
  8
1
  6
CONTINUOUS
 62
     7
 10
-320.6666666666666
 20
250.9166666666667
 11
-320.6666666666666
 21
255.6666666666667
  0
POLYLINE
  8
1
  6
CONTINUOUS
 62
     7
 66
     1
  0
VERTEX
  8
1
  6
CONTINUOUS
 62
     7
 10
-321.6666666666666
 20
256.6666666666667
  0
VERTEX
  8
1
  6
CONTINUOUS
 62
     7
 10
-321.6187249251198
 20
256.6654926596609
  0
VERTEX
  8
1
  6
CONTINUOUS
 62
     7
 10
-321.5707587026317
 20
256.6619894234864
  0
VERTEX
  8
1
  6
CONTINUOUS
 62
     7
 10
-321.5229321248697
 20
256.6561851354072
  0
VERTEX
  8
1
  6
CONTINUOUS
 62
     7
 10
-321.4754093175011
 20
256.6481079726875
  0
VERTEX
  8
1
  6
CONTINUOUS
 62
     7
 10
-321.4283544061929
 20
256.6377861125912
  0
VERTEX
  8
1
  6
CONTINUOUS
 62
     7
 10
-321.3819315166125
 20
256.6252477323825
  0
VERTEX
  8
1
  6
CONTINUOUS
 62
     7
 10
-321.3363047744271
 20
256.6105210093255
  0
VERTEX
  8
1
  6
CONTINUOUS
 62
     7
 10
-321.2914591238577
 20
256.5935816598509
  0
VERTEX
  8
1
  6
CONTINUOUS
 62
     7
 10
-321.2473629275287
 20
256.5744392222805
  0
VERTEX
  8
1
  6
CONTINUOUS
 62
     7
 10
-321.2041610167022
 20
256.5531745590878
  0
VERTEX
  8
1
  6
CONTINUOUS
 62
     7
 10
-321.1619982226405
 20
256.5298685327456
  0
VERTEX
  8
1
  6
CONTINUOUS
 62
     7
 10
-321.1210193766055
 20
256.5046020057273
  0
VERTEX
  8
1
  6
CONTINUOUS
 62
     7
 10
-321.0813693098596
 20
256.477455840506
  0
VERTEX
  8
1
  6
CONTINUOUS
 62
     7
 10
-321.0431928536647
 20
256.4485108995551
  0
VERTEX
  8
1
  6
CONTINUOUS
 62
     7
 10
-321.0064393260665
 20
256.4177007648504
  0
VERTEX
  8
1
  6
CONTINUOUS
 62
     7
 10
-320.971123373618
 20
256.3850585292766
  0
VERTEX
  8
1
  6
CONTINUOUS
 62
     7
 10
-320.9373546697825
 20
256.3507081420959
  0
VERTEX
  8
1
  6
CONTINUOUS
 62
     7
 10
-320.9052428880235
 20
256.3147735525703
  0
VERTEX
  8
1
  6
CONTINUOUS
 62
     7
 10
-320.8748977018043
 20
256.2773787099618
  0
VERTEX
  8
1
  6
CONTINUOUS
 62
     7
 10
-320.8464287845882
 20
256.2386475635326
  0
VERTEX
  8
1
  6
CONTINUOUS
 62
     7
 10
-320.8199458098388
 20
256.1987040625448
  0
VERTEX
  8
1
  6
CONTINUOUS
 62
     7
 10
-320.7953926406133
 20
256.1574149510242
  0
VERTEX
  8
1
  6
CONTINUOUS
 62
     7
 10
-320.7728076364517
 20
256.1148666634525
  0
VERTEX
  8
1
  6
CONTINUOUS
 62
     7
 10
-320.7522537082418
 20
256.0712126813107
  0
VERTEX
  8
1
  6
CONTINUOUS
 62
     7
 10
-320.7337937668713
 20
256.02660648608
  0
VERTEX
  8
1
  6
CONTINUOUS
 62
     7
 10
-320.7174907232283
 20
255.9812015592412
  0
VERTEX
  8
1
  6
CONTINUOUS
 62
     7
 10
-320.7034074882004
 20
255.9351513822755
  0
VERTEX
  8
1
  6
CONTINUOUS
 62
     7
 10
-320.6916069726756
 20
255.8886094366639
  0
VERTEX
  8
1
  6
CONTINUOUS
 62
     7
 10
-320.6826678677076
 20
255.8447972824474
  0
VERTEX
  8
1
  6
CONTINUOUS
 62
     7
 10
-320.6756895076744
 20
255.8005643044499
  0
VERTEX
  8
1
  6
CONTINUOUS
 62
     7
 10
-320.6706866695245
 20
255.7560431265609
  0
VERTEX
  8
1
  6
CONTINUOUS
 62
     7
 10
-320.6676741302058
 20
255.7113663726699
  0
VERTEX
  8
1
  6
CONTINUOUS
 62
     7
 10
-320.6666666666666
 20
255.6666666666667
  0
SEQEND
  8
1
  6
CONTINUOUS
 62
     7
  0
LINE
  8
1
  6
CONTINUOUS
 62
     7
 10
-330.6666666666667
 20
256.6666666666667
 11
-321.6666666666666
 21
256.6666666666667
  0
POLYLINE
  8
1
  6
CONTINUOUS
 62
     7
 66
     1
  0
VERTEX
  8
1
  6
CONTINUOUS
 62
     7
 10
-331.6666666666667
 20
255.6666666666667
  0
VERTEX
  8
1
  6
CONTINUOUS
 62
     7
 10
-331.6654838015437
 20
255.7147940841205
  0
VERTEX
  8
1
  6
CONTINUOUS
 62
     7
 10
-331.6619537658523
 20
255.7629460627322
  0
VERTEX
  8
1
  6
CONTINUOUS
 62
     7
 10
-331.6561043991089
 20
255.8109579954149
  0
VERTEX
  8
1
  6
CONTINUOUS
 62
     7
 10
-331.6479635408297
 20
255.8586652750816
  0
VERTEX
  8
1
  6
CONTINUOUS
 62
     7
 10
-331.6375590305311
 20
255.9059032946455
  0
VERTEX
  8
1
  6
CONTINUOUS
 62
     7
 10
-331.6249187077294
 20
255.9525074470193
  0
VERTEX
  8
1
  6
CONTINUOUS
 62
     7
 10
-331.6100704119411
 20
255.9983131251164
  0
VERTEX
  8
1
  6
CONTINUOUS
 62
     7
 10
-331.5929869999777
 20
256.043339276379
  0
VERTEX
  8
1
  6
CONTINUOUS
 62
     7
 10
-331.5736778186358
 20
256.0876133004934
  0
VERTEX
  8
1
  6
CONTINUOUS
 62
     7
 10
-331.5522236362602
 20
256.1309884065212
  0
VERTEX
  8
1
  6
CONTINUOUS
 62
     7
 10
-331.5287052211963
 20
256.1733178035232
  0
VERTEX
  8
1
  6
CONTINUOUS
 62
     7
 10
-331.5032033417887
 20
256.2144547005606
  0
VERTEX
  8
1
  6
CONTINUOUS
 62
     7
 10
-331.4757987663826
 20
256.2542523066948
  0
VERTEX
  8
1
  6
CONTINUOUS
 62
     7
 10
-331.4465722633232
 20
256.2925638309867
  0
VERTEX
  8
1
  6
CONTINUOUS
 62
     7
 10
-331.4155283643737
 20
256.3293562688089
  0
VERTEX
  8
1
  6
CONTINUOUS
 62
     7
 10
-331.3826340525208
 20
256.3647033915624
  0
VERTEX
  8
1
  6
CONTINUOUS
 62
     7
 10
-331.3480144273237
 20
256.3984931509283
  0
VERTEX
  8
1
  6
CONTINUOUS
 62
     7
 10
-331.3117945883414
 20
256.4306134985871
  0
VERTEX
  8
1
  6
CONTINUOUS
 62
     7
 10
-331.2740996351328
 20
256.4609523862196
  0
VERTEX
  8
1
  6
CONTINUOUS
 62
     7
 10
-331.2350546672568
 20
256.4893977655065
  0
VERTEX
  8
1
  6
CONTINUOUS
 62
     7
 10
-331.1947847842725
 20
256.5158375881286
  0
VERTEX
  8
1
  6
CONTINUOUS
 62
     7
 10
-331.1533609456362
 20
256.5402112025866
  0
VERTEX
  8
1
  6
CONTINUOUS
 62
     7
 10
-331.1106753383243
 20
256.5626136160059
  0
VERTEX
  8
1
  6
CONTINUOUS
 62
     7
 10
-331.066882922089
 20
256.5829809234729
  0
VERTEX
  8
1
  6
CONTINUOUS
 62
     7
 10
-331.0221386566826
 20
256.6012492200733
  0
VERTEX
  8
1
  6
CONTINUOUS
 62
     7
 10
-330.9765975018572
 20
256.6173546008935
  0
VERTEX
  8
1
  6
CONTINUOUS
 62
     7
 10
-330.9304144173648
 20
256.6312331610196
  0
VERTEX
  8
1
  6
CONTINUOUS
 62
     7
 10
-330.8837443629575
 20
256.6428209955374
  0
VERTEX
  8
1
  6
CONTINUOUS
 62
     7
 10
-330.8408727566409
 20
256.6513683784696
  0
VERTEX
  8
1
  6
CONTINUOUS
 62
     7
 10
-330.7976039642621
 20
256.6580405340515
  0
VERTEX
  8
1
  6
CONTINUOUS
 62
     7
 10
-330.7540632054124
 20
256.6628235652802
  0
VERTEX
  8
1
  6
CONTINUOUS
 62
     7
 10
-330.7103756996835
 20
256.6657035751529
  0
VERTEX
  8
1
  6
CONTINUOUS
 62
     7
 10
-330.6666666666667
 20
256.6666666666667
  0
SEQEND
  8
1
  6
CONTINUOUS
 62
     7
  0
LINE
  8
1
  6
CONTINUOUS
 62
     7
 10
-331.6666666666667
 20
255.6666666666667
 11
-331.6666666666667
 21
253.1666666666667
  0
LINE
  8
1
  6
CONTINUOUS
 62
     7
 10
-333.6666666666667
 20
253.1666666666667
 11
-331.6666666666667
 21
253.1666666666667
  0
LINE
  8
1
  6
CONTINUOUS
 62
     7
 10
-333.6666666666667
 20
255.1666666666667
 11
-333.6666666666667
 21
253.1666666666667
  0
LINE
  8
1
  6
CONTINUOUS
 62
     7
 10
-333.6666666666667
 20
255.1666666666667
 11
-345.6666666666667
 21
255.1666666666667
  0
LINE
  8
1
  6
CONTINUOUS
 62
     7
 10
-345.6666666666667
 20
255.1666666666667
 11
-345.6666666666667
 21
255.6666666666667
  0
POLYLINE
  8
1
  6
CONTINUOUS
 62
     7
 66
     1
  0
VERTEX
  8
1
  6
CONTINUOUS
 62
     7
 10
-346.6666666666667
 20
256.6666666666667
  0
VERTEX
  8
1
  6
CONTINUOUS
 62
     7
 10
-346.6187249251198
 20
256.6654926596609
  0
VERTEX
  8
1
  6
CONTINUOUS
 62
     7
 10
-346.5707587026317
 20
256.6619894234864
  0
VERTEX
  8
1
  6
CONTINUOUS
 62
     7
 10
-346.5229321248697
 20
256.6561851354072
  0
VERTEX
  8
1
  6
CONTINUOUS
 62
     7
 10
-346.475409317501
 20
256.6481079726875
  0
VERTEX
  8
1
  6
CONTINUOUS
 62
     7
 10
-346.4283544061929
 20
256.6377861125912
  0
VERTEX
  8
1
  6
CONTINUOUS
 62
     7
 10
-346.3819315166124
 20
256.6252477323825
  0
VERTEX
  8
1
  6
CONTINUOUS
 62
     7
 10
-346.3363047744271
 20
256.6105210093255
  0
VERTEX
  8
1
  6
CONTINUOUS
 62
     7
 10
-346.2914591238577
 20
256.5935816598509
  0
VERTEX
  8
1
  6
CONTINUOUS
 62
     7
 10
-346.2473629275287
 20
256.5744392222805
  0
VERTEX
  8
1
  6
CONTINUOUS
 62
     7
 10
-346.2041610167022
 20
256.5531745590878
  0
VERTEX
  8
1
  6
CONTINUOUS
 62
     7
 10
-346.1619982226404
 20
256.5298685327456
  0
VERTEX
  8
1
  6
CONTINUOUS
 62
     7
 10
-346.1210193766055
 20
256.5046020057273
  0
VERTEX
  8
1
  6
CONTINUOUS
 62
     7
 10
-346.0813693098596
 20
256.477455840506
  0
VERTEX
  8
1
  6
CONTINUOUS
 62
     7
 10
-346.0431928536647
 20
256.4485108995551
  0
VERTEX
  8
1
  6
CONTINUOUS
 62
     7
 10
-346.0064393260665
 20
256.4177007648504
  0
VERTEX
  8
1
  6
CONTINUOUS
 62
     7
 10
-345.971123373618
 20
256.3850585292766
  0
VERTEX
  8
1
  6
CONTINUOUS
 62
     7
 10
-345.9373546697825
 20
256.3507081420959
  0
VERTEX
  8
1
  6
CONTINUOUS
 62
     7
 10
-345.9052428880235
 20
256.3147735525703
  0
VERTEX
  8
1
  6
CONTINUOUS
 62
     7
 10
-345.8748977018043
 20
256.2773787099618
  0
VERTEX
  8
1
  6
CONTINUOUS
 62
     7
 10
-345.8464287845883
 20
256.2386475635326
  0
VERTEX
  8
1
  6
CONTINUOUS
 62
     7
 10
-345.8199458098389
 20
256.1987040625448
  0
VERTEX
  8
1
  6
CONTINUOUS
 62
     7
 10
-345.7953926406134
 20
256.1574149510242
  0
VERTEX
  8
1
  6
CONTINUOUS
 62
     7
 10
-345.7728076364517
 20
256.1148666634525
  0
VERTEX
  8
1
  6
CONTINUOUS
 62
     7
 10
-345.7522537082418
 20
256.0712126813107
  0
VERTEX
  8
1
  6
CONTINUOUS
 62
     7
 10
-345.7337937668714
 20
256.02660648608
  0
VERTEX
  8
1
  6
CONTINUOUS
 62
     7
 10
-345.7174907232283
 20
255.9812015592412
  0
VERTEX
  8
1
  6
CONTINUOUS
 62
     7
 10
-345.7034074882004
 20
255.9351513822755
  0
VERTEX
  8
1
  6
CONTINUOUS
 62
     7
 10
-345.6916069726756
 20
255.8886094366639
  0
VERTEX
  8
1
  6
CONTINUOUS
 62
     7
 10
-345.6826678677076
 20
255.8447972824474
  0
VERTEX
  8
1
  6
CONTINUOUS
 62
     7
 10
-345.6756895076744
 20
255.8005643044499
  0
VERTEX
  8
1
  6
CONTINUOUS
 62
     7
 10
-345.6706866695245
 20
255.7560431265609
  0
VERTEX
  8
1
  6
CONTINUOUS
 62
     7
 10
-345.6676741302058
 20
255.7113663726699
  0
VERTEX
  8
1
  6
CONTINUOUS
 62
     7
 10
-345.6666666666667
 20
255.6666666666667
  0
SEQEND
  8
1
  6
CONTINUOUS
 62
     7
  0
LINE
  8
1
  6
CONTINUOUS
 62
     7
 10
-347.9166666666667
 20
256.6666666666667
 11
-346.6666666666667
 21
256.6666666666667
  0
ARC
  8
1
  6
CONTINUOUS
 62
     7
 10
-347.9158499202256
 20
251.6658499202256
 40
5.000816813137743
 50
90.00935769614593
 51
179.9906423038541
  0
LINE
  8
1
  6
CONTINUOUS
 62
     7
 10
-352.9166666666667
 20
251.6666666666661
 11
-352.9166666666667
 21
146.6666666666667
  0
ARC
  8
1
  6
CONTINUOUS
 62
     7
 10
-347.915865706875
 20
146.6674676264584
 40
5.000801023935108
 50
180.0091768529885
 51
269.9908231470115
  0
LINE
  8
1
  6
CONTINUOUS
 62
     7
 10
-346.6666666666667
 20
141.6666666666667
 11
-347.9166666666666
 21
141.6666666666667
  0
POLYLINE
  8
1
  6
CONTINUOUS
 62
     7
 66
     1
  0
VERTEX
  8
1
  6
CONTINUOUS
 62
     7
 10
-345.6666666666667
 20
142.6666666666667
  0
VERTEX
  8
1
  6
CONTINUOUS
 62
     7
 10
-345.6678495317897
 20
142.6185392492129
  0
VERTEX
  8
1
  6
CONTINUOUS
 62
     7
 10
-345.671379567481
 20
142.5703872706012
  0
VERTEX
  8
1
  6
CONTINUOUS
 62
     7
 10
-345.6772289342245
 20
142.5223753379185
  0
VERTEX
  8
1
  6
CONTINUOUS
 62
     7
 10
-345.6853697925038
 20
142.4746680582517
  0
VERTEX
  8
1
  6
CONTINUOUS
 62
     7
 10
-345.6957743028023
 20
142.4274300386879
  0
VERTEX
  8
1
  6
CONTINUOUS
 62
     7
 10
-345.708414625604
 20
142.380825886314
  0
VERTEX
  8
1
  6
CONTINUOUS
 62
     7
 10
-345.7232629213923
 20
142.3350202082169
  0
VERTEX
  8
1
  6
CONTINUOUS
 62
     7
 10
-345.7403463333557
 20
142.2899940569544
  0
VERTEX
  8
1
  6
CONTINUOUS
 62
     7
 10
-345.7596555146976
 20
142.2457200328399
  0
VERTEX
  8
1
  6
CONTINUOUS
 62
     7
 10
-345.7811096970731
 20
142.2023449268122
  0
VERTEX
  8
1
  6
CONTINUOUS
 62
     7
 10
-345.8046281121372
 20
142.1600155298102
  0
VERTEX
  8
1
  6
CONTINUOUS
 62
     7
 10
-345.8301299915447
 20
142.1188786327727
  0
VERTEX
  8
1
  6
CONTINUOUS
 62
     7
 10
-345.8575345669507
 20
142.0790810266386
  0
VERTEX
  8
1
  6
CONTINUOUS
 62
     7
 10
-345.8867610700102
 20
142.0407695023467
  0
VERTEX
  8
1
  6
CONTINUOUS
 62
     7
 10
-345.9178049689597
 20
142.0039770645245
  0
VERTEX
  8
1
  6
CONTINUOUS
 62
     7
 10
-345.9506992808126
 20
141.9686299417709
  0
VERTEX
  8
1
  6
CONTINUOUS
 62
     7
 10
-345.9853189060096
 20
141.934840182405
  0
VERTEX
  8
1
  6
CONTINUOUS
 62
     7
 10
-346.021538744992
 20
141.9027198347463
  0
VERTEX
  8
1
  6
CONTINUOUS
 62
     7
 10
-346.0592336982006
 20
141.8723809471138
  0
VERTEX
  8
1
  6
CONTINUOUS
 62
     7
 10
-346.0982786660766
 20
141.8439355678269
  0
VERTEX
  8
1
  6
CONTINUOUS
 62
     7
 10
-346.1385485490608
 20
141.8174957452048
  0
VERTEX
  8
1
  6
CONTINUOUS
 62
     7
 10
-346.1799723876973
 20
141.7931221307468
  0
VERTEX
  8
1
  6
CONTINUOUS
 62
     7
 10
-346.2226579950091
 20
141.7707197173274
  0
VERTEX
  8
1
  6
CONTINUOUS
 62
     7
 10
-346.2664504112444
 20
141.7503524098605
  0
VERTEX
  8
1
  6
CONTINUOUS
 62
     7
 10
-346.3111946766508
 20
141.73208411326
  0
VERTEX
  8
1
  6
CONTINUOUS
 62
     7
 10
-346.3567358314762
 20
141.7159787324399
  0
VERTEX
  8
1
  6
CONTINUOUS
 62
     7
 10
-346.4029189159687
 20
141.7021001723138
  0
VERTEX
  8
1
  6
CONTINUOUS
 62
     7
 10
-346.4495889703759
 20
141.690512337796
  0
VERTEX
  8
1
  6
CONTINUOUS
 62
     7
 10
-346.4924605766925
 20
141.6819649548638
  0
VERTEX
  8
1
  6
CONTINUOUS
 62
     7
 10
-346.5357293690714
 20
141.6752927992819
  0
VERTEX
  8
1
  6
CONTINUOUS
 62
     7
 10
-346.579270127921
 20
141.6705097680532
  0
VERTEX
  8
1
  6
CONTINUOUS
 62
     7
 10
-346.6229576336499
 20
141.6676297581805
  0
VERTEX
  8
1
  6
CONTINUOUS
 62
     7
 10
-346.6666666666667
 20
141.6666666666667
  0
SEQEND
  8
1
  6
CONTINUOUS
 62
     7
  0
LINE
  8
1
  6
CONTINUOUS
 62
     7
 10
-345.6666666666667
 20
142.6666666666667
 11
-345.6666666666667
 21
143.1666666666667
  0
LINE
  8
1
  6
CONTINUOUS
 62
     7
 10
-345.6666666666667
 20
143.1666666666667
 11
-333.6666666666667
 21
143.1666666666667
  0
LINE
  8
1
  6
CONTINUOUS
 62
     7
 10
-333.6666666666667
 20
145.1666666666667
 11
-333.6666666666667
 21
143.1666666666667
  0
LINE
  8
1
  6
CONTINUOUS
 62
     7
 10
-331.6666666666667
 20
145.1666666666667
 11
-333.6666666666667
 21
145.1666666666667
  0
LINE
  8
1
  6
CONTINUOUS
 62
     7
 10
-331.6666666666667
 20
145.1666666666667
 11
-331.6666666666667
 21
142.6666666666667
  0
POLYLINE
  8
1
  6
CONTINUOUS
 62
     7
 66
     1
  0
VERTEX
  8
1
  6
CONTINUOUS
 62
     7
 10
-330.6666666666667
 20
141.6666666666667
  0
VERTEX
  8
1
  6
CONTINUOUS
 62
     7
 10
-330.7146084082136
 20
141.6678406736724
  0
VERTEX
  8
1
  6
CONTINUOUS
 62
     7
 10
-330.7625746307017
 20
141.6713439098469
  0
VERTEX
  8
1
  6
CONTINUOUS
 62
     7
 10
-330.8104012084636
 20
141.6771481979261
  0
VERTEX
  8
1
  6
CONTINUOUS
 62
     7
 10
-330.8579240158323
 20
141.6852253606459
  0
VERTEX
  8
1
  6
CONTINUOUS
 62
     7
 10
-330.9049789271405
 20
141.6955472207422
  0
VERTEX
  8
1
  6
CONTINUOUS
 62
     7
 10
-330.9514018167209
 20
141.7080856009509
  0
VERTEX
  8
1
  6
CONTINUOUS
 62
     7
 10
-330.9970285589063
 20
141.7228123240079
  0
VERTEX
  8
1
  6
CONTINUOUS
 62
     7
 10
-331.0418742094757
 20
141.7397516734825
  0
VERTEX
  8
1
  6
CONTINUOUS
 62
     7
 10
-331.0859704058047
 20
141.7588941110528
  0
VERTEX
  8
1
  6
CONTINUOUS
 62
     7
 10
-331.1291723166311
 20
141.7801587742456
  0
VERTEX
  8
1
  6
CONTINUOUS
 62
     7
 10
-331.171335110693
 20
141.8034648005878
  0
VERTEX
  8
1
  6
CONTINUOUS
 62
     7
 10
-331.2123139567279
 20
141.8287313276061
  0
VERTEX
  8
1
  6
CONTINUOUS
 62
     7
 10
-331.2519640234739
 20
141.8558774928273
  0
VERTEX
  8
1
  6
CONTINUOUS
 62
     7
 10
-331.2901404796687
 20
141.8848224337783
  0
VERTEX
  8
1
  6
CONTINUOUS
 62
     7
 10
-331.3268940072669
 20
141.915632568483
  0
VERTEX
  8
1
  6
CONTINUOUS
 62
     7
 10
-331.3622099597154
 20
141.9482748040567
  0
VERTEX
  8
1
  6
CONTINUOUS
 62
     7
 10
-331.3959786635509
 20
141.9826251912375
  0
VERTEX
  8
1
  6
CONTINUOUS
 62
     7
 10
-331.42809044531
 20
142.0185597807631
  0
VERTEX
  8
1
  6
CONTINUOUS
 62
     7
 10
-331.4584356315291
 20
142.0559546233716
  0
VERTEX
  8
1
  6
CONTINUOUS
 62
     7
 10
-331.4869045487451
 20
142.0946857698008
  0
VERTEX
  8
1
  6
CONTINUOUS
 62
     7
 10
-331.5133875234945
 20
142.1346292707886
  0
VERTEX
  8
1
  6
CONTINUOUS
 62
     7
 10
-331.5379406927201
 20
142.1759183823092
  0
VERTEX
  8
1
  6
CONTINUOUS
 62
     7
 10
-331.5605256968817
 20
142.2184666698809
  0
VERTEX
  8
1
  6
CONTINUOUS
 62
     7
 10
-331.5810796250917
 20
142.2621206520226
  0
VERTEX
  8
1
  6
CONTINUOUS
 62
     7
 10
-331.5995395664621
 20
142.3067268472534
  0
VERTEX
  8
1
  6
CONTINUOUS
 62
     7
 10
-331.6158426101051
 20
142.3521317740921
  0
VERTEX
  8
1
  6
CONTINUOUS
 62
     7
 10
-331.629925845133
 20
142.3981819510579
  0
VERTEX
  8
1
  6
CONTINUOUS
 62
     7
 10
-331.6417263606578
 20
142.4447238966694
  0
VERTEX
  8
1
  6
CONTINUOUS
 62
     7
 10
-331.6506654656259
 20
142.488536050886
  0
VERTEX
  8
1
  6
CONTINUOUS
 62
     7
 10
-331.657643825659
 20
142.5327690288835
  0
VERTEX
  8
1
  6
CONTINUOUS
 62
     7
 10
-331.662646663809
 20
142.5772902067725
  0
VERTEX
  8
1
  6
CONTINUOUS
 62
     7
 10
-331.6656592031276
 20
142.6219669606634
  0
VERTEX
  8
1
  6
CONTINUOUS
 62
     7
 10
-331.6666666666667
 20
142.6666666666667
  0
SEQEND
  8
1
  6
CONTINUOUS
 62
     7
  0
LINE
  8
1
  6
CONTINUOUS
 62
     7
 10
-321.6666666666667
 20
141.6666666666667
 11
-330.6666666666667
 21
141.6666666666667
  0
POLYLINE
  8
1
  6
CONTINUOUS
 62
     7
 66
     1
  0
VERTEX
  8
1
  6
CONTINUOUS
 62
     7
 10
-320.6666666666667
 20
142.6666666666667
  0
VERTEX
  8
1
  6
CONTINUOUS
 62
     7
 10
-320.6678495317897
 20
142.6185392492129
  0
VERTEX
  8
1
  6
CONTINUOUS
 62
     7
 10
-320.6713795674811
 20
142.5703872706012
  0
VERTEX
  8
1
  6
CONTINUOUS
 62
     7
 10
-320.6772289342245
 20
142.5223753379185
  0
VERTEX
  8
1
  6
CONTINUOUS
 62
     7
 10
-320.6853697925037
 20
142.4746680582517
  0
VERTEX
  8
1
  6
CONTINUOUS
 62
     7
 10
-320.6957743028023
 20
142.4274300386879
  0
VERTEX
  8
1
  6
CONTINUOUS
 62
     7
 10
-320.708414625604
 20
142.380825886314
  0
VERTEX
  8
1
  6
CONTINUOUS
 62
     7
 10
-320.7232629213923
 20
142.3350202082169
  0
VERTEX
  8
1
  6
CONTINUOUS
 62
     7
 10
-320.7403463333557
 20
142.2899940569544
  0
VERTEX
  8
1
  6
CONTINUOUS
 62
     7
 10
-320.7596555146977
 20
142.2457200328399
  0
VERTEX
  8
1
  6
CONTINUOUS
 62
     7
 10
-320.7811096970731
 20
142.2023449268122
  0
VERTEX
  8
1
  6
CONTINUOUS
 62
     7
 10
-320.8046281121372
 20
142.1600155298102
  0
VERTEX
  8
1
  6
CONTINUOUS
 62
     7
 10
-320.8301299915447
 20
142.1188786327727
  0
VERTEX
  8
1
  6
CONTINUOUS
 62
     7
 10
-320.8575345669507
 20
142.0790810266386
  0
VERTEX
  8
1
  6
CONTINUOUS
 62
     7
 10
-320.8867610700102
 20
142.0407695023467
  0
VERTEX
  8
1
  6
CONTINUOUS
 62
     7
 10
-320.9178049689598
 20
142.0039770645245
  0
VERTEX
  8
1
  6
CONTINUOUS
 62
     7
 10
-320.9506992808126
 20
141.9686299417709
  0
VERTEX
  8
1
  6
CONTINUOUS
 62
     7
 10
-320.9853189060096
 20
141.934840182405
  0
VERTEX
  8
1
  6
CONTINUOUS
 62
     7
 10
-321.021538744992
 20
141.9027198347463
  0
VERTEX
  8
1
  6
CONTINUOUS
 62
     7
 10
-321.0592336982007
 20
141.8723809471138
  0
VERTEX
  8
1
  6
CONTINUOUS
 62
     7
 10
-321.0982786660765
 20
141.8439355678269
  0
VERTEX
  8
1
  6
CONTINUOUS
 62
     7
 10
-321.1385485490608
 20
141.8174957452048
  0
VERTEX
  8
1
  6
CONTINUOUS
 62
     7
 10
-321.1799723876973
 20
141.7931221307468
  0
VERTEX
  8
1
  6
CONTINUOUS
 62
     7
 10
-321.2226579950092
 20
141.7707197173274
  0
VERTEX
  8
1
  6
CONTINUOUS
 62
     7
 10
-321.2664504112444
 20
141.7503524098605
  0
VERTEX
  8
1
  6
CONTINUOUS
 62
     7
 10
-321.3111946766508
 20
141.73208411326
  0
VERTEX
  8
1
  6
CONTINUOUS
 62
     7
 10
-321.3567358314762
 20
141.7159787324399
  0
VERTEX
  8
1
  6
CONTINUOUS
 62
     7
 10
-321.4029189159686
 20
141.7021001723138
  0
VERTEX
  8
1
  6
CONTINUOUS
 62
     7
 10
-321.4495889703758
 20
141.690512337796
  0
VERTEX
  8
1
  6
CONTINUOUS
 62
     7
 10
-321.4924605766925
 20
141.6819649548638
  0
VERTEX
  8
1
  6
CONTINUOUS
 62
     7
 10
-321.5357293690714
 20
141.6752927992819
  0
VERTEX
  8
1
  6
CONTINUOUS
 62
     7
 10
-321.5792701279209
 20
141.6705097680532
  0
VERTEX
  8
1
  6
CONTINUOUS
 62
     7
 10
-321.6229576336499
 20
141.6676297581805
  0
VERTEX
  8
1
  6
CONTINUOUS
 62
     7
 10
-321.6666666666667
 20
141.6666666666667
  0
SEQEND
  8
1
  6
CONTINUOUS
 62
     7
  0
LINE
  8
1
  6
CONTINUOUS
 62
     7
 10
-320.6666666666667
 20
142.6666666666668
 11
-320.6666666666667
 21
147.4166666666667
  0
ARC
  8
1
  6
CONTINUOUS
 62
     7
 10
-320.6667503521808
 20
148.6666666666667
 40
1.250000002801307
 50
270.0038358614083
 51
89.99616413859167
  0
LINE
  8
1
  6
CONTINUOUS
 62
     7
 10
-182.6666666666667
 20
147.4166666666667
 11
-182.6666666666667
 21
142.6666666666667
  0
POLYLINE
  8
1
  6
CONTINUOUS
 62
     7
 66
     1
  0
VERTEX
  8
1
  6
CONTINUOUS
 62
     7
 10
-181.6666666666667
 20
141.6666666666667
  0
VERTEX
  8
1
  6
CONTINUOUS
 62
     7
 10
-181.7146084082136
 20
141.6678406736724
  0
VERTEX
  8
1
  6
CONTINUOUS
 62
     7
 10
-181.7625746307017
 20
141.6713439098469
  0
VERTEX
  8
1
  6
CONTINUOUS
 62
     7
 10
-181.8104012084636
 20
141.6771481979261
  0
VERTEX
  8
1
  6
CONTINUOUS
 62
     7
 10
-181.8579240158323
 20
141.6852253606459
  0
VERTEX
  8
1
  6
CONTINUOUS
 62
     7
 10
-181.9049789271405
 20
141.6955472207422
  0
VERTEX
  8
1
  6
CONTINUOUS
 62
     7
 10
-181.9514018167209
 20
141.7080856009509
  0
VERTEX
  8
1
  6
CONTINUOUS
 62
     7
 10
-181.9970285589063
 20
141.7228123240079
  0
VERTEX
  8
1
  6
CONTINUOUS
 62
     7
 10
-182.0418742094757
 20
141.7397516734825
  0
VERTEX
  8
1
  6
CONTINUOUS
 62
     7
 10
-182.0859704058047
 20
141.7588941110528
  0
VERTEX
  8
1
  6
CONTINUOUS
 62
     7
 10
-182.1291723166312
 20
141.7801587742456
  0
VERTEX
  8
1
  6
CONTINUOUS
 62
     7
 10
-182.171335110693
 20
141.8034648005878
  0
VERTEX
  8
1
  6
CONTINUOUS
 62
     7
 10
-182.2123139567279
 20
141.8287313276061
  0
VERTEX
  8
1
  6
CONTINUOUS
 62
     7
 10
-182.2519640234739
 20
141.8558774928273
  0
VERTEX
  8
1
  6
CONTINUOUS
 62
     7
 10
-182.2901404796687
 20
141.8848224337783
  0
VERTEX
  8
1
  6
CONTINUOUS
 62
     7
 10
-182.3268940072669
 20
141.915632568483
  0
VERTEX
  8
1
  6
CONTINUOUS
 62
     7
 10
-182.3622099597154
 20
141.9482748040567
  0
VERTEX
  8
1
  6
CONTINUOUS
 62
     7
 10
-182.3959786635509
 20
141.9826251912375
  0
VERTEX
  8
1
  6
CONTINUOUS
 62
     7
 10
-182.4280904453099
 20
142.0185597807631
  0
VERTEX
  8
1
  6
CONTINUOUS
 62
     7
 10
-182.4584356315291
 20
142.0559546233716
  0
VERTEX
  8
1
  6
CONTINUOUS
 62
     7
 10
-182.4869045487451
 20
142.0946857698008
  0
VERTEX
  8
1
  6
CONTINUOUS
 62
     7
 10
-182.5133875234945
 20
142.1346292707886
  0
VERTEX
  8
1
  6
CONTINUOUS
 62
     7
 10
-182.53794069272
 20
142.1759183823092
  0
VERTEX
  8
1
  6
CONTINUOUS
 62
     7
 10
-182.5605256968817
 20
142.2184666698809
  0
VERTEX
  8
1
  6
CONTINUOUS
 62
     7
 10
-182.5810796250917
 20
142.2621206520226
  0
VERTEX
  8
1
  6
CONTINUOUS
 62
     7
 10
-182.5995395664621
 20
142.3067268472534
  0
VERTEX
  8
1
  6
CONTINUOUS
 62
     7
 10
-182.6158426101051
 20
142.3521317740921
  0
VERTEX
  8
1
  6
CONTINUOUS
 62
     7
 10
-182.629925845133
 20
142.3981819510579
  0
VERTEX
  8
1
  6
CONTINUOUS
 62
     7
 10
-182.6417263606578
 20
142.4447238966694
  0
VERTEX
  8
1
  6
CONTINUOUS
 62
     7
 10
-182.6506654656258
 20
142.488536050886
  0
VERTEX
  8
1
  6
CONTINUOUS
 62
     7
 10
-182.657643825659
 20
142.5327690288835
  0
VERTEX
  8
1
  6
CONTINUOUS
 62
     7
 10
-182.6626466638089
 20
142.5772902067725
  0
VERTEX
  8
1
  6
CONTINUOUS
 62
     7
 10
-182.6656592031275
 20
142.6219669606634
  0
VERTEX
  8
1
  6
CONTINUOUS
 62
     7
 10
-182.6666666666667
 20
142.6666666666667
  0
SEQEND
  8
1
  6
CONTINUOUS
 62
     7
  0
LINE
  8
1
  6
CONTINUOUS
 62
     7
 10
-172.6666666666667
 20
141.6666666666667
 11
-181.6666666666667
 21
141.6666666666667
  0
POLYLINE
  8
1
  6
CONTINUOUS
 62
     7
 66
     1
  0
VERTEX
  8
1
  6
CONTINUOUS
 62
     7
 10
-171.6666666666667
 20
142.6666666666667
  0
VERTEX
  8
1
  6
CONTINUOUS
 62
     7
 10
-171.6678495317896
 20
142.6185392492129
  0
VERTEX
  8
1
  6
CONTINUOUS
 62
     7
 10
-171.6713795674811
 20
142.5703872706012
  0
VERTEX
  8
1
  6
CONTINUOUS
 62
     7
 10
-171.6772289342245
 20
142.5223753379185
  0
VERTEX
  8
1
  6
CONTINUOUS
 62
     7
 10
-171.6853697925037
 20
142.4746680582517
  0
VERTEX
  8
1
  6
CONTINUOUS
 62
     7
 10
-171.6957743028023
 20
142.4274300386879
  0
VERTEX
  8
1
  6
CONTINUOUS
 62
     7
 10
-171.7084146256039
 20
142.380825886314
  0
VERTEX
  8
1
  6
CONTINUOUS
 62
     7
 10
-171.7232629213923
 20
142.3350202082169
  0
VERTEX
  8
1
  6
CONTINUOUS
 62
     7
 10
-171.7403463333557
 20
142.2899940569544
  0
VERTEX
  8
1
  6
CONTINUOUS
 62
     7
 10
-171.7596555146976
 20
142.2457200328399
  0
VERTEX
  8
1
  6
CONTINUOUS
 62
     7
 10
-171.7811096970731
 20
142.2023449268122
  0
VERTEX
  8
1
  6
CONTINUOUS
 62
     7
 10
-171.8046281121372
 20
142.1600155298102
  0
VERTEX
  8
1
  6
CONTINUOUS
 62
     7
 10
-171.8301299915447
 20
142.1188786327727
  0
VERTEX
  8
1
  6
CONTINUOUS
 62
     7
 10
-171.8575345669507
 20
142.0790810266386
  0
VERTEX
  8
1
  6
CONTINUOUS
 62
     7
 10
-171.8867610700102
 20
142.0407695023467
  0
VERTEX
  8
1
  6
CONTINUOUS
 62
     7
 10
-171.9178049689597
 20
142.0039770645245
  0
VERTEX
  8
1
  6
CONTINUOUS
 62
     7
 10
-171.9506992808125
 20
141.9686299417709
  0
VERTEX
  8
1
  6
CONTINUOUS
 62
     7
 10
-171.9853189060096
 20
141.934840182405
  0
VERTEX
  8
1
  6
CONTINUOUS
 62
     7
 10
-172.021538744992
 20
141.9027198347463
  0
VERTEX
  8
1
  6
CONTINUOUS
 62
     7
 10
-172.0592336982006
 20
141.8723809471138
  0
VERTEX
  8
1
  6
CONTINUOUS
 62
     7
 10
-172.0982786660766
 20
141.8439355678269
  0
VERTEX
  8
1
  6
CONTINUOUS
 62
     7
 10
-172.1385485490608
 20
141.8174957452048
  0
VERTEX
  8
1
  6
CONTINUOUS
 62
     7
 10
-172.1799723876972
 20
141.7931221307468
  0
VERTEX
  8
1
  6
CONTINUOUS
 62
     7
 10
-172.2226579950091
 20
141.7707197173274
  0
VERTEX
  8
1
  6
CONTINUOUS
 62
     7
 10
-172.2664504112444
 20
141.7503524098605
  0
VERTEX
  8
1
  6
CONTINUOUS
 62
     7
 10
-172.3111946766507
 20
141.73208411326
  0
VERTEX
  8
1
  6
CONTINUOUS
 62
     7
 10
-172.3567358314762
 20
141.7159787324399
  0
VERTEX
  8
1
  6
CONTINUOUS
 62
     7
 10
-172.4029189159687
 20
141.7021001723138
  0
VERTEX
  8
1
  6
CONTINUOUS
 62
     7
 10
-172.4495889703759
 20
141.690512337796
  0
VERTEX
  8
1
  6
CONTINUOUS
 62
     7
 10
-172.4924605766925
 20
141.6819649548638
  0
VERTEX
  8
1
  6
CONTINUOUS
 62
     7
 10
-172.5357293690714
 20
141.6752927992819
  0
VERTEX
  8
1
  6
CONTINUOUS
 62
     7
 10
-172.5792701279209
 20
141.6705097680532
  0
VERTEX
  8
1
  6
CONTINUOUS
 62
     7
 10
-172.6229576336499
 20
141.6676297581805
  0
VERTEX
  8
1
  6
CONTINUOUS
 62
     7
 10
-172.6666666666667
 20
141.6666666666667
  0
SEQEND
  8
1
  6
CONTINUOUS
 62
     7
  0
LINE
  8
1
  6
CONTINUOUS
 62
     7
 10
-171.6666666666667
 20
142.6666666666667
 11
-171.6666666666667
 21
145.1666666666667
  0
LINE
  8
1
  6
CONTINUOUS
 62
     7
 10
-169.6666666666667
 20
145.1666666666667
 11
-171.6666666666667
 21
145.1666666666667
  0
LINE
  8
1
  6
CONTINUOUS
 62
     7
 10
-169.6666666666667
 20
143.1666666666667
 11
-169.6666666666667
 21
145.1666666666667
  0
LINE
  8
1
  6
CONTINUOUS
 62
     7
 10
-169.6666666666667
 20
143.1666666666667
 11
-157.6666666666667
 21
143.1666666666667
  0
LINE
  8
1
  6
CONTINUOUS
 62
     7
 10
-157.6666666666667
 20
143.1666666666667
 11
-157.6666666666667
 21
142.6666666666667
  0
POLYLINE
  8
1
  6
CONTINUOUS
 62
     7
 66
     1
  0
VERTEX
  8
1
  6
CONTINUOUS
 62
     7
 10
-156.6666666666667
 20
141.6666666666667
  0
VERTEX
  8
1
  6
CONTINUOUS
 62
     7
 10
-156.7146084082136
 20
141.6678406736724
  0
VERTEX
  8
1
  6
CONTINUOUS
 62
     7
 10
-156.7625746307016
 20
141.6713439098469
  0
VERTEX
  8
1
  6
CONTINUOUS
 62
     7
 10
-156.8104012084637
 20
141.6771481979261
  0
VERTEX
  8
1
  6
CONTINUOUS
 62
     7
 10
-156.8579240158324
 20
141.6852253606459
  0
VERTEX
  8
1
  6
CONTINUOUS
 62
     7
 10
-156.9049789271405
 20
141.6955472207422
  0
VERTEX
  8
1
  6
CONTINUOUS
 62
     7
 10
-156.9514018167209
 20
141.7080856009509
  0
VERTEX
  8
1
  6
CONTINUOUS
 62
     7
 10
-156.9970285589063
 20
141.7228123240079
  0
VERTEX
  8
1
  6
CONTINUOUS
 62
     7
 10
-157.0418742094757
 20
141.7397516734825
  0
VERTEX
  8
1
  6
CONTINUOUS
 62
     7
 10
-157.0859704058047
 20
141.7588941110528
  0
VERTEX
  8
1
  6
CONTINUOUS
 62
     7
 10
-157.1291723166312
 20
141.7801587742456
  0
VERTEX
  8
1
  6
CONTINUOUS
 62
     7
 10
-157.171335110693
 20
141.8034648005878
  0
VERTEX
  8
1
  6
CONTINUOUS
 62
     7
 10
-157.2123139567279
 20
141.8287313276061
  0
VERTEX
  8
1
  6
CONTINUOUS
 62
     7
 10
-157.2519640234738
 20
141.8558774928273
  0
VERTEX
  8
1
  6
CONTINUOUS
 62
     7
 10
-157.2901404796687
 20
141.8848224337783
  0
VERTEX
  8
1
  6
CONTINUOUS
 62
     7
 10
-157.3268940072669
 20
141.915632568483
  0
VERTEX
  8
1
  6
CONTINUOUS
 62
     7
 10
-157.3622099597154
 20
141.9482748040567
  0
VERTEX
  8
1
  6
CONTINUOUS
 62
     7
 10
-157.3959786635509
 20
141.9826251912375
  0
VERTEX
  8
1
  6
CONTINUOUS
 62
     7
 10
-157.4280904453099
 20
142.0185597807631
  0
VERTEX
  8
1
  6
CONTINUOUS
 62
     7
 10
-157.4584356315291
 20
142.0559546233716
  0
VERTEX
  8
1
  6
CONTINUOUS
 62
     7
 10
-157.4869045487451
 20
142.0946857698008
  0
VERTEX
  8
1
  6
CONTINUOUS
 62
     7
 10
-157.5133875234945
 20
142.1346292707886
  0
VERTEX
  8
1
  6
CONTINUOUS
 62
     7
 10
-157.53794069272
 20
142.1759183823092
  0
VERTEX
  8
1
  6
CONTINUOUS
 62
     7
 10
-157.5605256968817
 20
142.2184666698809
  0
VERTEX
  8
1
  6
CONTINUOUS
 62
     7
 10
-157.5810796250917
 20
142.2621206520226
  0
VERTEX
  8
1
  6
CONTINUOUS
 62
     7
 10
-157.5995395664621
 20
142.3067268472534
  0
VERTEX
  8
1
  6
CONTINUOUS
 62
     7
 10
-157.6158426101051
 20
142.3521317740921
  0
VERTEX
  8
1
  6
CONTINUOUS
 62
     7
 10
-157.629925845133
 20
142.3981819510579
  0
VERTEX
  8
1
  6
CONTINUOUS
 62
     7
 10
-157.6417263606578
 20
142.4447238966694
  0
VERTEX
  8
1
  6
CONTINUOUS
 62
     7
 10
-157.6506654656258
 20
142.488536050886
  0
VERTEX
  8
1
  6
CONTINUOUS
 62
     7
 10
-157.657643825659
 20
142.5327690288835
  0
VERTEX
  8
1
  6
CONTINUOUS
 62
     7
 10
-157.6626466638089
 20
142.5772902067725
  0
VERTEX
  8
1
  6
CONTINUOUS
 62
     7
 10
-157.6656592031276
 20
142.6219669606634
  0
VERTEX
  8
1
  6
CONTINUOUS
 62
     7
 10
-157.6666666666667
 20
142.6666666666667
  0
SEQEND
  8
1
  6
CONTINUOUS
 62
     7
  0
LINE
  8
1
  6
CONTINUOUS
 62
     7
 10
-155.4166666666667
 20
141.6666666666667
 11
-156.6666666666667
 21
141.6666666666667
  0
ARC
  8
1
  6
CONTINUOUS
 62
     7
 10
-155.4174834131078
 20
146.6674834131078
 40
5.000816813137743
 50
270.009357696146
 51
359.990642303854
  0
LINE
  8
1
  6
CONTINUOUS
 62
     7
 10
-150.4166666666667
 20
146.6666666666672
 11
-150.4166666666667
 21
251.6666666666667
  0
ARC
  8
1
  6
CONTINUOUS
 62
     7
 10
-155.4166666666667
 20
251.6666666666667
 40
5.000000000000032
 50
14.96647508028047
 51
89.99999999999982
  0
LINE
  8
1
  6
CONTINUOUS
 62
     7
 10
-150.5862811607174
 20
252.9579357571027
 11
-150.4166666666667
 21
251.6666666666667
  0
LINE
  8
1
  6
CONTINUOUS
 62
     7
 10
-156.6666666666667
 20
256.6666666666667
 11
-155.4166666666667
 21
256.6666666666667
  0
POLYLINE
  8
1
  6
CONTINUOUS
 62
     7
 66
     1
  0
VERTEX
  8
1
  6
CONTINUOUS
 62
     7
 10
-157.6666666666667
 20
255.6666666666667
  0
VERTEX
  8
1
  6
CONTINUOUS
 62
     7
 10
-157.6654838015437
 20
255.7147940841205
  0
VERTEX
  8
1
  6
CONTINUOUS
 62
     7
 10
-157.6619537658523
 20
255.7629460627322
  0
VERTEX
  8
1
  6
CONTINUOUS
 62
     7
 10
-157.6561043991089
 20
255.8109579954149
  0
VERTEX
  8
1
  6
CONTINUOUS
 62
     7
 10
-157.6479635408297
 20
255.8586652750816
  0
VERTEX
  8
1
  6
CONTINUOUS
 62
     7
 10
-157.6375590305311
 20
255.9059032946455
  0
VERTEX
  8
1
  6
CONTINUOUS
 62
     7
 10
-157.6249187077294
 20
255.9525074470193
  0
VERTEX
  8
1
  6
CONTINUOUS
 62
     7
 10
-157.6100704119411
 20
255.9983131251164
  0
VERTEX
  8
1
  6
CONTINUOUS
 62
     7
 10
-157.5929869999777
 20
256.043339276379
  0
VERTEX
  8
1
  6
CONTINUOUS
 62
     7
 10
-157.5736778186358
 20
256.0876133004934
  0
VERTEX
  8
1
  6
CONTINUOUS
 62
     7
 10
-157.5522236362603
 20
256.1309884065212
  0
VERTEX
  8
1
  6
CONTINUOUS
 62
     7
 10
-157.5287052211963
 20
256.1733178035232
  0
VERTEX
  8
1
  6
CONTINUOUS
 62
     7
 10
-157.5032033417887
 20
256.2144547005606
  0
VERTEX
  8
1
  6
CONTINUOUS
 62
     7
 10
-157.4757987663827
 20
256.2542523066948
  0
VERTEX
  8
1
  6
CONTINUOUS
 62
     7
 10
-157.4465722633232
 20
256.2925638309867
  0
VERTEX
  8
1
  6
CONTINUOUS
 62
     7
 10
-157.4155283643737
 20
256.3293562688089
  0
VERTEX
  8
1
  6
CONTINUOUS
 62
     7
 10
-157.3826340525209
 20
256.3647033915624
  0
VERTEX
  8
1
  6
CONTINUOUS
 62
     7
 10
-157.3480144273238
 20
256.3984931509283
  0
VERTEX
  8
1
  6
CONTINUOUS
 62
     7
 10
-157.3117945883414
 20
256.4306134985871
  0
VERTEX
  8
1
  6
CONTINUOUS
 62
     7
 10
-157.2740996351328
 20
256.4609523862196
  0
VERTEX
  8
1
  6
CONTINUOUS
 62
     7
 10
-157.2350546672568
 20
256.4893977655065
  0
VERTEX
  8
1
  6
CONTINUOUS
 62
     7
 10
-157.1947847842726
 20
256.5158375881286
  0
VERTEX
  8
1
  6
CONTINUOUS
 62
     7
 10
-157.1533609456361
 20
256.5402112025866
  0
VERTEX
  8
1
  6
CONTINUOUS
 62
     7
 10
-157.1106753383243
 20
256.5626136160059
  0
VERTEX
  8
1
  6
CONTINUOUS
 62
     7
 10
-157.0668829220891
 20
256.5829809234729
  0
VERTEX
  8
1
  6
CONTINUOUS
 62
     7
 10
-157.0221386566826
 20
256.6012492200733
  0
VERTEX
  8
1
  6
CONTINUOUS
 62
     7
 10
-156.9765975018572
 20
256.6173546008935
  0
VERTEX
  8
1
  6
CONTINUOUS
 62
     7
 10
-156.9304144173648
 20
256.6312331610196
  0
VERTEX
  8
1
  6
CONTINUOUS
 62
     7
 10
-156.8837443629576
 20
256.6428209955374
  0
VERTEX
  8
1
  6
CONTINUOUS
 62
     7
 10
-156.8408727566409
 20
256.6513683784696
  0
VERTEX
  8
1
  6
CONTINUOUS
 62
     7
 10
-156.7976039642621
 20
256.6580405340515
  0
VERTEX
  8
1
  6
CONTINUOUS
 62
     7
 10
-156.7540632054124
 20
256.6628235652802
  0
VERTEX
  8
1
  6
CONTINUOUS
 62
     7
 10
-156.7103756996835
 20
256.6657035751529
  0
VERTEX
  8
1
  6
CONTINUOUS
 62
     7
 10
-156.6666666666667
 20
256.6666666666667
  0
SEQEND
  8
1
  6
CONTINUOUS
 62
     7
  0
LINE
  8
1
  6
CONTINUOUS
 62
     7
 10
-157.6666666666667
 20
255.6666666666667
 11
-157.6666666666667
 21
255.1666666666667
  0
LINE
  8
1
  6
CONTINUOUS
 62
     7
 10
-157.6666666666667
 20
255.1666666666667
 11
-169.6666666666667
 21
255.1666666666667
  0
LINE
  8
1
  6
CONTINUOUS
 62
     7
 10
-169.6666666666667
 20
253.1666666666667
 11
-169.6666666666667
 21
255.1666666666667
  0
LINE
  8
1
  6
CONTINUOUS
 62
     7
 10
-171.6666666666667
 20
253.1666666666667
 11
-169.6666666666667
 21
253.1666666666667
  0
LINE
  8
1
  6
CONTINUOUS
 62
     7
 10
-171.6666666666667
 20
253.1666666666667
 11
-171.6666666666667
 21
255.6666666666667
  0
POLYLINE
  8
1
  6
CONTINUOUS
 62
     7
 66
     1
  0
VERTEX
  8
1
  6
CONTINUOUS
 62
     7
 10
-172.6666666666667
 20
256.6666666666667
  0
VERTEX
  8
1
  6
CONTINUOUS
 62
     7
 10
-172.6187249251198
 20
256.6654926596609
  0
VERTEX
  8
1
  6
CONTINUOUS
 62
     7
 10
-172.5707587026318
 20
256.6619894234864
  0
VERTEX
  8
1
  6
CONTINUOUS
 62
     7
 10
-172.5229321248698
 20
256.6561851354072
  0
VERTEX
  8
1
  6
CONTINUOUS
 62
     7
 10
-172.475409317501
 20
256.6481079726875
  0
VERTEX
  8
1
  6
CONTINUOUS
 62
     7
 10
-172.4283544061929
 20
256.6377861125912
  0
VERTEX
  8
1
  6
CONTINUOUS
 62
     7
 10
-172.3819315166125
 20
256.6252477323825
  0
VERTEX
  8
1
  6
CONTINUOUS
 62
     7
 10
-172.3363047744271
 20
256.6105210093255
  0
VERTEX
  8
1
  6
CONTINUOUS
 62
     7
 10
-172.2914591238577
 20
256.5935816598509
  0
VERTEX
  8
1
  6
CONTINUOUS
 62
     7
 10
-172.2473629275287
 20
256.5744392222805
  0
VERTEX
  8
1
  6
CONTINUOUS
 62
     7
 10
-172.2041610167023
 20
256.5531745590878
  0
VERTEX
  8
1
  6
CONTINUOUS
 62
     7
 10
-172.1619982226405
 20
256.5298685327456
  0
VERTEX
  8
1
  6
CONTINUOUS
 62
     7
 10
-172.1210193766055
 20
256.5046020057273
  0
VERTEX
  8
1
  6
CONTINUOUS
 62
     7
 10
-172.0813693098596
 20
256.477455840506
  0
VERTEX
  8
1
  6
CONTINUOUS
 62
     7
 10
-172.0431928536647
 20
256.4485108995551
  0
VERTEX
  8
1
  6
CONTINUOUS
 62
     7
 10
-172.0064393260665
 20
256.4177007648504
  0
VERTEX
  8
1
  6
CONTINUOUS
 62
     7
 10
-171.971123373618
 20
256.3850585292766
  0
VERTEX
  8
1
  6
CONTINUOUS
 62
     7
 10
-171.9373546697825
 20
256.3507081420959
  0
VERTEX
  8
1
  6
CONTINUOUS
 62
     7
 10
-171.9052428880235
 20
256.3147735525703
  0
VERTEX
  8
1
  6
CONTINUOUS
 62
     7
 10
-171.8748977018043
 20
256.2773787099618
  0
VERTEX
  8
1
  6
CONTINUOUS
 62
     7
 10
-171.8464287845883
 20
256.2386475635326
  0
VERTEX
  8
1
  6
CONTINUOUS
 62
     7
 10
-171.8199458098389
 20
256.1987040625448
  0
VERTEX
  8
1
  6
CONTINUOUS
 62
     7
 10
-171.7953926406134
 20
256.1574149510242
  0
VERTEX
  8
1
  6
CONTINUOUS
 62
     7
 10
-171.7728076364517
 20
256.1148666634525
  0
VERTEX
  8
1
  6
CONTINUOUS
 62
     7
 10
-171.7522537082418
 20
256.0712126813107
  0
VERTEX
  8
1
  6
CONTINUOUS
 62
     7
 10
-171.7337937668714
 20
256.02660648608
  0
VERTEX
  8
1
  6
CONTINUOUS
 62
     7
 10
-171.7174907232283
 20
255.9812015592412
  0
VERTEX
  8
1
  6
CONTINUOUS
 62
     7
 10
-171.7034074882004
 20
255.9351513822755
  0
VERTEX
  8
1
  6
CONTINUOUS
 62
     7
 10
-171.6916069726757
 20
255.8886094366639
  0
VERTEX
  8
1
  6
CONTINUOUS
 62
     7
 10
-171.6826678677075
 20
255.8447972824474
  0
VERTEX
  8
1
  6
CONTINUOUS
 62
     7
 10
-171.6756895076744
 20
255.8005643044499
  0
VERTEX
  8
1
  6
CONTINUOUS
 62
     7
 10
-171.6706866695245
 20
255.7560431265609
  0
VERTEX
  8
1
  6
CONTINUOUS
 62
     7
 10
-171.6676741302058
 20
255.7113663726699
  0
VERTEX
  8
1
  6
CONTINUOUS
 62
     7
 10
-171.6666666666667
 20
255.6666666666667
  0
SEQEND
  8
1
  6
CONTINUOUS
 62
     7
  0
LINE
  8
1
  6
CONTINUOUS
 62
     7
 10
-181.6666666666667
 20
256.6666666666667
 11
-172.6666666666667
 21
256.6666666666667
  0
POLYLINE
  8
1
  6
CONTINUOUS
 62
     7
 66
     1
  0
VERTEX
  8
1
  6
CONTINUOUS
 62
     7
 10
-182.6666666666667
 20
255.6666666666667
  0
VERTEX
  8
1
  6
CONTINUOUS
 62
     7
 10
-182.6654838015437
 20
255.7147940841205
  0
VERTEX
  8
1
  6
CONTINUOUS
 62
     7
 10
-182.6619537658523
 20
255.7629460627322
  0
VERTEX
  8
1
  6
CONTINUOUS
 62
     7
 10
-182.6561043991089
 20
255.8109579954149
  0
VERTEX
  8
1
  6
CONTINUOUS
 62
     7
 10
-182.6479635408297
 20
255.8586652750816
  0
VERTEX
  8
1
  6
CONTINUOUS
 62
     7
 10
-182.6375590305311
 20
255.9059032946455
  0
VERTEX
  8
1
  6
CONTINUOUS
 62
     7
 10
-182.6249187077294
 20
255.9525074470193
  0
VERTEX
  8
1
  6
CONTINUOUS
 62
     7
 10
-182.6100704119411
 20
255.9983131251164
  0
VERTEX
  8
1
  6
CONTINUOUS
 62
     7
 10
-182.5929869999777
 20
256.043339276379
  0
VERTEX
  8
1
  6
CONTINUOUS
 62
     7
 10
-182.5736778186358
 20
256.0876133004934
  0
VERTEX
  8
1
  6
CONTINUOUS
 62
     7
 10
-182.5522236362603
 20
256.1309884065212
  0
VERTEX
  8
1
  6
CONTINUOUS
 62
     7
 10
-182.5287052211963
 20
256.1733178035232
  0
VERTEX
  8
1
  6
CONTINUOUS
 62
     7
 10
-182.5032033417887
 20
256.2144547005606
  0
VERTEX
  8
1
  6
CONTINUOUS
 62
     7
 10
-182.4757987663827
 20
256.2542523066948
  0
VERTEX
  8
1
  6
CONTINUOUS
 62
     7
 10
-182.4465722633232
 20
256.2925638309867
  0
VERTEX
  8
1
  6
CONTINUOUS
 62
     7
 10
-182.4155283643737
 20
256.3293562688089
  0
VERTEX
  8
1
  6
CONTINUOUS
 62
     7
 10
-182.3826340525209
 20
256.3647033915624
  0
VERTEX
  8
1
  6
CONTINUOUS
 62
     7
 10
-182.3480144273238
 20
256.3984931509283
  0
VERTEX
  8
1
  6
CONTINUOUS
 62
     7
 10
-182.3117945883415
 20
256.4306134985871
  0
VERTEX
  8
1
  6
CONTINUOUS
 62
     7
 10
-182.2740996351328
 20
256.4609523862196
  0
VERTEX
  8
1
  6
CONTINUOUS
 62
     7
 10
-182.2350546672569
 20
256.4893977655065
  0
VERTEX
  8
1
  6
CONTINUOUS
 62
     7
 10
-182.1947847842726
 20
256.5158375881286
  0
VERTEX
  8
1
  6
CONTINUOUS
 62
     7
 10
-182.1533609456362
 20
256.5402112025866
  0
VERTEX
  8
1
  6
CONTINUOUS
 62
     7
 10
-182.1106753383243
 20
256.5626136160059
  0
VERTEX
  8
1
  6
CONTINUOUS
 62
     7
 10
-182.0668829220891
 20
256.5829809234729
  0
VERTEX
  8
1
  6
CONTINUOUS
 62
     7
 10
-182.0221386566826
 20
256.6012492200733
  0
VERTEX
  8
1
  6
CONTINUOUS
 62
     7
 10
-181.9765975018572
 20
256.6173546008935
  0
VERTEX
  8
1
  6
CONTINUOUS
 62
     7
 10
-181.9304144173648
 20
256.6312331610196
  0
VERTEX
  8
1
  6
CONTINUOUS
 62
     7
 10
-181.8837443629576
 20
256.6428209955374
  0
VERTEX
  8
1
  6
CONTINUOUS
 62
     7
 10
-181.8408727566409
 20
256.6513683784696
  0
VERTEX
  8
1
  6
CONTINUOUS
 62
     7
 10
-181.7976039642621
 20
256.6580405340515
  0
VERTEX
  8
1
  6
CONTINUOUS
 62
     7
 10
-181.7540632054124
 20
256.6628235652802
  0
VERTEX
  8
1
  6
CONTINUOUS
 62
     7
 10
-181.7103756996835
 20
256.6657035751529
  0
VERTEX
  8
1
  6
CONTINUOUS
 62
     7
 10
-181.6666666666667
 20
256.6666666666667
  0
SEQEND
  8
1
  6
CONTINUOUS
 62
     7
  0
LINE
  8
1
  6
CONTINUOUS
 62
     7
 10
-182.6666666666667
 20
255.6666666666666
 11
-182.6666666666667
 21
250.9166666666666
  0
ARC
  8
1
  6
CONTINUOUS
 62
     7
 10
-182.6665829811525
 20
249.6666666666667
 40
1.250000002801307
 50
90.00383586140833
 51
269.9961641385917
  0
LINE
  8
1
  6
CONTINUOUS
 62
     7
 10
-182.6666666666667
 20
248.4166666666666
 11
-182.6666666666667
 21
245.1666666666667
  0
POLYLINE
  8
1
  6
CONTINUOUS
 62
     7
 66
     1
  0
VERTEX
  8
1
  6
CONTINUOUS
 62
     7
 10
-181.6666666666667
 20
244.1666666666667
  0
VERTEX
  8
1
  6
CONTINUOUS
 62
     7
 10
-181.7146437303705
 20
244.1678423555125
  0
VERTEX
  8
1
  6
CONTINUOUS
 62
     7
 10
-181.7626453360776
 20
244.1713506850381
  0
VERTEX
  8
1
  6
CONTINUOUS
 62
     7
 10
-181.8105072682007
 20
244.1771635497256
  0
VERTEX
  8
1
  6
CONTINUOUS
 62
     7
 10
-181.8580653111526
 20
244.1852528440569
  0
VERTEX
  8
1
  6
CONTINUOUS
 62
     7
 10
-181.9051552493457
 20
244.1955904625143
  0
VERTEX
  8
1
  6
CONTINUOUS
 62
     7
 10
-181.9516128671931
 20
244.2081482995797
  0
VERTEX
  8
1
  6
CONTINUOUS
 62
     7
 10
-181.9972739491072
 20
244.2228982497352
  0
VERTEX
  8
1
  6
CONTINUOUS
 62
     7
 10
-182.0421543585422
 20
244.2398651831193
  0
VERTEX
  8
1
  6
CONTINUOUS
 62
     7
 10
-182.086284836344
 20
244.2590395772124
  0
VERTEX
  8
1
  6
CONTINUOUS
 62
     7
 10
-182.1295201569338
 20
244.2803405723659
  0
VERTEX
  8
1
  6
CONTINUOUS
 62
     7
 10
-182.1717150947331
 20
244.303687308931
  0
VERTEX
  8
1
  6
CONTINUOUS
 62
     7
 10
-182.2127244241633
 20
244.3289989272592
  0
VERTEX
  8
1
  6
CONTINUOUS
 62
     7
 10
-182.2524029196457
 20
244.3561945677016
  0
VERTEX
  8
1
  6
CONTINUOUS
 62
     7
 10
-182.2906053556017
 20
244.3851933706098
  0
VERTEX
  8
1
  6
CONTINUOUS
 62
     7
 10
-182.327365120055
 20
244.4160471171747
  0
VERTEX
  8
1
  6
CONTINUOUS
 62
     7
 10
-182.3626858455526
 20
244.4487362509786
  0
VERTEX
  8
1
  6
CONTINUOUS
 62
     7
 10
-182.3964574182696
 20
244.4831365754053
  0
VERTEX
  8
1
  6
CONTINUOUS
 62
     7
 10
-182.4285697243813
 20
244.5191238938385
  0
VERTEX
  8
1
  6
CONTINUOUS
 62
     7
 10
-182.4589126500629
 20
244.5565740096618
  0
VERTEX
  8
1
  6
CONTINUOUS
 62
     7
 10
-182.4873760814896
 20
244.5953627262589
  0
VERTEX
  8
1
  6
CONTINUOUS
 62
     7
 10
-182.5138499048364
 20
244.6353658470134
  0
VERTEX
  8
1
  6
CONTINUOUS
 62
     7
 10
-182.5383676877754
 20
244.6766774108652
  0
VERTEX
  8
1
  6
CONTINUOUS
 62
     7
 10
-182.5609168771723
 20
244.7192481770092
  0
VERTEX
  8
1
  6
CONTINUOUS
 62
     7
 10
-182.5814344284622
 20
244.7629243958532
  0
VERTEX
  8
1
  6
CONTINUOUS
 62
     7
 10
-182.5998572970803
 20
244.807552317805
  0
VERTEX
  8
1
  6
CONTINUOUS
 62
     7
 10
-182.6161224384617
 20
244.8529781932725
  0
VERTEX
  8
1
  6
CONTINUOUS
 62
     7
 10
-182.6301668080414
 20
244.8990482726635
  0
VERTEX
  8
1
  6
CONTINUOUS
 62
     7
 10
-182.6419273612546
 20
244.9456088063859
  0
VERTEX
  8
1
  6
CONTINUOUS
 62
     7
 10
-182.6507946479221
 20
244.9892505762182
  0
VERTEX
  8
1
  6
CONTINUOUS
 62
     7
 10
-182.6577167955273
 20
245.0333085024682
  0
VERTEX
  8
1
  6
CONTINUOUS
 62
     7
 10
-182.6626792303401
 20
245.07765132983
  0
VERTEX
  8
1
  6
CONTINUOUS
 62
     7
 10
-182.66566737863
 20
245.1221478029981
  0
VERTEX
  8
1
  6
CONTINUOUS
 62
     7
 10
-182.6666666666667
 20
245.1666666666667
  0
SEQEND
  8
1
  6
CONTINUOUS
 62
     7
  0
LINE
  8
1
  6
CONTINUOUS
 62
     7
 10
-173.0666666666667
 20
244.1666666666667
 11
-181.6666666666667
 21
244.1666666666667
  0
POLYLINE
  8
1
  6
CONTINUOUS
 62
     7
 66
     1
  0
VERTEX
  8
1
  6
CONTINUOUS
 62
     7
 10
-172.0666666666667
 20
243.1666666666667
  0
VERTEX
  8
1
  6
CONTINUOUS
 62
     7
 10
-172.0678477983474
 20
243.2147578069314
  0
VERTEX
  8
1
  6
CONTINUOUS
 62
     7
 10
-172.0713725902908
 20
243.2628734993596
  0
VERTEX
  8
1
  6
CONTINUOUS
 62
     7
 10
-172.0772131378483
 20
243.3108492319237
  0
VERTEX
  8
1
  6
CONTINUOUS
 62
     7
 10
-172.0853415363715
 20
243.3585204925959
  0
VERTEX
  8
1
  6
CONTINUOUS
 62
     7
 10
-172.0957298812121
 20
243.4057227693484
  0
VERTEX
  8
1
  6
CONTINUOUS
 62
     7
 10
-172.1083502677216
 20
243.4522915501534
  0
VERTEX
  8
1
  6
CONTINUOUS
 62
     7
 10
-172.1231747912515
 20
243.4980623229833
  0
VERTEX
  8
1
  6
CONTINUOUS
 62
     7
 10
-172.1402300391331
 20
243.5430532815107
  0
VERTEX
  8
1
  6
CONTINUOUS
 62
     7
 10
-172.1595066241056
 20
243.5872926430628
  0
VERTEX
  8
1
  6
CONTINUOUS
 62
     7
 10
-172.1809237570334
 20
243.630633998482
  0
VERTEX
  8
1
  6
CONTINUOUS
 62
     7
 10
-172.2044006487807
 20
243.6729309386106
  0
VERTEX
  8
1
  6
CONTINUOUS
 62
     7
 10
-172.2298565102123
 20
243.7140370542909
  0
VERTEX
  8
1
  6
CONTINUOUS
 62
     7
 10
-172.2572105521924
 20
243.7538059363654
  0
VERTEX
  8
1
  6
CONTINUOUS
 62
     7
 10
-172.2863819855855
 20
243.7920911756764
  0
VERTEX
  8
1
  6
CONTINUOUS
 62
     7
 10
-172.3173801491599
 20
243.8288760455304
  0
VERTEX
  8
1
  6
CONTINUOUS
 62
     7
 10
-172.3502251280389
 20
243.8642171147543
  0
VERTEX
  8
1
  6
CONTINUOUS
 62
     7
 10
-172.3847920445704
 20
243.8980028014221
  0
VERTEX
  8
1
  6
CONTINUOUS
 62
     7
 10
-172.4209560211022
 20
243.9301215236073
  0
VERTEX
  8
1
  6
CONTINUOUS
 62
     7
 10
-172.4585921799823
 20
243.9604616993837
  0
VERTEX
  8
1
  6
CONTINUOUS
 62
     7
 10
-172.4975756435585
 20
243.988911746825
  0
VERTEX
  8
1
  6
CONTINUOUS
 62
     7
 10
-172.5377815341788
 20
244.0153600840049
  0
VERTEX
  8
1
  6
CONTINUOUS
 62
     7
 10
-172.5791788820398
 20
244.0397687339855
  0
VERTEX
  8
1
  6
CONTINUOUS
 62
     7
 10
-172.6218374516218
 20
244.0622067887809
  0
VERTEX
  8
1
  6
CONTINUOUS
 62
     7
 10
-172.6656025739769
 20
244.0826105419406
  0
VERTEX
  8
1
  6
CONTINUOUS
 62
     7
 10
-172.7103195801573
 20
244.1009162870143
  0
VERTEX
  8
1
  6
CONTINUOUS
 62
     7
 10
-172.7558338012151
 20
244.1170603175518
  0
VERTEX
  8
1
  6
CONTINUOUS
 62
     7
 10
-172.8019905682026
 20
244.1309789271026
  0
VERTEX
  8
1
  6
CONTINUOUS
 62
     7
 10
-172.8486352121719
 20
244.1426084092164
  0
VERTEX
  8
1
  6
CONTINUOUS
 62
     7
 10
-172.8916913590461
 20
244.1512318795228
  0
VERTEX
  8
1
  6
CONTINUOUS
 62
     7
 10
-172.9351492300186
 20
244.1579635038119
  0
VERTEX
  8
1
  6
CONTINUOUS
 62
     7
 10
-172.9788821730035
 20
244.1627892186929
  0
VERTEX
  8
1
  6
CONTINUOUS
 62
     7
 10
-173.0227635359148
 20
244.1656949607747
  0
VERTEX
  8
1
  6
CONTINUOUS
 62
     7
 10
-173.0666666666667
 20
244.1666666666667
  0
SEQEND
  8
1
  6
CONTINUOUS
 62
     7
  0
LINE
  8
1
  6
CONTINUOUS
 62
     7
 10
-172.0666666666667
 20
243.1666666666666
 11
-172.0666666666667
 21
239.1666666666666
  0
POLYLINE
  8
1
  6
CONTINUOUS
 62
     7
 66
     1
  0
VERTEX
  8
1
  6
CONTINUOUS
 62
     7
 10
-171.0666666666667
 20
238.1666666666667
  0
VERTEX
  8
1
  6
CONTINUOUS
 62
     7
 10
-171.1146579775206
 20
238.1678430345253
  0
VERTEX
  8
1
  6
CONTINUOUS
 62
     7
 10
-171.1626738532595
 20
238.171353419884
  0
VERTEX
  8
1
  6
CONTINUOUS
 62
     7
 10
-171.2105500410159
 20
238.1771697454175
  0
VERTEX
  8
1
  6
CONTINUOUS
 62
     7
 10
-171.2581222879224
 20
238.1852639338
  0
VERTEX
  8
1
  6
CONTINUOUS
 62
     7
 10
-171.3052263411114
 20
238.1956079077062
  0
VERTEX
  8
1
  6
CONTINUOUS
 62
     7
 10
-171.3516979477156
 20
238.2081735898105
  0
VERTEX
  8
1
  6
CONTINUOUS
 62
     7
 10
-171.3973728548676
 20
238.2229329027875
  0
VERTEX
  8
1
  6
CONTINUOUS
 62
     7
 10
-171.4422672273533
 20
238.2399109396189
  0
VERTEX
  8
1
  6
CONTINUOUS
 62
     7
 10
-171.4864114754549
 20
238.2590981933183
  0
VERTEX
  8
1
  6
CONTINUOUS
 62
     7
 10
-171.5296602216443
 20
238.2804138130362
  0
VERTEX
  8
1
  6
CONTINUOUS
 62
     7
 10
-171.5718680883935
 20
238.3037769479231
  0
VERTEX
  8
1
  6
CONTINUOUS
 62
     7
 10
-171.6128896981744
 20
238.3291067471294
  0
VERTEX
  8
1
  6
CONTINUOUS
 62
     7
 10
-171.6525796734591
 20
238.3563223598057
  0
VERTEX
  8
1
  6
CONTINUOUS
 62
     7
 10
-171.6907926367194
 20
238.3853429351023
  0
VERTEX
  8
1
  6
CONTINUOUS
 62
     7
 10
-171.7275555200289
 20
238.4162148021094
  0
VERTEX
  8
1
  6
CONTINUOUS
 62
     7
 10
-171.762878774846
 20
238.4489234898609
  0
VERTEX
  8
1
  6
CONTINUOUS
 62
     7
 10
-171.7966521025166
 20
238.4833447158503
  0
VERTEX
  8
1
  6
CONTINUOUS
 62
     7
 10
-171.8287652043871
 20
238.5193541975712
  0
VERTEX
  8
1
  6
CONTINUOUS
 62
     7
 10
-171.8591077818035
 20
238.5568276525169
  0
VERTEX
  8
1
  6
CONTINUOUS
 62
     7
 10
-171.8875695361119
 20
238.5956407981812
  0
VERTEX
  8
1
  6
CONTINUOUS
 62
     7
 10
-171.9140401686585
 20
238.6356693520576
  0
VERTEX
  8
1
  6
CONTINUOUS
 62
     7
 10
-171.9385442109647
 20
238.6769916557577
  0
VERTEX
  8
1
  6
CONTINUOUS
 62
     7
 10
-171.9610794147533
 20
238.7195734101266
  0
VERTEX
  8
1
  6
CONTINUOUS
 62
     7
 10
-171.9815826525564
 20
238.7632607514026
  0
VERTEX
  8
1
  6
CONTINUOUS
 62
     7
 10
-171.9999907969058
 20
238.8078998158242
  0
VERTEX
  8
1
  6
CONTINUOUS
 62
     7
 10
-172.0162407203334
 20
238.8533367396299
  0
VERTEX
  8
1
  6
CONTINUOUS
 62
     7
 10
-172.0302692953712
 20
238.8994176590581
  0
VERTEX
  8
1
  6
CONTINUOUS
 62
     7
 10
-172.042013394551
 20
238.9459887103472
  0
VERTEX
  8
1
  6
CONTINUOUS
 62
     7
 10
-172.0508498808934
 20
238.9895569891945
  0
VERTEX
  8
1
  6
CONTINUOUS
 62
     7
 10
-172.0577479606334
 20
239.0335395959862
  0
VERTEX
  8
1
  6
CONTINUOUS
 62
     7
 10
-172.0626931244138
 20
239.0778058589861
  0
VERTEX
  8
1
  6
CONTINUOUS
 62
     7
 10
-172.0656708628773
 20
239.1222251064582
  0
VERTEX
  8
1
  6
CONTINUOUS
 62
     7
 10
-172.0666666666667
 20
239.1666666666667
  0
SEQEND
  8
1
  6
CONTINUOUS
 62
     7
  0
LINE
  8
1
  6
CONTINUOUS
 62
     7
 10
-158.6666666666667
 20
238.1666666666667
 11
-171.0666666666667
 21
238.1666666666667
  0
POLYLINE
  8
1
  6
CONTINUOUS
 62
     7
 66
     1
  0
VERTEX
  8
1
  6
CONTINUOUS
 62
     7
 10
-157.6666666666667
 20
237.1666666666667
  0
VERTEX
  8
1
  6
CONTINUOUS
 62
     7
 10
-157.6678471195485
 20
237.2147435939086
  0
VERTEX
  8
1
  6
CONTINUOUS
 62
     7
 10
-157.6713698585192
 20
237.2628450740495
  0
VERTEX
  8
1
  6
CONTINUOUS
 62
     7
 10
-157.6772069540667
 20
237.3108066320745
  0
VERTEX
  8
1
  6
CONTINUOUS
 62
     7
 10
-157.6853304766788
 20
237.3584637929688
  0
VERTEX
  8
1
  6
CONTINUOUS
 62
     7
 10
-157.6957124968435
 20
237.4056520817175
  0
VERTEX
  8
1
  6
CONTINUOUS
 62
     7
 10
-157.7083250850487
 20
237.4522070233058
  0
VERTEX
  8
1
  6
CONTINUOUS
 62
     7
 10
-157.7231403117823
 20
237.4979641427188
  0
VERTEX
  8
1
  6
CONTINUOUS
 62
     7
 10
-157.7401845488307
 20
237.5429413407919
  0
VERTEX
  8
1
  6
CONTINUOUS
 62
     7
 10
-157.7594483929046
 20
237.5871671518555
  0
VERTEX
  8
1
  6
CONTINUOUS
 62
     7
 10
-157.780851046832
 20
237.6304953151447
  0
VERTEX
  8
1
  6
CONTINUOUS
 62
     7
 10
-157.8043117134408
 20
237.6727795698945
  0
VERTEX
  8
1
  6
CONTINUOUS
 62
     7
 10
-157.829749595559
 20
237.7138736553402
  0
VERTEX
  8
1
  6
CONTINUOUS
 62
     7
 10
-157.8570838960146
 20
237.7536313107168
  0
VERTEX
  8
1
  6
CONTINUOUS
 62
     7
 10
-157.8862338176356
 20
237.7919062752594
  0
VERTEX
  8
1
  6
CONTINUOUS
 62
     7
 10
-157.9172140701316
 20
237.8286881381426
  0
VERTEX
  8
1
  6
CONTINUOUS
 62
     7
 10
-157.9500397286621
 20
237.8640267945682
  0
VERTEX
  8
1
  6
CONTINUOUS
 62
     7
 10
-157.9845860022054
 20
237.8978108448336
  0
VERTEX
  8
1
  6
CONTINUOUS
 62
     7
 10
-158.02072809974
 20
237.929928889236
  0
VERTEX
  8
1
  6
CONTINUOUS
 62
     7
 10
-158.058341230244
 20
237.9602695280726
  0
VERTEX
  8
1
  6
CONTINUOUS
 62
     7
 10
-158.0973006026961
 20
237.9887213616406
  0
VERTEX
  8
1
  6
CONTINUOUS
 62
     7
 10
-158.1374814260744
 20
238.0151729902372
  0
VERTEX
  8
1
  6
CONTINUOUS
 62
     7
 10
-158.1788683526212
 20
238.0395953215934
  0
VERTEX
  8
1
  6
CONTINUOUS
 62
     7
 10
-158.2215162821228
 20
238.062047297363
  0
VERTEX
  8
1
  6
CONTINUOUS
 62
     7
 10
-158.2652706596245
 20
238.0824652893562
  0
VERTEX
  8
1
  6
CONTINUOUS
 62
     7
 10
-158.3099769301714
 20
238.1007856693837
  0
VERTEX
  8
1
  6
CONTINUOUS
 62
     7
 10
-158.3554805388085
 20
238.1169448092555
  0
VERTEX
  8
1
  6
CONTINUOUS
 62
     7
 10
-158.4016269305812
 20
238.1308790807821
  0
VERTEX
  8
1
  6
CONTINUOUS
 62
     7
 10
-158.4482615505347
 20
238.1425248557738
  0
VERTEX
  8
1
  6
CONTINUOUS
 62
     7
 10
-158.4913899865233
 20
238.1511782312517
  0
VERTEX
  8
1
  6
CONTINUOUS
 62
     7
 10
-158.5349219317487
 20
238.1579332287463
  0
VERTEX
  8
1
  6
CONTINUOUS
 62
     7
 10
-158.578730170593
 20
238.1627757195912
  0
VERTEX
  8
1
  6
CONTINUOUS
 62
     7
 10
-158.6226874874382
 20
238.1656915751201
  0
VERTEX
  8
1
  6
CONTINUOUS
 62
     7
 10
-158.6666666666667
 20
238.1666666666667
  0
SEQEND
  8
1
  6
CONTINUOUS
 62
     7
  0
LINE
  8
1
  6
CONTINUOUS
 62
     7
 10
-157.6666666666667
 20
237.1666666666648
 11
-157.6666666666667
 21
161.1666666666667
  0
POLYLINE
  8
1
  6
CONTINUOUS
 62
     7
 66
     1
  0
VERTEX
  8
1
  6
CONTINUOUS
 62
     7
 10
-158.6666666666667
 20
160.1666666666667
  0
VERTEX
  8
1
  6
CONTINUOUS
 62
     7
 10
-158.6186747503224
 20
160.1678430639102
  0
VERTEX
  8
1
  6
CONTINUOUS
 62
     7
 10
-158.5706582710154
 20
160.171353537323
  0
VERTEX
  8
1
  6
CONTINUOUS
 62
     7
 10
-158.522781484764
 20
160.1771700094287
  0
VERTEX
  8
1
  6
CONTINUOUS
 62
     7
 10
-158.475208647587
 20
160.1852644027506
  0
VERTEX
  8
1
  6
CONTINUOUS
 62
     7
 10
-158.4281040155029
 20
160.1956086398124
  0
VERTEX
  8
1
  6
CONTINUOUS
 62
     7
 10
-158.3816318445302
 20
160.2081746431376
  0
VERTEX
  8
1
  6
CONTINUOUS
 62
     7
 10
-158.3359563906875
 20
160.2229343352497
  0
VERTEX
  8
1
  6
CONTINUOUS
 62
     7
 10
-158.2910615173813
 20
160.2399127950796
  0
VERTEX
  8
1
  6
CONTINUOUS
 62
     7
 10
-158.2469167766419
 20
160.2591005312129
  0
VERTEX
  8
1
  6
CONTINUOUS
 62
     7
 10
-158.2036675403167
 20
160.2804167055365
  0
VERTEX
  8
1
  6
CONTINUOUS
 62
     7
 10
-158.1614591802525
 20
160.3037804799375
  0
VERTEX
  8
1
  6
CONTINUOUS
 62
     7
 10
-158.1204370682968
 20
160.329111016303
  0
VERTEX
  8
1
  6
CONTINUOUS
 62
     7
 10
-158.0807465762964
 20
160.3563274765199
  0
VERTEX
  8
1
  6
CONTINUOUS
 62
     7
 10
-158.0425330760987
 20
160.3853490224753
  0
VERTEX
  8
1
  6
CONTINUOUS
 62
     7
 10
-158.0057690357141
 20
160.4162225285444
  0
VERTEX
  8
1
  6
CONTINUOUS
 62
     7
 10
-157.9704446469695
 20
160.4489330930805
  0
VERTEX
  8
1
  6
CONTINUOUS
 62
     7
 10
-157.9366702278246
 20
160.4833564530049
  0
VERTEX
  8
1
  6
CONTINUOUS
 62
     7
 10
-157.9045560962392
 20
160.5193683452393
  0
VERTEX
  8
1
  6
CONTINUOUS
 62
     7
 10
-157.8742125701732
 20
160.5568445067053
  0
VERTEX
  8
1
  6
CONTINUOUS
 62
     7
 10
-157.8457499675863
 20
160.5956606743244
  0
VERTEX
  8
1
  6
CONTINUOUS
 62
     7
 10
-157.8192786064382
 20
160.6356925850184
  0
VERTEX
  8
1
  6
CONTINUOUS
 62
     7
 10
-157.7947742471751
 20
160.6770181546779
  0
VERTEX
  8
1
  6
CONTINUOUS
 62
     7
 10
-157.7722388567815
 20
160.7196035792839
  0
VERTEX
  8
1
  6
CONTINUOUS
 62
     7
 10
-157.7517356143694
 20
160.7632949803649
  0
VERTEX
  8
1
  6
CONTINUOUS
 62
     7
 10
-157.7333276990509
 20
160.807938479449
  0
VERTEX
  8
1
  6
CONTINUOUS
 62
     7
 10
-157.7170782899383
 20
160.8533801980645
  0
VERTEX
  8
1
  6
CONTINUOUS
 62
     7
 10
-157.7030505661436
 20
160.8994662577396
  0
VERTEX
  8
1
  6
CONTINUOUS
 62
     7
 10
-157.691307706779
 20
160.9460427800027
  0
VERTEX
  8
1
  6
CONTINUOUS
 62
     7
 10
-157.6824756913942
 20
160.9896000927956
  0
VERTEX
  8
1
  6
CONTINUOUS
 62
     7
 10
-157.6755810450447
 20
161.0335717290795
  0
VERTEX
  8
1
  6
CONTINUOUS
 62
     7
 10
-157.6706383023764
 20
161.0778270976333
  0
VERTEX
  8
1
  6
CONTINUOUS
 62
     7
 10
-157.6676619980351
 20
161.122235607236
  0
VERTEX
  8
1
  6
CONTINUOUS
 62
     7
 10
-157.6666666666667
 20
161.1666666666667
  0
SEQEND
  8
1
  6
CONTINUOUS
 62
     7
  0
LINE
  8
1
  6
CONTINUOUS
 62
     7
 10
-171.0666666666667
 20
160.1666666666667
 11
-158.6666666666667
 21
160.1666666666667
  0
POLYLINE
  8
1
  6
CONTINUOUS
 62
     7
 66
     1
  0
VERTEX
  8
1
  6
CONTINUOUS
 62
     7
 10
-172.0666666666667
 20
159.1666666666667
  0
VERTEX
  8
1
  6
CONTINUOUS
 62
     7
 10
-172.0654861758355
 20
159.2147444122695
  0
VERTEX
  8
1
  6
CONTINUOUS
 62
     7
 10
-172.0619632913567
 20
159.2628470190838
  0
VERTEX
  8
1
  6
CONTINUOUS
 62
     7
 10
-172.0561258952524
 20
159.3108100040886
  0
VERTEX
  8
1
  6
CONTINUOUS
 62
     7
 10
-172.0480018695448
 20
159.3584688842632
  0
VERTEX
  8
1
  6
CONTINUOUS
 62
     7
 10
-172.0376190962562
 20
159.4056591765863
  0
VERTEX
  8
1
  6
CONTINUOUS
 62
     7
 10
-172.0250054574085
 20
159.4522163980373
  0
VERTEX
  8
1
  6
CONTINUOUS
 62
     7
 10
-172.010188835024
 20
159.4979760655951
  0
VERTEX
  8
1
  6
CONTINUOUS
 62
     7
 10
-171.9931427100406
 20
159.5429562583945
  0
VERTEX
  8
1
  6
CONTINUOUS
 62
     7
 10
-171.9738765023845
 20
159.5871852603013
  0
VERTEX
  8
1
  6
CONTINUOUS
 62
     7
 10
-171.9524710055916
 20
159.6305167346159
  0
VERTEX
  8
1
  6
CONTINUOUS
 62
     7
 10
-171.9290070131981
 20
159.6728043446393
  0
VERTEX
  8
1
  6
CONTINUOUS
 62
     7
 10
-171.9035653187399
 20
159.7139017536723
  0
VERTEX
  8
1
  6
CONTINUOUS
 62
     7
 10
-171.876226715753
 20
159.7536626250154
  0
VERTEX
  8
1
  6
CONTINUOUS
 62
     7
 10
-171.8470719977735
 20
159.7919406219696
  0
VERTEX
  8
1
  6
CONTINUOUS
 62
     7
 10
-171.8160895851117
 20
159.8287217177558
  0
VERTEX
  8
1
  6
CONTINUOUS
 62
     7
 10
-171.7832615994545
 20
159.8640596393388
  0
VERTEX
  8
1
  6
CONTINUOUS
 62
     7
 10
-171.7487128532233
 20
159.8978429486184
  0
VERTEX
  8
1
  6
CONTINUOUS
 62
     7
 10
-171.7125681588393
 20
159.9299602074946
  0
VERTEX
  8
1
  6
CONTINUOUS
 62
     7
 10
-171.6749523287238
 20
159.9602999778672
  0
VERTEX
  8
1
  6
CONTINUOUS
 62
     7
 10
-171.6359901752982
 20
159.9887508216361
  0
VERTEX
  8
1
  6
CONTINUOUS
 62
     7
 10
-171.5958065109837
 20
160.0152013007013
  0
VERTEX
  8
1
  6
CONTINUOUS
 62
     7
 10
-171.554419606784
 20
160.0396206740849
  0
VERTEX
  8
1
  6
CONTINUOUS
 62
     7
 10
-171.5117718229181
 20
160.062069778557
  0
VERTEX
  8
1
  6
CONTINUOUS
 62
     7
 10
-171.4680177142718
 20
160.0824849893659
  0
VERTEX
  8
1
  6
CONTINUOUS
 62
     7
 10
-171.4233118357309
 20
160.1008026817597
  0
VERTEX
  8
1
  6
CONTINUOUS
 62
     7
 10
-171.3778087421813
 20
160.1169592309867
  0
VERTEX
  8
1
  6
CONTINUOUS
 62
     7
 10
-171.3316629885088
 20
160.1308910122951
  0
VERTEX
  8
1
  6
CONTINUOUS
 62
     7
 10
-171.2850291295993
 20
160.142534400933
  0
VERTEX
  8
1
  6
CONTINUOUS
 62
     7
 10
-171.2419089002632
 20
160.1511843692218
  0
VERTEX
  8
1
  6
CONTINUOUS
 62
     7
 10
-171.1983853978766
 20
160.1579366977054
  0
VERTEX
  8
1
  6
CONTINUOUS
 62
     7
 10
-171.1545857638648
 20
160.1627772686178
  0
VERTEX
  8
1
  6
CONTINUOUS
 62
     7
 10
-171.1106371396531
 20
160.1656919641935
  0
VERTEX
  8
1
  6
CONTINUOUS
 62
     7
 10
-171.0666666666667
 20
160.1666666666667
  0
SEQEND
  8
1
  6
CONTINUOUS
 62
     7
  0
LINE
  8
1
  6
CONTINUOUS
 62
     7
 10
-172.0666666666667
 20
159.1666666666667
 11
-172.0666666666667
 21
155.1666666666667
  0
POLYLINE
  8
1
  6
CONTINUOUS
 62
     7
 66
     1
  0
VERTEX
  8
1
  6
CONTINUOUS
 62
     7
 10
-173.0666666666667
 20
154.1666666666667
  0
VERTEX
  8
1
  6
CONTINUOUS
 62
     7
 10
-173.0186889041061
 20
154.16784238942
  0
VERTEX
  8
1
  6
CONTINUOUS
 62
     7
 10
-172.9706866017608
 20
154.1713508205498
  0
VERTEX
  8
1
  6
CONTINUOUS
 62
     7
 10
-172.9228239788563
 20
154.1771638543609
  0
VERTEX
  8
1
  6
CONTINUOUS
 62
     7
 10
-172.8752652546178
 20
154.1852533851582
  0
VERTEX
  8
1
  6
CONTINUOUS
 62
     7
 10
-172.8281746482707
 20
154.1955913072466
  0
VERTEX
  8
1
  6
CONTINUOUS
 62
     7
 10
-172.7817163790404
 20
154.2081495149308
  0
VERTEX
  8
1
  6
CONTINUOUS
 62
     7
 10
-172.7360546661524
 20
154.2228999025158
  0
VERTEX
  8
1
  6
CONTINUOUS
 62
     7
 10
-172.6911736786882
 20
154.2398673239287
  0
VERTEX
  8
1
  6
CONTINUOUS
 62
     7
 10
-172.6470426323078
 20
154.2590422746073
  0
VERTEX
  8
1
  6
CONTINUOUS
 62
     7
 10
-172.6038067460337
 20
154.2803439095794
  0
VERTEX
  8
1
  6
CONTINUOUS
 62
     7
 10
-172.5616112388884
 20
154.303691383873
  0
VERTEX
  8
1
  6
CONTINUOUS
 62
     7
 10
-172.5206013298943
 20
154.3290038525158
  0
VERTEX
  8
1
  6
CONTINUOUS
 62
     7
 10
-172.480922238074
 20
154.3562004705358
  0
VERTEX
  8
1
  6
CONTINUOUS
 62
     7
 10
-172.44271918245
 20
154.3852003929609
  0
VERTEX
  8
1
  6
CONTINUOUS
 62
     7
 10
-172.4059580824546
 20
154.4160560302472
  0
VERTEX
  8
1
  6
CONTINUOUS
 62
     7
 10
-172.3706360481129
 20
154.4487473288914
  0
VERTEX
  8
1
  6
CONTINUOUS
 62
     7
 10
-172.3368632154798
 20
154.4831501146759
  0
VERTEX
  8
1
  6
CONTINUOUS
 62
     7
 10
-172.3047497206103
 20
154.5191402133831
  0
VERTEX
  8
1
  6
CONTINUOUS
 62
     7
 10
-172.2744056995598
 20
154.5565934507955
  0
VERTEX
  8
1
  6
CONTINUOUS
 62
     7
 10
-172.2459412883831
 20
154.5953856526957
  0
VERTEX
  8
1
  6
CONTINUOUS
 62
     7
 10
-172.2194666231353
 20
154.6353926448659
  0
VERTEX
  8
1
  6
CONTINUOUS
 62
     7
 10
-172.1949484718064
 20
154.6767079787987
  0
VERTEX
  8
1
  6
CONTINUOUS
 62
     7
 10
-172.1723990644118
 20
154.7192829815861
  0
VERTEX
  8
1
  6
CONTINUOUS
 62
     7
 10
-172.1518815050969
 20
154.7629638867234
  0
VERTEX
  8
1
  6
CONTINUOUS
 62
     7
 10
-172.1334588980075
 20
154.8075969277059
  0
VERTEX
  8
1
  6
CONTINUOUS
 62
     7
 10
-172.1171943472895
 20
154.8530283380288
  0
VERTEX
  8
1
  6
CONTINUOUS
 62
     7
 10
-172.1031509570884
 20
154.8991043511873
  0
VERTEX
  8
1
  6
CONTINUOUS
 62
     7
 10
-172.09139183155
 20
154.9456712006767
  0
VERTEX
  8
1
  6
CONTINUOUS
 62
     7
 10
-172.0825297138849
 20
154.9893003147119
  0
VERTEX
  8
1
  6
CONTINUOUS
 62
     7
 10
-172.0756115354291
 20
155.0333455804781
  0
VERTEX
  8
1
  6
CONTINUOUS
 62
     7
 10
-172.0706518993177
 20
155.0776758358257
  0
VERTEX
  8
1
  6
CONTINUOUS
 62
     7
 10
-172.0676654086852
 20
155.1221599186051
  0
VERTEX
  8
1
  6
CONTINUOUS
 62
     7
 10
-172.0666666666667
 20
155.1666666666667
  0
SEQEND
  8
1
  6
CONTINUOUS
 62
     7
  0
LINE
  8
1
  6
CONTINUOUS
 62
     7
 10
-181.6666666666667
 20
154.1666666666667
 11
-173.0666666666667
 21
154.1666666666667
  0
POLYLINE
  8
1
  6
CONTINUOUS
 62
     7
 66
     1
  0
VERTEX
  8
1
  6
CONTINUOUS
 62
     7
 10
-182.6666666666667
 20
153.1666666666667
  0
VERTEX
  8
1
  6
CONTINUOUS
 62
     7
 10
-182.6654854909336
 20
153.2147587563452
  0
VERTEX
  8
1
  6
CONTINUOUS
 62
     7
 10
-182.6619605302454
 20
153.2628757544287
  0
VERTEX
  8
1
  6
CONTINUOUS
 62
     7
 10
-182.6561196343683
 20
153.3108531395885
  0
VERTEX
  8
1
  6
CONTINUOUS
 62
     7
 10
-182.6479906530687
 20
153.3585263904964
  0
VERTEX
  8
1
  6
CONTINUOUS
 62
     7
 10
-182.6376014361129
 20
153.4057309858238
  0
VERTEX
  8
1
  6
CONTINUOUS
 62
     7
 10
-182.6249798332674
 20
153.4523024042424
  0
VERTEX
  8
1
  6
CONTINUOUS
 62
     7
 10
-182.6101536942983
 20
153.4980761244238
  0
VERTEX
  8
1
  6
CONTINUOUS
 62
     7
 10
-182.5930962615915
 20
153.5430705461261
  0
VERTEX
  8
1
  6
CONTINUOUS
 62
     7
 10
-182.5738169416169
 20
153.5873135972512
  0
VERTEX
  8
1
  6
CONTINUOUS
 62
     7
 10
-182.5523965193164
 20
153.6306587808218
  0
VERTEX
  8
1
  6
CONTINUOUS
 62
     7
 10
-182.5289157796316
 20
153.6729595998606
  0
VERTEX
  8
1
  6
CONTINUOUS
 62
     7
 10
-182.5034555075045
 20
153.7140695573902
  0
VERTEX
  8
1
  6
CONTINUOUS
 62
     7
 10
-182.4760964878768
 20
153.7538421564334
  0
VERTEX
  8
1
  6
CONTINUOUS
 62
     7
 10
-182.4469195056904
 20
153.7921309000129
  0
VERTEX
  8
1
  6
CONTINUOUS
 62
     7
 10
-182.4159188446568
 20
153.8289148794769
  0
VERTEX
  8
1
  6
CONTINUOUS
 62
     7
 10
-182.3830711755965
 20
153.8642550953753
  0
VERTEX
  8
1
  6
CONTINUOUS
 62
     7
 10
-182.3485014009167
 20
153.8980399214284
  0
VERTEX
  8
1
  6
CONTINUOUS
 62
     7
 10
-182.3123344230247
 20
153.9301577313567
  0
VERTEX
  8
1
  6
CONTINUOUS
 62
     7
 10
-182.2746951443274
 20
153.9604968988806
  0
VERTEX
  8
1
  6
CONTINUOUS
 62
     7
 10
-182.2357084672321
 20
153.9889457977205
  0
VERTEX
  8
1
  6
CONTINUOUS
 62
     7
 10
-182.1954992941458
 20
154.0153928015969
  0
VERTEX
  8
1
  6
CONTINUOUS
 62
     7
 10
-182.1541019727995
 20
154.0397980313697
  0
VERTEX
  8
1
  6
CONTINUOUS
 62
     7
 10
-182.1114435725216
 20
154.0622327659993
  0
VERTEX
  8
1
  6
CONTINUOUS
 62
     7
 10
-182.0676787621641
 20
154.082633303064
  0
VERTEX
  8
1
  6
CONTINUOUS
 62
     7
 10
-182.0229622105794
 20
154.1009359401417
  0
VERTEX
  8
1
  6
CONTINUOUS
 62
     7
 10
-181.97744858662
 20
154.1170769748107
  0
VERTEX
  8
1
  6
CONTINUOUS
 62
     7
 10
-181.931292559138
 20
154.1309927046492
  0
VERTEX
  8
1
  6
CONTINUOUS
 62
     7
 10
-181.8846487969859
 20
154.1426194272353
  0
VERTEX
  8
1
  6
CONTINUOUS
 62
     7
 10
-181.8416021413132
 20
154.1512389645743
  0
VERTEX
  8
1
  6
CONTINUOUS
 62
     7
 10
-181.7981540339213
 20
154.1579675080081
  0
VERTEX
  8
1
  6
CONTINUOUS
 62
     7
 10
-181.7544310413339
 20
154.1627910067155
  0
VERTEX
  8
1
  6
CONTINUOUS
 62
     7
 10
-181.7105597300745
 20
154.1656954098754
  0
VERTEX
  8
1
  6
CONTINUOUS
 62
     7
 10
-181.6666666666667
 20
154.1666666666667
  0
SEQEND
  8
1
  6
CONTINUOUS
 62
     7
  0
LINE
  8
1
  6
CONTINUOUS
 62
     7
 10
-182.6666666666667
 20
153.1666666666667
 11
-182.6666666666667
 21
149.9166666666667
  0
ARC
  8
1
  6
CONTINUOUS
 62
     7
 10
-182.6665830476484
 20
148.6666666666667
 40
1.250000002796857
 50
90.00383281346437
 51
269.9961671865357
  0
CIRCLE
  8
1
  6
CONTINUOUS
 62
     7
 10
-274.6667093249156
 20
249.6664815416858
 40
1.249957355459991
  0
LINE
  8
1
  6
CONTINUOUS
 62
     7
 10
-295.6666666666667
 20
150.1666666666667
 11
-299.6666666666667
 21
150.1666666666667
  0
LINE
  8
1
  6
CONTINUOUS
 62
     7
 10
-299.6666666666667
 20
145.1666666666667
 11
-299.6666666666667
 21
150.1666666666667
  0
LINE
  8
1
  6
CONTINUOUS
 62
     7
 10
-299.6666666666667
 20
145.1666666666667
 11
-307.6666666666667
 21
145.1666666666667
  0
LINE
  8
1
  6
CONTINUOUS
 62
     7
 10
-307.6666666666667
 20
143.1666666666667
 11
-307.6666666666667
 21
145.1666666666667
  0
LINE
  8
1
  6
CONTINUOUS
 62
     7
 10
-307.6666666666667
 20
143.1666666666667
 11
-287.6666666666667
 21
143.1666666666667
  0
LINE
  8
1
  6
CONTINUOUS
 62
     7
 10
-287.6666666666667
 20
145.1666666666667
 11
-287.6666666666667
 21
143.1666666666667
  0
LINE
  8
1
  6
CONTINUOUS
 62
     7
 10
-287.6666666666667
 20
145.1666666666667
 11
-295.6666666666667
 21
145.1666666666667
  0
LINE
  8
1
  6
CONTINUOUS
 62
     7
 10
-295.6666666666667
 20
150.1666666666667
 11
-295.6666666666667
 21
145.1666666666667
  0
LINE
  8
1
  6
CONTINUOUS
 62
     7
 10
-253.6666666666667
 20
248.1666666666667
 11
-249.6666666666667
 21
248.1666666666667
  0
LINE
  8
1
  6
CONTINUOUS
 62
     7
 10
-249.6666666666667
 20
253.1666666666667
 11
-249.6666666666667
 21
248.1666666666667
  0
LINE
  8
1
  6
CONTINUOUS
 62
     7
 10
-249.6666666666667
 20
253.1666666666667
 11
-241.6666666666667
 21
253.1666666666667
  0
LINE
  8
1
  6
CONTINUOUS
 62
     7
 10
-241.6666666666667
 20
255.1666666666667
 11
-241.6666666666667
 21
253.1666666666667
  0
LINE
  8
1
  6
CONTINUOUS
 62
     7
 10
-241.6666666666667
 20
255.1666666666667
 11
-261.6666666666667
 21
255.1666666666667
  0
LINE
  8
1
  6
CONTINUOUS
 62
     7
 10
-261.6666666666667
 20
253.1666666666667
 11
-261.6666666666667
 21
255.1666666666667
  0
LINE
  8
1
  6
CONTINUOUS
 62
     7
 10
-261.6666666666667
 20
253.1666666666667
 11
-253.6666666666667
 21
253.1666666666667
  0
LINE
  8
1
  6
CONTINUOUS
 62
     7
 10
-253.6666666666667
 20
248.1666666666666
 11
-253.6666666666667
 21
253.1666666666667
  0
LINE
  8
1
  6
CONTINUOUS
 62
     7
 10
-180.1666666666667
 20
159.9166666666667
 11
-185.1666666666667
 21
159.9166666666667
  0
ARC
  8
1
  6
CONTINUOUS
 62
     7
 10
-185.1662637310326
 20
157.4162637310326
 40
2.50040296810024
 50
90.0092331162781
 51
179.9907668837221
  0
ARC
  8
1
  6
CONTINUOUS
 62
     7
 10
-185.1662596084331
 20
157.4170737249002
 40
2.500407091367453
 50
180.0093275686917
 51
269.9906724313082
  0
LINE
  8
1
  6
CONTINUOUS
 62
     7
 10
-185.1666666666667
 20
154.9166666666667
 11
-180.1666666666667
 21
154.9166666666667
  0
ARC
  8
1
  6
CONTINUOUS
 62
     7
 10
-180.1670689446568
 20
157.4170689446567
 40
2.500402310350369
 50
270.0092180490417
 51
359.9907819509583
  0
ARC
  8
1
  6
CONTINUOUS
 62
     7
 10
-180.1670736760382
 20
157.4162596572952
 40
2.500407042497419
 50
0.0093264492201928
 51
89.99067355078029
  0
ARC
  8
1
  6
CONTINUOUS
 62
     7
 10
-180.1670737249003
 20
240.9162596084331
 40
2.500407091367467
 50
0.009327568692012
 51
89.99067243130814
  0
LINE
  8
1
  6
CONTINUOUS
 62
     7
 10
-180.1666666666667
 20
243.4166666666667
 11
-185.1666666666667
 21
243.4166666666667
  0
ARC
  8
1
  6
CONTINUOUS
 62
     7
 10
-185.1662643886766
 20
240.9162643886766
 40
2.500402310350369
 50
90.0092180490417
 51
179.9907819509583
  0
ARC
  8
1
  6
CONTINUOUS
 62
     7
 10
-185.1662596572952
 20
240.9170736760382
 40
2.500407042497432
 50
180.0093264492205
 51
269.9906735507797
  0
LINE
  8
1
  6
CONTINUOUS
 62
     7
 10
-185.1666666666667
 20
238.4166666666667
 11
-180.1666666666667
 21
238.4166666666667
  0
ARC
  8
1
  6
CONTINUOUS
 62
     7
 10
-180.1670696023008
 20
240.9170696023008
 40
2.500402968100282
 50
270.0092331162784
 51
359.9907668837211
  0
ARC
  8
1
  6
CONTINUOUS
 62
     7
 10
-323.1662596084332
 20
157.4170737249002
 40
2.500407091367467
 50
180.009327568692
 51
269.9906724313082
  0
LINE
  8
1
  6
CONTINUOUS
 62
     7
 10
-323.1666666666667
 20
154.9166666666667
 11
-318.1666666666667
 21
154.9166666666667
  0
ARC
  8
1
  6
CONTINUOUS
 62
     7
 10
-318.1670689446567
 20
157.4170689446567
 40
2.500402310350369
 50
270.0092180490417
 51
359.9907819509583
  0
ARC
  8
1
  6
CONTINUOUS
 62
     7
 10
-318.1670736760382
 20
157.4162596572952
 40
2.500407042497432
 50
0.0093264492205107
 51
89.99067355077965
  0
LINE
  8
1
  6
CONTINUOUS
 62
     7
 10
-318.1666666666667
 20
159.9166666666667
 11
-323.1666666666667
 21
159.9166666666667
  0
ARC
  8
1
  6
CONTINUOUS
 62
     7
 10
-323.1662637310326
 20
157.4162637310326
 40
2.500402968100275
 50
90.00923311627874
 51
179.9907668837212
  0
LINE
  8
1
  6
CONTINUOUS
 62
     7
 10
-323.1666666666667
 20
238.4166666666667
 11
-318.1666666666667
 21
238.4166666666667
  0
ARC
  8
1
  6
CONTINUOUS
 62
     7
 10
-318.1670696023008
 20
240.9170696023008
 40
2.50040296810024
 50
270.0092331162782
 51
359.9907668837221
  0
ARC
  8
1
  6
CONTINUOUS
 62
     7
 10
-318.1670737249003
 20
240.9162596084331
 40
2.500407091367453
 50
0.009327568691694
 51
89.99067243130814
  0
LINE
  8
1
  6
CONTINUOUS
 62
     7
 10
-318.1666666666667
 20
243.4166666666667
 11
-323.1666666666667
 21
243.4166666666667
  0
ARC
  8
1
  6
CONTINUOUS
 62
     7
 10
-323.1662643886767
 20
240.9162643886766
 40
2.500402310350369
 50
90.0092180490417
 51
179.9907819509583
  0
ARC
  8
1
  6
CONTINUOUS
 62
     7
 10
-323.1662596572952
 20
240.9170736760382
 40
2.500407042497419
 50
180.0093264492202
 51
269.99067355078
  0
LINE
  8
1
  6
CONTINUOUS
 62
     7
 10
-355.6666666666667
 20
147.0725718355992
 11
-355.6666666666667
 21
251.2607614977344
  0
LINE
  8
1
  6
CONTINUOUS
 62
     7
 10
-147.6666666666667
 20
147.0725718355992
 11
-147.6666666666667
 21
251.2607614977344
  0
LINE
  8
1
  6
CONTINUOUS
 62
     7
 10
-277.1666666666667
 20
238.4166666666667
 11
-272.1666666666667
 21
238.4166666666667
  0
ARC
  8
1
  6
CONTINUOUS
 62
     7
 10
-272.1670696023007
 20
240.9170696023008
 40
2.500402968100247
 50
270.0092331162782
 51
359.990766883722
  0
ARC
  8
1
  6
CONTINUOUS
 62
     7
 10
-272.1670737249003
 20
240.9162596084331
 40
2.500407091367449
 50
0.0093275686916941
 51
89.99067243130798
  0
LINE
  8
1
  6
CONTINUOUS
 62
     7
 10
-272.1666666666667
 20
243.4166666666667
 11
-277.1666666666667
 21
243.4166666666667
  0
ARC
  8
1
  6
CONTINUOUS
 62
     7
 10
-277.1662643886766
 20
240.9162643886766
 40
2.500402310350369
 50
90.0092180490417
 51
179.9907819509583
  0
ARC
  8
1
  6
CONTINUOUS
 62
     7
 10
-277.1662596572952
 20
240.9170736760382
 40
2.500407042497436
 50
180.0093264492205
 51
269.9906735507797
  0
ARC
  8
1
  6
CONTINUOUS
 62
     7
 10
-277.1662596084332
 20
157.4170737249002
 40
2.500407091367449
 50
180.0093275686917
 51
269.9906724313084
  0
LINE
  8
1
  6
CONTINUOUS
 62
     7
 10
-277.1666666666667
 20
154.9166666666667
 11
-272.1666666666667
 21
154.9166666666667
  0
ARC
  8
1
  6
CONTINUOUS
 62
     7
 10
-272.1670689446568
 20
157.4170689446567
 40
2.500402310350376
 50
270.0092180490421
 51
359.9907819509581
  0
ARC
  8
1
  6
CONTINUOUS
 62
     7
 10
-272.1670736760382
 20
157.4162596572952
 40
2.500407042497418
 50
0.0093264492200338
 51
89.99067355077989
  0
LINE
  8
1
  6
CONTINUOUS
 62
     7
 10
-272.1666666666667
 20
159.9166666666667
 11
-277.1666666666667
 21
159.9166666666667
  0
ARC
  8
1
  6
CONTINUOUS
 62
     7
 10
-277.1662637310326
 20
157.4162637310326
 40
2.500402968100275
 50
90.00923311627852
 51
179.9907668837212
  0
ARC
  8
1
  6
CONTINUOUS
 62
     7
 10
-226.1670737249003
 20
240.9162596084331
 40
2.500407091367449
 50
0.0093275686916941
 51
89.99067243130838
  0
LINE
  8
1
  6
CONTINUOUS
 62
     7
 10
-226.1666666666667
 20
243.4166666666667
 11
-231.1666666666667
 21
243.4166666666667
  0
ARC
  8
1
  6
CONTINUOUS
 62
     7
 10
-231.1662643886766
 20
240.9162643886766
 40
2.500402310350376
 50
90.00921804904216
 51
179.9907819509581
  0
ARC
  8
1
  6
CONTINUOUS
 62
     7
 10
-231.1662596572952
 20
240.9170736760382
 40
2.500407042497418
 50
180.00932644922
 51
269.9906735507799
  0
LINE
  8
1
  6
CONTINUOUS
 62
     7
 10
-231.1666666666667
 20
238.4166666666667
 11
-226.1666666666667
 21
238.4166666666667
  0
ARC
  8
1
  6
CONTINUOUS
 62
     7
 10
-226.1670696023008
 20
240.9170696023008
 40
2.500402968100275
 50
270.0092331162784
 51
359.9907668837213
  0
LINE
  8
1
  6
CONTINUOUS
 62
     7
 10
-226.1666666666667
 20
159.9166666666667
 11
-231.1666666666667
 21
159.9166666666667
  0
ARC
  8
1
  6
CONTINUOUS
 62
     7
 10
-231.1662637310326
 20
157.4162637310326
 40
2.500402968100247
 50
90.00923311627818
 51
179.9907668837219
  0
ARC
  8
1
  6
CONTINUOUS
 62
     7
 10
-231.1662596084331
 20
157.4170737249002
 40
2.500407091367449
 50
180.0093275686917
 51
269.990672431308
  0
LINE
  8
1
  6
CONTINUOUS
 62
     7
 10
-231.1666666666667
 20
154.9166666666667
 11
-226.1666666666667
 21
154.9166666666667
  0
ARC
  8
1
  6
CONTINUOUS
 62
     7
 10
-226.1670689446568
 20
157.4170689446567
 40
2.500402310350369
 50
270.0092180490417
 51
359.9907819509583
  0
ARC
  8
1
  6
CONTINUOUS
 62
     7
 10
-226.1670736760382
 20
157.4162596572952
 40
2.500407042497436
 50
0.0093264492205107
 51
89.99067355077972
  0
LINE
  8
1
  6
CONTINUOUS
 62
     7
 10
-295.6666666666667
 20
253.1666666666667
 11
-287.6666666666667
 21
253.1666666666667
  0
LINE
  8
1
  6
CONTINUOUS
 62
     7
 10
-287.6666666666667
 20
255.1666666666667
 11
-287.6666666666667
 21
253.1666666666667
  0
LINE
  8
1
  6
CONTINUOUS
 62
     7
 10
-287.6666666666667
 20
255.1666666666667
 11
-307.6666666666667
 21
255.1666666666667
  0
LINE
  8
1
  6
CONTINUOUS
 62
     7
 10
-307.6666666666667
 20
253.1666666666667
 11
-307.6666666666667
 21
255.1666666666667
  0
LINE
  8
1
  6
CONTINUOUS
 62
     7
 10
-307.6666666666667
 20
253.1666666666667
 11
-299.6666666666667
 21
253.1666666666667
  0
LINE
  8
1
  6
CONTINUOUS
 62
     7
 10
-299.6666666666667
 20
248.1666666666666
 11
-299.6666666666667
 21
253.1666666666667
  0
LINE
  8
1
  6
CONTINUOUS
 62
     7
 10
-299.6666666666667
 20
248.1666666666667
 11
-295.6666666666667
 21
248.1666666666667
  0
LINE
  8
1
  6
CONTINUOUS
 62
     7
 10
-295.6666666666667
 20
253.1666666666667
 11
-295.6666666666667
 21
248.1666666666667
  0
LINE
  8
1
  6
CONTINUOUS
 62
     7
 10
-253.6666666666667
 20
145.1666666666667
 11
-261.6666666666667
 21
145.1666666666667
  0
LINE
  8
1
  6
CONTINUOUS
 62
     7
 10
-261.6666666666667
 20
143.1666666666667
 11
-261.6666666666667
 21
145.1666666666667
  0
LINE
  8
1
  6
CONTINUOUS
 62
     7
 10
-261.6666666666667
 20
143.1666666666667
 11
-241.6666666666667
 21
143.1666666666667
  0
LINE
  8
1
  6
CONTINUOUS
 62
     7
 10
-241.6666666666667
 20
145.1666666666667
 11
-241.6666666666667
 21
143.1666666666667
  0
LINE
  8
1
  6
CONTINUOUS
 62
     7
 10
-241.6666666666667
 20
145.1666666666667
 11
-249.6666666666667
 21
145.1666666666667
  0
LINE
  8
1
  6
CONTINUOUS
 62
     7
 10
-249.6666666666667
 20
150.1666666666667
 11
-249.6666666666667
 21
145.1666666666667
  0
LINE
  8
1
  6
CONTINUOUS
 62
     7
 10
-249.6666666666667
 20
150.1666666666667
 11
-253.6666666666667
 21
150.1666666666667
  0
LINE
  8
1
  6
CONTINUOUS
 62
     7
 10
-253.6666666666667
 20
145.1666666666667
 11
-253.6666666666667
 21
150.1666666666667
  0
LINE
  8
1
  6
CONTINUOUS
 62
     7
 10
-207.6666666666667
 20
248.1666666666667
 11
-203.6666666666667
 21
248.1666666666667
  0
LINE
  8
1
  6
CONTINUOUS
 62
     7
 10
-203.6666666666667
 20
253.1666666666667
 11
-203.6666666666667
 21
248.1666666666667
  0
LINE
  8
1
  6
CONTINUOUS
 62
     7
 10
-203.6666666666667
 20
253.1666666666667
 11
-195.6666666666667
 21
253.1666666666667
  0
LINE
  8
1
  6
CONTINUOUS
 62
     7
 10
-195.6666666666667
 20
255.1666666666667
 11
-195.6666666666667
 21
253.1666666666667
  0
LINE
  8
1
  6
CONTINUOUS
 62
     7
 10
-195.6666666666667
 20
255.1666666666667
 11
-215.6666666666667
 21
255.1666666666667
  0
LINE
  8
1
  6
CONTINUOUS
 62
     7
 10
-215.6666666666667
 20
253.1666666666667
 11
-215.6666666666667
 21
255.1666666666667
  0
LINE
  8
1
  6
CONTINUOUS
 62
     7
 10
-215.6666666666667
 20
253.1666666666667
 11
-207.6666666666667
 21
253.1666666666667
  0
LINE
  8
1
  6
CONTINUOUS
 62
     7
 10
-207.6666666666667
 20
248.1666666666666
 11
-207.6666666666667
 21
253.1666666666667
  0
LINE
  8
1
  6
CONTINUOUS
 62
     7
 10
-207.6666666666667
 20
145.1666666666667
 11
-215.6666666666667
 21
145.1666666666667
  0
LINE
  8
1
  6
CONTINUOUS
 62
     7
 10
-215.6666666666667
 20
143.1666666666667
 11
-215.6666666666667
 21
145.1666666666667
  0
LINE
  8
1
  6
CONTINUOUS
 62
     7
 10
-215.6666666666667
 20
143.1666666666667
 11
-195.6666666666667
 21
143.1666666666667
  0
LINE
  8
1
  6
CONTINUOUS
 62
     7
 10
-195.6666666666667
 20
145.1666666666667
 11
-195.6666666666667
 21
143.1666666666667
  0
LINE
  8
1
  6
CONTINUOUS
 62
     7
 10
-195.6666666666667
 20
145.1666666666667
 11
-203.6666666666667
 21
145.1666666666667
  0
LINE
  8
1
  6
CONTINUOUS
 62
     7
 10
-203.6666666666667
 20
150.1666666666667
 11
-203.6666666666667
 21
145.1666666666667
  0
LINE
  8
1
  6
CONTINUOUS
 62
     7
 10
-203.6666666666667
 20
150.1666666666667
 11
-207.6666666666667
 21
150.1666666666667
  0
LINE
  8
1
  6
CONTINUOUS
 62
     7
 10
-207.6666666666667
 20
145.1666666666667
 11
-207.6666666666667
 21
150.1666666666667
  0
LINE
  8
1
  6
CONTINUOUS
 62
     9
 10
-345.161155291492
 20
162.9669127093047
 11
-345.161155291492
 21
235.3664206240287
  0
ARC
  8
1
  6
CONTINUOUS
 62
     9
 10
-343.1647415126011
 20
162.9640730389262
 40
1.996415798443223
 50
179.9185033584226
 51
270.0129613949126
  0
LINE
  8
1
  6
CONTINUOUS
 62
     9
 10
-160.1690434479476
 20
160.9676572915662
 11
-343.1642898853857
 21
160.9676572915662
  0
ARC
  8
1
  6
CONTINUOUS
 62
     9
 10
-160.1685981689326
 20
162.9640793795375
 40
1.99642213762841
 50
269.9872208347137
 51
0.0813144119524623
  0
LINE
  8
1
  6
CONTINUOUS
 62
     9
 10
-158.1721780418413
 20
235.3664206240288
 11
-158.1721780418413
 21
162.966912709305
  0
ARC
  8
1
  6
CONTINUOUS
 62
     9
 10
-160.1685918207323
 20
235.3692602944072
 40
1.996415798443237
 50
359.9185033584228
 51
90.01296139491184
  0
LINE
  8
1
  6
CONTINUOUS
 62
     9
 10
-343.1642898853858
 20
237.3656760417671
 11
-160.1690434479477
 21
237.3656760417671
  0
ARC
  8
1
  6
CONTINUOUS
 62
     9
 10
-343.1647351644008
 20
235.3692539537959
 40
1.996422137628438
 50
89.98722083471444
 51
180.0813144119514
  0
CIRCLE
  8
1
  6
CONTINUOUS
 62
     7
 10
-228.6666240084177
 20
148.6668517916477
 40
1.249957355459991
  0
CIRCLE
  8
1
  6
CONTINUOUS
 62
     7
 10
-274.6667093552998
 20
148.6664818205643
 40
1.249957325034582
  0
LINE
  8
1
  6
CONTINUOUS
 62
     7
 10
-147.6666666666667
 20
251.4850213902197
 11
-147.6666666666667
 21
251.2607614977344
  0
ARC
  8
1
  6
CONTINUOUS
 62
     7
 10
-155.1564454951157
 20
251.4768903989966
 40
7.489783241997145
 50
0.0622009418433436
 51
90.07819053694946
  0
LINE
  8
1
  6
CONTINUOUS
 62
     7
 10
-147.6666666666667
 20
147.0725718355989
 11
-147.6666666666667
 21
146.8483119431136
  0
ARC
  8
1
  6
CONTINUOUS
 62
     7
 10
-155.1568204857953
 20
146.8568188449811
 40
7.490158649961048
 50
269.9246818662868
 51
359.9349266549209
  0
LINE
  8
1
  6
CONTINUOUS
 62
     7
 10
-355.6666666666667
 20
251.2607614977344
 11
-355.6666666666667
 21
251.4850213902197
  0
ARC
  8
1
  6
CONTINUOUS
 62
     7
 10
-348.1765128475382
 20
251.4765144883523
 40
7.490158649960923
 50
89.92468186628584
 51
179.9349266549214
  0
LINE
  8
1
  6
CONTINUOUS
 62
     7
 10
-155.1666666666667
 20
139.3666666666667
 11
-348.1666666666667
 21
139.3666666666667
  0
LINE
  8
1
  6
CONTINUOUS
 62
     7
 10
-155.1666666666667
 20
258.9666666666666
 11
-348.1666666666667
 21
258.9666666666666
  0
LINE
  8
1
  6
CONTINUOUS
 62
     7
 10
-159.6666666666667
 20
248.1666666666666
 11
-159.6666666666667
 21
253.1666666666667
  0
LINE
  8
1
  6
CONTINUOUS
 62
     7
 10
-162.6666666666667
 20
248.1666666666667
 11
-159.6666666666667
 21
248.1666666666667
  0
LINE
  8
1
  6
CONTINUOUS
 62
     7
 10
-162.6666666666667
 20
248.1666666666666
 11
-162.6666666666667
 21
253.1666666666667
  0
LINE
  8
1
  6
CONTINUOUS
 62
     7
 10
-162.6666666666667
 20
253.1666666666667
 11
-159.6666666666667
 21
253.1666666666667
  0
LINE
  8
1
  6
CONTINUOUS
 62
     7
 10
-340.6666666666667
 20
253.1666666666667
 11
-340.6666666666667
 21
248.1666666666667
  0
LINE
  8
1
  6
CONTINUOUS
 62
     7
 10
-343.6666666666667
 20
248.1666666666667
 11
-340.6666666666667
 21
248.1666666666667
  0
LINE
  8
1
  6
CONTINUOUS
 62
     7
 10
-343.6666666666667
 20
253.1666666666667
 11
-340.6666666666667
 21
253.1666666666667
  0
LINE
  8
1
  6
CONTINUOUS
 62
     7
 10
-343.6666666666667
 20
253.1666666666667
 11
-343.6666666666667
 21
248.1666666666667
  0
LINE
  8
1
  6
CONTINUOUS
 62
     7
 10
-343.6666666666667
 20
150.1666666666667
 11
-343.6666666666667
 21
145.1666666666667
  0
LINE
  8
1
  6
CONTINUOUS
 62
     7
 10
-340.6666666666667
 20
150.1666666666667
 11
-343.6666666666667
 21
150.1666666666667
  0
LINE
  8
1
  6
CONTINUOUS
 62
     7
 10
-340.6666666666667
 20
145.1666666666667
 11
-343.6666666666667
 21
145.1666666666667
  0
LINE
  8
1
  6
CONTINUOUS
 62
     7
 10
-340.6666666666667
 20
150.1666666666667
 11
-340.6666666666667
 21
145.1666666666667
  0
LINE
  8
1
  6
CONTINUOUS
 62
     7
 10
-159.6666666666667
 20
150.1666666666667
 11
-162.6666666666667
 21
150.1666666666667
  0
LINE
  8
1
  6
CONTINUOUS
 62
     7
 10
-159.6666666666667
 20
145.1666666666667
 11
-159.6666666666667
 21
150.1666666666667
  0
LINE
  8
1
  6
CONTINUOUS
 62
     7
 10
-159.6666666666667
 20
145.1666666666667
 11
-162.6666666666667
 21
145.1666666666667
  0
LINE
  8
1
  6
CONTINUOUS
 62
     7
 10
-162.6666666666667
 20
145.1666666666667
 11
-162.6666666666667
 21
150.1666666666667
  0
LINE
  8
1
  6
CONTINUOUS
 62
     7
 10
-345.6666666666667
 20
248.1666666666667
 11
-343.6666666666667
 21
248.1666666666667
  0
LINE
  8
1
  6
CONTINUOUS
 62
     7
 10
-340.6666666666667
 20
253.1666666666667
 11
-333.6666666666667
 21
253.1666666666667
  0
LINE
  8
1
  6
CONTINUOUS
 62
     7
 10
-345.6666666666667
 20
255.1666666666667
 11
-345.6666666666667
 21
248.1666666666667
  0
LINE
  8
1
  6
CONTINUOUS
 62
     7
 10
-157.6666666666667
 20
248.1666666666667
 11
-159.6666666666667
 21
248.1666666666667
  0
LINE
  8
1
  6
CONTINUOUS
 62
     7
 10
-162.6666666666667
 20
253.1666666666667
 11
-169.6666666666667
 21
253.1666666666667
  0
LINE
  8
1
  6
CONTINUOUS
 62
     7
 10
-157.6666666666667
 20
255.1666666666667
 11
-157.6666666666667
 21
248.1666666666667
  0
LINE
  8
1
  6
CONTINUOUS
 62
     7
 10
-345.6666666666667
 20
150.1666666666667
 11
-343.6666666666667
 21
150.1666666666667
  0
LINE
  8
1
  6
CONTINUOUS
 62
     7
 10
-340.6666666666667
 20
145.1666666666667
 11
-333.6666666666667
 21
145.1666666666667
  0
LINE
  8
1
  6
CONTINUOUS
 62
     7
 10
-345.6666666666667
 20
143.1666666666667
 11
-345.6666666666667
 21
150.1666666666667
  0
LINE
  8
1
  6
CONTINUOUS
 62
     7
 10
-157.6666666666667
 20
150.1666666666667
 11
-159.6666666666667
 21
150.1666666666667
  0
LINE
  8
1
  6
CONTINUOUS
 62
     7
 10
-162.6666666666667
 20
145.1666666666667
 11
-169.6666666666667
 21
145.1666666666667
  0
LINE
  8
1
  6
CONTINUOUS
 62
     7
 10
-157.6666666666667
 20
143.1666666666667
 11
-157.6666666666667
 21
150.1666666666667
  0
POLYLINE
  8
1
  6
CONTINUOUS
 62
     7
 66
     1
  0
VERTEX
  8
1
  6
CONTINUOUS
 62
     7
 10
-342.9170093416911
 20
236.1666666666667
  0
VERTEX
  8
1
  6
CONTINUOUS
 62
     7
 10
-343.1120692960142
 20
236.1474620728204
  0
VERTEX
  8
1
  6
CONTINUOUS
 62
     7
 10
-343.2996134040657
 20
236.0905856713626
  0
VERTEX
  8
1
  6
CONTINUOUS
 62
     7
 10
-343.4724407174296
 20
235.9982212900725
  0
VERTEX
  8
1
  6
CONTINUOUS
 62
     7
 10
-343.6239153541192
 20
235.8739153541192
  0
VERTEX
  8
1
  6
CONTINUOUS
 62
     7
 10
-343.7482212900724
 20
235.7224407174296
  0
VERTEX
  8
1
  6
CONTINUOUS
 62
     7
 10
-343.8405856713625
 20
235.5496134040657
  0
VERTEX
  8
1
  6
CONTINUOUS
 62
     7
 10
-343.8974620728204
 20
235.3620692960143
  0
VERTEX
  8
1
  6
CONTINUOUS
 62
     7
 10
-343.9166666666667
 20
235.1670093416912
  0
SEQEND
  8
1
  6
CONTINUOUS
 62
     7
  0
POLYLINE
  8
1
  6
CONTINUOUS
 62
     7
 66
     1
  0
VERTEX
  8
1
  6
CONTINUOUS
 62
     7
 10
-160.4163239916422
 20
162.1666666666667
  0
VERTEX
  8
1
  6
CONTINUOUS
 62
     7
 10
-160.2212640373191
 20
162.185871260513
  0
VERTEX
  8
1
  6
CONTINUOUS
 62
     7
 10
-160.0337199292677
 20
162.2427476619708
  0
VERTEX
  8
1
  6
CONTINUOUS
 62
     7
 10
-159.8608926159038
 20
162.3351120432609
  0
VERTEX
  8
1
  6
CONTINUOUS
 62
     7
 10
-159.7094179792142
 20
162.4594179792142
  0
VERTEX
  8
1
  6
CONTINUOUS
 62
     7
 10
-159.5851120432609
 20
162.6108926159038
  0
VERTEX
  8
1
  6
CONTINUOUS
 62
     7
 10
-159.4927476619708
 20
162.7837199292677
  0
VERTEX
  8
1
  6
CONTINUOUS
 62
     7
 10
-159.435871260513
 20
162.9712640373191
  0
VERTEX
  8
1
  6
CONTINUOUS
 62
     7
 10
-159.4166666666667
 20
163.1663239916422
  0
SEQEND
  8
1
  6
CONTINUOUS
 62
     7
  0
POLYLINE
  8
1
  6
CONTINUOUS
 62
     7
 66
     1
  0
VERTEX
  8
1
  6
CONTINUOUS
 62
     7
 10
-343.9166666666667
 20
163.1663239916422
  0
VERTEX
  8
1
  6
CONTINUOUS
 62
     7
 10
-343.8974620728204
 20
162.9712640373191
  0
VERTEX
  8
1
  6
CONTINUOUS
 62
     7
 10
-343.8405856713625
 20
162.7837199292677
  0
VERTEX
  8
1
  6
CONTINUOUS
 62
     7
 10
-343.7482212900724
 20
162.6108926159038
  0
VERTEX
  8
1
  6
CONTINUOUS
 62
     7
 10
-343.6239153541192
 20
162.4594179792142
  0
VERTEX
  8
1
  6
CONTINUOUS
 62
     7
 10
-343.4724407174296
 20
162.3351120432609
  0
VERTEX
  8
1
  6
CONTINUOUS
 62
     7
 10
-343.2996134040657
 20
162.2427476619708
  0
VERTEX
  8
1
  6
CONTINUOUS
 62
     7
 10
-343.1120692960142
 20
162.185871260513
  0
VERTEX
  8
1
  6
CONTINUOUS
 62
     7
 10
-342.9170093416911
 20
162.1666666666667
  0
SEQEND
  8
1
  6
CONTINUOUS
 62
     7
  0
POLYLINE
  8
1
  6
CONTINUOUS
 62
     7
 66
     1
  0
VERTEX
  8
1
  6
CONTINUOUS
 62
     7
 10
-159.4166666666667
 20
235.1670093416911
  0
VERTEX
  8
1
  6
CONTINUOUS
 62
     7
 10
-159.4358712605131
 20
235.3620692960143
  0
VERTEX
  8
1
  6
CONTINUOUS
 62
     7
 10
-159.4927476619708
 20
235.5496134040657
  0
VERTEX
  8
1
  6
CONTINUOUS
 62
     7
 10
-159.585112043261
 20
235.7224407174296
  0
VERTEX
  8
1
  6
CONTINUOUS
 62
     7
 10
-159.7094179792142
 20
235.8739153541192
  0
VERTEX
  8
1
  6
CONTINUOUS
 62
     7
 10
-159.8608926159038
 20
235.9982212900725
  0
VERTEX
  8
1
  6
CONTINUOUS
 62
     7
 10
-160.0337199292678
 20
236.0905856713626
  0
VERTEX
  8
1
  6
CONTINUOUS
 62
     7
 10
-160.2212640373191
 20
236.1474620728203
  0
VERTEX
  8
1
  6
CONTINUOUS
 62
     7
 10
-160.4163239916423
 20
236.1666666666667
  0
SEQEND
  8
1
  6
CONTINUOUS
 62
     7
  0
LINE
  8
1
  6
CONTINUOUS
 62
     7
 10
-160.4163239916423
 20
236.1666666666667
 11
-342.9170093416911
 21
236.1666666666667
  0
LINE
  8
1
  6
CONTINUOUS
 62
     7
 10
-342.9170093416911
 20
162.1666666666667
 11
-160.4163239916422
 21
162.1666666666667
  0
LINE
  8
1
  6
CONTINUOUS
 62
     7
 10
-159.4166666666667
 20
163.1663239916422
 11
-159.4166666666667
 21
163.4752324598212
  0
LINE
  8
1
  6
CONTINUOUS
 62
     7
 10
-159.4166666666667
 20
166.9097514797062
 11
-159.4166666666667
 21
163.4752324598212
  0
LINE
  8
1
  6
CONTINUOUS
 62
     9
 10
-159.4166666666667
 20
166.9097514797062
 11
-159.4166666666667
 21
231.4235818536271
  0
LINE
  8
1
  6
CONTINUOUS
 62
     7
 10
-159.4166666666667
 20
234.8581008735122
 11
-159.4166666666667
 21
231.4235818536271
  0
LINE
  8
1
  6
CONTINUOUS
 62
     7
 10
-159.4166666666667
 20
234.8581008735122
 11
-159.4166666666667
 21
235.1670093416911
  0
LINE
  8
1
  6
CONTINUOUS
 62
     7
 10
-343.9166666666667
 20
234.8581008735122
 11
-343.9166666666667
 21
235.1670093416911
  0
LINE
  8
1
  6
CONTINUOUS
 62
     7
 10
-343.9166666666667
 20
231.4235818536271
 11
-343.9166666666667
 21
234.8581008735122
  0
LINE
  8
1
  6
CONTINUOUS
 62
     9
 10
-343.9166666666667
 20
166.9097514797062
 11
-343.9166666666667
 21
231.4235818536271
  0
LINE
  8
1
  6
CONTINUOUS
 62
     7
 10
-343.9166666666667
 20
163.4752324598212
 11
-343.9166666666667
 21
166.9097514797062
  0
LINE
  8
1
  6
CONTINUOUS
 62
     7
 10
-343.9166666666667
 20
163.4752324598212
 11
-343.9166666666667
 21
163.1663239916422
  0
CIRCLE
  8
1
  6
CONTINUOUS
 62
     7
 10
-228.6666666666667
 20
240.9166666666667
 40
1.000000000000001
  0
CIRCLE
  8
1
  6
CONTINUOUS
 62
     7
 10
-320.6666666666667
 20
157.4166666666667
 40
1.000000000000001
  0
CIRCLE
  8
1
  6
CONTINUOUS
 62
     7
 10
-274.6666666666667
 20
240.9166666666667
 40
1.000000000000001
  0
CIRCLE
  8
1
  6
CONTINUOUS
 62
     7
 10
-228.6666666666667
 20
157.4166666666667
 40
1.000000000000001
  0
CIRCLE
  8
1
  6
CONTINUOUS
 62
     7
 10
-182.6666666666667
 20
157.4166666666667
 40
1.000000000000001
  0
CIRCLE
  8
1
  6
CONTINUOUS
 62
     7
 10
-274.6666666666667
 20
157.4166666666667
 40
1.000000000000001
  0
CIRCLE
  8
1
  6
CONTINUOUS
 62
     7
 10
-182.6666666666667
 20
240.9166666666667
 40
1.000000000000001
  0
CIRCLE
  8
1
  6
CONTINUOUS
 62
     7
 10
-320.6666666666667
 20
240.9166666666667
 40
1.000000000000001
  0
LINE
  8
1
  6
CONTINUOUS
 62
     7
 10
-159.4166666666667
 20
231.4235818536271
 11
-159.4421671207206
 21
233.1415088876373
  0
LINE
  8
1
  6
CONTINUOUS
 62
     7
 10
-343.9166666666667
 20
166.9097514797062
 11
-343.8911662126129
 21
165.1918244456961
  0
LINE
  8
1
  6
CONTINUOUS
 62
     7
 10
-343.8911662126129
 20
233.1415088876373
 11
-343.9166666666667
 21
231.4235818536271
  0
LINE
  8
1
  6
CONTINUOUS
 62
     7
 10
-159.4421671207206
 20
165.1918244456961
 11
-159.4166666666667
 21
166.9097514797062
  0
LINE
  8
1
  6
CONTINUOUS
 62
     9
 10
-277.9166666666667
 20
207.6666666666667
 11
-277.9166666666667
 21
207.6928525882359
  0
ARC
  8
1
  6
CONTINUOUS
 62
     7
 10
-277.9166666666667
 20
210.6666666666667
 40
2.999999999999999
 50
180.0
 51
270.0000000000006
  0
LINE
  8
1
  6
CONTINUOUS
 62
     9
 10
-280.9166666666667
 20
210.6666666666667
 11
-280.8904807450975
 21
210.6666666666667
  0
ARC
  8
1
  6
CONTINUOUS
 62
     7
 10
-277.9166666666667
 20
210.6666666666667
 40
2.973814078430812
 50
180.0
 51
270.0000000000007
  0
LINE
  8
1
  6
CONTINUOUS
 62
     9
 10
-179.4166666666667
 20
190.6666666666667
 11
-179.4166666666667
 21
190.6404807450975
  0
ARC
  8
1
  6
CONTINUOUS
 62
     7
 10
-179.4166666666667
 20
187.6666666666667
 40
2.999999999999999
 50
0.0
 51
89.99999999999972
  0
LINE
  8
1
  6
CONTINUOUS
 62
     9
 10
-176.4166666666667
 20
187.6666666666667
 11
-176.4428525882359
 21
187.6666666666667
  0
ARC
  8
1
  6
CONTINUOUS
 62
     7
 10
-179.4166666666667
 20
187.6666666666667
 40
2.973814078430812
 50
0.0
 51
89.99999999999972
  0
LINE
  8
1
  6
CONTINUOUS
 62
     9
 10
-323.9166666666667
 20
225.1666666666667
 11
-323.9166666666667
 21
225.1404807450975
  0
LINE
  8
1
  6
CONTINUOUS
 62
     7
 10
-317.4166666666667
 20
225.1666666666667
 11
-323.9166666666667
 21
225.1666666666667
  0
LINE
  8
1
  6
CONTINUOUS
 62
     9
 10
-317.4166666666667
 20
225.1666666666667
 11
-317.4166666666667
 21
225.1404807450975
  0
LINE
  8
1
  6
CONTINUOUS
 62
     7
 10
-317.4166666666667
 20
225.1404807450975
 11
-323.9166666666667
 21
225.1404807450975
  0
LINE
  8
1
  6
CONTINUOUS
 62
     9
 10
-179.4166666666667
 20
179.1666666666667
 11
-179.4166666666667
 21
179.1404807450975
  0
ARC
  8
1
  6
CONTINUOUS
 62
     7
 10
-179.4166666666667
 20
176.1666666666667
 40
2.999999999999999
 50
0.0
 51
89.99999999999972
  0
LINE
  8
1
  6
CONTINUOUS
 62
     9
 10
-176.4166666666667
 20
176.1666666666667
 11
-176.4428525882359
 21
176.1666666666667
  0
ARC
  8
1
  6
CONTINUOUS
 62
     7
 10
-179.4166666666667
 20
176.1666666666667
 40
2.973814078430812
 50
0.0
 51
89.99999999999972
  0
LINE
  8
1
  6
CONTINUOUS
 62
     7
 10
-185.9166666666667
 20
225.1666666666667
 11
-179.4166666666667
 21
225.1666666666667
  0
ARC
  8
1
  6
CONTINUOUS
 62
     7
 10
-185.9166666666667
 20
222.1666666666667
 40
3.000000000000003
 50
90.0000000000003
 51
180.0
  0
ARC
  8
1
  6
CONTINUOUS
 62
     7
 10
-185.9166666666667
 20
222.1666666666667
 40
2.999999999999999
 50
180.0
 51
270.0
  0
LINE
  8
1
  6
CONTINUOUS
 62
     7
 10
-179.4166666666667
 20
219.1666666666667
 11
-185.9166666666667
 21
219.1666666666667
  0
ARC
  8
1
  6
CONTINUOUS
 62
     7
 10
-179.4166666666667
 20
222.1666666666667
 40
3.000000000000003
 50
269.9999999999997
 51
0.0
  0
ARC
  8
1
  6
CONTINUOUS
 62
     7
 10
-179.4166666666667
 20
222.1666666666667
 40
2.999999999999999
 50
0.0
 51
89.99999999999972
  0
LINE
  8
1
  6
CONTINUOUS
 62
     7
 10
-185.9166666666667
 20
213.6666666666667
 11
-179.4166666666667
 21
213.6666666666667
  0
ARC
  8
1
  6
CONTINUOUS
 62
     7
 10
-185.9166666666667
 20
210.6666666666667
 40
3.000000000000003
 50
90.0000000000003
 51
180.0
  0
ARC
  8
1
  6
CONTINUOUS
 62
     7
 10
-185.9166666666667
 20
210.6666666666667
 40
2.999999999999999
 50
180.0
 51
270.0
  0
LINE
  8
1
  6
CONTINUOUS
 62
     7
 10
-179.4166666666667
 20
207.6666666666667
 11
-185.9166666666667
 21
207.6666666666667
  0
ARC
  8
1
  6
CONTINUOUS
 62
     7
 10
-179.4166666666667
 20
210.6666666666667
 40
3.000000000000003
 50
269.9999999999997
 51
0.0
  0
ARC
  8
1
  6
CONTINUOUS
 62
     7
 10
-179.4166666666667
 20
210.6666666666667
 40
2.999999999999999
 50
0.0
 51
89.99999999999972
  0
LINE
  8
1
  6
CONTINUOUS
 62
     7
 10
-185.9166666666667
 20
202.1666666666667
 11
-179.4166666666667
 21
202.1666666666667
  0
ARC
  8
1
  6
CONTINUOUS
 62
     7
 10
-185.9166666666667
 20
199.1666666666667
 40
3.000000000000003
 50
90.0000000000003
 51
180.0
  0
ARC
  8
1
  6
CONTINUOUS
 62
     7
 10
-185.9166666666667
 20
199.1666666666667
 40
2.999999999999999
 50
180.0
 51
270.0
  0
LINE
  8
1
  6
CONTINUOUS
 62
     7
 10
-179.4166666666667
 20
196.1666666666667
 11
-185.9166666666667
 21
196.1666666666667
  0
ARC
  8
1
  6
CONTINUOUS
 62
     7
 10
-179.4166666666667
 20
199.1666666666667
 40
3.000000000000003
 50
269.9999999999997
 51
0.0
  0
ARC
  8
1
  6
CONTINUOUS
 62
     7
 10
-179.4166666666667
 20
199.1666666666667
 40
2.999999999999999
 50
0.0
 51
89.99999999999972
  0
LINE
  8
1
  6
CONTINUOUS
 62
     7
 10
-185.9166666666667
 20
190.6666666666667
 11
-179.4166666666667
 21
190.6666666666667
  0
ARC
  8
1
  6
CONTINUOUS
 62
     7
 10
-185.9166666666667
 20
187.6666666666667
 40
3.000000000000003
 50
90.0000000000003
 51
180.0
  0
ARC
  8
1
  6
CONTINUOUS
 62
     7
 10
-185.9166666666667
 20
187.6666666666667
 40
2.999999999999999
 50
180.0
 51
270.0
  0
LINE
  8
1
  6
CONTINUOUS
 62
     7
 10
-179.4166666666667
 20
184.6666666666667
 11
-185.9166666666667
 21
184.6666666666667
  0
ARC
  8
1
  6
CONTINUOUS
 62
     7
 10
-179.4166666666667
 20
187.6666666666667
 40
3.000000000000003
 50
269.9999999999997
 51
0.0
  0
LINE
  8
1
  6
CONTINUOUS
 62
     7
 10
-185.9166666666667
 20
179.1666666666667
 11
-179.4166666666667
 21
179.1666666666667
  0
ARC
  8
1
  6
CONTINUOUS
 62
     7
 10
-185.9166666666667
 20
176.1666666666667
 40
3.000000000000003
 50
90.0000000000003
 51
180.0
  0
ARC
  8
1
  6
CONTINUOUS
 62
     7
 10
-185.9166666666667
 20
176.1666666666667
 40
2.999999999999999
 50
180.0
 51
270.0
  0
LINE
  8
1
  6
CONTINUOUS
 62
     7
 10
-179.4166666666667
 20
173.1666666666667
 11
-185.9166666666667
 21
173.1666666666667
  0
ARC
  8
1
  6
CONTINUOUS
 62
     7
 10
-179.4166666666667
 20
176.1666666666667
 40
3.000000000000003
 50
269.9999999999997
 51
0.0
  0
LINE
  8
1
  6
CONTINUOUS
 62
     7
 10
-231.9166666666667
 20
179.1666666666667
 11
-225.4166666666667
 21
179.1666666666667
  0
ARC
  8
1
  6
CONTINUOUS
 62
     7
 10
-231.9166666666667
 20
176.1666666666667
 40
2.999999999999999
 50
90.00000000000045
 51
180.0
  0
ARC
  8
1
  6
CONTINUOUS
 62
     7
 10
-231.9166666666667
 20
176.1666666666667
 40
2.999999999999999
 50
180.0
 51
270.0
  0
LINE
  8
1
  6
CONTINUOUS
 62
     7
 10
-225.4166666666667
 20
173.1666666666667
 11
-231.9166666666667
 21
173.1666666666667
  0
ARC
  8
1
  6
CONTINUOUS
 62
     7
 10
-225.4166666666667
 20
176.1666666666667
 40
2.999999999999999
 50
269.9999999999994
 51
0.0
  0
ARC
  8
1
  6
CONTINUOUS
 62
     7
 10
-225.4166666666667
 20
176.1666666666667
 40
2.999999999999999
 50
0.0
 51
90.0
  0
LINE
  8
1
  6
CONTINUOUS
 62
     7
 10
-231.9166666666667
 20
190.6666666666667
 11
-225.4166666666667
 21
190.6666666666667
  0
ARC
  8
1
  6
CONTINUOUS
 62
     7
 10
-231.9166666666667
 20
187.6666666666667
 40
2.999999999999999
 50
90.00000000000045
 51
180.0
  0
ARC
  8
1
  6
CONTINUOUS
 62
     7
 10
-231.9166666666667
 20
187.6666666666667
 40
2.999999999999999
 50
180.0
 51
270.0
  0
LINE
  8
1
  6
CONTINUOUS
 62
     7
 10
-225.4166666666667
 20
184.6666666666667
 11
-231.9166666666667
 21
184.6666666666667
  0
ARC
  8
1
  6
CONTINUOUS
 62
     7
 10
-225.4166666666667
 20
187.6666666666667
 40
2.999999999999999
 50
269.9999999999994
 51
0.0
  0
ARC
  8
1
  6
CONTINUOUS
 62
     7
 10
-225.4166666666667
 20
187.6666666666667
 40
2.999999999999999
 50
0.0
 51
90.0
  0
LINE
  8
1
  6
CONTINUOUS
 62
     7
 10
-231.9166666666667
 20
202.1666666666667
 11
-225.4166666666667
 21
202.1666666666667
  0
ARC
  8
1
  6
CONTINUOUS
 62
     7
 10
-231.9166666666667
 20
199.1666666666667
 40
2.999999999999999
 50
90.00000000000045
 51
180.0
  0
ARC
  8
1
  6
CONTINUOUS
 62
     7
 10
-231.9166666666667
 20
199.1666666666667
 40
2.999999999999999
 50
180.0
 51
270.0
  0
LINE
  8
1
  6
CONTINUOUS
 62
     7
 10
-225.4166666666667
 20
196.1666666666667
 11
-231.9166666666667
 21
196.1666666666667
  0
ARC
  8
1
  6
CONTINUOUS
 62
     7
 10
-225.4166666666667
 20
199.1666666666667
 40
2.999999999999999
 50
269.9999999999994
 51
0.0
  0
ARC
  8
1
  6
CONTINUOUS
 62
     7
 10
-225.4166666666667
 20
199.1666666666667
 40
2.999999999999999
 50
0.0
 51
90.0
  0
LINE
  8
1
  6
CONTINUOUS
 62
     7
 10
-231.9166666666667
 20
213.6666666666667
 11
-225.4166666666667
 21
213.6666666666667
  0
ARC
  8
1
  6
CONTINUOUS
 62
     7
 10
-231.9166666666667
 20
210.6666666666667
 40
2.999999999999999
 50
90.00000000000045
 51
180.0
  0
ARC
  8
1
  6
CONTINUOUS
 62
     7
 10
-231.9166666666667
 20
210.6666666666667
 40
2.999999999999999
 50
180.0
 51
270.0
  0
LINE
  8
1
  6
CONTINUOUS
 62
     7
 10
-225.4166666666667
 20
207.6666666666667
 11
-231.9166666666667
 21
207.6666666666667
  0
ARC
  8
1
  6
CONTINUOUS
 62
     7
 10
-225.4166666666667
 20
210.6666666666667
 40
2.999999999999999
 50
269.9999999999994
 51
0.0
  0
ARC
  8
1
  6
CONTINUOUS
 62
     7
 10
-225.4166666666667
 20
210.6666666666667
 40
2.999999999999999
 50
0.0
 51
90.0
  0
LINE
  8
1
  6
CONTINUOUS
 62
     7
 10
-231.9166666666667
 20
225.1666666666667
 11
-225.4166666666667
 21
225.1666666666667
  0
ARC
  8
1
  6
CONTINUOUS
 62
     7
 10
-231.9166666666667
 20
222.1666666666667
 40
2.999999999999999
 50
90.00000000000045
 51
180.0
  0
ARC
  8
1
  6
CONTINUOUS
 62
     7
 10
-231.9166666666667
 20
222.1666666666667
 40
2.999999999999999
 50
180.0
 51
270.0
  0
LINE
  8
1
  6
CONTINUOUS
 62
     7
 10
-225.4166666666667
 20
219.1666666666667
 11
-231.9166666666667
 21
219.1666666666667
  0
ARC
  8
1
  6
CONTINUOUS
 62
     7
 10
-225.4166666666667
 20
222.1666666666667
 40
2.999999999999999
 50
269.9999999999994
 51
0.0
  0
ARC
  8
1
  6
CONTINUOUS
 62
     7
 10
-225.4166666666667
 20
222.1666666666667
 40
2.999999999999999
 50
0.0
 51
90.0
  0
CIRCLE
  8
1
  6
CONTINUOUS
 62
     7
 10
-288.1666666666667
 20
227.9166666666667
 40
1.500000000000001
  0
CIRCLE
  8
1
  6
CONTINUOUS
 62
     7
 10
-288.1666666666667
 20
216.4166666666667
 40
1.500000000000001
  0
CIRCLE
  8
1
  6
CONTINUOUS
 62
     7
 10
-288.1666666666667
 20
204.9166666666667
 40
1.500000000000001
  0
CIRCLE
  8
1
  6
CONTINUOUS
 62
     7
 10
-288.1666666666667
 20
193.4166666666667
 40
1.500000000000001
  0
CIRCLE
  8
1
  6
CONTINUOUS
 62
     7
 10
-288.1666666666667
 20
181.9166666666667
 40
1.500000000000001
  0
CIRCLE
  8
1
  6
CONTINUOUS
 62
     7
 10
-288.1666666666667
 20
170.4166666666667
 40
1.500000000000001
  0
CIRCLE
  8
1
  6
CONTINUOUS
 62
     7
 10
-215.1666666666667
 20
227.9166666666667
 40
1.500000000000001
  0
CIRCLE
  8
1
  6
CONTINUOUS
 62
     7
 10
-215.1666666666667
 20
216.4166666666667
 40
1.500000000000001
  0
CIRCLE
  8
1
  6
CONTINUOUS
 62
     7
 10
-215.1666666666667
 20
204.9166666666667
 40
1.500000000000001
  0
CIRCLE
  8
1
  6
CONTINUOUS
 62
     7
 10
-215.1666666666667
 20
193.4166666666667
 40
1.500000000000001
  0
CIRCLE
  8
1
  6
CONTINUOUS
 62
     7
 10
-215.1666666666667
 20
181.9166666666667
 40
1.500000000000001
  0
CIRCLE
  8
1
  6
CONTINUOUS
 62
     7
 10
-215.1666666666667
 20
170.4166666666667
 40
1.500000000000001
  0
CIRCLE
  8
1
  6
CONTINUOUS
 62
     7
 10
-261.1666666666667
 20
227.9166666666667
 40
1.500000000000001
  0
CIRCLE
  8
1
  6
CONTINUOUS
 62
     7
 10
-261.1666666666667
 20
216.4166666666667
 40
1.500000000000001
  0
CIRCLE
  8
1
  6
CONTINUOUS
 62
     7
 10
-261.1666666666667
 20
204.9166666666667
 40
1.500000000000001
  0
CIRCLE
  8
1
  6
CONTINUOUS
 62
     7
 10
-261.1666666666667
 20
193.4166666666667
 40
1.500000000000001
  0
CIRCLE
  8
1
  6
CONTINUOUS
 62
     7
 10
-261.1666666666667
 20
181.9166666666667
 40
1.500000000000001
  0
CIRCLE
  8
1
  6
CONTINUOUS
 62
     7
 10
-261.1666666666667
 20
170.4166666666667
 40
1.500000000000001
  0
CIRCLE
  8
1
  6
CONTINUOUS
 62
     7
 10
-334.1666666666667
 20
227.9166666666667
 40
1.500000000000001
  0
CIRCLE
  8
1
  6
CONTINUOUS
 62
     7
 10
-334.1666666666667
 20
216.4166666666667
 40
1.500000000000001
  0
CIRCLE
  8
1
  6
CONTINUOUS
 62
     7
 10
-334.1666666666667
 20
204.9166666666667
 40
1.500000000000001
  0
CIRCLE
  8
1
  6
CONTINUOUS
 62
     7
 10
-334.1666666666667
 20
193.4166666666667
 40
1.500000000000001
  0
CIRCLE
  8
1
  6
CONTINUOUS
 62
     7
 10
-334.1666666666667
 20
181.9166666666667
 40
1.500000000000001
  0
CIRCLE
  8
1
  6
CONTINUOUS
 62
     7
 10
-334.1666666666667
 20
170.4166666666667
 40
1.500000000000001
  0
CIRCLE
  8
1
  6
CONTINUOUS
 62
     7
 10
-169.1666666666667
 20
227.9166666666667
 40
1.500000000000001
  0
CIRCLE
  8
1
  6
CONTINUOUS
 62
     7
 10
-169.1666666666667
 20
216.4166666666667
 40
1.500000000000001
  0
CIRCLE
  8
1
  6
CONTINUOUS
 62
     7
 10
-169.1666666666667
 20
204.9166666666667
 40
1.500000000000001
  0
CIRCLE
  8
1
  6
CONTINUOUS
 62
     7
 10
-169.1666666666667
 20
193.4166666666667
 40
1.500000000000001
  0
CIRCLE
  8
1
  6
CONTINUOUS
 62
     7
 10
-169.1666666666667
 20
181.9166666666667
 40
1.500000000000001
  0
CIRCLE
  8
1
  6
CONTINUOUS
 62
     7
 10
-169.1666666666667
 20
170.4166666666667
 40
1.500000000000001
  0
CIRCLE
  8
1
  6
CONTINUOUS
 62
     7
 10
-242.1666666666667
 20
227.9166666666667
 40
1.500000000000001
  0
CIRCLE
  8
1
  6
CONTINUOUS
 62
     7
 10
-242.1666666666667
 20
216.4166666666667
 40
1.500000000000001
  0
CIRCLE
  8
1
  6
CONTINUOUS
 62
     7
 10
-242.1666666666667
 20
204.9166666666667
 40
1.500000000000001
  0
CIRCLE
  8
1
  6
CONTINUOUS
 62
     7
 10
-242.1666666666667
 20
193.4166666666667
 40
1.500000000000001
  0
CIRCLE
  8
1
  6
CONTINUOUS
 62
     7
 10
-242.1666666666667
 20
181.9166666666667
 40
1.500000000000001
  0
CIRCLE
  8
1
  6
CONTINUOUS
 62
     7
 10
-242.1666666666667
 20
170.4166666666667
 40
1.500000000000001
  0
CIRCLE
  8
1
  6
CONTINUOUS
 62
     7
 10
-196.1666666666667
 20
227.9166666666667
 40
1.500000000000001
  0
CIRCLE
  8
1
  6
CONTINUOUS
 62
     7
 10
-196.1666666666667
 20
216.4166666666667
 40
1.500000000000001
  0
CIRCLE
  8
1
  6
CONTINUOUS
 62
     7
 10
-196.1666666666667
 20
204.9166666666667
 40
1.500000000000001
  0
CIRCLE
  8
1
  6
CONTINUOUS
 62
     7
 10
-196.1666666666667
 20
193.4166666666667
 40
1.500000000000001
  0
CIRCLE
  8
1
  6
CONTINUOUS
 62
     7
 10
-196.1666666666667
 20
181.9166666666667
 40
1.500000000000001
  0
CIRCLE
  8
1
  6
CONTINUOUS
 62
     7
 10
-196.1666666666667
 20
170.4166666666667
 40
1.500000000000001
  0
CIRCLE
  8
1
  6
CONTINUOUS
 62
     7
 10
-307.1666666666667
 20
227.9166666666667
 40
1.500000000000001
  0
CIRCLE
  8
1
  6
CONTINUOUS
 62
     7
 10
-307.1666666666667
 20
216.4166666666667
 40
1.500000000000001
  0
CIRCLE
  8
1
  6
CONTINUOUS
 62
     7
 10
-307.1666666666667
 20
204.9166666666667
 40
1.500000000000001
  0
CIRCLE
  8
1
  6
CONTINUOUS
 62
     7
 10
-307.1666666666667
 20
193.4166666666667
 40
1.500000000000001
  0
CIRCLE
  8
1
  6
CONTINUOUS
 62
     7
 10
-307.1666666666667
 20
181.9166666666667
 40
1.500000000000001
  0
CIRCLE
  8
1
  6
CONTINUOUS
 62
     7
 10
-307.1666666666667
 20
170.4166666666667
 40
1.500000000000001
  0
LINE
  8
1
  6
CONTINUOUS
 62
     7
 10
-277.9166666666667
 20
219.1666666666667
 11
-271.4166666666667
 21
219.1666666666667
  0
ARC
  8
1
  6
CONTINUOUS
 62
     7
 10
-271.4166666666667
 20
222.1666666666667
 40
2.999999999999999
 50
270.0
 51
0.0
  0
ARC
  8
1
  6
CONTINUOUS
 62
     7
 10
-271.4166666666667
 20
222.1666666666667
 40
2.999999999999999
 50
0.0
 51
89.99999999999955
  0
LINE
  8
1
  6
CONTINUOUS
 62
     7
 10
-271.4166666666667
 20
225.1666666666667
 11
-277.9166666666667
 21
225.1666666666667
  0
ARC
  8
1
  6
CONTINUOUS
 62
     7
 10
-277.9166666666667
 20
222.1666666666667
 40
2.999999999999999
 50
90.0
 51
180.0
  0
ARC
  8
1
  6
CONTINUOUS
 62
     7
 10
-277.9166666666667
 20
222.1666666666667
 40
2.999999999999999
 50
180.0
 51
270.0000000000006
  0
LINE
  8
1
  6
CONTINUOUS
 62
     7
 10
-277.9166666666667
 20
207.6666666666667
 11
-271.4166666666667
 21
207.6666666666667
  0
ARC
  8
1
  6
CONTINUOUS
 62
     7
 10
-271.4166666666667
 20
210.6666666666667
 40
2.999999999999999
 50
270.0
 51
0.0
  0
ARC
  8
1
  6
CONTINUOUS
 62
     7
 10
-271.4166666666667
 20
210.6666666666667
 40
2.999999999999999
 50
0.0
 51
89.99999999999955
  0
LINE
  8
1
  6
CONTINUOUS
 62
     7
 10
-271.4166666666667
 20
213.6666666666667
 11
-277.9166666666667
 21
213.6666666666667
  0
ARC
  8
1
  6
CONTINUOUS
 62
     7
 10
-277.9166666666667
 20
210.6666666666667
 40
2.999999999999999
 50
90.0
 51
180.0
  0
LINE
  8
1
  6
CONTINUOUS
 62
     7
 10
-277.9166666666667
 20
196.1666666666667
 11
-271.4166666666667
 21
196.1666666666667
  0
ARC
  8
1
  6
CONTINUOUS
 62
     7
 10
-271.4166666666667
 20
199.1666666666667
 40
2.999999999999999
 50
270.0
 51
0.0
  0
ARC
  8
1
  6
CONTINUOUS
 62
     7
 10
-271.4166666666667
 20
199.1666666666667
 40
2.999999999999999
 50
0.0
 51
89.99999999999955
  0
LINE
  8
1
  6
CONTINUOUS
 62
     7
 10
-271.4166666666667
 20
202.1666666666667
 11
-277.9166666666667
 21
202.1666666666667
  0
ARC
  8
1
  6
CONTINUOUS
 62
     7
 10
-277.9166666666667
 20
199.1666666666667
 40
2.999999999999999
 50
90.0
 51
180.0
  0
ARC
  8
1
  6
CONTINUOUS
 62
     7
 10
-277.9166666666667
 20
199.1666666666667
 40
2.999999999999999
 50
180.0
 51
270.0000000000006
  0
LINE
  8
1
  6
CONTINUOUS
 62
     7
 10
-277.9166666666667
 20
184.6666666666667
 11
-271.4166666666667
 21
184.6666666666667
  0
ARC
  8
1
  6
CONTINUOUS
 62
     7
 10
-271.4166666666667
 20
187.6666666666667
 40
2.999999999999999
 50
270.0
 51
0.0
  0
ARC
  8
1
  6
CONTINUOUS
 62
     7
 10
-271.4166666666667
 20
187.6666666666667
 40
2.999999999999999
 50
0.0
 51
89.99999999999955
  0
LINE
  8
1
  6
CONTINUOUS
 62
     7
 10
-271.4166666666667
 20
190.6666666666667
 11
-277.9166666666667
 21
190.6666666666667
  0
ARC
  8
1
  6
CONTINUOUS
 62
     7
 10
-277.9166666666667
 20
187.6666666666667
 40
2.999999999999999
 50
90.0
 51
180.0
  0
ARC
  8
1
  6
CONTINUOUS
 62
     7
 10
-277.9166666666667
 20
187.6666666666667
 40
2.999999999999999
 50
180.0
 51
270.0000000000006
  0
LINE
  8
1
  6
CONTINUOUS
 62
     7
 10
-277.9166666666667
 20
173.1666666666667
 11
-271.4166666666667
 21
173.1666666666667
  0
ARC
  8
1
  6
CONTINUOUS
 62
     7
 10
-271.4166666666667
 20
176.1666666666667
 40
2.999999999999999
 50
270.0
 51
0.0
  0
ARC
  8
1
  6
CONTINUOUS
 62
     7
 10
-271.4166666666667
 20
176.1666666666667
 40
2.999999999999999
 50
0.0
 51
89.99999999999955
  0
LINE
  8
1
  6
CONTINUOUS
 62
     7
 10
-271.4166666666667
 20
179.1666666666667
 11
-277.9166666666667
 21
179.1666666666667
  0
ARC
  8
1
  6
CONTINUOUS
 62
     7
 10
-277.9166666666667
 20
176.1666666666667
 40
2.999999999999999
 50
90.0
 51
180.0
  0
ARC
  8
1
  6
CONTINUOUS
 62
     7
 10
-277.9166666666667
 20
176.1666666666667
 40
2.999999999999999
 50
180.0
 51
270.0000000000006
  0
LINE
  8
1
  6
CONTINUOUS
 62
     7
 10
-323.9166666666667
 20
219.1666666666667
 11
-317.4166666666667
 21
219.1666666666667
  0
ARC
  8
1
  6
CONTINUOUS
 62
     7
 10
-317.4166666666667
 20
222.1666666666667
 40
2.999999999999999
 50
270.0
 51
0.0
  0
ARC
  8
1
  6
CONTINUOUS
 62
     7
 10
-317.4166666666667
 20
222.1666666666667
 40
3.000000000000003
 50
0.0
 51
89.99999999999973
  0
ARC
  8
1
  6
CONTINUOUS
 62
     7
 10
-323.9166666666667
 20
222.1666666666667
 40
2.999999999999999
 50
90.00000000000028
 51
180.0
  0
ARC
  8
1
  6
CONTINUOUS
 62
     7
 10
-323.9166666666667
 20
222.1666666666667
 40
3.000000000000003
 50
180.0
 51
270.0000000000002
  0
LINE
  8
1
  6
CONTINUOUS
 62
     7
 10
-323.9166666666667
 20
173.1666666666667
 11
-317.4166666666667
 21
173.1666666666667
  0
ARC
  8
1
  6
CONTINUOUS
 62
     7
 10
-317.4166666666667
 20
176.1666666666667
 40
2.999999999999999
 50
270.0
 51
0.0
  0
ARC
  8
1
  6
CONTINUOUS
 62
     7
 10
-317.4166666666667
 20
176.1666666666667
 40
3.000000000000003
 50
0.0
 51
89.99999999999973
  0
LINE
  8
1
  6
CONTINUOUS
 62
     7
 10
-317.4166666666667
 20
179.1666666666667
 11
-323.9166666666667
 21
179.1666666666667
  0
ARC
  8
1
  6
CONTINUOUS
 62
     7
 10
-323.9166666666667
 20
176.1666666666667
 40
2.999999999999999
 50
90.00000000000028
 51
180.0
  0
ARC
  8
1
  6
CONTINUOUS
 62
     7
 10
-323.9166666666667
 20
176.1666666666667
 40
3.000000000000003
 50
180.0
 51
270.0000000000002
  0
LINE
  8
1
  6
CONTINUOUS
 62
     7
 10
-323.9166666666667
 20
184.6666666666667
 11
-317.4166666666667
 21
184.6666666666667
  0
ARC
  8
1
  6
CONTINUOUS
 62
     7
 10
-317.4166666666667
 20
187.6666666666667
 40
2.999999999999999
 50
270.0
 51
0.0
  0
ARC
  8
1
  6
CONTINUOUS
 62
     7
 10
-317.4166666666667
 20
187.6666666666667
 40
3.000000000000003
 50
0.0
 51
89.99999999999973
  0
LINE
  8
1
  6
CONTINUOUS
 62
     7
 10
-317.4166666666667
 20
190.6666666666667
 11
-323.9166666666667
 21
190.6666666666667
  0
ARC
  8
1
  6
CONTINUOUS
 62
     7
 10
-323.9166666666667
 20
187.6666666666667
 40
2.999999999999999
 50
90.00000000000028
 51
180.0
  0
ARC
  8
1
  6
CONTINUOUS
 62
     7
 10
-323.9166666666667
 20
187.6666666666667
 40
3.000000000000003
 50
180.0
 51
270.0000000000002
  0
LINE
  8
1
  6
CONTINUOUS
 62
     7
 10
-323.9166666666667
 20
196.1666666666667
 11
-317.4166666666667
 21
196.1666666666667
  0
ARC
  8
1
  6
CONTINUOUS
 62
     7
 10
-317.4166666666667
 20
199.1666666666667
 40
2.999999999999999
 50
270.0
 51
0.0
  0
ARC
  8
1
  6
CONTINUOUS
 62
     7
 10
-317.4166666666667
 20
199.1666666666667
 40
3.000000000000003
 50
0.0
 51
89.99999999999973
  0
LINE
  8
1
  6
CONTINUOUS
 62
     7
 10
-317.4166666666667
 20
202.1666666666667
 11
-323.9166666666667
 21
202.1666666666667
  0
ARC
  8
1
  6
CONTINUOUS
 62
     7
 10
-323.9166666666667
 20
199.1666666666667
 40
2.999999999999999
 50
90.00000000000028
 51
180.0
  0
ARC
  8
1
  6
CONTINUOUS
 62
     7
 10
-323.9166666666667
 20
199.1666666666667
 40
3.000000000000003
 50
180.0
 51
270.0000000000002
  0
LINE
  8
1
  6
CONTINUOUS
 62
     7
 10
-323.9166666666667
 20
207.6666666666667
 11
-317.4166666666667
 21
207.6666666666667
  0
ARC
  8
1
  6
CONTINUOUS
 62
     7
 10
-317.4166666666667
 20
210.6666666666667
 40
2.999999999999999
 50
270.0
 51
0.0
  0
ARC
  8
1
  6
CONTINUOUS
 62
     7
 10
-317.4166666666667
 20
210.6666666666667
 40
3.000000000000003
 50
0.0
 51
89.99999999999973
  0
LINE
  8
1
  6
CONTINUOUS
 62
     7
 10
-317.4166666666667
 20
213.6666666666667
 11
-323.9166666666667
 21
213.6666666666667
  0
ARC
  8
1
  6
CONTINUOUS
 62
     7
 10
-323.9166666666667
 20
210.6666666666667
 40
2.999999999999999
 50
90.00000000000028
 51
180.0
  0
ARC
  8
1
  6
CONTINUOUS
 62
     7
 10
-323.9166666666667
 20
210.6666666666667
 40
3.000000000000003
 50
180.0
 51
270.0000000000002
  0
CIRCLE
  8
1
  6
CONTINUOUS
 62
     7
 10
-282.1666666666667
 20
216.4166666666667
 40
1.500000000000001
  0
CIRCLE
  8
1
  6
CONTINUOUS
 62
     7
 10
-282.1666666666667
 20
204.9166666666667
 40
1.500000000000001
  0
CIRCLE
  8
1
  6
CONTINUOUS
 62
     7
 10
-282.1666666666667
 20
193.4166666666667
 40
1.500000000000001
  0
CIRCLE
  8
1
  6
CONTINUOUS
 62
     7
 10
-282.1666666666667
 20
181.9166666666667
 40
1.500000000000001
  0
CIRCLE
  8
1
  6
CONTINUOUS
 62
     7
 10
-221.1666666666667
 20
216.4166666666667
 40
1.499999999999998
  0
CIRCLE
  8
1
  6
CONTINUOUS
 62
     7
 10
-221.1666666666667
 20
204.9166666666667
 40
1.499999999999998
  0
CIRCLE
  8
1
  6
CONTINUOUS
 62
     7
 10
-221.1666666666667
 20
193.4166666666667
 40
1.499999999999998
  0
CIRCLE
  8
1
  6
CONTINUOUS
 62
     7
 10
-221.1666666666667
 20
181.9166666666667
 40
1.499999999999998
  0
CIRCLE
  8
1
  6
CONTINUOUS
 62
     7
 10
-267.1666666666667
 20
216.4166666666667
 40
1.500000000000001
  0
CIRCLE
  8
1
  6
CONTINUOUS
 62
     7
 10
-267.1666666666667
 20
204.9166666666667
 40
1.500000000000001
  0
CIRCLE
  8
1
  6
CONTINUOUS
 62
     7
 10
-267.1666666666667
 20
193.4166666666667
 40
1.500000000000001
  0
CIRCLE
  8
1
  6
CONTINUOUS
 62
     7
 10
-267.1666666666667
 20
181.9166666666667
 40
1.500000000000001
  0
CIRCLE
  8
1
  6
CONTINUOUS
 62
     7
 10
-328.1666666666667
 20
216.4166666666667
 40
1.500000000000001
  0
CIRCLE
  8
1
  6
CONTINUOUS
 62
     7
 10
-328.1666666666667
 20
204.9166666666667
 40
1.500000000000001
  0
CIRCLE
  8
1
  6
CONTINUOUS
 62
     7
 10
-328.1666666666667
 20
193.4166666666667
 40
1.500000000000001
  0
CIRCLE
  8
1
  6
CONTINUOUS
 62
     7
 10
-328.1666666666667
 20
181.9166666666667
 40
1.500000000000001
  0
CIRCLE
  8
1
  6
CONTINUOUS
 62
     7
 10
-175.1666666666667
 20
216.4166666666667
 40
1.500000000000001
  0
CIRCLE
  8
1
  6
CONTINUOUS
 62
     7
 10
-175.1666666666667
 20
204.9166666666667
 40
1.500000000000001
  0
CIRCLE
  8
1
  6
CONTINUOUS
 62
     7
 10
-175.1666666666667
 20
193.4166666666667
 40
1.500000000000001
  0
CIRCLE
  8
1
  6
CONTINUOUS
 62
     7
 10
-175.1666666666667
 20
181.9166666666667
 40
1.500000000000001
  0
CIRCLE
  8
1
  6
CONTINUOUS
 62
     7
 10
-236.1666666666667
 20
216.4166666666667
 40
1.500000000000001
  0
CIRCLE
  8
1
  6
CONTINUOUS
 62
     7
 10
-236.1666666666667
 20
204.9166666666667
 40
1.500000000000001
  0
CIRCLE
  8
1
  6
CONTINUOUS
 62
     7
 10
-236.1666666666667
 20
193.4166666666667
 40
1.500000000000001
  0
CIRCLE
  8
1
  6
CONTINUOUS
 62
     7
 10
-236.1666666666667
 20
181.9166666666667
 40
1.500000000000001
  0
CIRCLE
  8
1
  6
CONTINUOUS
 62
     7
 10
-190.1666666666667
 20
216.4166666666667
 40
1.500000000000001
  0
CIRCLE
  8
1
  6
CONTINUOUS
 62
     7
 10
-190.1666666666667
 20
204.9166666666667
 40
1.500000000000001
  0
CIRCLE
  8
1
  6
CONTINUOUS
 62
     7
 10
-190.1666666666667
 20
193.4166666666667
 40
1.500000000000001
  0
CIRCLE
  8
1
  6
CONTINUOUS
 62
     7
 10
-190.1666666666667
 20
181.9166666666667
 40
1.500000000000001
  0
CIRCLE
  8
1
  6
CONTINUOUS
 62
     7
 10
-313.1666666666667
 20
216.4166666666667
 40
1.500000000000001
  0
CIRCLE
  8
1
  6
CONTINUOUS
 62
     7
 10
-313.1666666666667
 20
204.9166666666667
 40
1.500000000000001
  0
CIRCLE
  8
1
  6
CONTINUOUS
 62
     7
 10
-313.1666666666667
 20
193.4166666666667
 40
1.500000000000001
  0
CIRCLE
  8
1
  6
CONTINUOUS
 62
     7
 10
-313.1666666666667
 20
181.9166666666667
 40
1.500000000000001
  0
LINE
  8
1
  6
CONTINUOUS
 62
     9
 10
-317.4166666666667
 20
219.1666666666667
 11
-317.4166666666667
 21
219.1928525882359
  0
LINE
  8
1
  6
CONTINUOUS
 62
     9
 10
-323.9166666666667
 20
219.1666666666667
 11
-323.9166666666667
 21
219.1928525882359
  0
LINE
  8
1
  6
CONTINUOUS
 62
     7
 10
-323.9166666666667
 20
219.1928525882359
 11
-317.4166666666667
 21
219.1928525882359
  0
LINE
  8
1
  6
CONTINUOUS
 62
     9
 10
-314.4166666666667
 20
222.1666666666667
 11
-314.4428525882358
 21
222.1666666666667
  0
ARC
  8
1
  6
CONTINUOUS
 62
     7
 10
-317.4166666666667
 20
222.1666666666667
 40
2.973814078430812
 50
270.0
 51
0.0
  0
ARC
  8
1
  6
CONTINUOUS
 62
     7
 10
-317.4166666666667
 20
222.1666666666667
 40
2.973814078430808
 50
0.0
 51
89.99999999999973
  0
LINE
  8
1
  6
CONTINUOUS
 62
     9
 10
-326.9166666666667
 20
222.1666666666667
 11
-326.8904807450975
 21
222.1666666666667
  0
ARC
  8
1
  6
CONTINUOUS
 62
     7
 10
-323.9166666666667
 20
222.1666666666667
 40
2.973814078430812
 50
90.00000000000028
 51
180.0
  0
LINE
  8
1
  6
CONTINUOUS
 62
     9
 10
-280.9166666666667
 20
176.1666666666667
 11
-280.8904807450975
 21
176.1666666666667
  0
LINE
  8
1
  6
CONTINUOUS
 62
     9
 10
-277.9166666666667
 20
179.1666666666667
 11
-277.9166666666667
 21
179.1404807450975
  0
ARC
  8
1
  6
CONTINUOUS
 62
     7
 10
-277.9166666666667
 20
176.1666666666667
 40
2.973814078430812
 50
90.0
 51
180.0
  0
LINE
  8
1
  6
CONTINUOUS
 62
     9
 10
-225.4166666666667
 20
190.6666666666667
 11
-225.4166666666667
 21
190.6404807450975
  0
LINE
  8
1
  6
CONTINUOUS
 62
     9
 10
-222.4166666666667
 20
187.6666666666667
 11
-222.4428525882359
 21
187.6666666666667
  0
ARC
  8
1
  6
CONTINUOUS
 62
     7
 10
-225.4166666666667
 20
187.6666666666667
 40
2.973814078430812
 50
0.0
 51
90.0
  0
LINE
  8
1
  6
CONTINUOUS
 62
     9
 10
-176.4166666666667
 20
199.1666666666667
 11
-176.4428525882359
 21
199.1666666666667
  0
LINE
  8
1
  6
CONTINUOUS
 62
     9
 10
-179.4166666666667
 20
196.1666666666667
 11
-179.4166666666667
 21
196.1928525882359
  0
ARC
  8
1
  6
CONTINUOUS
 62
     7
 10
-179.4166666666667
 20
199.1666666666667
 40
2.973814078430823
 50
269.9999999999997
 51
0.0
  0
LINE
  8
1
  6
CONTINUOUS
 62
     9
 10
-185.9166666666667
 20
196.1666666666667
 11
-185.9166666666667
 21
196.1928525882359
  0
LINE
  8
1
  6
CONTINUOUS
 62
     7
 10
-179.4166666666667
 20
196.1928525882359
 11
-185.9166666666667
 21
196.1928525882359
  0
LINE
  8
1
  6
CONTINUOUS
 62
     9
 10
-188.9166666666667
 20
199.1666666666667
 11
-188.8904807450975
 21
199.1666666666667
  0
ARC
  8
1
  6
CONTINUOUS
 62
     7
 10
-185.9166666666667
 20
199.1666666666667
 40
2.973814078430812
 50
180.0
 51
270.0
  0
LINE
  8
1
  6
CONTINUOUS
 62
     9
 10
-185.9166666666667
 20
190.6666666666667
 11
-185.9166666666667
 21
190.6404807450975
  0
LINE
  8
1
  6
CONTINUOUS
 62
     7
 10
-185.9166666666667
 20
190.6404807450975
 11
-179.4166666666667
 21
190.6404807450975
  0
LINE
  8
1
  6
CONTINUOUS
 62
     9
 10
-185.9166666666667
 20
202.1666666666667
 11
-185.9166666666667
 21
202.1404807450975
  0
ARC
  8
1
  6
CONTINUOUS
 62
     7
 10
-185.9166666666667
 20
199.1666666666667
 40
2.973814078430808
 50
90.0000000000003
 51
180.0
  0
LINE
  8
1
  6
CONTINUOUS
 62
     9
 10
-179.4166666666667
 20
202.1666666666667
 11
-179.4166666666667
 21
202.1404807450975
  0
LINE
  8
1
  6
CONTINUOUS
 62
     7
 10
-185.9166666666667
 20
202.1404807450975
 11
-179.4166666666667
 21
202.1404807450975
  0
ARC
  8
1
  6
CONTINUOUS
 62
     7
 10
-179.4166666666667
 20
199.1666666666667
 40
2.973814078430812
 50
0.0
 51
89.99999999999972
  0
LINE
  8
1
  6
CONTINUOUS
 62
     9
 10
-222.4166666666667
 20
210.6666666666667
 11
-222.4428525882359
 21
210.6666666666667
  0
LINE
  8
1
  6
CONTINUOUS
 62
     9
 10
-225.4166666666667
 20
207.6666666666667
 11
-225.4166666666667
 21
207.6928525882359
  0
ARC
  8
1
  6
CONTINUOUS
 62
     7
 10
-225.4166666666667
 20
210.6666666666667
 40
2.973814078430812
 50
269.9999999999994
 51
0.0
  0
LINE
  8
1
  6
CONTINUOUS
 62
     9
 10
-176.4166666666667
 20
210.6666666666667
 11
-176.4428525882359
 21
210.6666666666667
  0
LINE
  8
1
  6
CONTINUOUS
 62
     9
 10
-179.4166666666667
 20
207.6666666666667
 11
-179.4166666666667
 21
207.6928525882359
  0
ARC
  8
1
  6
CONTINUOUS
 62
     7
 10
-179.4166666666667
 20
210.6666666666667
 40
2.973814078430823
 50
269.9999999999997
 51
0.0
  0
LINE
  8
1
  6
CONTINUOUS
 62
     9
 10
-185.9166666666667
 20
207.6666666666667
 11
-185.9166666666667
 21
207.6928525882359
  0
LINE
  8
1
  6
CONTINUOUS
 62
     7
 10
-179.4166666666667
 20
207.6928525882359
 11
-185.9166666666667
 21
207.6928525882359
  0
LINE
  8
1
  6
CONTINUOUS
 62
     9
 10
-188.9166666666667
 20
210.6666666666667
 11
-188.8904807450975
 21
210.6666666666667
  0
ARC
  8
1
  6
CONTINUOUS
 62
     7
 10
-185.9166666666667
 20
210.6666666666667
 40
2.973814078430812
 50
180.0
 51
270.0
  0
LINE
  8
1
  6
CONTINUOUS
 62
     9
 10
-185.9166666666667
 20
213.6666666666667
 11
-185.9166666666667
 21
213.6404807450975
  0
ARC
  8
1
  6
CONTINUOUS
 62
     7
 10
-185.9166666666667
 20
210.6666666666667
 40
2.973814078430808
 50
90.0000000000003
 51
180.0
  0
LINE
  8
1
  6
CONTINUOUS
 62
     9
 10
-179.4166666666667
 20
213.6666666666667
 11
-179.4166666666667
 21
213.6404807450975
  0
LINE
  8
1
  6
CONTINUOUS
 62
     7
 10
-185.9166666666667
 20
213.6404807450975
 11
-179.4166666666667
 21
213.6404807450975
  0
LINE
  8
1
  6
CONTINUOUS
 62
     9
 10
-277.9166666666667
 20
184.6666666666667
 11
-277.9166666666667
 21
184.6928525882359
  0
LINE
  8
1
  6
CONTINUOUS
 62
     9
 10
-280.9166666666667
 20
187.6666666666667
 11
-280.8904807450975
 21
187.6666666666667
  0
ARC
  8
1
  6
CONTINUOUS
 62
     7
 10
-277.9166666666667
 20
187.6666666666667
 40
2.973814078430812
 50
180.0
 51
270.0000000000007
  0
LINE
  8
1
  6
CONTINUOUS
 62
     9
 10
-179.4166666666667
 20
173.1666666666667
 11
-179.4166666666667
 21
173.1928525882359
  0
ARC
  8
1
  6
CONTINUOUS
 62
     7
 10
-179.4166666666667
 20
176.1666666666667
 40
2.973814078430823
 50
269.9999999999997
 51
0.0
  0
LINE
  8
1
  6
CONTINUOUS
 62
     9
 10
-185.9166666666667
 20
173.1666666666667
 11
-185.9166666666667
 21
173.1928525882359
  0
LINE
  8
1
  6
CONTINUOUS
 62
     7
 10
-179.4166666666667
 20
173.1928525882359
 11
-185.9166666666667
 21
173.1928525882359
  0
LINE
  8
1
  6
CONTINUOUS
 62
     9
 10
-188.9166666666667
 20
176.1666666666667
 11
-188.8904807450975
 21
176.1666666666667
  0
ARC
  8
1
  6
CONTINUOUS
 62
     7
 10
-185.9166666666667
 20
176.1666666666667
 40
2.973814078430812
 50
180.0
 51
270.0
  0
LINE
  8
1
  6
CONTINUOUS
 62
     9
 10
-185.9166666666667
 20
179.1666666666667
 11
-185.9166666666667
 21
179.1404807450975
  0
ARC
  8
1
  6
CONTINUOUS
 62
     7
 10
-185.9166666666667
 20
176.1666666666667
 40
2.973814078430808
 50
90.0000000000003
 51
180.0
  0
LINE
  8
1
  6
CONTINUOUS
 62
     7
 10
-185.9166666666667
 20
179.1404807450975
 11
-179.4166666666667
 21
179.1404807450975
  0
LINE
  8
1
  6
CONTINUOUS
 62
     9
 10
-317.4166666666667
 20
213.6666666666667
 11
-317.4166666666667
 21
213.6404807450975
  0
LINE
  8
1
  6
CONTINUOUS
 62
     9
 10
-314.4166666666667
 20
210.6666666666667
 11
-314.4428525882358
 21
210.6666666666667
  0
ARC
  8
1
  6
CONTINUOUS
 62
     7
 10
-317.4166666666667
 20
210.6666666666667
 40
2.973814078430808
 50
0.0
 51
89.99999999999973
  0
LINE
  8
1
  6
CONTINUOUS
 62
     9
 10
-277.9166666666667
 20
173.1666666666667
 11
-277.9166666666667
 21
173.1928525882359
  0
ARC
  8
1
  6
CONTINUOUS
 62
     7
 10
-277.9166666666667
 20
176.1666666666667
 40
2.973814078430812
 50
180.0
 51
270.0000000000007
  0
LINE
  8
1
  6
CONTINUOUS
 62
     9
 10
-179.4166666666667
 20
184.6666666666667
 11
-179.4166666666667
 21
184.6928525882359
  0
ARC
  8
1
  6
CONTINUOUS
 62
     7
 10
-179.4166666666667
 20
187.6666666666667
 40
2.973814078430823
 50
269.9999999999997
 51
0.0
  0
LINE
  8
1
  6
CONTINUOUS
 62
     9
 10
-185.9166666666667
 20
184.6666666666667
 11
-185.9166666666667
 21
184.6928525882359
  0
LINE
  8
1
  6
CONTINUOUS
 62
     7
 10
-179.4166666666667
 20
184.6928525882359
 11
-185.9166666666667
 21
184.6928525882359
  0
LINE
  8
1
  6
CONTINUOUS
 62
     9
 10
-188.9166666666667
 20
187.6666666666667
 11
-188.8904807450975
 21
187.6666666666667
  0
ARC
  8
1
  6
CONTINUOUS
 62
     7
 10
-185.9166666666667
 20
187.6666666666667
 40
2.973814078430812
 50
180.0
 51
270.0
  0
ARC
  8
1
  6
CONTINUOUS
 62
     7
 10
-185.9166666666667
 20
187.6666666666667
 40
2.973814078430808
 50
90.0000000000003
 51
180.0
  0
LINE
  8
1
  6
CONTINUOUS
 62
     9
 10
-317.4166666666667
 20
179.1666666666667
 11
-317.4166666666667
 21
179.1404807450975
  0
LINE
  8
1
  6
CONTINUOUS
 62
     9
 10
-314.4166666666667
 20
176.1666666666667
 11
-314.4428525882358
 21
176.1666666666667
  0
ARC
  8
1
  6
CONTINUOUS
 62
     7
 10
-317.4166666666667
 20
176.1666666666667
 40
2.973814078430808
 50
0.0
 51
89.99999999999973
  0
LINE
  8
1
  6
CONTINUOUS
 62
     9
 10
-317.4166666666667
 20
202.1666666666667
 11
-317.4166666666667
 21
202.1404807450975
  0
LINE
  8
1
  6
CONTINUOUS
 62
     9
 10
-314.4166666666667
 20
199.1666666666667
 11
-314.4428525882358
 21
199.1666666666667
  0
ARC
  8
1
  6
CONTINUOUS
 62
     7
 10
-317.4166666666667
 20
199.1666666666667
 40
2.973814078430808
 50
0.0
 51
89.99999999999973
  0
LINE
  8
1
  6
CONTINUOUS
 62
     9
 10
-222.4166666666667
 20
222.1666666666667
 11
-222.4428525882359
 21
222.1666666666667
  0
LINE
  8
1
  6
CONTINUOUS
 62
     9
 10
-225.4166666666667
 20
219.1666666666667
 11
-225.4166666666667
 21
219.1928525882359
  0
ARC
  8
1
  6
CONTINUOUS
 62
     7
 10
-225.4166666666667
 20
222.1666666666667
 40
2.973814078430812
 50
269.9999999999994
 51
0.0
  0
LINE
  8
1
  6
CONTINUOUS
 62
     9
 10
-231.9166666666667
 20
219.1666666666667
 11
-231.9166666666667
 21
219.1928525882359
  0
LINE
  8
1
  6
CONTINUOUS
 62
     7
 10
-225.4166666666667
 20
219.1928525882359
 11
-231.9166666666667
 21
219.1928525882359
  0
LINE
  8
1
  6
CONTINUOUS
 62
     9
 10
-234.9166666666667
 20
222.1666666666667
 11
-234.8904807450975
 21
222.1666666666667
  0
ARC
  8
1
  6
CONTINUOUS
 62
     7
 10
-231.9166666666667
 20
222.1666666666667
 40
2.973814078430812
 50
180.0
 51
270.0
  0
LINE
  8
1
  6
CONTINUOUS
 62
     9
 10
-231.9166666666667
 20
225.1666666666667
 11
-231.9166666666667
 21
225.1404807450975
  0
ARC
  8
1
  6
CONTINUOUS
 62
     7
 10
-231.9166666666667
 20
222.1666666666667
 40
2.973814078430812
 50
90.00000000000045
 51
180.0
  0
LINE
  8
1
  6
CONTINUOUS
 62
     9
 10
-277.9166666666667
 20
213.6666666666667
 11
-277.9166666666667
 21
213.6404807450975
  0
ARC
  8
1
  6
CONTINUOUS
 62
     7
 10
-277.9166666666667
 20
210.6666666666667
 40
2.973814078430812
 50
90.0
 51
180.0
  0
LINE
  8
1
  6
CONTINUOUS
 62
     9
 10
-317.4166666666667
 20
190.6666666666667
 11
-317.4166666666667
 21
190.6404807450975
  0
LINE
  8
1
  6
CONTINUOUS
 62
     9
 10
-314.4166666666667
 20
187.6666666666667
 11
-314.4428525882358
 21
187.6666666666667
  0
ARC
  8
1
  6
CONTINUOUS
 62
     7
 10
-317.4166666666667
 20
187.6666666666667
 40
2.973814078430808
 50
0.0
 51
89.99999999999973
  0
LINE
  8
1
  6
CONTINUOUS
 62
     9
 10
-277.9166666666667
 20
196.1666666666667
 11
-277.9166666666667
 21
196.1928525882359
  0
LINE
  8
1
  6
CONTINUOUS
 62
     9
 10
-280.9166666666667
 20
199.1666666666667
 11
-280.8904807450975
 21
199.1666666666667
  0
ARC
  8
1
  6
CONTINUOUS
 62
     7
 10
-277.9166666666667
 20
199.1666666666667
 40
2.973814078430812
 50
180.0
 51
270.0000000000007
  0
LINE
  8
1
  6
CONTINUOUS
 62
     9
 10
-271.4166666666667
 20
196.1666666666667
 11
-271.4166666666667
 21
196.1928525882359
  0
LINE
  8
1
  6
CONTINUOUS
 62
     7
 10
-277.9166666666667
 20
196.1928525882359
 11
-271.4166666666667
 21
196.1928525882359
  0
LINE
  8
1
  6
CONTINUOUS
 62
     9
 10
-268.4166666666667
 20
199.1666666666667
 11
-268.4428525882358
 21
199.1666666666667
  0
ARC
  8
1
  6
CONTINUOUS
 62
     7
 10
-271.4166666666667
 20
199.1666666666667
 40
2.973814078430812
 50
270.0
 51
0.0
  0
LINE
  8
1
  6
CONTINUOUS
 62
     9
 10
-271.4166666666667
 20
202.1666666666667
 11
-271.4166666666667
 21
202.1404807450975
  0
ARC
  8
1
  6
CONTINUOUS
 62
     7
 10
-271.4166666666667
 20
199.1666666666667
 40
2.973814078430812
 50
0.0
 51
89.99999999999953
  0
LINE
  8
1
  6
CONTINUOUS
 62
     9
 10
-277.9166666666667
 20
202.1666666666667
 11
-277.9166666666667
 21
202.1404807450975
  0
LINE
  8
1
  6
CONTINUOUS
 62
     7
 10
-271.4166666666667
 20
202.1404807450975
 11
-277.9166666666667
 21
202.1404807450975
  0
ARC
  8
1
  6
CONTINUOUS
 62
     7
 10
-277.9166666666667
 20
199.1666666666667
 40
2.973814078430812
 50
90.0
 51
180.0
  0
LINE
  8
1
  6
CONTINUOUS
 62
     9
 10
-231.9166666666667
 20
190.6666666666667
 11
-231.9166666666667
 21
190.6404807450975
  0
LINE
  8
1
  6
CONTINUOUS
 62
     7
 10
-231.9166666666667
 20
190.6404807450975
 11
-225.4166666666667
 21
190.6404807450975
  0
ARC
  8
1
  6
CONTINUOUS
 62
     7
 10
-179.4166666666667
 20
210.6666666666667
 40
2.973814078430812
 50
0.0
 51
89.99999999999972
  0
LINE
  8
1
  6
CONTINUOUS
 62
     9
 10
-271.4166666666667
 20
184.6666666666667
 11
-271.4166666666667
 21
184.6928525882359
  0
LINE
  8
1
  6
CONTINUOUS
 62
     7
 10
-277.9166666666667
 20
184.6928525882359
 11
-271.4166666666667
 21
184.6928525882359
  0
LINE
  8
1
  6
CONTINUOUS
 62
     9
 10
-268.4166666666667
 20
187.6666666666667
 11
-268.4428525882358
 21
187.6666666666667
  0
ARC
  8
1
  6
CONTINUOUS
 62
     7
 10
-271.4166666666667
 20
187.6666666666667
 40
2.973814078430812
 50
270.0
 51
0.0
  0
LINE
  8
1
  6
CONTINUOUS
 62
     9
 10
-271.4166666666667
 20
190.6666666666667
 11
-271.4166666666667
 21
190.6404807450975
  0
ARC
  8
1
  6
CONTINUOUS
 62
     7
 10
-271.4166666666667
 20
187.6666666666667
 40
2.973814078430812
 50
0.0
 51
89.99999999999953
  0
LINE
  8
1
  6
CONTINUOUS
 62
     9
 10
-277.9166666666667
 20
190.6666666666667
 11
-277.9166666666667
 21
190.6404807450975
  0
LINE
  8
1
  6
CONTINUOUS
 62
     7
 10
-271.4166666666667
 20
190.6404807450975
 11
-277.9166666666667
 21
190.6404807450975
  0
ARC
  8
1
  6
CONTINUOUS
 62
     7
 10
-277.9166666666667
 20
187.6666666666667
 40
2.973814078430812
 50
90.0
 51
180.0
  0
LINE
  8
1
  6
CONTINUOUS
 62
     9
 10
-317.4166666666667
 20
207.6666666666667
 11
-317.4166666666667
 21
207.6928525882359
  0
ARC
  8
1
  6
CONTINUOUS
 62
     7
 10
-317.4166666666667
 20
210.6666666666667
 40
2.973814078430812
 50
270.0
 51
0.0
  0
LINE
  8
1
  6
CONTINUOUS
 62
     9
 10
-271.4166666666667
 20
219.1666666666667
 11
-271.4166666666667
 21
219.1928525882359
  0
LINE
  8
1
  6
CONTINUOUS
 62
     9
 10
-277.9166666666667
 20
219.1666666666667
 11
-277.9166666666667
 21
219.1928525882359
  0
LINE
  8
1
  6
CONTINUOUS
 62
     7
 10
-277.9166666666667
 20
219.1928525882359
 11
-271.4166666666667
 21
219.1928525882359
  0
LINE
  8
1
  6
CONTINUOUS
 62
     9
 10
-271.4166666666667
 20
173.1666666666667
 11
-271.4166666666667
 21
173.1928525882359
  0
LINE
  8
1
  6
CONTINUOUS
 62
     7
 10
-277.9166666666667
 20
173.1928525882359
 11
-271.4166666666667
 21
173.1928525882359
  0
LINE
  8
1
  6
CONTINUOUS
 62
     9
 10
-268.4166666666667
 20
176.1666666666667
 11
-268.4428525882358
 21
176.1666666666667
  0
ARC
  8
1
  6
CONTINUOUS
 62
     7
 10
-271.4166666666667
 20
176.1666666666667
 40
2.973814078430812
 50
270.0
 51
0.0
  0
LINE
  8
1
  6
CONTINUOUS
 62
     9
 10
-271.4166666666667
 20
179.1666666666667
 11
-271.4166666666667
 21
179.1404807450975
  0
ARC
  8
1
  6
CONTINUOUS
 62
     7
 10
-271.4166666666667
 20
176.1666666666667
 40
2.973814078430812
 50
0.0
 51
89.99999999999953
  0
LINE
  8
1
  6
CONTINUOUS
 62
     7
 10
-271.4166666666667
 20
179.1404807450975
 11
-277.9166666666667
 21
179.1404807450975
  0
LINE
  8
1
  6
CONTINUOUS
 62
     9
 10
-231.9166666666667
 20
213.6666666666667
 11
-231.9166666666667
 21
213.6404807450975
  0
LINE
  8
1
  6
CONTINUOUS
 62
     9
 10
-225.4166666666667
 20
213.6666666666667
 11
-225.4166666666667
 21
213.6404807450975
  0
LINE
  8
1
  6
CONTINUOUS
 62
     7
 10
-231.9166666666667
 20
213.6404807450975
 11
-225.4166666666667
 21
213.6404807450975
  0
ARC
  8
1
  6
CONTINUOUS
 62
     7
 10
-225.4166666666667
 20
210.6666666666667
 40
2.973814078430812
 50
0.0
 51
90.0
  0
LINE
  8
1
  6
CONTINUOUS
 62
     9
 10
-271.4166666666667
 20
207.6666666666667
 11
-271.4166666666667
 21
207.6928525882359
  0
LINE
  8
1
  6
CONTINUOUS
 62
     7
 10
-277.9166666666667
 20
207.6928525882359
 11
-271.4166666666667
 21
207.6928525882359
  0
LINE
  8
1
  6
CONTINUOUS
 62
     9
 10
-268.4166666666667
 20
210.6666666666667
 11
-268.4428525882358
 21
210.6666666666667
  0
ARC
  8
1
  6
CONTINUOUS
 62
     7
 10
-271.4166666666667
 20
210.6666666666667
 40
2.973814078430812
 50
270.0
 51
0.0
  0
LINE
  8
1
  6
CONTINUOUS
 62
     9
 10
-271.4166666666667
 20
213.6666666666667
 11
-271.4166666666667
 21
213.6404807450975
  0
ARC
  8
1
  6
CONTINUOUS
 62
     7
 10
-271.4166666666667
 20
210.6666666666667
 40
2.973814078430812
 50
0.0
 51
89.99999999999953
  0
LINE
  8
1
  6
CONTINUOUS
 62
     7
 10
-271.4166666666667
 20
213.6404807450975
 11
-277.9166666666667
 21
213.6404807450975
  0
LINE
  8
1
  6
CONTINUOUS
 62
     9
 10
-225.4166666666667
 20
225.1666666666667
 11
-225.4166666666667
 21
225.1404807450975
  0
LINE
  8
1
  6
CONTINUOUS
 62
     7
 10
-231.9166666666667
 20
225.1404807450975
 11
-225.4166666666667
 21
225.1404807450975
  0
ARC
  8
1
  6
CONTINUOUS
 62
     7
 10
-225.4166666666667
 20
222.1666666666667
 40
2.973814078430812
 50
0.0
 51
90.0
  0
LINE
  8
1
  6
CONTINUOUS
 62
     9
 10
-225.4166666666667
 20
179.1666666666667
 11
-225.4166666666667
 21
179.1404807450975
  0
LINE
  8
1
  6
CONTINUOUS
 62
     9
 10
-222.4166666666667
 20
176.1666666666667
 11
-222.4428525882359
 21
176.1666666666667
  0
ARC
  8
1
  6
CONTINUOUS
 62
     7
 10
-225.4166666666667
 20
176.1666666666667
 40
2.973814078430812
 50
0.0
 51
90.0
  0
LINE
  8
1
  6
CONTINUOUS
 62
     9
 10
-323.9166666666667
 20
190.6666666666667
 11
-323.9166666666667
 21
190.6404807450975
  0
LINE
  8
1
  6
CONTINUOUS
 62
     7
 10
-317.4166666666667
 20
190.6404807450975
 11
-323.9166666666667
 21
190.6404807450975
  0
LINE
  8
1
  6
CONTINUOUS
 62
     9
 10
-231.9166666666667
 20
207.6666666666667
 11
-231.9166666666667
 21
207.6928525882359
  0
LINE
  8
1
  6
CONTINUOUS
 62
     7
 10
-225.4166666666667
 20
207.6928525882359
 11
-231.9166666666667
 21
207.6928525882359
  0
LINE
  8
1
  6
CONTINUOUS
 62
     9
 10
-234.9166666666667
 20
210.6666666666667
 11
-234.8904807450975
 21
210.6666666666667
  0
ARC
  8
1
  6
CONTINUOUS
 62
     7
 10
-231.9166666666667
 20
210.6666666666667
 40
2.973814078430812
 50
180.0
 51
270.0
  0
ARC
  8
1
  6
CONTINUOUS
 62
     7
 10
-231.9166666666667
 20
210.6666666666667
 40
2.973814078430812
 50
90.00000000000045
 51
180.0
  0
LINE
  8
1
  6
CONTINUOUS
 62
     9
 10
-280.9166666666667
 20
222.1666666666667
 11
-280.8904807450975
 21
222.1666666666667
  0
LINE
  8
1
  6
CONTINUOUS
 62
     9
 10
-277.9166666666667
 20
225.1666666666667
 11
-277.9166666666667
 21
225.1404807450975
  0
ARC
  8
1
  6
CONTINUOUS
 62
     7
 10
-277.9166666666667
 20
222.1666666666667
 40
2.973814078430812
 50
90.0
 51
180.0
  0
LINE
  8
1
  6
CONTINUOUS
 62
     9
 10
-317.4166666666667
 20
173.1666666666667
 11
-317.4166666666667
 21
173.1928525882359
  0
ARC
  8
1
  6
CONTINUOUS
 62
     7
 10
-317.4166666666667
 20
176.1666666666667
 40
2.973814078430812
 50
270.0
 51
0.0
  0
LINE
  8
1
  6
CONTINUOUS
 62
     9
 10
-317.4166666666667
 20
196.1666666666667
 11
-317.4166666666667
 21
196.1928525882359
  0
ARC
  8
1
  6
CONTINUOUS
 62
     7
 10
-317.4166666666667
 20
199.1666666666667
 40
2.973814078430812
 50
270.0
 51
0.0
  0
LINE
  8
1
  6
CONTINUOUS
 62
     9
 10
-323.9166666666667
 20
202.1666666666667
 11
-323.9166666666667
 21
202.1404807450975
  0
LINE
  8
1
  6
CONTINUOUS
 62
     7
 10
-317.4166666666667
 20
202.1404807450975
 11
-323.9166666666667
 21
202.1404807450975
  0
LINE
  8
1
  6
CONTINUOUS
 62
     9
 10
-176.4166666666667
 20
222.1666666666667
 11
-176.4428525882359
 21
222.1666666666667
  0
LINE
  8
1
  6
CONTINUOUS
 62
     9
 10
-179.4166666666667
 20
219.1666666666667
 11
-179.4166666666667
 21
219.1928525882359
  0
ARC
  8
1
  6
CONTINUOUS
 62
     7
 10
-179.4166666666667
 20
222.1666666666667
 40
2.973814078430823
 50
269.9999999999997
 51
0.0
  0
LINE
  8
1
  6
CONTINUOUS
 62
     9
 10
-185.9166666666667
 20
219.1666666666667
 11
-185.9166666666667
 21
219.1928525882359
  0
LINE
  8
1
  6
CONTINUOUS
 62
     7
 10
-179.4166666666667
 20
219.1928525882359
 11
-185.9166666666667
 21
219.1928525882359
  0
LINE
  8
1
  6
CONTINUOUS
 62
     9
 10
-188.9166666666667
 20
222.1666666666667
 11
-188.8904807450975
 21
222.1666666666667
  0
ARC
  8
1
  6
CONTINUOUS
 62
     7
 10
-185.9166666666667
 20
222.1666666666667
 40
2.973814078430812
 50
180.0
 51
270.0
  0
LINE
  8
1
  6
CONTINUOUS
 62
     9
 10
-185.9166666666667
 20
225.1666666666667
 11
-185.9166666666667
 21
225.1404807450975
  0
ARC
  8
1
  6
CONTINUOUS
 62
     7
 10
-185.9166666666667
 20
222.1666666666667
 40
2.973814078430808
 50
90.0000000000003
 51
180.0
  0
ARC
  8
1
  6
CONTINUOUS
 62
     7
 10
-277.9166666666667
 20
222.1666666666667
 40
2.973814078430812
 50
180.0
 51
270.0000000000007
  0
LINE
  8
1
  6
CONTINUOUS
 62
     9
 10
-179.4166666666667
 20
225.1666666666667
 11
-179.4166666666667
 21
225.1404807450975
  0
LINE
  8
1
  6
CONTINUOUS
 62
     7
 10
-185.9166666666667
 20
225.1404807450975
 11
-179.4166666666667
 21
225.1404807450975
  0
LINE
  8
1
  6
CONTINUOUS
 62
     9
 10
-268.4166666666667
 20
222.1666666666667
 11
-268.4428525882358
 21
222.1666666666667
  0
ARC
  8
1
  6
CONTINUOUS
 62
     7
 10
-271.4166666666667
 20
222.1666666666667
 40
2.973814078430812
 50
270.0
 51
0.0
  0
LINE
  8
1
  6
CONTINUOUS
 62
     9
 10
-271.4166666666667
 20
225.1666666666667
 11
-271.4166666666667
 21
225.1404807450975
  0
ARC
  8
1
  6
CONTINUOUS
 62
     7
 10
-271.4166666666667
 20
222.1666666666667
 40
2.973814078430812
 50
0.0
 51
89.99999999999953
  0
LINE
  8
1
  6
CONTINUOUS
 62
     7
 10
-271.4166666666667
 20
225.1404807450975
 11
-277.9166666666667
 21
225.1404807450975
  0
LINE
  8
1
  6
CONTINUOUS
 62
     9
 10
-323.9166666666667
 20
196.1666666666667
 11
-323.9166666666667
 21
196.1928525882359
  0
LINE
  8
1
  6
CONTINUOUS
 62
     9
 10
-326.9166666666667
 20
199.1666666666667
 11
-326.8904807450975
 21
199.1666666666667
  0
ARC
  8
1
  6
CONTINUOUS
 62
     7
 10
-323.9166666666667
 20
199.1666666666667
 40
2.973814078430823
 50
180.0
 51
270.0000000000002
  0
LINE
  8
1
  6
CONTINUOUS
 62
     7
 10
-323.9166666666667
 20
196.1928525882359
 11
-317.4166666666667
 21
196.1928525882359
  0
LINE
  8
1
  6
CONTINUOUS
 62
     9
 10
-234.9166666666667
 20
187.6666666666667
 11
-234.8904807450975
 21
187.6666666666667
  0
ARC
  8
1
  6
CONTINUOUS
 62
     7
 10
-231.9166666666667
 20
187.6666666666667
 40
2.973814078430812
 50
90.00000000000045
 51
180.0
  0
LINE
  8
1
  6
CONTINUOUS
 62
     9
 10
-323.9166666666667
 20
179.1666666666667
 11
-323.9166666666667
 21
179.1404807450975
  0
LINE
  8
1
  6
CONTINUOUS
 62
     7
 10
-317.4166666666667
 20
179.1404807450975
 11
-323.9166666666667
 21
179.1404807450975
  0
LINE
  8
1
  6
CONTINUOUS
 62
     9
 10
-326.9166666666667
 20
176.1666666666667
 11
-326.8904807450975
 21
176.1666666666667
  0
ARC
  8
1
  6
CONTINUOUS
 62
     7
 10
-323.9166666666667
 20
176.1666666666667
 40
2.973814078430812
 50
90.00000000000028
 51
180.0
  0
ARC
  8
1
  6
CONTINUOUS
 62
     7
 10
-323.9166666666667
 20
199.1666666666667
 40
2.973814078430812
 50
90.00000000000028
 51
180.0
  0
LINE
  8
1
  6
CONTINUOUS
 62
     9
 10
-323.9166666666667
 20
184.6666666666667
 11
-323.9166666666667
 21
184.6928525882359
  0
LINE
  8
1
  6
CONTINUOUS
 62
     9
 10
-326.9166666666667
 20
187.6666666666667
 11
-326.8904807450975
 21
187.6666666666667
  0
ARC
  8
1
  6
CONTINUOUS
 62
     7
 10
-323.9166666666667
 20
187.6666666666667
 40
2.973814078430823
 50
180.0
 51
270.0000000000002
  0
LINE
  8
1
  6
CONTINUOUS
 62
     9
 10
-234.9166666666667
 20
176.1666666666667
 11
-234.8904807450975
 21
176.1666666666667
  0
LINE
  8
1
  6
CONTINUOUS
 62
     9
 10
-231.9166666666667
 20
179.1666666666667
 11
-231.9166666666667
 21
179.1404807450975
  0
ARC
  8
1
  6
CONTINUOUS
 62
     7
 10
-231.9166666666667
 20
176.1666666666667
 40
2.973814078430812
 50
90.00000000000045
 51
180.0
  0
LINE
  8
1
  6
CONTINUOUS
 62
     7
 10
-231.9166666666667
 20
179.1404807450975
 11
-225.4166666666667
 21
179.1404807450975
  0
LINE
  8
1
  6
CONTINUOUS
 62
     9
 10
-231.9166666666667
 20
202.1666666666667
 11
-231.9166666666667
 21
202.1404807450975
  0
LINE
  8
1
  6
CONTINUOUS
 62
     9
 10
-225.4166666666667
 20
202.1666666666667
 11
-225.4166666666667
 21
202.1404807450975
  0
LINE
  8
1
  6
CONTINUOUS
 62
     7
 10
-231.9166666666667
 20
202.1404807450975
 11
-225.4166666666667
 21
202.1404807450975
  0
LINE
  8
1
  6
CONTINUOUS
 62
     9
 10
-222.4166666666667
 20
199.1666666666667
 11
-222.4428525882359
 21
199.1666666666667
  0
ARC
  8
1
  6
CONTINUOUS
 62
     7
 10
-225.4166666666667
 20
199.1666666666667
 40
2.973814078430812
 50
0.0
 51
90.0
  0
ARC
  8
1
  6
CONTINUOUS
 62
     7
 10
-323.9166666666667
 20
222.1666666666667
 40
2.973814078430823
 50
180.0
 51
270.0000000000002
  0
LINE
  8
1
  6
CONTINUOUS
 62
     9
 10
-326.9166666666667
 20
210.6666666666667
 11
-326.8904807450975
 21
210.6666666666667
  0
LINE
  8
1
  6
CONTINUOUS
 62
     9
 10
-323.9166666666667
 20
213.6666666666667
 11
-323.9166666666667
 21
213.6404807450975
  0
ARC
  8
1
  6
CONTINUOUS
 62
     7
 10
-323.9166666666667
 20
210.6666666666667
 40
2.973814078430812
 50
90.00000000000028
 51
180.0
  0
LINE
  8
1
  6
CONTINUOUS
 62
     9
 10
-323.9166666666667
 20
173.1666666666667
 11
-323.9166666666667
 21
173.1928525882359
  0
ARC
  8
1
  6
CONTINUOUS
 62
     7
 10
-323.9166666666667
 20
176.1666666666667
 40
2.973814078430823
 50
180.0
 51
270.0000000000002
  0
LINE
  8
1
  6
CONTINUOUS
 62
     7
 10
-323.9166666666667
 20
173.1928525882359
 11
-317.4166666666667
 21
173.1928525882359
  0
LINE
  8
1
  6
CONTINUOUS
 62
     9
 10
-231.9166666666667
 20
184.6666666666667
 11
-231.9166666666667
 21
184.6928525882359
  0
ARC
  8
1
  6
CONTINUOUS
 62
     7
 10
-231.9166666666667
 20
187.6666666666667
 40
2.973814078430812
 50
180.0
 51
270.0
  0
LINE
  8
1
  6
CONTINUOUS
 62
     9
 10
-317.4166666666667
 20
184.6666666666667
 11
-317.4166666666667
 21
184.6928525882359
  0
ARC
  8
1
  6
CONTINUOUS
 62
     7
 10
-317.4166666666667
 20
187.6666666666667
 40
2.973814078430812
 50
270.0
 51
0.0
  0
LINE
  8
1
  6
CONTINUOUS
 62
     9
 10
-231.9166666666667
 20
173.1666666666667
 11
-231.9166666666667
 21
173.1928525882359
  0
ARC
  8
1
  6
CONTINUOUS
 62
     7
 10
-231.9166666666667
 20
176.1666666666667
 40
2.973814078430812
 50
180.0
 51
270.0
  0
LINE
  8
1
  6
CONTINUOUS
 62
     7
 10
-317.4166666666667
 20
213.6404807450975
 11
-323.9166666666667
 21
213.6404807450975
  0
LINE
  8
1
  6
CONTINUOUS
 62
     9
 10
-225.4166666666667
 20
196.1666666666667
 11
-225.4166666666667
 21
196.1928525882359
  0
LINE
  8
1
  6
CONTINUOUS
 62
     9
 10
-231.9166666666667
 20
196.1666666666667
 11
-231.9166666666667
 21
196.1928525882359
  0
LINE
  8
1
  6
CONTINUOUS
 62
     7
 10
-225.4166666666667
 20
196.1928525882359
 11
-231.9166666666667
 21
196.1928525882359
  0
LINE
  8
1
  6
CONTINUOUS
 62
     9
 10
-323.9166666666667
 20
207.6666666666667
 11
-323.9166666666667
 21
207.6928525882359
  0
ARC
  8
1
  6
CONTINUOUS
 62
     7
 10
-323.9166666666667
 20
210.6666666666667
 40
2.973814078430823
 50
180.0
 51
270.0000000000002
  0
LINE
  8
1
  6
CONTINUOUS
 62
     7
 10
-323.9166666666667
 20
207.6928525882359
 11
-317.4166666666667
 21
207.6928525882359
  0
LINE
  8
1
  6
CONTINUOUS
 62
     7
 10
-323.9166666666667
 20
184.6928525882359
 11
-317.4166666666667
 21
184.6928525882359
  0
LINE
  8
1
  6
CONTINUOUS
 62
     9
 10
-234.9166666666667
 20
199.1666666666667
 11
-234.8904807450975
 21
199.1666666666667
  0
ARC
  8
1
  6
CONTINUOUS
 62
     7
 10
-231.9166666666667
 20
199.1666666666667
 40
2.973814078430812
 50
90.00000000000045
 51
180.0
  0
LINE
  8
1
  6
CONTINUOUS
 62
     9
 10
-225.4166666666667
 20
173.1666666666667
 11
-225.4166666666667
 21
173.1928525882359
  0
LINE
  8
1
  6
CONTINUOUS
 62
     7
 10
-225.4166666666667
 20
173.1928525882359
 11
-231.9166666666667
 21
173.1928525882359
  0
ARC
  8
1
  6
CONTINUOUS
 62
     7
 10
-323.9166666666667
 20
187.6666666666667
 40
2.973814078430812
 50
90.00000000000028
 51
180.0
  0
LINE
  8
1
  6
CONTINUOUS
 62
     9
 10
-225.4166666666667
 20
184.6666666666667
 11
-225.4166666666667
 21
184.6928525882359
  0
ARC
  8
1
  6
CONTINUOUS
 62
     7
 10
-225.4166666666667
 20
187.6666666666667
 40
2.973814078430812
 50
269.9999999999994
 51
0.0
  0
LINE
  8
1
  6
CONTINUOUS
 62
     7
 10
-225.4166666666667
 20
184.6928525882359
 11
-231.9166666666667
 21
184.6928525882359
  0
ARC
  8
1
  6
CONTINUOUS
 62
     7
 10
-231.9166666666667
 20
199.1666666666667
 40
2.973814078430812
 50
180.0
 51
270.0
  0
ARC
  8
1
  6
CONTINUOUS
 62
     7
 10
-225.4166666666667
 20
176.1666666666667
 40
2.973814078430812
 50
269.9999999999994
 51
0.0
  0
ARC
  8
1
  6
CONTINUOUS
 62
     7
 10
-225.4166666666667
 20
199.1666666666667
 40
2.973814078430812
 50
269.9999999999994
 51
0.0
  0
ARC
  8
1
  6
CONTINUOUS
 62
     7
 10
-179.4166666666667
 20
222.1666666666667
 40
2.973814078430812
 50
0.0
 51
89.99999999999972
  0
CIRCLE
  8
1
  6
CONTINUOUS
 62
     7
 10
-288.1666666666667
 20
193.4166666666667
 40
1.473814078430814
  0
CIRCLE
  8
1
  6
CONTINUOUS
 62
     7
 10
-196.1666666666667
 20
193.4166666666667
 40
1.473814078430814
  0
CIRCLE
  8
1
  6
CONTINUOUS
 62
     7
 10
-313.1666666666667
 20
181.9166666666667
 40
1.473814078430814
  0
CIRCLE
  8
1
  6
CONTINUOUS
 62
     7
 10
-242.1666666666667
 20
216.4166666666667
 40
1.473814078430814
  0
CIRCLE
  8
1
  6
CONTINUOUS
 62
     7
 10
-328.1666666666667
 20
181.9166666666667
 40
1.473814078430807
  0
CIRCLE
  8
1
  6
CONTINUOUS
 62
     7
 10
-175.1666666666667
 20
181.9166666666667
 40
1.473814078430807
  0
CIRCLE
  8
1
  6
CONTINUOUS
 62
     7
 10
-307.1666666666667
 20
193.4166666666667
 40
1.473814078430814
  0
CIRCLE
  8
1
  6
CONTINUOUS
 62
     7
 10
-313.1666666666667
 20
193.4166666666667
 40
1.473814078430814
  0
CIRCLE
  8
1
  6
CONTINUOUS
 62
     7
 10
-196.1666666666667
 20
204.9166666666667
 40
1.473814078430814
  0
CIRCLE
  8
1
  6
CONTINUOUS
 62
     7
 10
-282.1666666666667
 20
204.9166666666667
 40
1.473814078430814
  0
CIRCLE
  8
1
  6
CONTINUOUS
 62
     7
 10
-307.1666666666667
 20
227.9166666666667
 40
1.473814078430814
  0
CIRCLE
  8
1
  6
CONTINUOUS
 62
     7
 10
-267.1666666666667
 20
216.4166666666667
 40
1.473814078430814
  0
CIRCLE
  8
1
  6
CONTINUOUS
 62
     7
 10
-261.1666666666667
 20
170.4166666666667
 40
1.473814078430814
  0
CIRCLE
  8
1
  6
CONTINUOUS
 62
     7
 10
-215.1666666666667
 20
170.4166666666667
 40
1.473814078430814
  0
CIRCLE
  8
1
  6
CONTINUOUS
 62
     7
 10
-236.1666666666667
 20
181.9166666666667
 40
1.473814078430814
  0
CIRCLE
  8
1
  6
CONTINUOUS
 62
     7
 10
-215.1666666666667
 20
181.9166666666667
 40
1.473814078430814
  0
CIRCLE
  8
1
  6
CONTINUOUS
 62
     7
 10
-307.1666666666667
 20
204.9166666666667
 40
1.473814078430814
  0
CIRCLE
  8
1
  6
CONTINUOUS
 62
     7
 10
-196.1666666666667
 20
170.4166666666667
 40
1.473814078430814
  0
CIRCLE
  8
1
  6
CONTINUOUS
 62
     7
 10
-190.1666666666667
 20
193.4166666666667
 40
1.473814078430807
  0
CIRCLE
  8
1
  6
CONTINUOUS
 62
     7
 10
-169.1666666666667
 20
170.4166666666667
 40
1.473814078430807
  0
CIRCLE
  8
1
  6
CONTINUOUS
 62
     7
 10
-221.1666666666667
 20
193.4166666666667
 40
1.473814078430811
  0
CIRCLE
  8
1
  6
CONTINUOUS
 62
     7
 10
-307.1666666666667
 20
216.4166666666667
 40
1.473814078430814
  0
CIRCLE
  8
1
  6
CONTINUOUS
 62
     7
 10
-221.1666666666667
 20
181.9166666666667
 40
1.473814078430811
  0
CIRCLE
  8
1
  6
CONTINUOUS
 62
     7
 10
-313.1666666666667
 20
204.9166666666667
 40
1.473814078430814
  0
CIRCLE
  8
1
  6
CONTINUOUS
 62
     7
 10
-334.1666666666667
 20
170.4166666666667
 40
1.473814078430807
  0
CIRCLE
  8
1
  6
CONTINUOUS
 62
     7
 10
-313.1666666666667
 20
216.4166666666667
 40
1.473814078430814
  0
CIRCLE
  8
1
  6
CONTINUOUS
 62
     7
 10
-282.1666666666667
 20
193.4166666666667
 40
1.473814078430814
  0
CIRCLE
  8
1
  6
CONTINUOUS
 62
     7
 10
-175.1666666666667
 20
216.4166666666667
 40
1.473814078430807
  0
CIRCLE
  8
1
  6
CONTINUOUS
 62
     7
 10
-196.1666666666667
 20
181.9166666666667
 40
1.473814078430814
  0
CIRCLE
  8
1
  6
CONTINUOUS
 62
     7
 10
-221.1666666666667
 20
204.9166666666667
 40
1.473814078430811
  0
CIRCLE
  8
1
  6
CONTINUOUS
 62
     7
 10
-242.1666666666667
 20
170.4166666666667
 40
1.473814078430814
  0
CIRCLE
  8
1
  6
CONTINUOUS
 62
     7
 10
-175.1666666666667
 20
193.4166666666667
 40
1.473814078430807
  0
CIRCLE
  8
1
  6
CONTINUOUS
 62
     7
 10
-169.1666666666667
 20
193.4166666666667
 40
1.473814078430807
  0
CIRCLE
  8
1
  6
CONTINUOUS
 62
     7
 10
-261.1666666666667
 20
204.9166666666667
 40
1.473814078430814
  0
CIRCLE
  8
1
  6
CONTINUOUS
 62
     7
 10
-288.1666666666667
 20
216.4166666666667
 40
1.473814078430814
  0
CIRCLE
  8
1
  6
CONTINUOUS
 62
     7
 10
-236.1666666666667
 20
216.4166666666667
 40
1.473814078430814
  0
CIRCLE
  8
1
  6
CONTINUOUS
 62
     7
 10
-242.1666666666667
 20
227.9166666666667
 40
1.473814078430814
  0
CIRCLE
  8
1
  6
CONTINUOUS
 62
     7
 10
-236.1666666666667
 20
204.9166666666667
 40
1.473814078430814
  0
CIRCLE
  8
1
  6
CONTINUOUS
 62
     7
 10
-261.1666666666667
 20
181.9166666666667
 40
1.473814078430814
  0
CIRCLE
  8
1
  6
CONTINUOUS
 62
     7
 10
-236.1666666666667
 20
193.4166666666667
 40
1.473814078430814
  0
CIRCLE
  8
1
  6
CONTINUOUS
 62
     7
 10
-242.1666666666667
 20
204.9166666666667
 40
1.473814078430814
  0
CIRCLE
  8
1
  6
CONTINUOUS
 62
     7
 10
-288.1666666666667
 20
181.9166666666667
 40
1.473814078430814
  0
CIRCLE
  8
1
  6
CONTINUOUS
 62
     7
 10
-242.1666666666667
 20
193.4166666666667
 40
1.473814078430814
  0
CIRCLE
  8
1
  6
CONTINUOUS
 62
     7
 10
-190.1666666666667
 20
216.4166666666667
 40
1.473814078430807
  0
CIRCLE
  8
1
  6
CONTINUOUS
 62
     7
 10
-242.1666666666667
 20
181.9166666666667
 40
1.473814078430814
  0
CIRCLE
  8
1
  6
CONTINUOUS
 62
     7
 10
-190.1666666666667
 20
204.9166666666667
 40
1.473814078430807
  0
CIRCLE
  8
1
  6
CONTINUOUS
 62
     7
 10
-328.1666666666667
 20
216.4166666666667
 40
1.473814078430807
  0
CIRCLE
  8
1
  6
CONTINUOUS
 62
     7
 10
-215.1666666666667
 20
216.4166666666667
 40
1.473814078430814
  0
CIRCLE
  8
1
  6
CONTINUOUS
 62
     7
 10
-196.1666666666667
 20
227.9166666666667
 40
1.473814078430814
  0
CIRCLE
  8
1
  6
CONTINUOUS
 62
     7
 10
-282.1666666666667
 20
216.4166666666667
 40
1.473814078430814
  0
CIRCLE
  8
1
  6
CONTINUOUS
 62
     7
 10
-196.1666666666667
 20
216.4166666666667
 40
1.473814078430814
  0
CIRCLE
  8
1
  6
CONTINUOUS
 62
     7
 10
-215.1666666666667
 20
193.4166666666667
 40
1.473814078430814
  0
CIRCLE
  8
1
  6
CONTINUOUS
 62
     7
 10
-328.1666666666667
 20
193.4166666666667
 40
1.473814078430807
  0
CIRCLE
  8
1
  6
CONTINUOUS
 62
     7
 10
-169.1666666666667
 20
227.9166666666667
 40
1.473814078430807
  0
CIRCLE
  8
1
  6
CONTINUOUS
 62
     7
 10
-288.1666666666667
 20
227.9166666666667
 40
1.473814078430814
  0
CIRCLE
  8
1
  6
CONTINUOUS
 62
     7
 10
-282.1666666666667
 20
181.9166666666667
 40
1.473814078430814
  0
CIRCLE
  8
1
  6
CONTINUOUS
 62
     7
 10
-261.1666666666667
 20
227.9166666666667
 40
1.473814078430814
  0
CIRCLE
  8
1
  6
CONTINUOUS
 62
     7
 10
-221.1666666666667
 20
216.4166666666667
 40
1.473814078430811
  0
CIRCLE
  8
1
  6
CONTINUOUS
 62
     7
 10
-261.1666666666667
 20
216.4166666666667
 40
1.473814078430814
  0
CIRCLE
  8
1
  6
CONTINUOUS
 62
     7
 10
-215.1666666666667
 20
227.9166666666667
 40
1.473814078430814
  0
CIRCLE
  8
1
  6
CONTINUOUS
 62
     7
 10
-169.1666666666667
 20
204.9166666666667
 40
1.473814078430807
  0
CIRCLE
  8
1
  6
CONTINUOUS
 62
     7
 10
-169.1666666666667
 20
181.9166666666667
 40
1.473814078430807
  0
CIRCLE
  8
1
  6
CONTINUOUS
 62
     7
 10
-261.1666666666667
 20
193.4166666666667
 40
1.473814078430814
  0
CIRCLE
  8
1
  6
CONTINUOUS
 62
     7
 10
-190.1666666666667
 20
181.9166666666667
 40
1.473814078430807
  0
CIRCLE
  8
1
  6
CONTINUOUS
 62
     7
 10
-328.1666666666667
 20
204.9166666666667
 40
1.473814078430807
  0
CIRCLE
  8
1
  6
CONTINUOUS
 62
     7
 10
-288.1666666666667
 20
204.9166666666667
 40
1.473814078430814
  0
CIRCLE
  8
1
  6
CONTINUOUS
 62
     7
 10
-334.1666666666667
 20
181.9166666666667
 40
1.473814078430807
  0
CIRCLE
  8
1
  6
CONTINUOUS
 62
     7
 10
-334.1666666666667
 20
204.9166666666667
 40
1.473814078430807
  0
CIRCLE
  8
1
  6
CONTINUOUS
 62
     7
 10
-307.1666666666667
 20
181.9166666666667
 40
1.473814078430814
  0
CIRCLE
  8
1
  6
CONTINUOUS
 62
     7
 10
-334.1666666666667
 20
227.9166666666667
 40
1.473814078430807
  0
CIRCLE
  8
1
  6
CONTINUOUS
 62
     7
 10
-307.1666666666667
 20
170.4166666666667
 40
1.473814078430814
  0
CIRCLE
  8
1
  6
CONTINUOUS
 62
     7
 10
-334.1666666666667
 20
216.4166666666667
 40
1.473814078430807
  0
CIRCLE
  8
1
  6
CONTINUOUS
 62
     7
 10
-175.1666666666667
 20
204.9166666666667
 40
1.473814078430807
  0
CIRCLE
  8
1
  6
CONTINUOUS
 62
     7
 10
-267.1666666666667
 20
193.4166666666667
 40
1.473814078430814
  0
CIRCLE
  8
1
  6
CONTINUOUS
 62
     7
 10
-267.1666666666667
 20
181.9166666666667
 40
1.473814078430814
  0
CIRCLE
  8
1
  6
CONTINUOUS
 62
     7
 10
-215.1666666666667
 20
204.9166666666667
 40
1.473814078430814
  0
CIRCLE
  8
1
  6
CONTINUOUS
 62
     7
 10
-334.1666666666667
 20
193.4166666666667
 40
1.473814078430807
  0
CIRCLE
  8
1
  6
CONTINUOUS
 62
     7
 10
-169.1666666666667
 20
216.4166666666667
 40
1.473814078430807
  0
CIRCLE
  8
1
  6
CONTINUOUS
 62
     7
 10
-288.1666666666667
 20
170.4166666666667
 40
1.473814078430814
  0
CIRCLE
  8
1
  6
CONTINUOUS
 62
     7
 10
-267.1666666666667
 20
204.9166666666667
 40
1.473814078430814
  0
ENDBLK
  8
0
  0
ENDSEC
  0
SECTION
  2
ENTITIES
  0
INSERT
  8
1
  6
CONTINUOUS
 62
     7
  2
D_FRAME_VIEW_2962
 10
0.0
 20
0.0
 30
0.0
  0
INSERT
  8
1
  6
CONTINUOUS
 62
     7
  2
D_FRAME_VIEW_2590
 10
0.0
 20
0.0
 30
0.0
  0
INSERT
  8
1
  6
CONTINUOUS
 62
     7
  2
D_FRAME_VIEW_1491
 10
0.0
 20
0.0
 30
0.0
  0
LINE
  8
1
  6
CONTINUOUS
 62
     7
 10
-114.5070554528679
 20
259.1666666666666
 11
-114.5070554528679
 21
139.1666666666667
  0
LINE
  8
1
  6
CONTINUOUS
 62
     7
 10
-157.7071792941132
 20
90.67372211953456
 11
-157.8911662126128
 21
83.64754517122661
  0
LINE
  8
1
  6
CONTINUOUS
 62
     7
 10
-111.5070554528679
 20
259.1666666666666
 11
-111.5070554528679
 21
139.1666666666667
  0
LINE
  8
1
  6
CONTINUOUS
 62
     7
 10
-355.6666666666666
 20
90.67372211953456
 11
-355.6666666666666
 21
93.67372211953456
  0
LINE
  8
1
  6
CONTINUOUS
 62
     7
 10
-147.6666666666666
 20
93.67372211953456
 11
-355.6666666666666
 21
93.67372211953456
  0
LINE
  8
1
  6
CONTINUOUS
 62
     7
 10
-103.5070554528678
 20
162.6666666666667
 11
-103.5070554528678
 21
161.6408235375884
  0
LINE
  8
1
  6
CENTER
 62
     1
 10
-251.6666666666667
 20
124.1666666666667
 11
-251.6666666666667
 21
269.1666666666667
  0
LINE
  8
1
  6
CONTINUOUS
 62
     7
 10
-103.5070554528678
 20
236.692509795745
 11
-103.5070554528678
 21
235.6666666666666
  0
LINE
  8
1
  6
CONTINUOUS
 62
     7
 10
-104.4808785045599
 20
160.6411662126128
 11
-111.5070554528679
 21
160.4571792941132
  0
LINE
  8
1
  6
CENTER
 62
     1
 10
-120.8333333333333
 20
199.1666666666667
 11
-60.83333333333332
 21
199.1666666666667
  0
LINE
  8
1
  6
CONTINUOUS
 62
     7
 10
-147.6666666666666
 20
90.67372211953456
 11
-355.6666666666666
 21
90.67372211953456
  0
LINE
  8
1
  6
CONTINUOUS
 62
     7
 10
-114.5070554528679
 20
139.1666666666667
 11
-111.5070554528679
 21
139.1666666666667
  0
LINE
  8
1
  6
CENTER
 62
     1
 10
-251.6666666666667
 20
40.00000000000003
 11
-251.6666666666667
 21
100.0
  0
LINE
  8
1
  6
CONTINUOUS
 62
     7
 10
-111.5070554528679
 20
237.8761540392202
 11
-104.4808785045599
 21
237.6921671207205
  0
LINE
  8
1
  6
CONTINUOUS
 62
     7
 10
-114.5070554528679
 20
259.1666666666666
 11
-111.5070554528679
 21
259.1666666666666
  0
LINE
  8
1
  6
CONTINUOUS
 62
     7
 10
-147.6666666666666
 20
90.67372211953456
 11
-147.6666666666666
 21
93.67372211953456
  0
LINE
  8
1
  6
CONTINUOUS
 62
     7
 10
-345.4421671207206
 20
83.64754517122661
 11
-345.6261540392202
 21
90.67372211953456
  0
TEXT
  8
1
  6
CONTINUOUS
 62
     7
 10
-107.7607707056813
 20
72.49508669917887
 40
3.0
  1
BZ-4CRS
  0
LINE
  8
1
  6
CONTINUOUS
 62
     2
 10
-107.6189393939394
 20
71.93712121212123
 11
-95.71439393939397
 21
71.93712121212123
  0
ENDSEC
  0
EOF
