  0
SECTION
  2
HEADER
  9
$ACADVER
  1
AC1014
  9
$ACADMAINTVER
 70
     9
  9
$DWGCODEPAGE
  3
ANSI_932
  9
$INSBASE
 10
0.0
 20
0.0
 30
0.0
  9
$EXTMIN
 10
720.1185678970994
 20
-11.88541590909102
 30
0.0
  9
$EXTMAX
 10
1512.161654954399
 20
410.0349683809004
 30
0.0
  9
$LIMMIN
 10
0.0
 20
0.0
  9
$LIMMAX
 10
12.0
 20
9.0
  9
$ORTHOMODE
 70
     0
  9
$REGENMODE
 70
     1
  9
$FILLMODE
 70
     1
  9
$QTEXTMODE
 70
     0
  9
$MIRRTEXT
 70
     1
  9
$DRAGMODE
 70
     2
  9
$LTSCALE
 40
1.0
  9
$OSMODE
 70
    37
  9
$ATTMODE
 70
     1
  9
$TEXTSIZE
 40
0.2
  9
$TRACEWID
 40
0.05
  9
$TEXTSTYLE
  7
STANDARD
  9
$CLAYER
  8
0
  9
$CELTYPE
  6
BYLAYER
  9
$CECOLOR
 62
   256
  9
$CELTSCALE
 40
1.0
  9
$DELOBJ
 70
     1
  9
$DISPSILH
 70
     0
  9
$DIMSCALE
 40
1.0
  9
$DIMASZ
 40
1.5
  9
$DIMEXO
 40
0.0625
  9
$DIMDLI
 40
0.38
  9
$DIMRND
 40
0.0
  9
$DIMDLE
 40
0.0
  9
$DIMEXE
 40
0.75
  9
$DIMTP
 40
0.0
  9
$DIMTM
 40
0.0
  9
$DIMTXT
 40
3.0
  9
$DIMCEN
 40
0.09
  9
$DIMTSZ
 40
0.0
  9
$DIMTOL
 70
     0
  9
$DIMLIM
 70
     0
  9
$DIMTIH
 70
     1
  9
$DIMTOH
 70
     1
  9
$DIMSE1
 70
     0
  9
$DIMSE2
 70
     0
  9
$DIMTAD
 70
     1
  9
$DIMZIN
 70
     0
  9
$DIMBLK
  1

  9
$DIMASO
 70
     1
  9
$DIMSHO
 70
     1
  9
$DIMPOST
  1

  9
$DIMAPOST
  1

  9
$DIMALT
 70
     0
  9
$DIMALTD
 70
     2
  9
$DIMALTF
 40
25.4
  9
$DIMLFAC
 40
1.0
  9
$DIMTOFL
 70
     0
  9
$DIMTVP
 40
0.0
  9
$DIMTIX
 70
     0
  9
$DIMSOXD
 70
     0
  9
$DIMSAH
 70
     0
  9
$DIMBLK1
  1

  9
$DIMBLK2
  1

  9
$DIMSTYLE
  2
STANDARD
  9
$DIMCLRD
 70
     0
  9
$DIMCLRE
 70
     0
  9
$DIMCLRT
 70
     0
  9
$DIMTFAC
 40
1.0
  9
$DIMGAP
 40
1.5
  9
$DIMJUST
 70
     0
  9
$DIMSD1
 70
     0
  9
$DIMSD2
 70
     0
  9
$DIMTOLJ
 70
     1
  9
$DIMTZIN
 70
     0
  9
$DIMALTZ
 70
     0
  9
$DIMALTTZ
 70
     0
  9
$DIMFIT
 70
     3
  9
$DIMUPT
 70
     0
  9
$DIMUNIT
 70
     2
  9
$DIMDEC
 70
     2
  9
$DIMTDEC
 70
     4
  9
$DIMALTU
 70
     2
  9
$DIMALTTD
 70
     2
  9
$DIMTXSTY
  7
ＭＳ_ゴシック
  9
$DIMAUNIT
 70
     0
  9
$LUNITS
 70
     2
  9
$LUPREC
 70
     4
  9
$SKETCHINC
 40
0.1
  9
$FILLETRAD
 40
0.5
  9
$AUNITS
 70
     0
  9
$AUPREC
 70
     0
  9
$MENU
  1
.
  9
$ELEVATION
 40
0.0
  9
$PELEVATION
 40
0.0
  9
$THICKNESS
 40
0.0
  9
$LIMCHECK
 70
     0
  9
$CHAMFERA
 40
0.0
  9
$CHAMFERB
 40
0.0
  9
$CHAMFERC
 40
0.0
  9
$CHAMFERD
 40
0.0
  9
$SKPOLY
 70
     0
  9
$TDCREATE
 40
2460734.48803257
  9
$TDUPDATE
 40
2460734.488033322
  9
$TDINDWG
 40
0.0000000116
  9
$TDUSRTIMER
 40
0.0000000116
  9
$USRTIMER
 70
     1
  9
$ANGBASE
 50
0.0
  9
$ANGDIR
 70
     0
  9
$PDMODE
 70
     0
  9
$PDSIZE
 40
0.0
  9
$PLINEWID
 40
0.0
  9
$COORDS
 70
     1
  9
$SPLFRAME
 70
     0
  9
$SPLINETYPE
 70
     6
  9
$SPLINESEGS
 70
     8
  9
$ATTDIA
 70
     0
  9
$ATTREQ
 70
     1
  9
$HANDLING
 70
     1
  9
$HANDSEED
  5
3E2
  9
$SURFTAB1
 70
     6
  9
$SURFTAB2
 70
     6
  9
$SURFTYPE
 70
     6
  9
$SURFU
 70
     6
  9
$SURFV
 70
     6
  9
$UCSNAME
  2

  9
$UCSORG
 10
0.0
 20
0.0
 30
0.0
  9
$UCSXDIR
 10
1.0
 20
0.0
 30
0.0
  9
$UCSYDIR
 10
0.0
 20
1.0
 30
0.0
  9
$PUCSNAME
  2

  9
$PUCSORG
 10
0.0
 20
0.0
 30
0.0
  9
$PUCSXDIR
 10
1.0
 20
0.0
 30
0.0
  9
$PUCSYDIR
 10
0.0
 20
1.0
 30
0.0
  9
$USERI1
 70
     0
  9
$USERI2
 70
     0
  9
$USERI3
 70
     0
  9
$USERI4
 70
     0
  9
$USERI5
 70
     0
  9
$USERR1
 40
0.0
  9
$USERR2
 40
0.0
  9
$USERR3
 40
0.0
  9
$USERR4
 40
0.0
  9
$USERR5
 40
0.0
  9
$WORLDVIEW
 70
     1
  9
$SHADEDGE
 70
     3
  9
$SHADEDIF
 70
    70
  9
$TILEMODE
 70
     1
  9
$MAXACTVP
 70
    64
  9
$PINSBASE
 10
0.0
 20
0.0
 30
0.0
  9
$PLIMCHECK
 70
     0
  9
$PEXTMIN
 10
1.000000000000000E+20
 20
1.000000000000000E+20
 30
1.000000000000000E+20
  9
$PEXTMAX
 10
-1.000000000000000E+20
 20
-1.000000000000000E+20
 30
-1.000000000000000E+20
  9
$PLIMMIN
 10
0.0
 20
0.0
  9
$PLIMMAX
 10
12.0
 20
9.0
  9
$UNITMODE
 70
     0
  9
$VISRETAIN
 70
     1
  9
$PLINEGEN
 70
     0
  9
$PSLTSCALE
 70
     1
  9
$TREEDEPTH
 70
  3020
  9
$PICKSTYLE
 70
     1
  9
$CMLSTYLE
  2
STANDARD
  9
$CMLJUST
 70
     0
  9
$CMLSCALE
 40
1.0
  9
$PROXYGRAPHICS
 70
     1
  9
$MEASUREMENT
 70
     1
  0
ENDSEC
  0
SECTION
  2
CLASSES
  0
CLASS
  1
ACDBDICTIONARYWDFLT
  2
AcDbDictionaryWithDefault
  3
ObjectDBX Classes
 90
        0
280
     0
281
     0
  0
CLASS
  1
VISUALSTYLE
  2
AcDbVisualStyle
  3
ObjectDBX Classes
 90
     4095
280
     0
281
     0
  0
CLASS
  1
MATERIAL
  2
AcDbMaterial
  3
ObjectDBX Classes
 90
     1153
280
     0
281
     0
  0
CLASS
  1
SCALE
  2
AcDbScale
  3
ObjectDBX Classes
 90
     1153
280
     0
281
     0
  0
CLASS
  1
TABLESTYLE
  2
AcDbTableStyle
  3
ObjectDBX Classes
 90
     4095
280
     0
281
     0
  0
CLASS
  1
MLEADERSTYLE
  2
AcDbMLeaderStyle
  3
ACDB_MLEADERSTYLE_CLASS
 90
     4095
280
     0
281
     0
  0
CLASS
  1
SUN
  2
AcDbSun
  3
SCENEOE
 90
     1153
280
     0
281
     0
  0
CLASS
  1
DICTIONARYVAR
  2
AcDbDictionaryVar
  3
ObjectDBX Classes
 90
        0
280
     0
281
     0
  0
CLASS
  1
XRECORD
  2
AcDbXrecord
  3
ObjectDBX Classes
 90
        0
280
     0
281
     0
  0
CLASS
  1
LWPOLYLINE
  2
AcDbPolyline
  3
ObjectDBX Classes
 90
        0
280
     0
281
     1
  0
CLASS
  1
HATCH
  2
AcDbHatch
  3
ObjectDBX Classes
 90
        0
280
     0
281
     1
  0
CLASS
  1
ACDBPLACEHOLDER
  2
AcDbPlaceHolder
  3
ObjectDBX Classes
 90
        0
280
     0
281
     0
  0
CLASS
  1
LAYOUT
  2
AcDbLayout
  3
ObjectDBX Classes
 90
        0
280
     0
281
     0
  0
ENDSEC
  0
SECTION
  2
TABLES
  0
TABLE
  2
VPORT
  5
8
102
{ACAD_XDICTIONARY
360
3D7
102
}
330
0
100
AcDbSymbolTable
 70
     1
  0
VPORT
  5
29
330
8
100
AcDbSymbolTableRecord
100
AcDbViewportTableRecord
  2
*ACTIVE
 70
     0
 10
0.0
 20
0.0
 11
1.0
 21
1.0
 12
1116.140111425749
 22
199.0747762359047
 13
0.0
 23
0.0
 14
0.5
 24
0.5
 15
0.5
 25
0.5
 16
0.0
 26
0.0
 36
1.0
 17
0.0
 27
0.0
 37
0.0
 40
421.9203842899914
 41
1.6
 42
50.0
 43
0.0
 44
0.0
 50
0.0
 51
0.0
 71
     0
 72
   100
 73
     1
 74
     3
 75
     0
 76
     0
 77
     0
 78
     0
  0
ENDTAB
  0
TABLE
  2
LTYPE
  5
5
330
0
100
AcDbSymbolTable
 70
     3
  0
LTYPE
  5
14
330
5
100
AcDbSymbolTableRecord
100
AcDbLinetypeTableRecord
  2
BYBLOCK
 70
     0
  3

 72
    65
 73
     0
 40
0.0
  0
LTYPE
  5
15
330
5
100
AcDbSymbolTableRecord
100
AcDbLinetypeTableRecord
  2
BYLAYER
 70
     0
  3

 72
    65
 73
     0
 40
0.0
  0
LTYPE
  5
16
330
5
100
AcDbSymbolTableRecord
100
AcDbLinetypeTableRecord
  2
CONTINUOUS
 70
     0
  3
Solid line
 72
    65
 73
     0
 40
0.0
  0
LTYPE
  5
74
330
5
100
AcDbSymbolTableRecord
100
AcDbLinetypeTableRecord
  2
CENTER
 70
     0
  3

 72
    65
 73
     0
 40
0.0
  0
LTYPE
  5
17F
330
5
100
AcDbSymbolTableRecord
100
AcDbLinetypeTableRecord
  2
DASHED
 70
     0
  3

 72
    65
 73
     0
 40
0.0
  0
ENDTAB
  0
TABLE
  2
LAYER
  5
2
330
0
100
AcDbSymbolTable
 70
     2
  0
LAYER
  5
10
330
2
100
AcDbSymbolTableRecord
100
AcDbLayerTableRecord
  2
0
 70
     0
 62
     7
  6
CONTINUOUS
  0
LAYER
  5
6E
330
2
100
AcDbSymbolTableRecord
100
AcDbLayerTableRecord
  2
1
 70
     0
 62
     7
  6
CONTINUOUS
  0
ENDTAB
  0
TABLE
  2
STYLE
  5
3
330
0
100
AcDbSymbolTable
 70
     2
  0
STYLE
  5
11
330
3
100
AcDbSymbolTableRecord
100
AcDbTextStyleTableRecord
  2
STANDARD
 70
     0
 40
0.0
 41
1.0
 50
0.0
 71
     0
 42
0.2
  3
txt
  4

  0
STYLE
  5
6F
330
3
100
AcDbSymbolTableRecord
100
AcDbTextStyleTableRecord
  2
ＭＳ_ゴシック
 70
     0
 40
0.0
 41
1.0
 50
0.0
 71
     0
 42
0.2
  3
ＭＳ ゴシック.shx
  4

  0
ENDTAB
  0
TABLE
  2
VIEW
  5
6
330
0
100
AcDbSymbolTable
 70
     0
  0
ENDTAB
  0
TABLE
  2
UCS
  5
7
330
0
100
AcDbSymbolTable
 70
     0
  0
ENDTAB
  0
TABLE
  2
APPID
  5
9
330
0
100
AcDbSymbolTable
 70
     2
  0
APPID
  5
12
330
9
100
AcDbSymbolTableRecord
100
AcDbRegAppTableRecord
  2
ACAD
 70
     0
  0
APPID
  5
3E1
330
9
100
AcDbSymbolTableRecord
100
AcDbRegAppTableRecord
  2
ACAD_MLEADERVER
 70
     0
  0
ENDTAB
  0
TABLE
  2
DIMSTYLE
  5
A
330
0
100
AcDbSymbolTable
 70
     1
  0
DIMSTYLE
105
27
330
A
100
AcDbSymbolTableRecord
100
AcDbDimStyleTableRecord
  2
STANDARD
 70
     0
  3

  4

  5

  6

  7

 40
1.0
 41
0.18
 42
0.0625
 43
0.38
 44
0.18
 45
0.0
 46
0.0
 47
0.0
 48
0.0
140
0.18
141
0.09
142
0.0
143
25.4
144
1.0
145
0.0
146
1.0
147
0.09
 71
     0
 72
     0
 73
     1
 74
     1
 75
     0
 76
     0
 77
     0
 78
     0
170
     0
171
     2
172
     0
173
     0
174
     0
175
     0
176
     0
177
     0
178
     0
270
     2
271
     4
272
     4
273
     2
274
     2
340
11
275
     0
280
     0
281
     0
282
     0
283
     1
284
     0
285
     0
286
     0
287
     3
288
     0
  0
ENDTAB
  0
TABLE
  2
BLOCK_RECORD
  5
1
330
0
100
AcDbSymbolTable
 70
     0
  0
BLOCK_RECORD
  5
1F
330
1
100
AcDbSymbolTableRecord
100
AcDbBlockTableRecord
  2
*MODEL_SPACE
  0
BLOCK_RECORD
  5
1B
330
1
100
AcDbSymbolTableRecord
100
AcDbBlockTableRecord
  2
*PAPER_SPACE
  0
ENDTAB
  0
ENDSEC
  0
SECTION
  2
BLOCKS
  0
BLOCK
  5
20
330
1F
100
AcDbEntity
  8
0
100
AcDbBlockBegin
  2
*MODEL_SPACE
 70
     0
 10
0.0
 20
0.0
 30
0.0
  3
*MODEL_SPACE
  1

  0
ENDBLK
  5
21
330
1F
100
AcDbEntity
  8
0
100
AcDbBlockEnd
  0
BLOCK
  5
1C
330
1B
100
AcDbEntity
 67
     1
  8
0
100
AcDbBlockBegin
  2
*PAPER_SPACE
 70
     0
 10
0.0
 20
0.0
 30
0.0
  3
*PAPER_SPACE
  1

  0
ENDBLK
  5
1D
330
1B
100
AcDbEntity
 67
     1
  8
0
100
AcDbBlockEnd
  0
ENDSEC
  0
SECTION
  2
ENTITIES
  0
ARC
  5
70
330
1F
100
AcDbEntity
  8
1
  6
CONTINUOUS
 62
     7
100
AcDbCircle
 10
761.1185678970988
 20
58.03496838090005
 30
0.0
 40
8.000000000000007
100
AcDbArc
 50
180.0
 51
270.0
  0
LINE
  5
71
330
1F
100
AcDbEntity
  8
1
  6
CONTINUOUS
 62
     7
100
AcDbLine
 10
1000.618567897099
 20
360.0349683808997
 30
0.0
 11
1000.618567897099
 21
354.3650953998005
 31
0.0
  0
LINE
  5
72
330
1F
100
AcDbEntity
  8
1
  6
CONTINUOUS
 62
     7
100
AcDbLine
 10
776.1185678970994
 20
336.0349683808996
 30
0.0
 11
776.1185678970994
 21
324.0349683809001
 31
0.0
  0
LINE
  5
73
330
1F
100
AcDbEntity
  8
1
  6
CENTER
 62
     7
100
AcDbLine
 10
998.118567897099
 20
410.0349683809004
 30
0.0
 11
998.118567897099
 21
30.03496838089964
 31
0.0
  0
ARC
  5
75
330
1F
100
AcDbEntity
  8
1
  6
CONTINUOUS
 62
     7
100
AcDbCircle
 10
733.1185678970993
 20
189.7854196106001
 30
0.0
 40
3.000000000000114
100
AcDbArc
 50
180.0
 51
265.0302592719
  0
CIRCLE
  5
76
330
1F
100
AcDbEntity
  8
1
  6
CONTINUOUS
 62
     7
100
AcDbCircle
 10
1168.118567897099
 20
355.0349683808997
 30
0.0
 40
17.24999999999977
  0
CIRCLE
  5
77
330
1F
100
AcDbEntity
  8
1
  6
CONTINUOUS
 62
     7
100
AcDbCircle
 10
1111.118567897099
 20
355.0349683808997
 30
0.0
 40
13.49999999999962
  0
LINE
  5
78
330
1F
100
AcDbEntity
  8
1
  6
CONTINUOUS
 62
     7
100
AcDbLine
 10
1220.118567897099
 20
336.0349683808996
 30
0.0
 11
1220.118567897099
 21
324.0349683809001
 31
0.0
  0
LINE
  5
79
330
1F
100
AcDbEntity
  8
1
  6
CONTINUOUS
 62
     7
100
AcDbLine
 10
1235.118567897099
 20
50.03496838090005
 30
0.0
 11
761.1185678970988
 21
50.03496838090005
 31
0.0
  0
LINE
  5
7A
330
1F
100
AcDbEntity
  8
1
  6
CONTINUOUS
 62
     7
100
AcDbLine
 10
1218.1185678971
 20
334.0349683808998
 30
0.0
 11
778.1185678970992
 21
334.0349683808998
 31
0.0
  0
LINE
  5
7B
330
1F
100
AcDbEntity
  8
1
  6
CONTINUOUS
 62
     7
100
AcDbLine
 10
1208.118567897099
 20
74.03496838090007
 30
0.0
 11
1208.118567897099
 21
72.03496838090028
 31
0.0
  0
LINE
  5
7C
330
1F
100
AcDbEntity
  8
1
  6
CONTINUOUS
 62
     7
100
AcDbLine
 10
788.118567897099
 20
334.0349683808998
 30
0.0
 11
788.118567897099
 21
336.0349683808996
 31
0.0
  0
LINE
  5
7D
330
1F
100
AcDbEntity
  8
1
  6
CONTINUOUS
 62
     7
100
AcDbLine
 10
1208.118567897099
 20
334.0349683808998
 30
0.0
 11
1208.118567897099
 21
336.0349683808996
 31
0.0
  0
LINE
  5
7E
330
1F
100
AcDbEntity
  8
1
  6
CONTINUOUS
 62
     7
100
AcDbLine
 10
769.5358306618996
 20
376.6177056160993
 30
0.0
 11
1226.201305132299
 21
376.6177056160993
 31
0.0
  0
LINE
  5
7F
330
1F
100
AcDbEntity
  8
1
  6
CENTER
 62
     7
100
AcDbLine
 10
720.1185678970994
 20
220.0349683809
 30
0.0
 11
1263.118567897099
 21
220.0349683809
 31
0.0
  0
LINE
  5
80
330
1F
100
AcDbEntity
  8
1
  6
CONTINUOUS
 62
     7
100
AcDbLine
 10
1226.201305132299
 20
63.45223114570064
 30
0.0
 11
769.5358306618996
 21
63.45223114570064
 31
0.0
  0
LINE
  5
81
330
1F
100
AcDbEntity
  8
1
  6
CONTINUOUS
 62
     7
100
AcDbLine
 10
1243.118567897099
 20
129.0349683808998
 30
0.0
 11
1260.118567897099
 21
129.0349683808998
 31
0.0
  0
ARC
  5
82
330
1F
100
AcDbEntity
  8
1
  6
CONTINUOUS
 62
     7
100
AcDbCircle
 10
769.5358306618996
 20
66.45223114570075
 30
0.0
 40
3.000000000000114
100
AcDbArc
 50
180.0
 51
270.0
  0
ARC
  5
83
330
1F
100
AcDbEntity
  8
1
  6
CONTINUOUS
 62
     7
100
AcDbCircle
 10
1226.201305132299
 20
373.6177056160992
 30
0.0
 40
3.000000000000114
100
AcDbArc
 50
0.0
 51
90.0
  0
ARC
  5
84
330
1F
100
AcDbEntity
  8
1
  6
CONTINUOUS
 62
     7
100
AcDbCircle
 10
1226.201305132299
 20
66.45223114570075
 30
0.0
 40
3.000000000000114
100
AcDbArc
 50
270.0
 51
0.0
  0
ARC
  5
85
330
1F
100
AcDbEntity
  8
1
  6
CONTINUOUS
 62
     7
100
AcDbCircle
 10
761.1185678970988
 20
382.0349683808999
 30
0.0
 40
8.000000000000007
100
AcDbArc
 50
90.0
 51
180.0
  0
LINE
  5
86
330
1F
100
AcDbEntity
  8
1
  6
CONTINUOUS
 62
     7
100
AcDbLine
 10
753.1185678970988
 20
58.03496838090005
 30
0.0
 11
753.1185678970988
 21
382.0349683808998
 31
0.0
  0
ARC
  5
87
330
1F
100
AcDbEntity
  8
1
  6
CONTINUOUS
 62
     7
100
AcDbCircle
 10
1235.118567897099
 20
382.0349683808999
 30
0.0
 40
8.000000000000007
100
AcDbArc
 50
0.0
 51
90.0
  0
LINE
  5
88
330
1F
100
AcDbEntity
  8
1
  6
CONTINUOUS
 62
     7
100
AcDbLine
 10
1208.118567897099
 20
72.03496838090028
 30
0.0
 11
1220.118567897099
 21
72.03496838090028
 31
0.0
  0
LINE
  5
89
330
1F
100
AcDbEntity
  8
1
  6
CONTINUOUS
 62
     7
100
AcDbLine
 10
1220.118567897099
 20
84.03496838089985
 30
0.0
 11
1218.1185678971
 21
84.03496838089985
 31
0.0
  0
ARC
  5
8A
330
1F
100
AcDbEntity
  8
1
  6
CONTINUOUS
 62
     7
100
AcDbCircle
 10
769.5358306618996
 20
373.6177056160992
 30
0.0
 40
3.000000000000114
100
AcDbArc
 50
90.0
 51
180.0
  0
LINE
  5
8B
330
1F
100
AcDbEntity
  8
1
  6
CONTINUOUS
 62
     7
100
AcDbLine
 10
1260.118567897099
 20
129.0349683808998
 30
0.0
 11
1260.118567897099
 21
101.0349683809002
 31
0.0
  0
LINE
  5
8C
330
1F
100
AcDbEntity
  8
1
  6
CONTINUOUS
 62
     7
100
AcDbLine
 10
1243.118567897099
 20
382.0349683808999
 30
0.0
 11
1243.118567897099
 21
58.03496838090011
 31
0.0
  0
LINE
  5
8D
330
1F
100
AcDbEntity
  8
1
  6
CONTINUOUS
 62
     7
100
AcDbLine
 10
1218.1185678971
 20
74.03496838090007
 30
0.0
 11
778.1185678970992
 21
74.03496838090007
 31
0.0
  0
LINE
  5
8E
330
1F
100
AcDbEntity
  8
1
  6
CONTINUOUS
 62
     7
100
AcDbLine
 10
788.118567897099
 20
336.0349683808996
 30
0.0
 11
776.1185678970994
 21
336.0349683808996
 31
0.0
  0
LINE
  5
8F
330
1F
100
AcDbEntity
  8
1
  6
CONTINUOUS
 62
     7
100
AcDbLine
 10
995.6185678970994
 20
360.0349683808997
 30
0.0
 11
995.6185678970994
 21
354.3650953998005
 31
0.0
  0
LINE
  5
90
330
1F
100
AcDbEntity
  8
1
  6
CONTINUOUS
 62
     7
100
AcDbLine
 10
778.1185678970992
 20
74.03496838090007
 30
0.0
 11
778.1185678970992
 21
334.0349683808998
 31
0.0
  0
LINE
  5
91
330
1F
100
AcDbEntity
  8
1
  6
CONTINUOUS
 62
     7
100
AcDbLine
 10
1218.1185678971
 20
74.03496838090007
 30
0.0
 11
1218.1185678971
 21
334.0349683808998
 31
0.0
  0
LINE
  5
92
330
1F
100
AcDbEntity
  8
1
  6
CONTINUOUS
 62
     7
100
AcDbLine
 10
1220.118567897099
 20
72.03496838090028
 30
0.0
 11
1220.118567897099
 21
84.03496838089985
 31
0.0
  0
LINE
  5
93
330
1F
100
AcDbEntity
  8
1
  6
CONTINUOUS
 62
     7
100
AcDbLine
 10
776.1185678970994
 20
72.03496838090028
 30
0.0
 11
776.1185678970994
 21
84.03496838089985
 31
0.0
  0
ARC
  5
94
330
1F
100
AcDbEntity
  8
1
  6
CONTINUOUS
 62
     7
100
AcDbCircle
 10
1235.118567897099
 20
58.03496838090005
 30
0.0
 40
8.000000000000007
100
AcDbArc
 50
270.0
 51
0.0
  0
LINE
  5
95
330
1F
100
AcDbEntity
  8
1
  6
CONTINUOUS
 62
     7
100
AcDbLine
 10
1260.118567897099
 20
101.0349683809002
 30
0.0
 11
1243.118567897099
 21
101.0349683809002
 31
0.0
  0
ARC
  5
96
330
1F
100
AcDbEntity
  8
1
  6
CONTINUOUS
 62
     7
100
AcDbCircle
 10
998.118567897099
 20
360.0349683808997
 30
0.0
 40
2.500000000000391
100
AcDbArc
 50
0.0
 51
180.0
  0
LINE
  5
97
330
1F
100
AcDbEntity
  8
1
  6
CONTINUOUS
 62
     7
100
AcDbLine
 10
1235.118567897099
 20
390.0349683808999
 30
0.0
 11
761.1185678970988
 21
390.0349683808999
 31
0.0
  0
LINE
  5
98
330
1F
100
AcDbEntity
  8
1
  6
CONTINUOUS
 62
     7
100
AcDbLine
 10
1208.118567897099
 20
336.0349683808996
 30
0.0
 11
1220.118567897099
 21
336.0349683808996
 31
0.0
  0
LINE
  5
99
330
1F
100
AcDbEntity
  8
1
  6
CONTINUOUS
 62
     7
100
AcDbLine
 10
788.118567897099
 20
74.03496838090007
 30
0.0
 11
788.118567897099
 21
72.03496838090028
 31
0.0
  0
ARC
  5
9A
330
1F
100
AcDbEntity
  8
1
  6
CONTINUOUS
 62
     7
100
AcDbCircle
 10
998.118567897099
 20
350.0349683808998
 30
0.0
 40
4.999999999999893
100
AcDbArc
 50
120.0
 51
60.0
  0
LINE
  5
9B
330
1F
100
AcDbEntity
  8
1
  6
CONTINUOUS
 62
     7
100
AcDbLine
 10
776.1185678970994
 20
84.03496838089985
 30
0.0
 11
778.1185678970992
 21
84.03496838089985
 31
0.0
  0
LINE
  5
9C
330
1F
100
AcDbEntity
  8
1
  6
CONTINUOUS
 62
     7
100
AcDbLine
 10
766.5358306618995
 20
373.6177056160992
 30
0.0
 11
766.5358306618995
 21
66.45223114570075
 31
0.0
  0
LINE
  5
9D
330
1F
100
AcDbEntity
  8
1
  6
CONTINUOUS
 62
     7
100
AcDbLine
 10
1229.2013051323
 20
373.6177056160992
 30
0.0
 11
1229.2013051323
 21
66.45223114570075
 31
0.0
  0
LINE
  5
9E
330
1F
100
AcDbEntity
  8
1
  6
CONTINUOUS
 62
     7
100
AcDbLine
 10
1243.118567897099
 20
311.0349683809002
 30
0.0
 11
1260.118567897099
 21
311.0349683809002
 31
0.0
  0
LINE
  5
9F
330
1F
100
AcDbEntity
  8
1
  6
CONTINUOUS
 62
     7
100
AcDbLine
 10
1260.118567897099
 20
311.0349683809002
 30
0.0
 11
1260.118567897099
 21
339.0349683808997
 31
0.0
  0
LINE
  5
A0
330
1F
100
AcDbEntity
  8
1
  6
CONTINUOUS
 62
     7
100
AcDbLine
 10
1260.118567897099
 20
339.0349683808997
 30
0.0
 11
1243.118567897099
 21
339.0349683808997
 31
0.0
  0
CIRCLE
  5
A1
330
1F
100
AcDbEntity
  8
1
  6
CONTINUOUS
 62
     7
100
AcDbCircle
 10
739.1185678970995
 20
196.0349683809
 30
0.0
 40
4.500000000000171
  0
LINE
  5
A2
330
1F
100
AcDbEntity
  8
1
  6
CONTINUOUS
 62
     7
100
AcDbLine
 10
733.1185678970993
 20
216.0349683809004
 30
0.0
 11
753.1185678970988
 21
216.0349683809004
 31
0.0
  0
LINE
  5
A3
330
1F
100
AcDbEntity
  8
1
  6
CONTINUOUS
 62
     7
100
AcDbLine
 10
776.1185678970994
 20
324.0349683809001
 30
0.0
 11
778.1185678970992
 21
324.0349683809001
 31
0.0
  0
LINE
  5
A4
330
1F
100
AcDbEntity
  8
1
  6
CONTINUOUS
 62
     7
100
AcDbLine
 10
788.118567897099
 20
72.03496838090028
 30
0.0
 11
776.1185678970994
 21
72.03496838090028
 31
0.0
  0
ARC
  5
A5
330
1F
100
AcDbEntity
  8
1
  6
CONTINUOUS
 62
     7
100
AcDbCircle
 10
733.1185678970993
 20
213.0349683809003
 30
0.0
 40
3.000000000000114
100
AcDbArc
 50
90.0
 51
180.0
  0
LINE
  5
A6
330
1F
100
AcDbEntity
  8
1
  6
CONTINUOUS
 62
     7
100
AcDbLine
 10
730.1185678970992
 20
189.7854196106001
 30
0.0
 11
730.1185678970992
 21
213.0349683809003
 31
0.0
  0
LINE
  5
A7
330
1F
100
AcDbEntity
  8
1
  6
CONTINUOUS
 62
     7
100
AcDbLine
 10
732.8586790480002
 20
186.7966978461002
 30
0.0
 11
753.1185678970988
 21
185.0349683808998
 31
0.0
  0
LINE
  5
A8
330
1F
100
AcDbEntity
  8
1
  6
CONTINUOUS
 62
     7
100
AcDbLine
 10
1220.118567897099
 20
324.0349683809001
 30
0.0
 11
1218.1185678971
 21
324.0349683809001
 31
0.0
  0
LINE
  5
A9
330
1F
100
AcDbEntity
  8
1
  6
CONTINUOUS
 62
     7
100
AcDbLine
 10
930.1185678970993
 20
151.0216070336998
 30
0.0
 11
930.1185678970993
 21
202.2493383628001
 31
0.0
  0
LINE
  5
AA
330
1F
100
AcDbEntity
  8
1
  6
CONTINUOUS
 62
     7
100
AcDbLine
 10
919.6185678978992
 20
132.2493383626995
 30
0.0
 11
898.1185678970993
 21
132.2493383626995
 31
0.0
  0
CIRCLE
  5
AB
330
1F
100
AcDbEntity
  8
1
  6
CONTINUOUS
 62
     7
100
AcDbCircle
 10
885.1185678970994
 20
355.0349683808997
 30
0.0
 40
13.49999999999962
  0
ARC
  5
AC
330
1F
100
AcDbEntity
  8
1
  6
CONTINUOUS
 62
     7
100
AcDbCircle
 10
919.6185678978992
 20
134.2493383627001
 30
0.0
 40
1.99999999999978
100
AcDbArc
 50
270.0
 51
0.0000000036000074
  0
LINE
  5
AD
330
1F
100
AcDbEntity
  8
1
  6
CONTINUOUS
 62
     7
100
AcDbLine
 10
921.8685678970991
 20
187.2493383627996
 30
0.0
 11
921.8685678970991
 21
197.2493383628002
 31
0.0
  0
ARC
  5
AE
330
1F
100
AcDbEntity
  8
1
  6
CONTINUOUS
 62
     7
100
AcDbCircle
 10
1208.118567897099
 20
360.0349683808997
 30
0.0
 40
2.500000000000391
100
AcDbArc
 50
0.0
 51
180.0
  0
LINE
  5
AF
330
1F
100
AcDbEntity
  8
1
  6
CONTINUOUS
 62
     7
100
AcDbLine
 10
909.3685678970988
 20
144.9993383627994
 30
0.0
 11
909.3685678970988
 21
156.9993383627999
 31
0.0
  0
ARC
  5
B0
330
1F
100
AcDbEntity
  8
1
  6
CONTINUOUS
 62
     7
100
AcDbCircle
 10
981.6185678970992
 20
212.2493383626995
 30
0.0
 40
3.000000000000114
100
AcDbArc
 50
0.0
 51
90.0
  0
LINE
  5
B1
330
1F
100
AcDbEntity
  8
1
  6
CONTINUOUS
 62
     7
100
AcDbLine
 10
916.8685678970991
 20
197.2493383628002
 30
0.0
 11
916.8685678970991
 21
187.2493383627996
 31
0.0
  0
ARC
  5
B2
330
1F
100
AcDbEntity
  8
1
  6
CONTINUOUS
 62
     7
100
AcDbCircle
 10
928.1185678970995
 20
151.0216070336998
 30
0.0
 40
1.99999999999978
100
AcDbArc
 50
317.2906100424
 51
0.0
  0
LINE
  5
B3
330
1F
100
AcDbEntity
  8
1
  6
CONTINUOUS
 62
     7
100
AcDbLine
 10
937.6185678970996
 20
128.2493383626999
 30
0.0
 11
937.6185678970996
 21
212.2493383626995
 31
0.0
  0
ARC
  5
B4
330
1F
100
AcDbEntity
  8
1
  6
CONTINUOUS
 62
     7
100
AcDbCircle
 10
913.118567897099
 20
179.7493383626998
 30
0.0
 40
4.249999999999865
100
AcDbArc
 50
0.0
 51
180.0
  0
ARC
  5
B5
330
1F
100
AcDbEntity
  8
1
  6
CONTINUOUS
 62
     7
100
AcDbCircle
 10
930.3506187046988
 20
137.2493383627003
 30
0.0
 40
1.000000000000334
100
AcDbArc
 50
30.0000000001
 51
90.0
  0
ARC
  5
B6
330
1F
100
AcDbEntity
  8
1
  6
CONTINUOUS
 62
     7
100
AcDbCircle
 10
981.6185678970992
 20
128.2493383626999
 30
0.0
 40
3.000000000000114
100
AcDbArc
 50
270.0
 51
0.0
  0
CIRCLE
  5
B7
330
1F
100
AcDbEntity
  8
1
  6
CONTINUOUS
 62
     7
100
AcDbCircle
 10
1065.118567897099
 20
355.0349683808997
 30
0.0
 40
13.49999999999962
  0
LINE
  5
B8
330
1F
100
AcDbEntity
  8
1
  6
CONTINUOUS
 62
     7
100
AcDbLine
 10
930.3506187046988
 20
130.2493383626997
 30
0.0
 11
926.8865170894989
 21
130.2493383626997
 31
0.0
  0
ARC
  5
B9
330
1F
100
AcDbEntity
  8
1
  6
CONTINUOUS
 62
     7
100
AcDbCircle
 10
913.118567897099
 20
139.4993383626995
 30
0.0
 40
4.249999999999865
100
AcDbArc
 50
0.0
 51
180.0
  0
LINE
  5
BA
330
1F
100
AcDbEntity
  8
1
  6
CONTINUOUS
 62
     7
100
AcDbLine
 10
1205.618567897099
 20
360.0349683808997
 30
0.0
 11
1205.618567897099
 21
354.3650953998005
 31
0.0
  0
ARC
  5
BB
330
1F
100
AcDbEntity
  8
1
  6
CONTINUOUS
 62
     7
100
AcDbCircle
 10
926.8865170894989
 20
131.2493383627
 30
0.0
 40
1.000000000000334
100
AcDbArc
 50
210.0000000001
 51
270.0
  0
ARC
  5
BC
330
1F
100
AcDbEntity
  8
1
  6
CONTINUOUS
 62
     7
100
AcDbCircle
 10
933.6185678970992
 20
212.2493383626995
 30
0.0
 40
3.000000000000114
100
AcDbArc
 50
0.0
 51
90.0
  0
ARC
  5
BD
330
1F
100
AcDbEntity
  8
1
  6
CONTINUOUS
 62
     7
100
AcDbCircle
 10
892.6185678970988
 20
128.2493383626999
 30
0.0
 40
3.000000000000114
100
AcDbArc
 50
180.0
 51
270.0
  0
ARC
  5
BE
330
1F
100
AcDbEntity
  8
1
  6
CONTINUOUS
 62
     7
100
AcDbCircle
 10
933.6185678970992
 20
128.2493383626999
 30
0.0
 40
3.000000000000114
100
AcDbArc
 50
270.0
 51
0.0
  0
ARC
  5
BF
330
1F
100
AcDbEntity
  8
1
  6
CONTINUOUS
 62
     7
100
AcDbCircle
 10
928.1185678970995
 20
202.2493383628001
 30
0.0
 40
1.99999999999978
100
AcDbArc
 50
0.0
 51
90.0
  0
LINE
  5
C0
330
1F
100
AcDbEntity
  8
1
  6
CONTINUOUS
 62
     7
100
AcDbLine
 10
984.6185678970993
 20
128.2493383626999
 30
0.0
 11
984.6185678970993
 21
212.2493383626995
 31
0.0
  0
LINE
  5
C1
330
1F
100
AcDbEntity
  8
1
  6
CONTINUOUS
 62
     7
100
AcDbLine
 10
892.6185678970988
 20
125.2493383626998
 30
0.0
 11
933.6185678970992
 21
125.2493383626998
 31
0.0
  0
LINE
  5
C2
330
1F
100
AcDbEntity
  8
1
  6
CONTINUOUS
 62
     7
100
AcDbLine
 10
904.368567897099
 20
185.2493383627998
 30
0.0
 11
909.3685678970988
 21
185.2493383627998
 31
0.0
  0
ARC
  5
C3
330
1F
100
AcDbEntity
  8
1
  6
CONTINUOUS
 62
     7
100
AcDbCircle
 10
1208.118567897099
 20
350.0349683808998
 30
0.0
 40
4.999999999999893
100
AcDbArc
 50
120.0
 51
60.0
  0
LINE
  5
C4
330
1F
100
AcDbEntity
  8
1
  6
CONTINUOUS
 62
     7
100
AcDbLine
 10
909.3685678970988
 20
156.9993383627999
 30
0.0
 11
904.368567897099
 21
156.9993383627999
 31
0.0
  0
LINE
  5
C5
330
1F
100
AcDbEntity
  8
1
  6
CONTINUOUS
 62
     7
100
AcDbLine
 10
908.8685678970991
 20
139.4993383626995
 30
0.0
 11
908.8685678970991
 21
135.2493383626996
 31
0.0
  0
LINE
  5
C6
330
1F
100
AcDbEntity
  8
1
  6
CONTINUOUS
 62
     7
100
AcDbLine
 10
889.6185678970995
 20
128.2493383626999
 30
0.0
 11
889.6185678970995
 21
212.2493383626995
 31
0.0
  0
LINE
  5
C7
330
1F
100
AcDbEntity
  8
1
  6
CONTINUOUS
 62
     7
100
AcDbLine
 10
909.3685678970988
 20
197.2493383628002
 30
0.0
 11
904.368567897099
 21
197.2493383628002
 31
0.0
  0
LINE
  5
C8
330
1F
100
AcDbEntity
  8
1
  6
CONTINUOUS
 62
     7
100
AcDbLine
 10
916.8685678970991
 20
187.2493383627996
 30
0.0
 11
921.8685678970991
 21
187.2493383627996
 31
0.0
  0
LINE
  5
C9
330
1F
100
AcDbEntity
  8
1
  6
CONTINUOUS
 62
     7
100
AcDbLine
 10
916.8685678970991
 20
156.9993383627999
 30
0.0
 11
916.8685678970991
 21
146.9993383628001
 31
0.0
  0
ARC
  5
CA
330
1F
100
AcDbEntity
  8
1
  6
CONTINUOUS
 62
     7
100
AcDbCircle
 10
898.1185678970993
 20
134.2493383627001
 30
0.0
 40
1.99999999999978
100
AcDbArc
 50
180.0
 51
270.0
  0
CIRCLE
  5
CB
330
1F
100
AcDbEntity
  8
1
  6
CONTINUOUS
 62
     7
100
AcDbCircle
 10
931.1185678970996
 20
355.0349683808997
 30
0.0
 40
13.49999999999962
  0
CIRCLE
  5
CC
330
1F
100
AcDbEntity
  8
1
  6
CONTINUOUS
 62
     7
100
AcDbCircle
 10
828.1185678970991
 20
355.0349683808997
 30
0.0
 40
17.24999999999977
  0
ARC
  5
CD
330
1F
100
AcDbEntity
  8
1
  6
CONTINUOUS
 62
     7
100
AcDbCircle
 10
940.6185678970988
 20
128.2493383626999
 30
0.0
 40
3.000000000000114
100
AcDbArc
 50
180.0
 51
270.0
  0
ARC
  5
CE
330
1F
100
AcDbEntity
  8
1
  6
CONTINUOUS
 62
     7
100
AcDbCircle
 10
892.6185678970988
 20
212.2493383626995
 30
0.0
 40
3.000000000000114
100
AcDbArc
 50
90.0
 51
180.0
  0
LINE
  5
CF
330
1F
100
AcDbEntity
  8
1
  6
CONTINUOUS
 62
     7
100
AcDbLine
 10
908.8685678970991
 20
179.7493383626998
 30
0.0
 11
908.8685678970991
 21
175.4993383626999
 31
0.0
  0
LINE
  5
D0
330
1F
100
AcDbEntity
  8
1
  6
CONTINUOUS
 62
     7
100
AcDbLine
 10
908.8685678970991
 20
175.4993383626999
 30
0.0
 11
917.3685678970988
 21
175.4993383658006
 31
0.0
  0
LINE
  5
D1
330
1F
100
AcDbEntity
  8
1
  6
CONTINUOUS
 62
     7
100
AcDbLine
 10
981.6185678970992
 20
215.2493383626997
 30
0.0
 11
940.6185678970988
 21
215.2493383626997
 31
0.0
  0
CIRCLE
  5
D2
330
1F
100
AcDbEntity
  8
1
  6
CONTINUOUS
 62
     7
100
AcDbCircle
 10
913.118567897099
 20
167.2493383628
 30
0.0
 40
3.000000000000114
  0
LINE
  5
D3
330
1F
100
AcDbEntity
  8
1
  6
CONTINUOUS
 62
     7
100
AcDbLine
 10
922.1489610085997
 20
144.605898569
 30
0.0
 11
929.5881747863
 21
149.6650468281997
 31
0.0
  0
ARC
  5
D4
330
1F
100
AcDbEntity
  8
1
  6
CONTINUOUS
 62
     7
100
AcDbCircle
 10
926.8865170894989
 20
137.2493383627003
 30
0.0
 40
1.000000000000334
100
AcDbArc
 50
90.0
 51
150.0
  0
LINE
  5
D5
330
1F
100
AcDbEntity
  8
1
  6
CONTINUOUS
 62
     7
100
AcDbLine
 10
924.2884408781995
 20
134.7493383626999
 30
0.0
 11
926.0204916856995
 21
137.7493383627
 31
0.0
  0
LINE
  5
D6
330
1F
100
AcDbEntity
  8
1
  6
CONTINUOUS
 62
     7
100
AcDbLine
 10
909.3685678970988
 20
185.2493383627998
 30
0.0
 11
909.3685678970988
 21
197.2493383628002
 31
0.0
  0
LINE
  5
D7
330
1F
100
AcDbEntity
  8
1
  6
CONTINUOUS
 62
     7
100
AcDbLine
 10
908.8685678970991
 20
135.2493383626996
 30
0.0
 11
917.3685678970988
 21
135.2493383658002
 31
0.0
  0
LINE
  5
D8
330
1F
100
AcDbEntity
  8
1
  6
CONTINUOUS
 62
     7
100
AcDbLine
 10
921.6185678978999
 20
143.2493383636002
 30
0.0
 11
921.6185678978999
 21
134.2493383627996
 31
0.0
  0
ARC
  5
D9
330
1F
100
AcDbEntity
  8
1
  6
CONTINUOUS
 62
     7
100
AcDbCircle
 10
940.6185678970988
 20
212.2493383626995
 30
0.0
 40
3.000000000000114
100
AcDbArc
 50
90.0
 51
180.0
  0
LINE
  5
DA
330
1F
100
AcDbEntity
  8
1
  6
CONTINUOUS
 62
     7
100
AcDbLine
 10
904.368567897099
 20
156.9993383627999
 30
0.0
 11
904.368567897099
 21
144.9993383627994
 31
0.0
  0
LINE
  5
DB
330
1F
100
AcDbEntity
  8
1
  6
CONTINUOUS
 62
     7
100
AcDbLine
 10
917.3685678970988
 20
135.2493383658002
 30
0.0
 11
917.3685678970988
 21
139.4993383626995
 31
0.0
  0
LINE
  5
DC
330
1F
100
AcDbEntity
  8
1
  6
CONTINUOUS
 62
     7
100
AcDbLine
 10
921.8685678970991
 20
197.2493383628002
 30
0.0
 11
916.8685678970991
 21
197.2493383628002
 31
0.0
  0
LINE
  5
DD
330
1F
100
AcDbEntity
  8
1
  6
CONTINUOUS
 62
     7
100
AcDbLine
 10
921.8685678970991
 20
146.9993383628001
 30
0.0
 11
921.8685678970991
 21
156.9993383627999
 31
0.0
  0
LINE
  5
DE
330
1F
100
AcDbEntity
  8
1
  6
CONTINUOUS
 62
     7
100
AcDbLine
 10
926.8865170894989
 20
138.2493383626997
 30
0.0
 11
930.3506187046988
 21
138.2493383626997
 31
0.0
  0
LINE
  5
DF
330
1F
100
AcDbEntity
  8
1
  6
CONTINUOUS
 62
     7
100
AcDbLine
 10
921.8685678970991
 20
156.9993383627999
 30
0.0
 11
916.8685678970991
 21
156.9993383627999
 31
0.0
  0
ARC
  5
E0
330
1F
100
AcDbEntity
  8
1
  6
CONTINUOUS
 62
     7
100
AcDbCircle
 10
923.6185678978997
 20
143.2493383636002
 30
0.0
 40
1.99999999999978
100
AcDbArc
 50
137.2906100425
 51
180.0
  0
LINE
  5
E1
330
1F
100
AcDbEntity
  8
1
  6
CONTINUOUS
 62
     7
100
AcDbLine
 10
916.8685678970991
 20
146.9993383628001
 30
0.0
 11
921.8685678970991
 21
146.9993383628001
 31
0.0
  0
ARC
  5
E2
330
1F
100
AcDbEntity
  8
1
  6
CONTINUOUS
 62
     7
100
AcDbCircle
 10
925.1544662818993
 20
134.2493383627001
 30
0.0
 40
1.000000000000334
100
AcDbArc
 50
149.9999999999
 51
210.0000000001
  0
LINE
  5
E3
330
1F
100
AcDbEntity
  8
1
  6
CONTINUOUS
 62
     7
100
AcDbLine
 10
926.0204916856995
 20
130.7493383626994
 30
0.0
 11
924.2884408781995
 21
133.7493383626995
 31
0.0
  0
LINE
  5
E4
330
1F
100
AcDbEntity
  8
1
  6
CONTINUOUS
 62
     7
100
AcDbLine
 10
917.3685678970988
 20
175.4993383658006
 30
0.0
 11
917.3685678970988
 21
179.7493383626998
 31
0.0
  0
LINE
  5
E5
330
1F
100
AcDbEntity
  8
1
  6
CONTINUOUS
 62
     7
100
AcDbLine
 10
1210.618567897099
 20
360.0349683808997
 30
0.0
 11
1210.618567897099
 21
354.3650953998005
 31
0.0
  0
LINE
  5
E6
330
1F
100
AcDbEntity
  8
1
  6
CONTINUOUS
 62
     7
100
AcDbLine
 10
904.368567897099
 20
144.9993383627994
 30
0.0
 11
909.3685678970988
 21
144.9993383627994
 31
0.0
  0
LINE
  5
E7
330
1F
100
AcDbEntity
  8
1
  6
CONTINUOUS
 62
     7
100
AcDbLine
 10
904.368567897099
 20
197.2493383628002
 30
0.0
 11
904.368567897099
 21
185.2493383627998
 31
0.0
  0
LINE
  5
E8
330
1F
100
AcDbEntity
  8
1
  6
CONTINUOUS
 62
     7
100
AcDbLine
 10
940.6185678970988
 20
125.2493383626998
 30
0.0
 11
981.6185678970992
 21
125.2493383626998
 31
0.0
  0
ARC
  5
E9
330
1F
100
AcDbEntity
  8
1
  6
CONTINUOUS
 62
     7
100
AcDbCircle
 10
807.1185678716998
 20
151.8110345158003
 30
0.0
 40
8.000000000000007
100
AcDbArc
 50
179.9999436898
 51
215.6590876961
  0
CIRCLE
  5
EA
330
1F
100
AcDbEntity
  8
1
  6
CONTINUOUS
 62
     7
100
AcDbCircle
 10
922.6185678970991
 20
235.9099683809003
 30
0.0
 40
3.499999999999837
  0
LINE
  5
EB
330
1F
100
AcDbEntity
  8
1
  6
CONTINUOUS
 62
     7
100
AcDbLine
 10
916.5185678971
 20
255.4099683809001
 30
0.0
 11
916.5185678971
 21
278.4099683808998
 31
0.0
  0
LINE
  5
EC
330
1F
100
AcDbEntity
  8
1
  6
CONTINUOUS
 62
     7
100
AcDbLine
 10
993.1185678970991
 20
229.4099683809003
 30
0.0
 11
993.1185678970991
 21
299.4099683808997
 31
0.0
  0
CIRCLE
  5
ED
330
1F
100
AcDbEntity
  8
1
  6
CONTINUOUS
 62
     7
100
AcDbCircle
 10
913.118567897099
 20
295.4099683809002
 30
0.0
 40
3.999999999999559
  0
ARC
  5
EE
330
1F
100
AcDbEntity
  8
1
  6
CONTINUOUS
 62
     7
100
AcDbCircle
 10
827.6185678717001
 20
151.8110345247994
 30
0.0
 40
8.000000000000007
100
AcDbArc
 50
324.3409123039
 51
0.0
  0
ARC
  5
EF
330
1F
100
AcDbEntity
  8
1
  6
CONTINUOUS
 62
     7
100
AcDbCircle
 10
814.1185678716995
 20
139.1473449945
 30
0.0
 40
4.999999999999893
100
AcDbArc
 50
180.0000000235
 51
270.0
  0
ARC
  5
F0
330
1F
100
AcDbEntity
  8
1
  6
CONTINUOUS
 62
     7
100
AcDbCircle
 10
814.1185678850995
 20
139.1473449945
 30
0.0
 40
11.99999999999957
100
AcDbArc
 50
180.0000000235
 51
270.0
  0
LINE
  5
F1
330
1F
100
AcDbEntity
  8
1
  6
CONTINUOUS
 62
     7
100
AcDbLine
 10
945.118567897099
 20
229.4099683809003
 30
0.0
 11
945.118567897099
 21
299.4099683808997
 31
0.0
  0
LINE
  5
F2
330
1F
100
AcDbEntity
  8
1
  6
CONTINUOUS
 62
     7
100
AcDbLine
 10
897.118567897099
 20
299.4099683808997
 30
0.0
 11
929.118567897099
 21
299.4099683808997
 31
0.0
  0
LINE
  5
F3
330
1F
100
AcDbEntity
  8
1
  6
CONTINUOUS
 62
     7
100
AcDbLine
 10
1073.118567897099
 20
299.4099683808997
 30
0.0
 11
1073.118567897099
 21
229.4099683809003
 31
0.0
  0
LINE
  5
F4
330
1F
100
AcDbEntity
  8
1
  6
CONTINUOUS
 62
     7
100
AcDbLine
 10
1041.118567897099
 20
229.4099683809003
 30
0.0
 11
1041.118567897099
 21
299.4099683808997
 31
0.0
  0
ARC
  5
F5
330
1F
100
AcDbEntity
  8
1
  6
CONTINUOUS
 62
     7
100
AcDbCircle
 10
932.0826695121989
 20
134.2493383627001
 30
0.0
 40
1.000000000000334
100
AcDbArc
 50
330.0
 51
30.0
  0
LINE
  5
F6
330
1F
100
AcDbEntity
  8
1
  6
CONTINUOUS
 62
     7
100
AcDbLine
 10
799.1185678716998
 20
159.3473450092997
 30
0.0
 11
799.1185678716998
 21
151.8110345158003
 31
0.0
  0
LINE
  5
F7
330
1F
100
AcDbEntity
  8
1
  6
CONTINUOUS
 62
     7
100
AcDbLine
 10
916.5185678971
 20
278.4099683808998
 30
0.0
 11
909.7185678970998
 21
278.4099683808998
 31
0.0
  0
LINE
  5
F8
330
1F
100
AcDbEntity
  8
1
  6
CONTINUOUS
 62
     7
100
AcDbLine
 10
812.1185678716997
 20
151.8110423782
 30
0.0
 11
812.1185678716997
 21
159.3473450092997
 31
0.0
  0
LINE
  5
F9
330
1F
100
AcDbEntity
  8
1
  6
CONTINUOUS
 62
     7
100
AcDbLine
 10
1103.118567897099
 20
229.4099683809003
 30
0.0
 11
1103.118567897099
 21
299.4099683808997
 31
0.0
  0
LINE
  5
FA
330
1F
100
AcDbEntity
  8
1
  6
CONTINUOUS
 62
     7
100
AcDbLine
 10
847.6185679224999
 20
147.1473450073004
 30
0.0
 11
847.6185679224999
 21
139.1473450073004
 31
0.0
  0
LINE
  5
FB
330
1F
100
AcDbEntity
  8
1
  6
CONTINUOUS
 62
     7
100
AcDbLine
 10
847.6185679224999
 20
139.1473450073004
 30
0.0
 11
857.6185679224997
 21
139.1473450073004
 31
0.0
  0
ARC
  5
FC
330
1F
100
AcDbEntity
  8
1
  6
CONTINUOUS
 62
     7
100
AcDbCircle
 10
851.1185679224997
 20
151.8110345338002
 30
0.0
 40
8.000000000000007
100
AcDbArc
 50
324.3409123039
 51
0.0000563102000228
  0
ARC
  5
FD
330
1F
100
AcDbEntity
  8
1
  6
CONTINUOUS
 62
     7
100
AcDbCircle
 10
854.1185679224998
 20
151.8110345338002
 30
0.0
 40
8.000000000000007
100
AcDbArc
 50
179.9999436898
 51
215.6590876961
  0
LINE
  5
FE
330
1F
100
AcDbEntity
  8
1
  6
CONTINUOUS
 62
     7
100
AcDbLine
 10
993.1185678970991
 20
299.4099683808997
 30
0.0
 11
1025.118567897099
 21
299.4099683808997
 31
0.0
  0
LINE
  5
FF
330
1F
100
AcDbEntity
  8
1
  6
CONTINUOUS
 62
     7
100
AcDbLine
 10
932.9486949159999
 20
133.7493383626995
 30
0.0
 11
931.2166441083996
 21
130.7493383626994
 31
0.0
  0
LINE
  5
100
330
1F
100
AcDbEntity
  8
1
  6
CONTINUOUS
 62
     7
100
AcDbLine
 10
977.1185678970991
 20
229.4099683809003
 30
0.0
 11
945.118567897099
 21
229.4099683809003
 31
0.0
  0
LINE
  5
101
330
1F
100
AcDbEntity
  8
1
  6
CONTINUOUS
 62
     7
100
AcDbLine
 10
1135.118567897099
 20
229.4099683809003
 30
0.0
 11
1103.118567897099
 21
229.4099683809003
 31
0.0
  0
CIRCLE
  5
102
330
1F
100
AcDbEntity
  8
1
  6
CONTINUOUS
 62
     7
100
AcDbCircle
 10
903.618567897099
 20
235.9099683809003
 30
0.0
 40
3.499999999999837
  0
LINE
  5
103
330
1F
100
AcDbEntity
  8
1
  6
CONTINUOUS
 62
     7
100
AcDbLine
 10
857.6185679224997
 20
139.1473450073004
 30
0.0
 11
857.6185679224997
 21
147.1473450073004
 31
0.0
  0
LINE
  5
104
330
1F
100
AcDbEntity
  8
1
  6
CONTINUOUS
 62
     7
100
AcDbLine
 10
933.6185678970992
 20
215.2493383626997
 30
0.0
 11
892.6185678970988
 21
215.2493383626997
 31
0.0
  0
LINE
  5
105
330
1F
100
AcDbEntity
  8
1
  6
CONTINUOUS
 62
     7
100
AcDbLine
 10
835.6185678683996
 20
151.8110345201
 30
0.0
 11
835.6185678715997
 21
159.3473450092997
 31
0.0
  0
LINE
  5
106
330
1F
100
AcDbEntity
  8
1
  6
CONTINUOUS
 62
     7
100
AcDbLine
 10
800.6185678717
 20
139.1473449892002
 30
0.0
 11
810.6185678716997
 21
139.1473449892002
 31
0.0
  0
ARC
  5
107
330
1F
100
AcDbEntity
  8
1
  6
CONTINUOUS
 62
     7
100
AcDbCircle
 10
837.6185678716998
 20
139.1473450034999
 30
0.0
 40
4.999999999999893
100
AcDbArc
 50
180.0000000235
 51
270.0
  0
ARC
  5
108
330
1F
100
AcDbEntity
  8
1
  6
CONTINUOUS
 62
     7
100
AcDbCircle
 10
861.1185679224996
 20
139.1473450126002
 30
0.0
 40
4.999999999999893
100
AcDbArc
 50
180.0000000235
 51
270.0
  0
LINE
  5
109
330
1F
100
AcDbEntity
  8
1
  6
CONTINUOUS
 62
     7
100
AcDbLine
 10
1135.118567897099
 20
299.4099683808997
 30
0.0
 11
1135.118567897099
 21
229.4099683809003
 31
0.0
  0
LINE
  5
10A
330
1F
100
AcDbEntity
  8
1
  6
CONTINUOUS
 62
     7
100
AcDbLine
 10
977.1185678970991
 20
299.4099683808997
 30
0.0
 11
977.1185678970991
 21
229.4099683809003
 31
0.0
  0
LINE
  5
10B
330
1F
100
AcDbEntity
  8
1
  6
CONTINUOUS
 62
     7
100
AcDbLine
 10
909.7185678970998
 20
255.4099683809001
 30
0.0
 11
916.5185678971
 21
255.4099683809001
 31
0.0
  0
CIRCLE
  5
10C
330
1F
100
AcDbEntity
  8
1
  6
CONTINUOUS
 62
     7
100
AcDbCircle
 10
903.618567897099
 20
292.9099683808998
 30
0.0
 40
3.499999999999837
  0
LINE
  5
10D
330
1F
100
AcDbEntity
  8
1
  6
CONTINUOUS
 62
     7
100
AcDbLine
 10
909.7185678970998
 20
278.4099683808998
 30
0.0
 11
909.7185678970998
 21
255.4099683809001
 31
0.0
  0
LINE
  5
10E
330
1F
100
AcDbEntity
  8
1
  6
CONTINUOUS
 62
     7
100
AcDbLine
 10
1103.118567897099
 20
299.4099683808997
 30
0.0
 11
1135.118567897099
 21
299.4099683808997
 31
0.0
  0
ARC
  5
10F
330
1F
100
AcDbEntity
  8
1
  6
CONTINUOUS
 62
     7
100
AcDbCircle
 10
830.6185678717002
 20
151.8110345247994
 30
0.0
 40
8.000000000000007
100
AcDbArc
 50
179.9999436898
 51
215.6590876961
  0
ARC
  5
110
330
1F
100
AcDbEntity
  8
1
  6
CONTINUOUS
 62
     7
100
AcDbCircle
 10
930.3506187046988
 20
131.2493383627
 30
0.0
 40
1.000000000000334
100
AcDbArc
 50
270.0
 51
329.9999999999
  0
LINE
  5
111
330
1F
100
AcDbEntity
  8
1
  6
CONTINUOUS
 62
     7
100
AcDbLine
 10
1041.118567897099
 20
299.4099683808997
 30
0.0
 11
1073.118567897099
 21
299.4099683808997
 31
0.0
  0
LINE
  5
112
330
1F
100
AcDbEntity
  8
1
  6
CONTINUOUS
 62
     7
100
AcDbLine
 10
1025.118567897099
 20
229.4099683809003
 30
0.0
 11
993.1185678970991
 21
229.4099683809003
 31
0.0
  0
CIRCLE
  5
113
330
1F
100
AcDbEntity
  8
1
  6
CONTINUOUS
 62
     7
100
AcDbCircle
 10
913.118567897099
 20
233.4099683808999
 30
0.0
 40
3.999999999999559
  0
ARC
  5
114
330
1F
100
AcDbEntity
  8
1
  6
CONTINUOUS
 62
     7
100
AcDbCircle
 10
871.1185716282994
 20
139.1473449945
 30
0.0
 40
11.99999999999957
100
AcDbArc
 50
270.0
 51
0.0
  0
LINE
  5
115
330
1F
100
AcDbEntity
  8
1
  6
CONTINUOUS
 62
     7
100
AcDbLine
 10
800.6185678717
 20
147.1473449892002
 30
0.0
 11
800.6185678717
 21
139.1473449892002
 31
0.0
  0
ARC
  5
116
330
1F
100
AcDbEntity
  8
1
  6
CONTINUOUS
 62
     7
100
AcDbCircle
 10
804.1185678716997
 20
151.8110345158003
 30
0.0
 40
8.000000000000007
100
AcDbArc
 50
324.3409123039
 51
0.0000563102000228
  0
LINE
  5
117
330
1F
100
AcDbEntity
  8
1
  6
CONTINUOUS
 62
     7
100
AcDbLine
 10
834.1185678717
 20
139.1473449982001
 30
0.0
 11
834.1185678717
 21
147.1473449982001
 31
0.0
  0
LINE
  5
118
330
1F
100
AcDbEntity
  8
1
  6
CONTINUOUS
 62
     7
100
AcDbLine
 10
896.1185678970995
 20
134.2493383627001
 30
0.0
 11
896.1185678970995
 21
202.2493383628001
 31
0.0
  0
LINE
  5
119
330
1F
100
AcDbEntity
  8
1
  6
CONTINUOUS
 62
     7
100
AcDbLine
 10
929.118567897099
 20
299.4099683808997
 30
0.0
 11
929.118567897099
 21
229.4099683809003
 31
0.0
  0
LINE
  5
11A
330
1F
100
AcDbEntity
  8
1
  6
CONTINUOUS
 62
     7
100
AcDbLine
 10
945.118567897099
 20
299.4099683808997
 30
0.0
 11
977.1185678970991
 21
299.4099683808997
 31
0.0
  0
LINE
  5
11B
330
1F
100
AcDbEntity
  8
1
  6
CONTINUOUS
 62
     7
100
AcDbLine
 10
936.6185678970993
 20
128.2493383626999
 30
0.0
 11
936.6185678970993
 21
212.2493383626995
 31
0.0
  0
LINE
  5
11C
330
1F
100
AcDbEntity
  8
1
  6
CONTINUOUS
 62
     7
100
AcDbLine
 10
897.118567897099
 20
229.4099683809003
 30
0.0
 11
897.118567897099
 21
299.4099683808997
 31
0.0
  0
LINE
  5
11D
330
1F
100
AcDbEntity
  8
1
  6
CONTINUOUS
 62
     7
100
AcDbLine
 10
824.1185678716994
 20
147.1473449982001
 30
0.0
 11
824.1185678716994
 21
139.1473449982001
 31
0.0
  0
LINE
  5
11E
330
1F
100
AcDbEntity
  8
1
  6
CONTINUOUS
 62
     7
100
AcDbLine
 10
1073.118567897099
 20
229.4099683809003
 30
0.0
 11
1041.118567897099
 21
229.4099683809003
 31
0.0
  0
LINE
  5
11F
330
1F
100
AcDbEntity
  8
1
  6
CONTINUOUS
 62
     7
100
AcDbLine
 10
932.9486949159999
 20
134.7493383626999
 30
0.0
 11
931.2166441083996
 21
137.7493383627
 31
0.0
  0
LINE
  5
120
330
1F
100
AcDbEntity
  8
1
  6
CONTINUOUS
 62
     7
100
AcDbLine
 10
928.1185678970995
 20
204.2493383627999
 30
0.0
 11
898.1185678970993
 21
204.2493383627999
 31
0.0
  0
LINE
  5
121
330
1F
100
AcDbEntity
  8
1
  6
CONTINUOUS
 62
     7
100
AcDbLine
 10
929.118567897099
 20
229.4099683809003
 30
0.0
 11
897.118567897099
 21
229.4099683809003
 31
0.0
  0
LINE
  5
122
330
1F
100
AcDbEntity
  8
1
  6
CONTINUOUS
 62
     7
100
AcDbLine
 10
1025.118567897099
 20
299.4099683808997
 30
0.0
 11
1025.118567897099
 21
229.4099683809003
 31
0.0
  0
LINE
  5
123
330
1F
100
AcDbEntity
  8
1
  6
CONTINUOUS
 62
     7
100
AcDbLine
 10
824.1185678716994
 20
139.1473449982996
 30
0.0
 11
834.1185678717
 21
139.1473449982001
 31
0.0
  0
CIRCLE
  5
124
330
1F
100
AcDbEntity
  8
1
  6
CONTINUOUS
 62
     7
100
AcDbCircle
 10
922.6185678970991
 20
292.9099683808998
 30
0.0
 40
3.499999999999837
  0
ARC
  5
125
330
1F
100
AcDbEntity
  8
1
  6
CONTINUOUS
 62
     7
100
AcDbCircle
 10
837.6185678850998
 20
139.1473450034999
 30
0.0
 40
11.99999999999957
100
AcDbArc
 50
180.0000000235
 51
270.0
  0
LINE
  5
126
330
1F
100
AcDbEntity
  8
1
  6
CONTINUOUS
 62
     7
100
AcDbLine
 10
822.6185678717002
 20
159.3473450092997
 30
0.0
 11
822.6185678717002
 21
151.8110345247994
 31
0.0
  0
LINE
  5
127
330
1F
100
AcDbEntity
  8
1
  6
CONTINUOUS
 62
     7
100
AcDbLine
 10
810.6185678716997
 20
139.1473449892002
 30
0.0
 11
810.6185678716997
 21
147.1473449892002
 31
0.0
  0
ARC
  5
128
330
1F
100
AcDbEntity
  8
1
  6
CONTINUOUS
 62
     7
100
AcDbCircle
 10
871.1185716417002
 20
139.1473449945
 30
0.0
 40
4.999999999999893
100
AcDbArc
 50
270.0
 51
0.0
  0
LINE
  5
129
330
1F
100
AcDbEntity
  8
1
  6
CONTINUOUS
 62
     7
100
AcDbLine
 10
1127.3694815722
 20
322.1145694595
 30
0.0
 11
1127.3694815722
 21
299.4099683808997
 31
0.0
  0
LINE
  5
12A
330
1F
100
AcDbEntity
  8
1
  6
CONTINUOUS
 62
     7
100
AcDbLine
 10
826.7098557677998
 20
134.1473450092998
 30
0.0
 11
814.1185678716995
 21
134.1473450092998
 31
0.0
  0
ARC
  5
12B
330
1F
100
AcDbEntity
  8
1
  6
CONTINUOUS
 62
     7
100
AcDbCircle
 10
917.7694815721998
 20
312.5088163657006
 30
0.0
 40
3.599999999999604
100
AcDbArc
 50
0.0
 51
90.0
  0
LINE
  5
12C
330
1F
100
AcDbEntity
  8
1
  6
CONTINUOUS
 62
     7
100
AcDbLine
 10
876.1185716266997
 20
245.2050591633999
 30
0.0
 11
876.1185716282993
 21
139.1473449945
 31
0.0
  0
LINE
  5
12D
330
1F
100
AcDbEntity
  8
1
  6
CONTINUOUS
 62
     7
100
AcDbLine
 10
1067.8694815722
 20
312.6088163656995
 30
0.0
 11
1067.8694815722
 21
299.4099683808997
 31
0.0
  0
LINE
  5
12E
330
1F
100
AcDbEntity
  8
1
  6
CONTINUOUS
 62
     7
100
AcDbLine
 10
921.3694815721993
 20
312.5088163657006
 30
0.0
 11
921.3694815721993
 21
299.4099683808997
 31
0.0
  0
LINE
  5
12F
330
1F
100
AcDbEntity
  8
1
  6
CONTINUOUS
 62
     7
100
AcDbLine
 10
952.8694815721997
 20
316.1088163656993
 30
0.0
 11
952.8694815721997
 21
299.4099683808997
 31
0.0
  0
ARC
  5
130
330
1F
100
AcDbEntity
  8
1
  6
CONTINUOUS
 62
     7
100
AcDbCircle
 10
917.8694815721994
 20
312.6088163656995
 30
0.0
 40
6.000000000000227
100
AcDbArc
 50
0.0
 51
90.0
  0
LINE
  5
131
330
1F
100
AcDbEntity
  8
1
  6
CONTINUOUS
 62
     7
100
AcDbLine
 10
950.3694815722001
 20
322.1145694595
 30
0.0
 11
950.3694815722001
 21
318.6088163656997
 31
0.0
  0
LINE
  5
132
330
1F
100
AcDbEntity
  8
1
  6
CONTINUOUS
 62
     7
100
AcDbLine
 10
950.3694815722001
 20
316.1088163656993
 30
0.0
 11
950.3694815722001
 21
299.4099683808997
 31
0.0
  0
LINE
  5
133
330
1F
100
AcDbEntity
  8
1
  6
CONTINUOUS
 62
     7
100
AcDbLine
 10
883.1185737618998
 20
245.2050591633999
 30
0.0
 11
883.1185737618998
 21
139.1473449945
 31
0.0
  0
LINE
  5
134
330
1F
100
AcDbEntity
  8
1
  6
CONTINUOUS
 62
     7
100
AcDbLine
 10
1108.3694815722
 20
305.0376750705004
 30
0.0
 11
1108.3694815722
 21
299.4099683808997
 31
0.0
  0
LINE
  5
135
330
1F
100
AcDbEntity
  8
1
  6
CONTINUOUS
 62
     7
100
AcDbLine
 10
859.1185679224998
 20
151.8110423961998
 30
0.0
 11
859.1185679224998
 21
159.3473450092997
 31
0.0
  0
LINE
  5
136
330
1F
100
AcDbEntity
  8
1
  6
CONTINUOUS
 62
     7
100
AcDbLine
 10
871.1185716282994
 20
134.1473450092998
 30
0.0
 11
837.6185678716998
 21
134.1473450092998
 31
0.0
  0
LINE
  5
137
330
1F
100
AcDbEntity
  8
1
  6
CONTINUOUS
 62
     7
100
AcDbLine
 10
1019.8694815722
 20
312.6088163656995
 30
0.0
 11
1019.8694815722
 21
299.4099683808997
 31
0.0
  0
LINE
  5
138
330
1F
100
AcDbEntity
  8
1
  6
CONTINUOUS
 62
     7
100
AcDbLine
 10
969.3694815721993
 20
312.5088163657006
 30
0.0
 11
969.3694815721993
 21
299.4099683808997
 31
0.0
  0
LINE
  5
139
330
1F
100
AcDbEntity
  8
1
  6
CONTINUOUS
 62
     7
100
AcDbLine
 10
952.8694815721997
 20
322.2145694594998
 30
0.0
 11
952.8694815721997
 21
318.6088163656997
 31
0.0
  0
LINE
  5
13A
330
1F
100
AcDbEntity
  8
1
  6
CONTINUOUS
 62
     7
100
AcDbLine
 10
1110.8694815722
 20
305.1376750705002
 30
0.0
 11
1110.8694815722
 21
299.4099683808997
 31
0.0
  0
LINE
  5
13B
330
1F
100
AcDbEntity
  8
1
  6
CONTINUOUS
 62
     7
100
AcDbLine
 10
1129.8694815722
 20
322.2145694594998
 30
0.0
 11
1129.8694815722
 21
299.4099683808997
 31
0.0
  0
ARC
  5
13C
330
1F
100
AcDbEntity
  8
1
  6
CONTINUOUS
 62
     7
100
AcDbCircle
 10
946.7694815721997
 20
322.1145694595
 30
0.0
 40
3.599999999999604
100
AcDbArc
 50
0.0
 51
90.0
  0
ARC
  5
13D
330
1F
100
AcDbEntity
  8
1
  6
CONTINUOUS
 62
     7
100
AcDbCircle
 10
861.1185679358995
 20
139.1473450126002
 30
0.0
 40
11.99999999999957
100
AcDbArc
 50
180.0000000235
 51
204.6243183692
  0
LINE
  5
13E
330
1F
100
AcDbEntity
  8
1
  6
CONTINUOUS
 62
     7
100
AcDbLine
 10
846.1185679224998
 20
159.3473450092997
 30
0.0
 11
846.1185679224998
 21
151.8110345338002
 31
0.0
  0
ARC
  5
13F
330
1F
100
AcDbEntity
  8
1
  6
CONTINUOUS
 62
     7
100
AcDbCircle
 10
946.8694815721994
 20
322.2145694594998
 30
0.0
 40
6.000000000000227
100
AcDbArc
 50
0.0
 51
90.0
  0
LINE
  5
140
330
1F
100
AcDbEntity
  8
1
  6
CONTINUOUS
 62
     7
100
AcDbLine
 10
971.8694815721998
 20
312.6088163656995
 30
0.0
 11
971.8694815721998
 21
299.4099683808997
 31
0.0
  0
LINE
  5
141
330
1F
100
AcDbEntity
  8
1
  6
CONTINUOUS
 62
     7
100
AcDbLine
 10
1065.369481572199
 20
312.5088163657006
 30
0.0
 11
1065.369481572199
 21
299.4099683808997
 31
0.0
  0
LINE
  5
142
330
1F
100
AcDbEntity
  8
1
  6
CONTINUOUS
 62
     7
100
AcDbLine
 10
1017.369481572199
 20
312.5088163657006
 30
0.0
 11
1017.369481572199
 21
299.4099683808997
 31
0.0
  0
LINE
  5
143
330
1F
100
AcDbEntity
  8
1
  6
CONTINUOUS
 62
     7
100
AcDbLine
 10
923.8694815721997
 20
312.6088163656995
 30
0.0
 11
923.8694815721997
 21
299.4099683808997
 31
0.0
  0
LINE
  5
144
330
1F
100
AcDbEntity
  8
0
  6
CONTINUOUS
 62
     7
100
AcDbLine
 10
1072.853776617099
 20
118.9997194215993
 30
0.0
 11
1115.618567897199
 21
118.9997194215993
 31
0.0
  0
CIRCLE
  5
145
330
1F
100
AcDbEntity
  8
1
  6
CONTINUOUS
 62
     7
100
AcDbCircle
 10
852.6185678716995
 20
254.5473450092004
 30
0.0
 40
4.500000000000171
  0
LINE
  5
146
330
1F
100
AcDbEntity
  8
1
  6
CONTINUOUS
 62
     7
100
AcDbLine
 10
863.5291817621998
 20
150.6402553261994
 30
0.0
 11
836.2786157370001
 21
150.6402553261994
 31
0.0
  0
LINE
  5
147
330
1F
100
AcDbEntity
  8
0
  6
CONTINUOUS
 62
     7
100
AcDbLine
 10
1122.618567897099
 20
121.9997194215994
 30
0.0
 11
1122.618567897099
 21
137.2493383627997
 31
0.0
  0
LINE
  5
148
330
1F
100
AcDbEntity
  8
1
  6
CONTINUOUS
 62
     7
100
AcDbLine
 10
836.2786157370001
 20
148.6402553261996
 30
0.0
 11
863.5291817621998
 21
148.6402553261996
 31
0.0
  0
ARC
  5
149
330
1F
100
AcDbEntity
  8
1
  6
CONTINUOUS
 62
     7
100
AcDbCircle
 10
863.5291817621998
 20
151.6402553261997
 30
0.0
 40
1.000000000000334
100
AcDbArc
 50
270.0
 51
0.0
  0
ARC
  5
14A
330
1F
100
AcDbEntity
  8
1
  6
CONTINUOUS
 62
     7
100
AcDbCircle
 10
795.8185678716995
 20
262.5473450092004
 30
0.0
 40
1.500000000000057
100
AcDbArc
 50
90.0
 51
180.0
  0
LINE
  5
14B
330
1F
100
AcDbEntity
  8
0
  6
CONTINUOUS
 62
     7
100
AcDbLine
 10
1123.618567897099
 20
120.9997194215999
 30
0.0
 11
1183.118567897199
 21
120.9997194215999
 31
0.0
  0
ARC
  5
14C
330
1F
100
AcDbEntity
  8
0
  6
CONTINUOUS
 62
     7
100
AcDbCircle
 10
-1183.118567897199
 20
121.9997194215994
 30
0.0
 40
1.000000000001222
210
0.0
220
0.0
230
-1.0
100
AcDbArc
 50
180.0
 51
270.0
  0
ARC
  5
14D
330
1F
100
AcDbEntity
  8
0
  6
CONTINUOUS
 62
     7
100
AcDbCircle
 10
-1184.118567897199
 20
120.9997194214996
 30
0.0
 40
1.999999999998892
210
0.0
220
0.0
230
-1.0
100
AcDbArc
 50
180.0
 51
270.0
  0
CIRCLE
  5
14E
330
1F
100
AcDbEntity
  8
0
  6
CONTINUOUS
 62
     7
100
AcDbCircle
 10
1111.814187896998
 20
195.7227743628005
 30
0.0
 40
0.7500000000000284
  0
ARC
  5
14F
330
1F
100
AcDbEntity
  8
0
  6
CONTINUOUS
 62
     7
100
AcDbCircle
 10
1121.231851896998
 20
170.0643583627999
 30
0.0
 40
1.000000000000334
100
AcDbArc
 50
129.999756
 51
219.999741
  0
ARC
  5
150
330
1F
100
AcDbEntity
  8
0
  6
CONTINUOUS
 62
     7
100
AcDbCircle
 10
1119.303475896999
 20
172.3625583628001
 30
0.0
 40
0.9999999999994458
100
AcDbArc
 50
220.000198
 51
310.000183
  0
LINE
  5
151
330
1F
100
AcDbEntity
  8
1
  6
CONTINUOUS
 62
     7
100
AcDbLine
 10
834.3467640844997
 20
152.1226172360004
 30
0.0
 11
832.2769295158992
 21
159.8473450092994
 31
0.0
  0
CIRCLE
  5
152
330
1F
100
AcDbEntity
  8
1
  6
CONTINUOUS
 62
     7
100
AcDbCircle
 10
829.1185678717001
 20
254.5473450092004
 30
0.0
 40
4.500000000000171
  0
ARC
  5
153
330
1F
100
AcDbEntity
  8
0
  6
CONTINUOUS
 62
     7
100
AcDbCircle
 10
1119.118567896998
 20
170.2493383628001
 30
0.0
 40
3.200000000000536
100
AcDbArc
 50
31.010698
 51
48.989288
  0
ARC
  5
154
330
1F
100
AcDbEntity
  8
0
  6
CONTINUOUS
 62
     7
100
AcDbCircle
 10
1117.005331896999
 20
170.4341983628001
 30
0.0
 40
0.9999999999994458
100
AcDbArc
 50
310.000183
 51
39.99999200000002
  0
ARC
  5
155
330
1F
100
AcDbEntity
  8
1
  6
CONTINUOUS
 62
     7
100
AcDbCircle
 10
864.3291817621996
 20
190.4973450073007
 30
0.0
 40
2.200000000000202
100
AcDbArc
 50
0.0
 51
90.0
  0
ARC
  5
156
330
1F
100
AcDbEntity
  8
0
  6
CONTINUOUS
 62
     7
100
AcDbCircle
 10
1119.118567896998
 20
170.2493383628001
 30
0.0
 40
26.50000000000041
100
AcDbArc
 50
85.499977
 51
100.999977
  0
CIRCLE
  5
157
330
1F
100
AcDbEntity
  8
0
  6
CONTINUOUS
 62
     7
100
AcDbCircle
 10
1119.118567896998
 20
170.2493383628001
 30
0.0
 40
3.750000000000142
  0
ARC
  5
158
330
1F
100
AcDbEntity
  8
0
  6
CONTINUOUS
 62
     7
100
AcDbCircle
 10
1119.118567896998
 20
170.2493383628001
 30
0.0
 40
26.50000000000041
100
AcDbArc
 50
85.499977
 51
100.999977
  0
ARC
  5
159
330
1F
100
AcDbEntity
  8
0
  6
CONTINUOUS
 62
     7
100
AcDbCircle
 10
1141.118551896998
 20
148.2493383627998
 30
0.0
 40
10.00000000000068
100
AcDbArc
 50
270.000031
 51
0.0
  0
ARC
  5
15A
330
1F
100
AcDbEntity
  8
0
  6
CONTINUOUS
 62
     7
100
AcDbCircle
 10
1141.118551896998
 20
192.2493383628003
 30
0.0
 40
10.00000000000068
100
AcDbArc
 50
0.0
 51
89.99998499999998
  0
ARC
  5
15B
330
1F
100
AcDbEntity
  8
0
  6
CONTINUOUS
 62
     7
100
AcDbCircle
 10
1097.118567896999
 20
192.2493383628003
 30
0.0
 40
9.999999999999787
100
AcDbArc
 50
89.99998499999998
 51
179.999969
  0
LINE
  5
15C
330
1F
100
AcDbEntity
  8
0
  6
CONTINUOUS
 62
     7
100
AcDbLine
 10
1115.6185678972
 20
137.3441715957986
 30
0.0
 11
1115.6185678972
 21
121.9997194215985
 31
0.0
  0
ARC
  5
15D
330
1F
100
AcDbEntity
  8
0
  6
CONTINUOUS
 62
     7
100
AcDbCircle
 10
-1114.618567897199
 20
121.9997194215994
 30
0.0
 40
1.000000000001222
210
0.0
220
0.0
230
-1.0
100
AcDbArc
 50
180.0
 51
270.0
  0
LINE
  5
15E
330
1F
100
AcDbEntity
  8
0
  6
CONTINUOUS
 62
     7
100
AcDbLine
 10
1186.1185678972
 20
120.9997194214996
 30
0.0
 11
1186.1185678972
 21
137.3441715965988
 31
0.0
  0
LINE
  5
15F
330
1F
100
AcDbEntity
  8
1
  6
CONTINUOUS
 62
     7
100
AcDbLine
 10
863.9185678716998
 20
192.6973450075007
 30
0.0
 11
864.3291817621996
 21
192.6973450075007
 31
0.0
  0
LINE
  5
160
330
1F
100
AcDbEntity
  8
1
  6
CONTINUOUS
 62
     7
100
AcDbLine
 10
795.8185678716995
 20
264.0473450092005
 30
0.0
 11
862.4185678716998
 21
264.0473450092005
 31
0.0
  0
ARC
  5
161
330
1F
100
AcDbEntity
  8
0
  6
CONTINUOUS
 62
     7
100
AcDbCircle
 10
-1122.618567897099
 20
120.9997194215999
 30
0.0
 40
1.99999999999978
210
0.0
220
0.0
230
-1.0
100
AcDbArc
 50
270.0
 51
0.0
  0
ARC
  5
162
330
1F
100
AcDbEntity
  8
0
  6
CONTINUOUS
 62
     7
100
AcDbCircle
 10
-1123.618567897099
 20
121.9997194215994
 30
0.0
 40
1.000000000000334
210
0.0
220
0.0
230
-1.0
100
AcDbArc
 50
270.0
 51
0.0
  0
CIRCLE
  5
163
330
1F
100
AcDbEntity
  8
0
  6
CONTINUOUS
 62
     7
100
AcDbCircle
 10
1126.422967896998
 20
195.7227743628005
 30
0.0
 40
0.7500000000000284
  0
ARC
  5
164
330
1F
100
AcDbEntity
  8
0
  6
CONTINUOUS
 62
     7
100
AcDbCircle
 10
1097.118567896999
 20
148.2493383627998
 30
0.0
 40
9.999999999999787
100
AcDbArc
 50
179.999969
 51
270.0
  0
LINE
  5
165
330
1F
100
AcDbEntity
  8
0
  6
CONTINUOUS
 62
     7
100
AcDbLine
 10
1184.118567897199
 20
137.344171596598
 30
0.0
 11
1184.118567897199
 21
121.9997194215985
 31
0.0
  0
CIRCLE
  5
166
330
1F
100
AcDbEntity
  8
0
  6
CONTINUOUS
 62
     7
100
AcDbCircle
 10
1119.118567896998
 20
170.2493383628001
 30
0.0
 40
28.00000000000047
  0
LINE
  5
167
330
1F
100
AcDbEntity
  8
1
  6
CENTER
 62
     7
100
AcDbLine
 10
862.551883199
 20
211.6973450091999
 30
0.0
 11
789.7190642494998
 21
211.6973450093002
 31
0.0
  0
CIRCLE
  5
168
330
1F
100
AcDbEntity
  8
1
  6
CONTINUOUS
 62
     7
100
AcDbCircle
 10
805.6185678716998
 20
254.5473450092004
 30
0.0
 40
4.500000000000171
  0
LINE
  5
169
330
1F
100
AcDbEntity
  8
0
  6
CONTINUOUS
 62
     7
100
AcDbLine
 10
1117.6185678972
 20
120.9997194215999
 30
0.0
 11
1117.6185678972
 21
137.3441715958004
 31
0.0
  0
ARC
  5
16A
330
1F
100
AcDbEntity
  8
1
  6
CONTINUOUS
 62
     7
100
AcDbCircle
 10
862.4185678716998
 20
262.5473450092004
 30
0.0
 40
1.500000000000057
100
AcDbArc
 50
0.0
 51
90.0
  0
LINE
  5
16B
330
1F
100
AcDbEntity
  8
1
  6
CONTINUOUS
 62
     7
100
AcDbLine
 10
863.9185678716998
 20
190.6973450075
 30
0.0
 11
864.3291817621996
 21
190.6973450075
 31
0.0
  0
ARC
  5
16C
330
1F
100
AcDbEntity
  8
1
  6
CONTINUOUS
 62
     7
100
AcDbCircle
 10
864.3291817621996
 20
190.4973450077998
 30
0.0
 40
0.2000000000004221
100
AcDbArc
 50
0.0
 51
90.0
  0
ARC
  5
16D
330
1F
100
AcDbEntity
  8
1
  6
CONTINUOUS
 62
     7
100
AcDbCircle
 10
836.2786157370001
 20
152.6402553262001
 30
0.0
 40
3.999999999999559
100
AcDbArc
 50
195.0
 51
270.0
  0
LINE
  5
16E
330
1F
100
AcDbEntity
  8
0
  6
CONTINUOUS
 62
     7
100
AcDbLine
 10
1120.618567897099
 20
137.2493383627989
 30
0.0
 11
1120.618567897099
 21
120.9997194215981
 31
0.0
  0
ARC
  5
16F
330
1F
100
AcDbEntity
  8
0
  6
CONTINUOUS
 62
     7
100
AcDbCircle
 10
-1115.6185678972
 20
120.9997194215999
 30
0.0
 40
1.99999999999978
210
0.0
220
0.0
230
-1.0
100
AcDbArc
 50
180.0
 51
270.0
  0
LINE
  5
170
330
1F
100
AcDbEntity
  8
1
  6
CONTINUOUS
 62
     7
100
AcDbLine
 10
830.2063771550002
 20
159.8473450092994
 30
0.0
 11
832.4149124318998
 21
151.6049791457998
 31
0.0
  0
ARC
  5
171
330
1F
100
AcDbEntity
  8
0
  6
CONTINUOUS
 62
     7
100
AcDbCircle
 10
1119.118567896998
 20
170.2493383628001
 30
0.0
 40
26.00000000000069
100
AcDbArc
 50
78.999992
 51
100.999977
  0
LINE
  5
172
330
1F
100
AcDbEntity
  8
0
  6
CONTINUOUS
 62
     7
100
AcDbLine
 10
1184.118567897199
 20
118.9997194215993
 30
0.0
 11
1122.618567897099
 21
118.9997194215993
 31
0.0
  0
ARC
  5
173
330
1F
100
AcDbEntity
  8
0
  6
CONTINUOUS
 62
     7
100
AcDbCircle
 10
1119.118567896998
 20
170.2493383628001
 30
0.0
 40
3.200000000000536
100
AcDbArc
 50
211.010849
 51
228.989426
  0
ARC
  5
174
330
1F
100
AcDbEntity
  8
1
  6
CONTINUOUS
 62
     7
100
AcDbCircle
 10
863.5291817621998
 20
151.6402553261997
 30
0.0
 40
3.000000000000114
100
AcDbArc
 50
270.0
 51
0.0
  0
CIRCLE
  5
175
330
1F
100
AcDbEntity
  8
1
  6
CONTINUOUS
 62
     7
100
AcDbCircle
 10
852.6185678716995
 20
168.8473450092998
 30
0.0
 40
4.500000000000171
  0
CIRCLE
  5
176
330
1F
100
AcDbEntity
  8
0
  6
CONTINUOUS
 62
     7
100
AcDbCircle
 10
1126.422967896998
 20
195.7227743628005
 30
0.0
 40
0.7500000000000284
  0
ARC
  5
177
330
1F
100
AcDbEntity
  8
0
  6
CONTINUOUS
 62
     7
100
AcDbCircle
 10
1118.933707896998
 20
168.1360423628
 30
0.0
 40
1.000000000000334
100
AcDbArc
 50
39.999992
 51
129.999756
  0
CIRCLE
  5
178
330
1F
100
AcDbEntity
  8
1
  6
CONTINUOUS
 62
     7
100
AcDbCircle
 10
845.6185678716998
 20
220.6973450075003
 30
0.0
 40
3.499999999999837
  0
CIRCLE
  5
179
330
1F
100
AcDbEntity
  8
0
  6
CONTINUOUS
 62
     7
100
AcDbCircle
 10
1119.118567896998
 20
170.2493383628001
 30
0.0
 40
3.499999999999837
  0
CIRCLE
  5
17A
330
1F
100
AcDbEntity
  8
1
  6
CONTINUOUS
 62
     7
100
AcDbCircle
 10
854.1485678716994
 20
220.6973450075003
 30
0.0
 40
2.500000000000391
  0
CIRCLE
  5
17B
330
1F
100
AcDbEntity
  8
0
  6
CONTINUOUS
 62
     7
100
AcDbCircle
 10
1111.814187896998
 20
195.7227743628005
 30
0.0
 40
0.7500000000000284
  0
ARC
  5
17C
330
1F
100
AcDbEntity
  8
0
  6
CONTINUOUS
 62
     7
100
AcDbCircle
 10
1119.118567896998
 20
170.2493383628001
 30
0.0
 40
26.00000000000069
100
AcDbArc
 50
78.999992
 51
100.999977
  0
LINE
  5
17D
330
1F
100
AcDbEntity
  8
1
  6
CONTINUOUS
 62
     7
100
AcDbLine
 10
864.5291817622001
 20
190.4973450077998
 30
0.0
 11
864.5291817622001
 21
151.6402553261997
 31
0.0
  0
LINE
  5
17E
330
1F
100
AcDbEntity
  8
1
  6
DASHED
 62
     7
100
AcDbLine
 10
863.9185678716998
 20
269.3473450093
 30
0.0
 11
794.3185678716995
 21
269.3473450093
 31
0.0
  0
LINE
  5
180
330
1F
100
AcDbEntity
  8
1
  6
CONTINUOUS
 62
     7
100
AcDbLine
 10
866.5291817621999
 20
190.4973450073007
 30
0.0
 11
866.5291817621999
 21
151.6402553261997
 31
0.0
  0
CIRCLE
  5
181
330
1F
100
AcDbEntity
  8
1
  6
CONTINUOUS
 62
     7
100
AcDbCircle
 10
805.6185678716998
 20
168.8473450092998
 30
0.0
 40
4.500000000000171
  0
CIRCLE
  5
182
330
1F
100
AcDbEntity
  8
1
  6
CONTINUOUS
 62
     7
100
AcDbCircle
 10
829.1185678717001
 20
168.8473450092998
 30
0.0
 40
4.500000000000171
  0
ARC
  5
183
330
1F
100
AcDbEntity
  8
1
  6
CONTINUOUS
 62
     7
100
AcDbCircle
 10
836.2786157370001
 20
152.6402553262001
 30
0.0
 40
1.99999999999978
100
AcDbArc
 50
195.0
 51
270.0
  0
LINE
  5
184
330
1F
100
AcDbEntity
  8
1
  6
CONTINUOUS
 62
     7
100
AcDbLine
 10
1017.369481572199
 20
311.1376750705004
 30
0.0
 11
971.8694815721998
 21
311.1376750705004
 31
0.0
  0
LINE
  5
185
330
1F
100
AcDbEntity
  8
1
  6
CONTINUOUS
 62
     7
100
AcDbLine
 10
946.7694815721997
 20
325.7145694595005
 30
0.0
 11
890.4835914800992
 21
325.7145694595005
 31
0.0
  0
LINE
  5
186
330
1F
100
AcDbEntity
  8
1
  6
CONTINUOUS
 62
     7
100
AcDbLine
 10
950.3694815722001
 20
308.6376750705
 30
0.0
 11
923.8694815721997
 21
308.6376750705
 31
0.0
  0
LINE
  5
187
330
1F
100
AcDbEntity
  8
1
  6
CONTINUOUS
 62
     7
100
AcDbLine
 10
903.7428787445991
 20
308.6376750705
 30
0.0
 11
921.3694815721993
 21
308.6376750705
 31
0.0
  0
LINE
  5
188
330
1F
100
AcDbEntity
  8
1
  6
CONTINUOUS
 62
     7
100
AcDbLine
 10
920.8694815721996
 20
226.0987615901007
 30
0.0
 11
920.8694815721996
 21
229.4099683809003
 31
0.0
  0
ARC
  5
189
330
1F
100
AcDbEntity
  8
1
  6
CONTINUOUS
 62
     7
100
AcDbCircle
 10
919.3694815721996
 20
226.0987615901007
 30
0.0
 40
1.500000000000057
100
AcDbArc
 50
297.7255551829001
 51
0.0
  0
LINE
  5
18A
330
1F
100
AcDbEntity
  8
1
  6
CONTINUOUS
 62
     7
100
AcDbLine
 10
909.0399883134994
 20
220.6545714374997
 30
0.0
 11
909.0399883134994
 21
215.2493383626997
 31
0.0
  0
ARC
  5
18B
330
1F
100
AcDbEntity
  8
1
  6
CONTINUOUS
 62
     7
100
AcDbCircle
 10
908.0399883134991
 20
220.6545714374997
 30
0.0
 40
1.000000000000334
100
AcDbArc
 50
0.0
 51
70.0032244621
  0
ARC
  5
18C
330
1F
100
AcDbEntity
  8
1
  6
CONTINUOUS
 62
     7
100
AcDbCircle
 10
1077.618567897099
 20
212.2493383626995
 30
0.0
 40
3.000000000000114
100
AcDbArc
 50
0.0
 51
90.0
  0
LINE
  5
18D
330
1F
100
AcDbEntity
  8
1
  6
CONTINUOUS
 62
     7
100
AcDbLine
 10
969.3694815721993
 20
311.1376750705004
 30
0.0
 11
952.8694815721997
 21
311.1376750705004
 31
0.0
  0
LINE
  5
18E
330
1F
100
AcDbEntity
  8
1
  6
CONTINUOUS
 62
     7
100
AcDbLine
 10
921.3694815721993
 20
311.1376750705004
 30
0.0
 11
886.8835914800997
 21
311.1376750705004
 31
0.0
  0
LINE
  5
18F
330
1F
100
AcDbEntity
  8
1
  6
CONTINUOUS
 62
     7
100
AcDbLine
 10
915.6727050566991
 20
222.4612479976003
 30
0.0
 11
920.0673369290993
 21
224.7709822781996
 31
0.0
  0
ARC
  5
190
330
1F
100
AcDbEntity
  8
1
  6
CONTINUOUS
 62
     7
100
AcDbCircle
 10
1077.618567897099
 20
128.2493383626999
 30
0.0
 40
3.000000000000114
100
AcDbArc
 50
270.0
 51
0.0
  0
LINE
  5
191
330
1F
100
AcDbEntity
  8
1
  6
CONTINUOUS
 62
     7
100
AcDbLine
 10
1000.8694815722
 20
305.1376750705002
 30
0.0
 11
1000.8694815722
 21
299.4099683808997
 31
0.0
  0
ARC
  5
192
330
1F
100
AcDbEntity
  8
1
  6
CONTINUOUS
 62
     7
100
AcDbCircle
 10
917.5684157705
 20
219.5036268866
 30
0.0
 40
1.000000000000334
100
AcDbArc
 50
117.7255551829
 51
180.0
  0
LINE
  5
193
330
1F
100
AcDbEntity
  8
1
  6
CONTINUOUS
 62
     7
100
AcDbLine
 10
1032.618567897099
 20
128.2493383626999
 30
0.0
 11
1032.618567897099
 21
212.2493383626995
 31
0.0
  0
ARC
  5
194
330
1F
100
AcDbEntity
  8
1
  6
CONTINUOUS
 62
     7
100
AcDbCircle
 10
898.1185678970993
 20
202.2493383628001
 30
0.0
 40
1.99999999999978
100
AcDbArc
 50
90.0
 51
180.0
  0
LINE
  5
195
330
1F
100
AcDbEntity
  8
1
  6
CONTINUOUS
 62
     7
100
AcDbLine
 10
950.3694815722001
 20
225.8830101131997
 30
0.0
 11
950.3694815722001
 21
229.4099683809003
 31
0.0
  0
LINE
  5
196
330
1F
100
AcDbEntity
  8
1
  6
CONTINUOUS
 62
     7
100
AcDbLine
 10
988.6185678970988
 20
125.2493383626998
 30
0.0
 11
1029.618567897099
 21
125.2493383626998
 31
0.0
  0
LINE
  5
197
330
1F
100
AcDbEntity
  8
1
  6
CONTINUOUS
 62
     7
100
AcDbLine
 10
1189.769481572199
 20
325.7145694595005
 30
0.0
 11
1128.7428787446
 21
325.7145694595005
 31
0.0
  0
LINE
  5
198
330
1F
100
AcDbEntity
  8
1
  6
CONTINUOUS
 62
     7
100
AcDbLine
 10
1042.7694815722
 20
325.7145694595005
 30
0.0
 11
951.7428787445991
 21
325.7145694595005
 31
0.0
  0
LINE
  5
199
330
1F
100
AcDbEntity
  8
1
  6
CONTINUOUS
 62
     7
100
AcDbLine
 10
1046.369481572199
 20
311.1376750705004
 30
0.0
 11
1019.8694815722
 21
311.1376750705004
 31
0.0
  0
LINE
  5
19A
330
1F
100
AcDbEntity
  8
1
  6
CONTINUOUS
 62
     7
100
AcDbLine
 10
1046.369481572199
 20
308.6376750705
 30
0.0
 11
1019.8694815722
 21
308.6376750705
 31
0.0
  0
LINE
  5
19B
330
1F
100
AcDbEntity
  8
1
  6
CONTINUOUS
 62
     7
100
AcDbLine
 10
1123.769481572199
 20
325.7145694595005
 30
0.0
 11
1049.242878744599
 21
325.7145694595005
 31
0.0
  0
LINE
  5
19C
330
1F
100
AcDbEntity
  8
1
  6
CONTINUOUS
 62
     7
100
AcDbLine
 10
998.3694815722001
 20
305.0376750705004
 30
0.0
 11
998.3694815722001
 21
299.4099683808997
 31
0.0
  0
LINE
  5
19D
330
1F
100
AcDbEntity
  8
1
  6
CONTINUOUS
 62
     7
100
AcDbLine
 10
969.3694815721993
 20
308.6376750705
 30
0.0
 11
952.8694815721997
 21
308.6376750705
 31
0.0
  0
ARC
  5
19E
330
1F
100
AcDbEntity
  8
1
  6
CONTINUOUS
 62
     7
100
AcDbCircle
 10
874.1185716282995
 20
139.1473449945
 30
0.0
 40
11.99999999999957
100
AcDbArc
 50
270.0
 51
0.0
  0
ARC
  5
19F
330
1F
100
AcDbEntity
  8
1
  6
CONTINUOUS
 62
     7
100
AcDbCircle
 10
868.1185716417001
 20
139.1473449945
 30
0.0
 40
4.999999999999893
100
AcDbArc
 50
270.0
 51
0.0
  0
LINE
  5
1A0
330
1F
100
AcDbEntity
  8
1
  6
CONTINUOUS
 62
     7
100
AcDbLine
 10
873.1185716282992
 20
277.0961047394005
 30
0.0
 11
873.1185716282992
 21
139.1473449945
 31
0.0
  0
LINE
  5
1A1
330
1F
100
AcDbEntity
  8
1
  6
CONTINUOUS
 62
     7
100
AcDbLine
 10
1065.369481572199
 20
311.1376750705004
 30
0.0
 11
1048.8694815722
 21
311.1376750705004
 31
0.0
  0
LINE
  5
1A2
330
1F
100
AcDbEntity
  8
1
  6
CONTINUOUS
 62
     7
100
AcDbLine
 10
886.118573761899
 20
139.1473449945
 30
0.0
 11
886.118573761899
 21
221.4931093385006
 31
0.0
  0
LINE
  5
1A3
330
1F
100
AcDbEntity
  8
1
  6
CONTINUOUS
 62
     7
100
AcDbLine
 10
874.1185716282995
 20
127.1473449944995
 30
0.0
 11
814.1185678850995
 21
127.1473449944995
 31
0.0
  0
LINE
  5
1A4
330
1F
100
AcDbEntity
  8
1
  6
CONTINUOUS
 62
     7
100
AcDbLine
 10
886.8835914800997
 20
308.6376750705
 30
0.0
 11
898.7694815721995
 21
308.6376750705
 31
0.0
  0
LINE
  5
1A5
330
1F
100
AcDbEntity
  8
1
  6
CONTINUOUS
 62
     7
100
AcDbLine
 10
1017.369481572199
 20
308.6376750705
 30
0.0
 11
999.7428787445992
 21
308.6376750705
 31
0.0
  0
ARC
  5
1A6
330
1F
100
AcDbEntity
  8
1
  6
CONTINUOUS
 62
     7
100
AcDbCircle
 10
905.3694815721993
 20
225.8830101131997
 30
0.0
 40
3.000000000000114
100
AcDbArc
 50
180.0
 51
250.0032244621
  0
ARC
  5
1A7
330
1F
100
AcDbEntity
  8
1
  6
CONTINUOUS
 62
     7
100
AcDbCircle
 10
920.3694815721999
 20
225.4946366153998
 30
0.0
 40
3.000000000000114
100
AcDbArc
 50
297.7255551829001
 51
0.0
  0
ARC
  5
1A8
330
1F
100
AcDbEntity
  8
1
  6
CONTINUOUS
 62
     7
100
AcDbCircle
 10
906.3694815721997
 20
226.5832595871
 30
0.0
 40
1.500000000000057
100
AcDbArc
 50
180.0
 51
250.0032244622
  0
LINE
  5
1A9
330
1F
100
AcDbEntity
  8
1
  6
CONTINUOUS
 62
     7
100
AcDbLine
 10
914.0684157704992
 20
219.8056893740006
 30
0.0
 11
914.0684157704992
 21
215.2493383626997
 31
0.0
  0
LINE
  5
1AA
330
1F
100
AcDbEntity
  8
1
  6
CONTINUOUS
 62
     7
100
AcDbLine
 10
916.5684157704997
 20
219.5036268866
 30
0.0
 11
916.5684157704997
 21
215.2493383626997
 31
0.0
  0
LINE
  5
1AB
330
1F
100
AcDbEntity
  8
1
  6
CONTINUOUS
 62
     7
100
AcDbLine
 10
908.381955572799
 20
221.5942833048006
 30
0.0
 11
904.3435797945003
 21
223.0638745112001
 31
0.0
  0
LINE
  5
1AC
330
1F
100
AcDbEntity
  8
1
  6
CONTINUOUS
 62
     7
100
AcDbLine
 10
950.3694815722001
 20
311.1376750705004
 30
0.0
 11
923.8694815721997
 21
311.1376750705004
 31
0.0
  0
LINE
  5
1AD
330
1F
100
AcDbEntity
  8
1
  6
CONTINUOUS
 62
     7
100
AcDbLine
 10
902.3694815722001
 20
225.8830101131997
 30
0.0
 11
902.3694815722001
 21
229.4099683809003
 31
0.0
  0
LINE
  5
1AE
330
1F
100
AcDbEntity
  8
1
  6
CONTINUOUS
 62
     7
100
AcDbLine
 10
1029.618567897099
 20
215.2493383626997
 30
0.0
 11
988.6185678970988
 21
215.2493383626997
 31
0.0
  0
ARC
  5
1AF
330
1F
100
AcDbEntity
  8
1
  6
CONTINUOUS
 62
     7
100
AcDbCircle
 10
988.6185678970988
 20
128.2493383626999
 30
0.0
 40
3.000000000000114
100
AcDbArc
 50
180.0
 51
270.0
  0
LINE
  5
1B0
330
1F
100
AcDbEntity
  8
1
  6
CONTINUOUS
 62
     7
100
AcDbLine
 10
985.6185678970996
 20
128.2493383626999
 30
0.0
 11
985.6185678970996
 21
212.2493383626995
 31
0.0
  0
ARC
  5
1B1
330
1F
100
AcDbEntity
  8
1
  6
CONTINUOUS
 62
     7
100
AcDbCircle
 10
1029.618567897099
 20
128.2493383626999
 30
0.0
 40
3.000000000000114
100
AcDbArc
 50
270.0
 51
0.0
  0
ARC
  5
1B2
330
1F
100
AcDbEntity
  8
1
  6
CONTINUOUS
 62
     7
100
AcDbCircle
 10
1036.618567897099
 20
212.2493383626995
 30
0.0
 40
3.000000000000114
100
AcDbArc
 50
90.0
 51
180.0
  0
ARC
  5
1B3
330
1F
100
AcDbEntity
  8
1
  6
CONTINUOUS
 62
     7
100
AcDbCircle
 10
1029.618567897099
 20
212.2493383626995
 30
0.0
 40
3.000000000000114
100
AcDbArc
 50
0.0
 51
90.0
  0
LINE
  5
1B4
330
1F
100
AcDbEntity
  8
1
  6
CONTINUOUS
 62
     7
100
AcDbLine
 10
1077.618567897099
 20
215.2493383626997
 30
0.0
 11
1036.618567897099
 21
215.2493383626997
 31
0.0
  0
LINE
  5
1B5
330
1F
100
AcDbEntity
  8
1
  6
CONTINUOUS
 62
     7
100
AcDbLine
 10
1036.618567897099
 20
125.2493383626998
 30
0.0
 11
1071.118567897099
 21
125.2493383626998
 31
0.0
  0
LINE
  5
1B6
330
1F
100
AcDbEntity
  8
1
  6
CONTINUOUS
 62
     7
100
AcDbLine
 10
1074.118567897099
 20
125.2493383626998
 30
0.0
 11
1077.618567897099
 21
125.2493383626998
 31
0.0
  0
LINE
  5
1B7
330
1F
100
AcDbEntity
  8
1
  6
CONTINUOUS
 62
     7
100
AcDbLine
 10
1033.618567897099
 20
128.2493383626999
 30
0.0
 11
1033.618567897099
 21
212.2493383626995
 31
0.0
  0
LINE
  5
1B8
330
1F
100
AcDbEntity
  8
1
  6
CONTINUOUS
 62
     7
100
AcDbLine
 10
904.8694815721996
 20
226.5832595871
 30
0.0
 11
904.8694815721996
 21
229.4099683809003
 31
0.0
  0
ARC
  5
1B9
330
1F
100
AcDbEntity
  8
1
  6
CONTINUOUS
 62
     7
100
AcDbCircle
 10
988.6185678970988
 20
212.2493383626995
 30
0.0
 40
3.000000000000114
100
AcDbArc
 50
90.0
 51
180.0
  0
LINE
  5
1BA
330
1F
100
AcDbEntity
  8
1
  6
CONTINUOUS
 62
     7
100
AcDbLine
 10
1080.618567897099
 20
128.2493383626999
 30
0.0
 11
1080.618567897099
 21
212.2493383626995
 31
0.0
  0
ARC
  5
1BB
330
1F
100
AcDbEntity
  8
1
  6
CONTINUOUS
 62
     7
100
AcDbCircle
 10
1036.618567897099
 20
128.2493383626999
 30
0.0
 40
3.000000000000114
100
AcDbArc
 50
180.0
 51
270.0
  0
LINE
  5
1BC
330
1F
100
AcDbEntity
  8
1
  6
CONTINUOUS
 62
     7
100
AcDbLine
 10
994.7694815721997
 20
308.6376750705
 30
0.0
 11
971.8694815721998
 21
308.6376750705
 31
0.0
  0
LINE
  5
1BD
330
1F
100
AcDbEntity
  8
1
  6
CONTINUOUS
 62
     7
100
AcDbLine
 10
923.3694815722
 20
225.4946366153998
 30
0.0
 11
923.3694815722
 21
229.4099683809003
 31
0.0
  0
LINE
  5
1BE
330
1F
100
AcDbEntity
  8
1
  6
CONTINUOUS
 62
     7
100
AcDbLine
 10
905.8565306833995
 20
225.1736917861002
 30
0.0
 11
909.5658900912999
 21
223.8238317764996
 31
0.0
  0
LINE
  5
1BF
330
1F
100
AcDbEntity
  8
1
  6
CONTINUOUS
 62
     7
100
AcDbLine
 10
911.539988313499
 20
221.0046961745
 30
0.0
 11
911.539988313499
 21
215.2493383626997
 31
0.0
  0
LINE
  5
1C0
330
1F
100
AcDbEntity
  8
1
  6
CONTINUOUS
 62
     7
100
AcDbLine
 10
917.1031788658998
 20
220.3888130945
 30
0.0
 11
921.7651922859993
 21
222.8390779918001
 31
0.0
  0
ARC
  5
1C1
330
1F
100
AcDbEntity
  8
1
  6
CONTINUOUS
 62
     7
100
AcDbCircle
 10
917.0684157704993
 20
219.8056893740006
 30
0.0
 40
3.000000000000114
100
AcDbArc
 50
117.7255551829
 51
180.0
  0
ARC
  5
1C2
330
1F
100
AcDbEntity
  8
1
  6
CONTINUOUS
 62
     7
100
AcDbCircle
 10
908.5399883134988
 20
221.0046961745
 30
0.0
 40
3.000000000000114
100
AcDbArc
 50
0.0
 51
70.0032244621
  0
LINE
  5
1C3
330
1F
100
AcDbEntity
  8
1
  6
CONTINUOUS
 62
     7
100
AcDbLine
 10
1189.8694815722
 20
328.2145694595
 30
0.0
 11
890.3835914800994
 21
328.2145694595
 31
0.0
  0
LINE
  5
1C4
330
1F
100
AcDbEntity
  8
1
  6
CONTINUOUS
 62
     7
100
AcDbLine
 10
1195.8694815722
 20
322.2145694594998
 30
0.0
 11
1195.8694815722
 21
299.4099683808997
 31
0.0
  0
ARC
  5
1C5
330
1F
100
AcDbEntity
  8
1
  6
CONTINUOUS
 62
     7
100
AcDbCircle
 10
1015.3694815722
 20
226.0987615901007
 30
0.0
 40
1.500000000000057
100
AcDbArc
 50
297.7255551829001
 51
0.0
  0
ARC
  5
1C6
330
1F
100
AcDbEntity
  8
1
  6
CONTINUOUS
 62
     7
100
AcDbCircle
 10
953.3694815721993
 20
225.8830101131997
 30
0.0
 40
3.000000000000114
100
AcDbArc
 50
180.0
 51
250.0032244621
  0
LINE
  5
1C7
330
1F
100
AcDbEntity
  8
1
  6
CONTINUOUS
 62
     7
100
AcDbLine
 10
1013.1031788659
 20
220.3888130945
 30
0.0
 11
1017.765192285999
 21
222.8390779918001
 31
0.0
  0
LINE
  5
1C8
330
1F
100
AcDbEntity
  8
1
  6
CONTINUOUS
 62
     7
100
AcDbLine
 10
1059.672705056699
 20
222.4612479976003
 30
0.0
 11
1064.067336929099
 21
224.7709822781996
 31
0.0
  0
ARC
  5
1C9
330
1F
100
AcDbEntity
  8
1
  6
CONTINUOUS
 62
     7
100
AcDbCircle
 10
967.3694815721996
 20
226.0987615901007
 30
0.0
 40
1.500000000000057
100
AcDbArc
 50
297.7255551829001
 51
0.0
  0
ARC
  5
1CA
330
1F
100
AcDbEntity
  8
1
  6
CONTINUOUS
 62
     7
100
AcDbCircle
 10
1013.568415770499
 20
219.5036268866
 30
0.0
 40
1.000000000000334
100
AcDbArc
 50
117.7255551829
 51
180.0
  0
LINE
  5
1CB
330
1F
100
AcDbEntity
  8
1
  6
CONTINUOUS
 62
     7
100
AcDbLine
 10
1016.8694815722
 20
226.0987615901007
 30
0.0
 11
1016.8694815722
 21
229.4099683809003
 31
0.0
  0
LINE
  5
1CC
330
1F
100
AcDbEntity
  8
1
  6
CONTINUOUS
 62
     7
100
AcDbLine
 10
1048.8694815722
 20
226.5832595871
 30
0.0
 11
1048.8694815722
 21
229.4099683809003
 31
0.0
  0
LINE
  5
1CD
330
1F
100
AcDbEntity
  8
1
  6
CONTINUOUS
 62
     7
100
AcDbLine
 10
1061.1031788659
 20
220.3888130945
 30
0.0
 11
1065.765192285999
 21
222.8390779918001
 31
0.0
  0
LINE
  5
1CE
330
1F
100
AcDbEntity
  8
1
  6
CONTINUOUS
 62
     7
100
AcDbLine
 10
957.0399883134994
 20
220.6545714374997
 30
0.0
 11
957.0399883134994
 21
215.2493383626997
 31
0.0
  0
ARC
  5
1CF
330
1F
100
AcDbEntity
  8
1
  6
CONTINUOUS
 62
     7
100
AcDbCircle
 10
1002.3694815722
 20
226.5832595871
 30
0.0
 40
1.500000000000057
100
AcDbArc
 50
180.0
 51
250.0032244622
  0
LINE
  5
1D0
330
1F
100
AcDbEntity
  8
1
  6
CONTINUOUS
 62
     7
100
AcDbLine
 10
1007.539988313499
 20
221.0046961745
 30
0.0
 11
1007.539988313499
 21
215.2493383626997
 31
0.0
  0
ARC
  5
1D1
330
1F
100
AcDbEntity
  8
1
  6
CONTINUOUS
 62
     7
100
AcDbCircle
 10
954.3694815721997
 20
226.5832595871
 30
0.0
 40
1.500000000000057
100
AcDbArc
 50
180.0
 51
250.0032244622
  0
LINE
  5
1D2
330
1F
100
AcDbEntity
  8
1
  6
CONTINUOUS
 62
     7
100
AcDbLine
 10
1012.5684157705
 20
219.5036268866
 30
0.0
 11
1012.5684157705
 21
215.2493383626997
 31
0.0
  0
LINE
  5
1D3
330
1F
100
AcDbEntity
  8
1
  6
CONTINUOUS
 62
     7
100
AcDbLine
 10
1052.381955572799
 20
221.5942833048006
 30
0.0
 11
1048.343579794499
 21
223.0638745112001
 31
0.0
  0
ARC
  5
1D4
330
1F
100
AcDbEntity
  8
1
  6
CONTINUOUS
 62
     7
100
AcDbCircle
 10
956.0399883134991
 20
220.6545714374997
 30
0.0
 40
1.000000000000334
100
AcDbArc
 50
0.0
 51
70.0032244621
  0
ARC
  5
1D5
330
1F
100
AcDbEntity
  8
1
  6
CONTINUOUS
 62
     7
100
AcDbCircle
 10
968.3694815721999
 20
225.4946366153998
 30
0.0
 40
3.000000000000114
100
AcDbArc
 50
297.7255551829001
 51
0.0
  0
LINE
  5
1D6
330
1F
100
AcDbEntity
  8
1
  6
CONTINUOUS
 62
     7
100
AcDbLine
 10
1019.3694815722
 20
225.4946366153998
 30
0.0
 11
1019.3694815722
 21
229.4099683809003
 31
0.0
  0
LINE
  5
1D7
330
1F
100
AcDbEntity
  8
1
  6
CONTINUOUS
 62
     7
100
AcDbLine
 10
1000.8694815722
 20
226.5832595871
 30
0.0
 11
1000.8694815722
 21
229.4099683809003
 31
0.0
  0
LINE
  5
1D8
330
1F
100
AcDbEntity
  8
1
  6
CONTINUOUS
 62
     7
100
AcDbLine
 10
1011.672705056699
 20
222.4612479976003
 30
0.0
 11
1016.067336929099
 21
224.7709822781996
 31
0.0
  0
LINE
  5
1D9
330
1F
100
AcDbEntity
  8
1
  6
CONTINUOUS
 62
     7
100
AcDbLine
 10
965.1031788658998
 20
220.3888130945
 30
0.0
 11
969.7651922859993
 21
222.8390779918001
 31
0.0
  0
LINE
  5
1DA
330
1F
100
AcDbEntity
  8
1
  6
CONTINUOUS
 62
     7
100
AcDbLine
 10
1005.0399883135
 20
220.6545714374997
 30
0.0
 11
1005.0399883135
 21
215.2493383626997
 31
0.0
  0
LINE
  5
1DB
330
1F
100
AcDbEntity
  8
1
  6
CONTINUOUS
 62
     7
100
AcDbLine
 10
956.381955572799
 20
221.5942833048006
 30
0.0
 11
952.3435797945003
 21
223.0638745112001
 31
0.0
  0
ARC
  5
1DC
330
1F
100
AcDbEntity
  8
1
  6
CONTINUOUS
 62
     7
100
AcDbCircle
 10
1013.068415770499
 20
219.8056893740006
 30
0.0
 40
3.000000000000114
100
AcDbArc
 50
117.7255551829
 51
180.0
  0
ARC
  5
1DD
330
1F
100
AcDbEntity
  8
1
  6
CONTINUOUS
 62
     7
100
AcDbCircle
 10
965.0684157704994
 20
219.8056893740006
 30
0.0
 40
3.000000000000114
100
AcDbArc
 50
117.7255551829
 51
180.0
  0
ARC
  5
1DE
330
1F
100
AcDbEntity
  8
1
  6
CONTINUOUS
 62
     7
100
AcDbCircle
 10
1016.3694815722
 20
225.4946366153998
 30
0.0
 40
3.000000000000114
100
AcDbArc
 50
297.7255551829001
 51
0.0
  0
LINE
  5
1DF
330
1F
100
AcDbEntity
  8
1
  6
CONTINUOUS
 62
     7
100
AcDbLine
 10
959.539988313499
 20
221.0046961745
 30
0.0
 11
959.539988313499
 21
215.2493383626997
 31
0.0
  0
ARC
  5
1E0
330
1F
100
AcDbEntity
  8
1
  6
CONTINUOUS
 62
     7
100
AcDbCircle
 10
1004.539988313499
 20
221.0046961745
 30
0.0
 40
3.000000000000114
100
AcDbArc
 50
0.0
 51
70.0032244621
  0
LINE
  5
1E1
330
1F
100
AcDbEntity
  8
1
  6
CONTINUOUS
 62
     7
100
AcDbLine
 10
1064.8694815722
 20
226.0987615901007
 30
0.0
 11
1064.8694815722
 21
229.4099683809003
 31
0.0
  0
ARC
  5
1E2
330
1F
100
AcDbEntity
  8
1
  6
CONTINUOUS
 62
     7
100
AcDbCircle
 10
1063.3694815722
 20
226.0987615901007
 30
0.0
 40
1.500000000000057
100
AcDbArc
 50
297.7255551829001
 51
0.0
  0
LINE
  5
1E3
330
1F
100
AcDbEntity
  8
1
  6
CONTINUOUS
 62
     7
100
AcDbLine
 10
998.3694815722001
 20
225.8830101131997
 30
0.0
 11
998.3694815722001
 21
229.4099683809003
 31
0.0
  0
ARC
  5
1E4
330
1F
100
AcDbEntity
  8
1
  6
CONTINUOUS
 62
     7
100
AcDbCircle
 10
1050.3694815722
 20
226.5832595871
 30
0.0
 40
1.500000000000057
100
AcDbArc
 50
180.0
 51
250.0032244622
  0
LINE
  5
1E5
330
1F
100
AcDbEntity
  8
1
  6
CONTINUOUS
 62
     7
100
AcDbLine
 10
1004.381955572799
 20
221.5942833048006
 30
0.0
 11
1000.3435797945
 21
223.0638745112001
 31
0.0
  0
LINE
  5
1E6
330
1F
100
AcDbEntity
  8
1
  6
CONTINUOUS
 62
     7
100
AcDbLine
 10
971.3694815722
 20
225.4946366153998
 30
0.0
 11
971.3694815722
 21
229.4099683809003
 31
0.0
  0
LINE
  5
1E7
330
1F
100
AcDbEntity
  8
1
  6
CONTINUOUS
 62
     7
100
AcDbLine
 10
953.8565306833995
 20
225.1736917861002
 30
0.0
 11
957.5658900912999
 21
223.8238317764996
 31
0.0
  0
ARC
  5
1E8
330
1F
100
AcDbEntity
  8
1
  6
CONTINUOUS
 62
     7
100
AcDbCircle
 10
1004.039988313499
 20
220.6545714374997
 30
0.0
 40
1.000000000000334
100
AcDbArc
 50
0.0
 51
70.0032244622
  0
LINE
  5
1E9
330
1F
100
AcDbEntity
  8
1
  6
CONTINUOUS
 62
     7
100
AcDbLine
 10
1067.3694815722
 20
225.4946366153998
 30
0.0
 11
1067.3694815722
 21
229.4099683809003
 31
0.0
  0
LINE
  5
1EA
330
1F
100
AcDbEntity
  8
1
  6
CONTINUOUS
 62
     7
100
AcDbLine
 10
1049.8565306834
 20
225.1736917861002
 30
0.0
 11
1053.5658900913
 21
223.8238317764996
 31
0.0
  0
LINE
  5
1EB
330
1F
100
AcDbEntity
  8
1
  6
CONTINUOUS
 62
     7
100
AcDbLine
 10
1001.856530683399
 20
225.1736917861002
 30
0.0
 11
1005.5658900913
 21
223.8238317764996
 31
0.0
  0
LINE
  5
1EC
330
1F
100
AcDbEntity
  8
1
  6
CONTINUOUS
 62
     7
100
AcDbLine
 10
1055.539988313499
 20
221.0046961745
 30
0.0
 11
1055.539988313499
 21
215.2493383626997
 31
0.0
  0
LINE
  5
1ED
330
1F
100
AcDbEntity
  8
1
  6
CONTINUOUS
 62
     7
100
AcDbLine
 10
1010.068415770499
 20
219.8056893740006
 30
0.0
 11
1010.068415770499
 21
215.2493383626997
 31
0.0
  0
LINE
  5
1EE
330
1F
100
AcDbEntity
  8
1
  6
CONTINUOUS
 62
     7
100
AcDbLine
 10
1053.039988313499
 20
220.6545714374997
 30
0.0
 11
1053.039988313499
 21
215.2493383626997
 31
0.0
  0
LINE
  5
1EF
330
1F
100
AcDbEntity
  8
1
  6
CONTINUOUS
 62
     7
100
AcDbLine
 10
1060.5684157705
 20
219.5036268866
 30
0.0
 11
1060.5684157705
 21
215.2493383626997
 31
0.0
  0
ARC
  5
1F0
330
1F
100
AcDbEntity
  8
1
  6
CONTINUOUS
 62
     7
100
AcDbCircle
 10
1052.539988313499
 20
221.0046961745
 30
0.0
 40
3.000000000000114
100
AcDbArc
 50
0.0
 51
70.0032244621
  0
ARC
  5
1F1
330
1F
100
AcDbEntity
  8
1
  6
CONTINUOUS
 62
     7
100
AcDbCircle
 10
1061.0684157705
 20
219.8056893740006
 30
0.0
 40
3.000000000000114
100
AcDbArc
 50
117.7255551829
 51
180.0
  0
LINE
  5
1F2
330
1F
100
AcDbEntity
  8
1
  6
CONTINUOUS
 62
     7
100
AcDbLine
 10
1046.369481572199
 20
225.8830101131997
 30
0.0
 11
1046.369481572199
 21
229.4099683809003
 31
0.0
  0
ARC
  5
1F3
330
1F
100
AcDbEntity
  8
1
  6
CONTINUOUS
 62
     7
100
AcDbCircle
 10
1001.369481572199
 20
225.8830101131997
 30
0.0
 40
3.000000000000114
100
AcDbArc
 50
180.0
 51
250.0032244621
  0
ARC
  5
1F4
330
1F
100
AcDbEntity
  8
1
  6
CONTINUOUS
 62
     7
100
AcDbCircle
 10
1064.3694815722
 20
225.4946366153998
 30
0.0
 40
3.000000000000114
100
AcDbArc
 50
297.7255551829001
 51
0.0
  0
ARC
  5
1F5
330
1F
100
AcDbEntity
  8
1
  6
CONTINUOUS
 62
     7
100
AcDbCircle
 10
1052.039988313499
 20
220.6545714374997
 30
0.0
 40
1.000000000000334
100
AcDbArc
 50
0.0
 51
70.0032244622
  0
ARC
  5
1F6
330
1F
100
AcDbEntity
  8
1
  6
CONTINUOUS
 62
     7
100
AcDbCircle
 10
1061.568415770499
 20
219.5036268866
 30
0.0
 40
1.000000000000334
100
AcDbArc
 50
117.7255551829
 51
180.0
  0
LINE
  5
1F7
330
1F
100
AcDbEntity
  8
1
  6
CONTINUOUS
 62
     7
100
AcDbLine
 10
1058.068415770499
 20
219.8056893740006
 30
0.0
 11
1058.068415770499
 21
215.2493383626997
 31
0.0
  0
LINE
  5
1F8
330
1F
100
AcDbEntity
  8
1
  6
CONTINUOUS
 62
     7
100
AcDbLine
 10
952.8694815721997
 20
226.5832595871
 30
0.0
 11
952.8694815721997
 21
229.4099683809003
 31
0.0
  0
ARC
  5
1F9
330
1F
100
AcDbEntity
  8
1
  6
CONTINUOUS
 62
     7
100
AcDbCircle
 10
965.5684157705
 20
219.5036268866
 30
0.0
 40
1.000000000000334
100
AcDbArc
 50
117.7255551829
 51
180.0
  0
LINE
  5
1FA
330
1F
100
AcDbEntity
  8
1
  6
CONTINUOUS
 62
     7
100
AcDbLine
 10
1201.118567897099
 20
299.4099683808997
 30
0.0
 11
1201.118567897099
 21
229.4099683809003
 31
0.0
  0
ARC
  5
1FB
330
1F
100
AcDbEntity
  8
1
  6
CONTINUOUS
 62
     7
100
AcDbCircle
 10
1049.369481572199
 20
225.8830101131997
 30
0.0
 40
3.000000000000114
100
AcDbArc
 50
180.0
 51
250.0032244621
  0
ARC
  5
1FC
330
1F
100
AcDbEntity
  8
1
  6
CONTINUOUS
 62
     7
100
AcDbCircle
 10
956.5399883134988
 20
221.0046961745
 30
0.0
 40
3.000000000000114
100
AcDbArc
 50
0.0
 51
70.0032244621
  0
LINE
  5
1FD
330
1F
100
AcDbEntity
  8
1
  6
CONTINUOUS
 62
     7
100
AcDbLine
 10
963.6727050566991
 20
222.4612479976003
 30
0.0
 11
968.0673369290993
 21
224.7709822781996
 31
0.0
  0
LINE
  5
1FE
330
1F
100
AcDbEntity
  8
1
  6
CONTINUOUS
 62
     7
100
AcDbLine
 10
962.0684157704993
 20
219.8056893740006
 30
0.0
 11
962.0684157704993
 21
215.2493383626997
 31
0.0
  0
LINE
  5
1FF
330
1F
100
AcDbEntity
  8
1
  6
CONTINUOUS
 62
     7
100
AcDbLine
 10
1201.118567897099
 20
229.4099683809003
 30
0.0
 11
1169.118567897099
 21
229.4099683809003
 31
0.0
  0
LINE
  5
200
330
1F
100
AcDbEntity
  8
1
  6
CONTINUOUS
 62
     7
100
AcDbLine
 10
968.8694815721997
 20
226.0987615901007
 30
0.0
 11
968.8694815721997
 21
229.4099683809003
 31
0.0
  0
LINE
  5
201
330
1F
100
AcDbEntity
  8
1
  6
CONTINUOUS
 62
     7
100
AcDbLine
 10
1169.118567897099
 20
229.4099683809003
 30
0.0
 11
1169.118567897099
 21
299.4099683808997
 31
0.0
  0
LINE
  5
202
330
1F
100
AcDbEntity
  8
1
  6
CONTINUOUS
 62
     7
100
AcDbLine
 10
1169.118567897099
 20
299.4099683808997
 30
0.0
 11
1201.118567897099
 21
299.4099683808997
 31
0.0
  0
LINE
  5
203
330
1F
100
AcDbEntity
  8
1
  6
CONTINUOUS
 62
     7
100
AcDbLine
 10
964.5684157704997
 20
219.5036268866
 30
0.0
 11
964.5684157704997
 21
215.2493383626997
 31
0.0
  0
ARC
  5
204
330
1F
100
AcDbEntity
  8
1
  6
CONTINUOUS
 62
     7
100
AcDbCircle
 10
1061.769481572199
 20
312.5088163657006
 30
0.0
 40
3.599999999999604
100
AcDbArc
 50
0.0
 51
90.0
  0
LINE
  5
205
330
1F
100
AcDbEntity
  8
1
  6
CONTINUOUS
 62
     7
100
AcDbLine
 10
880.3835893464998
 20
312.6088163656995
 30
0.0
 11
880.3835893464998
 21
270.3309624173
 31
0.0
  0
ARC
  5
206
330
1F
100
AcDbEntity
  8
1
  6
CONTINUOUS
 62
     7
100
AcDbCircle
 10
898.7694815721995
 20
305.0376750705004
 30
0.0
 40
3.599999999999604
100
AcDbArc
 50
0.0
 51
90.0
  0
LINE
  5
207
330
1F
100
AcDbEntity
  8
1
  6
CONTINUOUS
 62
     7
100
AcDbLine
 10
1170.8694815722
 20
311.1376750705004
 30
0.0
 11
1129.8694815722
 21
311.1376750705004
 31
0.0
  0
ARC
  5
208
330
1F
100
AcDbEntity
  8
1
  6
CONTINUOUS
 62
     7
100
AcDbCircle
 10
886.3835893465
 20
312.6088163656995
 30
0.0
 40
6.000000000000227
100
AcDbArc
 50
90.0
 51
180.0
  0
LINE
  5
209
330
1F
100
AcDbEntity
  8
1
  6
CONTINUOUS
 62
     7
100
AcDbLine
 10
872.0051754942997
 20
277.0961047394005
 30
0.0
 11
872.0051754942997
 21
284.6324152328999
 31
0.0
  0
ARC
  5
20A
330
1F
100
AcDbEntity
  8
1
  6
CONTINUOUS
 62
     7
100
AcDbCircle
 10
883.2133933773001
 20
229.0294198321003
 30
0.0
 40
8.000000000000007
100
AcDbArc
 50
0.0
 51
35.65908769609999
  0
ARC
  5
20B
330
1F
100
AcDbEntity
  8
1
  6
CONTINUOUS
 62
     7
100
AcDbCircle
 10
1061.8694815722
 20
312.6088163656995
 30
0.0
 40
6.000000000000227
100
AcDbArc
 50
0.0
 51
90.0
  0
LINE
  5
20C
330
1F
100
AcDbEntity
  8
1
  6
CONTINUOUS
 62
     7
100
AcDbLine
 10
875.3826756705001
 20
270.4550591885005
 30
0.0
 11
887.8826756705002
 21
270.4550591885005
 31
0.0
  0
ARC
  5
20D
330
1F
100
AcDbEntity
  8
1
  6
CONTINUOUS
 62
     7
100
AcDbCircle
 10
965.7694815721998
 20
312.5088163657006
 30
0.0
 40
3.599999999999604
100
AcDbArc
 50
0.0
 51
90.0
  0
ARC
  5
20E
330
1F
100
AcDbEntity
  8
1
  6
CONTINUOUS
 62
     7
100
AcDbCircle
 10
965.8694815721996
 20
312.6088163656995
 30
0.0
 40
6.000000000000227
100
AcDbArc
 50
0.0
 51
90.0
  0
LINE
  5
20F
330
1F
100
AcDbEntity
  8
1
  6
CONTINUOUS
 62
     7
100
AcDbLine
 10
1127.3694815722
 20
311.1376750705004
 30
0.0
 11
1069.3694815722
 21
311.1376750705004
 31
0.0
  0
LINE
  5
210
330
1F
100
AcDbEntity
  8
1
  6
CONTINUOUS
 62
     7
100
AcDbLine
 10
1061.769481572199
 20
316.1088163656993
 30
0.0
 11
1018.742878744599
 21
316.1088163656993
 31
0.0
  0
LINE
  5
211
330
1F
100
AcDbEntity
  8
1
  6
CONTINUOUS
 62
     7
100
AcDbLine
 10
884.3844248712998
 20
322.1145694595
 30
0.0
 11
884.3844248712998
 21
318.2659659483998
 31
0.0
  0
LINE
  5
212
330
1F
100
AcDbEntity
  8
1
  6
CONTINUOUS
 62
     7
100
AcDbLine
 10
1176.8694815722
 20
305.1376750705002
 30
0.0
 11
1176.8694815722
 21
299.4099683808997
 31
0.0
  0
LINE
  5
213
330
1F
100
AcDbEntity
  8
1
  6
CONTINUOUS
 62
     7
100
AcDbLine
 10
1170.769481572199
 20
308.6376750705
 30
0.0
 11
1129.8694815722
 21
308.6376750705
 31
0.0
  0
LINE
  5
214
330
1F
100
AcDbEntity
  8
1
  6
CONTINUOUS
 62
     7
100
AcDbLine
 10
1174.369481572199
 20
305.0376750705004
 30
0.0
 11
1174.369481572199
 21
299.4099683808997
 31
0.0
  0
LINE
  5
215
330
1F
100
AcDbEntity
  8
1
  6
CONTINUOUS
 62
     7
100
AcDbLine
 10
1013.7694815722
 20
316.1088163656993
 30
0.0
 11
970.7428787445992
 21
316.1088163656993
 31
0.0
  0
LINE
  5
216
330
1F
100
AcDbEntity
  8
1
  6
CONTINUOUS
 62
     7
100
AcDbLine
 10
965.7694815721998
 20
316.1088163656993
 30
0.0
 11
922.7428787445992
 21
316.1088163656993
 31
0.0
  0
LINE
  5
217
330
1F
100
AcDbEntity
  8
1
  6
CONTINUOUS
 62
     7
100
AcDbLine
 10
917.7694815721998
 20
316.1088163656993
 30
0.0
 11
886.4835893464997
 21
316.1088163656993
 31
0.0
  0
ARC
  5
218
330
1F
100
AcDbEntity
  8
1
  6
CONTINUOUS
 62
     7
100
AcDbCircle
 10
1042.7694815722
 20
322.1145694595
 30
0.0
 40
3.599999999999604
100
AcDbArc
 50
0.0
 51
90.0
  0
LINE
  5
219
330
1F
100
AcDbEntity
  8
1
  6
CONTINUOUS
 62
     7
100
AcDbLine
 10
872.0051754942997
 20
277.0961047394005
 30
0.0
 11
880.3835893464998
 21
277.0961047394005
 31
0.0
  0
LINE
  5
21A
330
1F
100
AcDbEntity
  8
1
  6
CONTINUOUS
 62
     7
100
AcDbLine
 10
875.3826756705001
 20
260.4550591884998
 30
0.0
 11
875.3826756705001
 21
270.4550591885005
 31
0.0
  0
ARC
  5
21B
330
1F
100
AcDbEntity
  8
1
  6
CONTINUOUS
 62
     7
100
AcDbCircle
 10
1042.869481572199
 20
322.2145694594998
 30
0.0
 40
6.000000000000227
100
AcDbArc
 50
0.0
 51
90.0
  0
ARC
  5
21C
330
1F
100
AcDbEntity
  8
1
  6
CONTINUOUS
 62
     7
100
AcDbCircle
 10
1104.769481572199
 20
305.0376750705004
 30
0.0
 40
3.599999999999604
100
AcDbArc
 50
0.0
 51
90.0
  0
ARC
  5
21D
330
1F
100
AcDbEntity
  8
1
  6
CONTINUOUS
 62
     7
100
AcDbCircle
 10
1104.8694815722
 20
305.1376750705002
 30
0.0
 40
6.000000000000227
100
AcDbArc
 50
0.0
 51
90.0
  0
LINE
  5
21E
330
1F
100
AcDbEntity
  8
1
  6
CONTINUOUS
 62
     7
100
AcDbLine
 10
1061.8694815722
 20
318.6088163656997
 30
0.0
 11
886.3835893465
 21
318.6088163656997
 31
0.0
  0
ARC
  5
21F
330
1F
100
AcDbEntity
  8
1
  6
CONTINUOUS
 62
     7
100
AcDbCircle
 10
994.8694815721994
 20
305.1376750705002
 30
0.0
 40
6.000000000000227
100
AcDbArc
 50
0.0
 51
90.0
  0
ARC
  5
220
330
1F
100
AcDbEntity
  8
1
  6
CONTINUOUS
 62
     7
100
AcDbCircle
 10
994.7694815721997
 20
305.0376750705004
 30
0.0
 40
3.599999999999604
100
AcDbArc
 50
0.0
 51
90.0
  0
ARC
  5
221
330
1F
100
AcDbEntity
  8
1
  6
CONTINUOUS
 62
     7
100
AcDbCircle
 10
1170.769481572199
 20
305.0376750705004
 30
0.0
 40
3.599999999999604
100
AcDbArc
 50
0.0
 51
90.0
  0
ARC
  5
222
330
1F
100
AcDbEntity
  8
1
  6
CONTINUOUS
 62
     7
100
AcDbCircle
 10
890.3835914800994
 20
322.2145694594998
 30
0.0
 40
6.000000000000227
100
AcDbArc
 50
90.0
 51
180.9549738739001
  0
LINE
  5
223
330
1F
100
AcDbEntity
  8
1
  6
CONTINUOUS
 62
     7
100
AcDbLine
 10
873.5051754942997
 20
297.2961047594999
 30
0.0
 11
880.3835893464998
 21
297.2961305074007
 31
0.0
  0
ARC
  5
224
330
1F
100
AcDbEntity
  8
1
  6
CONTINUOUS
 62
     7
100
AcDbCircle
 10
1013.8694815722
 20
312.6088163656995
 30
0.0
 40
6.000000000000227
100
AcDbArc
 50
0.0
 51
90.0
  0
LINE
  5
225
330
1F
100
AcDbEntity
  8
1
  6
CONTINUOUS
 62
     7
100
AcDbLine
 10
887.8826756705002
 20
270.4550591885005
 30
0.0
 11
887.8826756705002
 21
260.4550591884998
 31
0.0
  0
LINE
  5
226
330
1F
100
AcDbEntity
  8
1
  6
CONTINUOUS
 62
     7
100
AcDbLine
 10
1193.369481572199
 20
322.1145694595
 30
0.0
 11
1193.369481572199
 21
299.4099683808997
 31
0.0
  0
LINE
  5
227
330
1F
100
AcDbEntity
  8
1
  6
CONTINUOUS
 62
     7
100
AcDbLine
 10
1065.369481572199
 20
308.6376750705
 30
0.0
 11
1048.8694815722
 21
308.6376750705
 31
0.0
  0
LINE
  5
228
330
1F
100
AcDbEntity
  8
1
  6
CONTINUOUS
 62
     7
100
AcDbLine
 10
883.1185737618998
 20
221.4931093385006
 30
0.0
 11
891.2133933773001
 21
221.4931093385006
 31
0.0
  0
LINE
  5
229
330
1F
100
AcDbEntity
  8
1
  6
CONTINUOUS
 62
     7
100
AcDbLine
 10
886.8835914800997
 20
245.2050591633999
 30
0.0
 11
886.8835914800997
 21
241.6930890393001
 31
0.0
  0
LINE
  5
22A
330
1F
100
AcDbEntity
  8
1
  6
CONTINUOUS
 62
     7
100
AcDbLine
 10
886.8835914800997
 20
322.1145694595
 30
0.0
 11
886.8835914800997
 21
318.6088163656997
 31
0.0
  0
LINE
  5
22B
330
1F
100
AcDbEntity
  8
1
  6
CONTINUOUS
 62
     7
100
AcDbLine
 10
889.7576756704995
 20
254.6254374523995
 30
0.0
 11
889.7576756704995
 21
245.2050591633999
 31
0.0
  0
ARC
  5
22C
330
1F
100
AcDbEntity
  8
1
  6
CONTINUOUS
 62
     7
100
AcDbCircle
 10
880.0051754942997
 20
284.6324152328999
 30
0.0
 40
8.000000000000007
100
AcDbArc
 50
144.3409123039
 51
180.0000563102
  0
LINE
  5
22D
330
1F
100
AcDbEntity
  8
1
  6
CONTINUOUS
 62
     7
100
AcDbLine
 10
888.132677804899
 20
245.2050591633999
 30
0.0
 11
888.132677804899
 21
241.6930890393001
 31
0.0
  0
LINE
  5
22E
330
1F
100
AcDbEntity
  8
1
  6
CONTINUOUS
 62
     7
100
AcDbLine
 10
891.2133933773001
 20
229.0294119696998
 30
0.0
 11
891.2133933773001
 21
221.4931093385006
 31
0.0
  0
ARC
  5
22F
330
1F
100
AcDbEntity
  8
1
  6
CONTINUOUS
 62
     7
100
AcDbCircle
 10
898.8694815721993
 20
305.1376750705002
 30
0.0
 40
6.000000000000227
100
AcDbArc
 50
0.0
 51
90.0
  0
LINE
  5
230
330
1F
100
AcDbEntity
  8
1
  6
CONTINUOUS
 62
     7
100
AcDbLine
 10
884.3844248712998
 20
315.4334545495008
 30
0.0
 11
884.3844248712998
 21
270.4550591885005
 31
0.0
  0
ARC
  5
231
330
1F
100
AcDbEntity
  8
1
  6
CONTINUOUS
 62
     7
100
AcDbCircle
 10
1013.7694815722
 20
312.5088163657006
 30
0.0
 40
3.599999999999604
100
AcDbArc
 50
0.0
 51
90.0
  0
LINE
  5
232
330
1F
100
AcDbEntity
  8
1
  6
CONTINUOUS
 62
     7
100
AcDbLine
 10
902.3694815722001
 20
305.0376750705004
 30
0.0
 11
902.3694815722001
 21
299.4099683808997
 31
0.0
  0
LINE
  5
233
330
1F
100
AcDbEntity
  8
1
  6
CONTINUOUS
 62
     7
100
AcDbLine
 10
1127.3694815722
 20
308.6376750705
 30
0.0
 11
1109.742878744599
 21
308.6376750705
 31
0.0
  0
LINE
  5
234
330
1F
100
AcDbEntity
  8
1
  6
CONTINUOUS
 62
     7
100
AcDbLine
 10
877.6563874656
 20
277.0961047394005
 30
0.0
 11
877.6563874356995
 21
270.4550591809003
 31
0.0
  0
ARC
  5
235
330
1F
100
AcDbEntity
  8
1
  6
CONTINUOUS
 62
     7
100
AcDbCircle
 10
890.4835914800992
 20
322.1145694595
 30
0.0
 40
3.599999999999604
100
AcDbArc
 50
90.0
 51
180.0
  0
LINE
  5
236
330
1F
100
AcDbEntity
  8
1
  6
CONTINUOUS
 62
     7
100
AcDbLine
 10
873.5051754942997
 20
289.2961047594999
 30
0.0
 11
873.5051754942997
 21
297.2961047594999
 31
0.0
  0
ARC
  5
237
330
1F
100
AcDbEntity
  8
1
  6
CONTINUOUS
 62
     7
100
AcDbCircle
 10
883.6563874359999
 20
303.4071315903999
 30
0.0
 40
6.000000000000227
100
AcDbArc
 50
123.0565380007
 51
180.0
  0
ARC
  5
238
330
1F
100
AcDbEntity
  8
1
  6
CONTINUOUS
 62
     7
100
AcDbCircle
 10
886.4835893464997
 20
312.5088163657006
 30
0.0
 40
3.599999999999604
100
AcDbArc
 50
90.0
 51
180.0
  0
LINE
  5
239
330
1F
100
AcDbEntity
  8
1
  6
CONTINUOUS
 62
     7
100
AcDbLine
 10
886.8835914800997
 20
316.1088163656993
 30
0.0
 11
886.8835914800997
 21
270.4550591809003
 31
0.0
  0
LINE
  5
23A
330
1F
100
AcDbEntity
  8
1
  6
CONTINUOUS
 62
     7
100
AcDbLine
 10
882.8835893465001
 20
312.6088163656995
 30
0.0
 11
882.8835893465001
 21
270.3309624173
 31
0.0
  0
LINE
  5
23B
330
1F
100
AcDbEntity
  8
1
  6
CONTINUOUS
 62
     7
100
AcDbLine
 10
877.6563874359997
 20
303.4071315903999
 30
0.0
 11
877.6563874358993
 21
297.2961202987001
 31
0.0
  0
ARC
  5
23C
330
1F
100
AcDbEntity
  8
1
  6
CONTINUOUS
 62
     7
100
AcDbCircle
 10
879.7576756704997
 20
254.6254472804002
 30
0.0
 40
9.999999999999787
100
AcDbArc
 50
0.0
 51
35.65908769609999
  0
ARC
  5
23D
330
1F
100
AcDbEntity
  8
1
  6
CONTINUOUS
 62
     7
100
AcDbCircle
 10
883.5076756704998
 20
254.6254472804002
 30
0.0
 40
9.999999999999787
100
AcDbArc
 50
144.3409123039
 51
180.0000563102
  0
LINE
  5
23E
330
1F
100
AcDbEntity
  8
1
  6
CONTINUOUS
 62
     7
100
AcDbLine
 10
883.1185737618998
 20
241.6930801050006
 30
0.0
 11
889.7133933773
 21
241.6931093586001
 31
0.0
  0
LINE
  5
23F
330
1F
100
AcDbEntity
  8
1
  6
CONTINUOUS
 62
     7
100
AcDbLine
 10
1104.769481572199
 20
308.6376750705
 30
0.0
 11
1069.3694815722
 21
308.6376750705
 31
0.0
  0
LINE
  5
240
330
1F
100
AcDbEntity
  8
1
  6
CONTINUOUS
 62
     7
100
AcDbLine
 10
873.5076756705
 20
245.2050591633999
 30
0.0
 11
889.7576756704995
 21
245.2050591633999
 31
0.0
  0
LINE
  5
241
330
1F
100
AcDbEntity
  8
1
  6
CONTINUOUS
 62
     7
100
AcDbLine
 10
889.7133933773
 20
241.6931093586001
 30
0.0
 11
889.7133933773
 21
233.6931093586001
 31
0.0
  0
LINE
  5
242
330
1F
100
AcDbEntity
  8
1
  6
CONTINUOUS
 62
     7
100
AcDbLine
 10
904.8694815721996
 20
305.1376750705002
 30
0.0
 11
904.8694815721996
 21
299.4099683808997
 31
0.0
  0
LINE
  5
243
330
1F
100
AcDbEntity
  8
1
  6
CONTINUOUS
 62
     7
100
AcDbLine
 10
873.5076756705
 20
245.2050591633999
 30
0.0
 11
873.5076756705
 21
254.6254472804002
 31
0.0
  0
LINE
  5
244
330
1F
100
AcDbEntity
  8
1
  6
CONTINUOUS
 62
     7
100
AcDbLine
 10
1195.8676542219
 20
219.4268370254004
 30
0.0
 11
1195.8676542219
 21
229.4099683809003
 31
0.0
  0
ARC
  5
245
330
1F
100
AcDbEntity
  8
1
  6
CONTINUOUS
 62
     7
100
AcDbCircle
 10
1196.118567897099
 20
213.0035796116996
 30
0.0
 40
6.000000000000227
100
AcDbArc
 50
131.4184593189
 51
180.0
  0
LINE
  5
246
330
1F
100
AcDbEntity
  8
1
  6
CONTINUOUS
 62
     7
100
AcDbLine
 10
1041.383359177099
 20
218.4989573039999
 30
0.0
 11
1041.383359177099
 21
215.2493383626997
 31
0.0
  0
LINE
  5
247
330
1F
100
AcDbEntity
  8
1
  6
CONTINUOUS
 62
     7
100
AcDbLine
 10
993.3833591770992
 20
218.4989573039999
 30
0.0
 11
993.3833591770992
 21
215.2493383626997
 31
0.0
  0
LINE
  5
248
330
1F
100
AcDbEntity
  8
1
  6
CONTINUOUS
 62
     7
100
AcDbLine
 10
974.8537766172003
 20
219.4989573040003
 30
0.0
 11
974.8537766172003
 21
215.2493383626997
 31
0.0
  0
LINE
  5
249
330
1F
100
AcDbEntity
  8
1
  6
CONTINUOUS
 62
     7
100
AcDbLine
 10
1177.618567897099
 20
203.2493383627996
 30
0.0
 11
1177.618567897099
 21
212.2278165717999
 31
0.0
  0
LINE
  5
24A
330
1F
100
AcDbEntity
  8
1
  6
CONTINUOUS
 62
     7
100
AcDbLine
 10
976.8537766170997
 20
218.4989573039999
 30
0.0
 11
976.8537766170997
 21
215.2493383626997
 31
0.0
  0
LINE
  5
24B
330
1F
100
AcDbEntity
  8
1
  6
CONTINUOUS
 62
     7
100
AcDbLine
 10
1108.3694815722
 20
221.4989573039006
 30
0.0
 11
1108.3694815722
 21
229.4099683809003
 31
0.0
  0
ARC
  5
24C
330
1F
100
AcDbEntity
  8
1
  6
CONTINUOUS
 62
     7
100
AcDbCircle
 10
1174.0185678971
 20
212.2278165717999
 30
0.0
 40
3.599999999999604
100
AcDbArc
 50
0.0
 51
48.5815399837
  0
ARC
  5
24D
330
1F
100
AcDbEntity
  8
1
  6
CONTINUOUS
 62
     7
100
AcDbCircle
 10
1108.118567897099
 20
213.0035796116996
 30
0.0
 40
6.000000000000227
100
AcDbArc
 50
0.0
 51
48.5815406811
  0
ARC
  5
24E
330
1F
100
AcDbEntity
  8
1
  6
CONTINUOUS
 62
     7
100
AcDbCircle
 10
1180.3694815722
 20
219.4268370254004
 30
0.0
 40
6.000000000000227
100
AcDbArc
 50
180.0
 51
228.5815399837
  0
LINE
  5
24F
330
1F
100
AcDbEntity
  8
1
  6
CONTINUOUS
 62
     7
100
AcDbLine
 10
1043.383359177
 20
219.4989573040003
 30
0.0
 11
1043.383359177
 21
215.2493383626997
 31
0.0
  0
ARC
  5
250
330
1F
100
AcDbEntity
  8
1
  6
CONTINUOUS
 62
     7
100
AcDbCircle
 10
1041.383359177
 20
219.4989573040003
 30
0.0
 40
1.99999999999978
100
AcDbArc
 50
0.0
 51
90.0
  0
ARC
  5
251
330
1F
100
AcDbEntity
  8
1
  6
CONTINUOUS
 62
     7
100
AcDbCircle
 10
1123.8676542219
 20
219.4268370254004
 30
0.0
 40
6.000000000000227
100
AcDbArc
 50
311.4184600163
 51
0.0
  0
ARC
  5
252
330
1F
100
AcDbEntity
  8
1
  6
CONTINUOUS
 62
     7
100
AcDbCircle
 10
1024.8537766172
 20
219.4989573040003
 30
0.0
 40
1.99999999999978
100
AcDbArc
 50
90.0
 51
180.0
  0
ARC
  5
253
330
1F
100
AcDbEntity
  8
1
  6
CONTINUOUS
 62
     7
100
AcDbCircle
 10
944.3833591770998
 20
218.4989573039999
 30
0.0
 40
1.000000000000334
100
AcDbArc
 50
0.0
 51
90.0
  0
LINE
  5
254
330
1F
100
AcDbEntity
  8
1
  6
CONTINUOUS
 62
     7
100
AcDbLine
 10
1193.367654221499
 20
220.2026001424002
 30
0.0
 11
1193.3676542219
 21
229.4099683809003
 31
0.0
  0
LINE
  5
255
330
1F
100
AcDbEntity
  8
1
  6
CONTINUOUS
 62
     7
100
AcDbLine
 10
1190.118567897099
 20
213.0035796116996
 30
0.0
 11
1190.118567897099
 21
203.2493383627996
 31
0.0
  0
ARC
  5
256
330
1F
100
AcDbEntity
  8
1
  6
CONTINUOUS
 62
     7
100
AcDbCircle
 10
1196.2185678971
 20
212.2278165717999
 30
0.0
 40
3.599999999999604
100
AcDbArc
 50
131.4184600163
 51
180.0
  0
ARC
  5
257
330
1F
100
AcDbEntity
  8
1
  6
CONTINUOUS
 62
     7
100
AcDbCircle
 10
1189.867654221899
 20
219.4268370254004
 30
0.0
 40
6.000000000000227
100
AcDbArc
 50
311.4184600163
 51
0.0
  0
ARC
  5
258
330
1F
100
AcDbEntity
  8
1
  6
CONTINUOUS
 62
     7
100
AcDbCircle
 10
1123.769481572199
 20
322.1145694595
 30
0.0
 40
3.599999999999604
100
AcDbArc
 50
0.0
 51
90.0
  0
ARC
  5
259
330
1F
100
AcDbEntity
  8
1
  6
CONTINUOUS
 62
     7
100
AcDbCircle
 10
1174.118567897099
 20
213.0035796116996
 30
0.0
 40
6.000000000000227
100
AcDbArc
 50
0.0
 51
48.5815406811
  0
LINE
  5
25A
330
1F
100
AcDbEntity
  8
1
  6
CONTINUOUS
 62
     7
100
AcDbLine
 10
1192.618567897099
 20
203.2493383627996
 30
0.0
 11
1192.618567897099
 21
212.2278165717999
 31
0.0
  0
ARC
  5
25B
330
1F
100
AcDbEntity
  8
1
  6
CONTINUOUS
 62
     7
100
AcDbCircle
 10
1114.3694815722
 20
219.4268370254004
 30
0.0
 40
6.000000000000227
100
AcDbArc
 50
180.0
 51
228.5815399837
  0
LINE
  5
25C
330
1F
100
AcDbEntity
  8
1
  6
CONTINUOUS
 62
     7
100
AcDbLine
 10
1127.3676545157
 20
221.498957304
 30
0.0
 11
1127.367654221899
 21
229.4099683809003
 31
0.0
  0
ARC
  5
25D
330
1F
100
AcDbEntity
  8
1
  6
CONTINUOUS
 62
     7
100
AcDbCircle
 10
1170.8694815722
 20
305.1376750705002
 30
0.0
 40
6.000000000000227
100
AcDbArc
 50
0.0
 51
90.0
  0
ARC
  5
25E
330
1F
100
AcDbEntity
  8
1
  6
CONTINUOUS
 62
     7
100
AcDbCircle
 10
1189.7676543095
 20
220.2026001425006
 30
0.0
 40
3.599999999999604
100
AcDbArc
 50
311.4184593189
 51
0.0
  0
ARC
  5
25F
330
1F
100
AcDbEntity
  8
1
  6
CONTINUOUS
 62
     7
100
AcDbCircle
 10
1130.218567897099
 20
212.2278165717999
 30
0.0
 40
3.599999999999604
100
AcDbArc
 50
131.4184600163
 51
180.0
  0
ARC
  5
260
330
1F
100
AcDbEntity
  8
1
  6
CONTINUOUS
 62
     7
100
AcDbCircle
 10
1040.3833591771
 20
218.4989573039999
 30
0.0
 40
1.000000000000334
100
AcDbArc
 50
0.0
 51
90.0
  0
ARC
  5
261
330
1F
100
AcDbEntity
  8
1
  6
CONTINUOUS
 62
     7
100
AcDbCircle
 10
1123.7676543095
 20
220.2026001425006
 30
0.0
 40
3.599999999999604
100
AcDbArc
 50
311.4184593189
 51
348.7286168331
  0
LINE
  5
262
330
1F
100
AcDbEntity
  8
1
  6
CONTINUOUS
 62
     7
100
AcDbLine
 10
1024.8537766171
 20
218.4989573039999
 30
0.0
 11
1024.8537766171
 21
215.2493383626997
 31
0.0
  0
ARC
  5
263
330
1F
100
AcDbEntity
  8
1
  6
CONTINUOUS
 62
     7
100
AcDbCircle
 10
1189.769481572199
 20
322.1145694595
 30
0.0
 40
3.599999999999604
100
AcDbArc
 50
0.0
 51
90.0
  0
LINE
  5
264
330
1F
100
AcDbEntity
  8
1
  6
CONTINUOUS
 62
     7
100
AcDbLine
 10
1022.8537766172
 20
219.4989573040003
 30
0.0
 11
1022.8537766172
 21
215.2493383626997
 31
0.0
  0
ARC
  5
265
330
1F
100
AcDbEntity
  8
1
  6
CONTINUOUS
 62
     7
100
AcDbCircle
 10
1180.469481484599
 20
220.2026001425006
 30
0.0
 40
3.599999999999604
100
AcDbArc
 50
191.2713831669
 51
228.5815406811
  0
ARC
  5
266
330
1F
100
AcDbEntity
  8
1
  6
CONTINUOUS
 62
     7
100
AcDbCircle
 10
1130.118567897099
 20
213.0035796116996
 30
0.0
 40
6.000000000000227
100
AcDbArc
 50
131.4184593189
 51
180.0
  0
ARC
  5
267
330
1F
100
AcDbEntity
  8
1
  6
CONTINUOUS
 62
     7
100
AcDbCircle
 10
1123.8694815722
 20
322.2145694594998
 30
0.0
 40
6.000000000000227
100
AcDbArc
 50
0.0
 51
90.0
  0
ARC
  5
268
330
1F
100
AcDbEntity
  8
1
  6
CONTINUOUS
 62
     7
100
AcDbCircle
 10
1114.469481484599
 20
220.2026001425006
 30
0.0
 40
3.599999999999604
100
AcDbArc
 50
191.2713831681
 51
228.5815406811
  0
LINE
  5
269
330
1F
100
AcDbEntity
  8
1
  6
CONTINUOUS
 62
     7
100
AcDbLine
 10
1176.869481278399
 20
221.498957304
 30
0.0
 11
1176.8694815722
 21
229.4099683809003
 31
0.0
  0
LINE
  5
26A
330
1F
100
AcDbEntity
  8
1
  6
CONTINUOUS
 62
     7
100
AcDbLine
 10
1110.869481278399
 20
221.4989573039006
 30
0.0
 11
1110.8694815722
 21
229.4099683809003
 31
0.0
  0
LINE
  5
26B
330
1F
100
AcDbEntity
  8
1
  6
CONTINUOUS
 62
     7
100
AcDbLine
 10
1024.8537766172
 20
221.498957304
 30
0.0
 11
1041.383359177
 21
221.498957304
 31
0.0
  0
LINE
  5
26C
330
1F
100
AcDbEntity
  8
1
  6
CONTINUOUS
 62
     7
100
AcDbLine
 10
1040.3833591771
 20
219.4989573040003
 30
0.0
 11
1025.8537766171
 21
219.4989573040003
 31
0.0
  0
ARC
  5
26D
330
1F
100
AcDbEntity
  8
1
  6
CONTINUOUS
 62
     7
100
AcDbCircle
 10
1025.8537766171
 20
218.4989573039999
 30
0.0
 40
1.000000000000334
100
AcDbArc
 50
90.0
 51
180.0
  0
ARC
  5
26E
330
1F
100
AcDbEntity
  8
1
  6
CONTINUOUS
 62
     7
100
AcDbCircle
 10
992.3833591770998
 20
218.4989573039999
 30
0.0
 40
1.000000000000334
100
AcDbArc
 50
0.0
 51
90.0
  0
LINE
  5
26F
330
1F
100
AcDbEntity
  8
1
  6
CONTINUOUS
 62
     7
100
AcDbLine
 10
1111.618567897099
 20
203.2493383627996
 30
0.0
 11
1111.618567897099
 21
212.2278165717999
 31
0.0
  0
LINE
  5
270
330
1F
100
AcDbEntity
  8
1
  6
CONTINUOUS
 62
     7
100
AcDbLine
 10
1124.118567897099
 20
213.0035796116996
 30
0.0
 11
1124.118567897099
 21
203.2493383627996
 31
0.0
  0
LINE
  5
271
330
1F
100
AcDbEntity
  8
1
  6
CONTINUOUS
 62
     7
100
AcDbLine
 10
1174.369481572199
 20
221.498957304
 30
0.0
 11
1174.369481572199
 21
229.4099683809003
 31
0.0
  0
ARC
  5
272
330
1F
100
AcDbEntity
  8
1
  6
CONTINUOUS
 62
     7
100
AcDbCircle
 10
1189.8694815722
 20
322.2145694594998
 30
0.0
 40
6.000000000000227
100
AcDbArc
 50
0.0
 51
90.0
  0
LINE
  5
273
330
1F
100
AcDbEntity
  8
1
  6
CONTINUOUS
 62
     7
100
AcDbLine
 10
1129.8676542219
 20
221.498957304
 30
0.0
 11
1129.8676542219
 21
229.4099683809003
 31
0.0
  0
LINE
  5
274
330
1F
100
AcDbEntity
  8
1
  6
CONTINUOUS
 62
     7
100
AcDbLine
 10
995.3833591769995
 20
219.4989573040003
 30
0.0
 11
995.3833591769995
 21
215.2493383626997
 31
0.0
  0
ARC
  5
275
330
1F
100
AcDbEntity
  8
1
  6
CONTINUOUS
 62
     7
100
AcDbCircle
 10
993.3833591769998
 20
219.4989573040003
 30
0.0
 40
1.99999999999978
100
AcDbArc
 50
0.0
 51
90.0
  0
ARC
  5
276
330
1F
100
AcDbEntity
  8
1
  6
CONTINUOUS
 62
     7
100
AcDbCircle
 10
977.8537766171
 20
218.4989573039999
 30
0.0
 40
1.000000000000334
100
AcDbArc
 50
90.0
 51
180.0
  0
ARC
  5
277
330
1F
100
AcDbEntity
  8
1
  6
CONTINUOUS
 62
     7
100
AcDbCircle
 10
1108.0185678971
 20
212.2278165717999
 30
0.0
 40
3.599999999999604
100
AcDbArc
 50
0.0
 51
48.5815399837
  0
LINE
  5
278
330
1F
100
AcDbEntity
  8
1
  6
CONTINUOUS
 62
     7
100
AcDbLine
 10
1114.118567897099
 20
213.0035796116996
 30
0.0
 11
1114.118567897099
 21
203.2493383627996
 31
0.0
  0
LINE
  5
279
330
1F
100
AcDbEntity
  8
1
  6
CONTINUOUS
 62
     7
100
AcDbLine
 10
1126.6185678971
 20
203.2493383627996
 30
0.0
 11
1126.6185678971
 21
212.2278165717999
 31
0.0
  0
ARC
  5
27A
330
1F
100
AcDbEntity
  8
1
  6
CONTINUOUS
 62
     7
100
AcDbCircle
 10
976.8537766172001
 20
219.4989573040003
 30
0.0
 40
1.99999999999978
100
AcDbArc
 50
90.0
 51
180.0
  0
LINE
  5
27B
330
1F
100
AcDbEntity
  8
1
  6
CONTINUOUS
 62
     7
100
AcDbLine
 10
976.8537766172001
 20
221.498957304
 30
0.0
 11
993.3833591769998
 21
221.498957304
 31
0.0
  0
LINE
  5
27C
330
1F
100
AcDbEntity
  8
1
  6
CONTINUOUS
 62
     7
100
AcDbLine
 10
945.3833591770992
 20
218.4989573039999
 30
0.0
 11
945.3833591770992
 21
215.2493383626997
 31
0.0
  0
LINE
  5
27D
330
1F
100
AcDbEntity
  8
1
  6
CONTINUOUS
 62
     7
100
AcDbLine
 10
992.3833591770998
 20
219.4989573040003
 30
0.0
 11
977.8537766171
 21
219.4989573040003
 31
0.0
  0
LINE
  5
27E
330
1F
100
AcDbEntity
  8
1
  6
CONTINUOUS
 62
     7
100
AcDbLine
 10
947.3833591769995
 20
219.4989573040003
 30
0.0
 11
947.3833591769995
 21
215.2493383626997
 31
0.0
  0
ARC
  5
27F
330
1F
100
AcDbEntity
  8
1
  6
CONTINUOUS
 62
     7
100
AcDbCircle
 10
945.3833591769998
 20
219.4989573040003
 30
0.0
 40
1.99999999999978
100
AcDbArc
 50
0.0
 51
90.0
  0
LINE
  5
280
330
1F
100
AcDbEntity
  8
1
  6
CONTINUOUS
 62
     7
100
AcDbLine
 10
1180.118567897099
 20
213.0035796116996
 30
0.0
 11
1180.118567897099
 21
203.2493383627996
 31
0.0
  0
LINE
  5
281
330
1F
100
AcDbEntity
  8
1
  6
CONTINUOUS
 62
     7
100
AcDbLine
 10
1381.1616549544
 20
382.5908361015999
 30
0.0
 11
1504.161654954399
 21
379.3699677487003
 31
0.0
  0
LINE
  5
282
330
1F
100
AcDbEntity
  8
1
  6
DASHED
 62
     7
100
AcDbLine
 10
927.2532126653994
 20
209.3944050132999
 30
0.0
 11
926.4610092201995
 21
206.7493383626999
 31
0.0
  0
LINE
  5
283
330
1F
100
AcDbEntity
  8
1
  6
CONTINUOUS
 62
     7
100
AcDbLine
 10
1071.118567897099
 20
121.2493383627002
 30
0.0
 11
1071.118567897099
 21
125.2493383626998
 31
0.0
  0
ARC
  5
284
330
1F
100
AcDbEntity
  8
1
  6
DASHED
 62
     7
100
AcDbCircle
 10
929.5858274246997
 20
199.7493383627003
 30
0.0
 40
1.000000000000334
100
AcDbArc
 50
270.0
 51
330.0
  0
ARC
  5
285
330
1F
100
AcDbEntity
  8
1
  6
DASHED
 62
     7
100
AcDbCircle
 10
931.3178782323001
 20
202.7493383626995
 30
0.0
 40
1.000000000000334
100
AcDbArc
 50
330.0
 51
30.0
  0
ARC
  5
286
330
1F
100
AcDbEntity
  8
1
  6
CONTINUOUS
 62
     7
100
AcDbCircle
 10
1327.661654954399
 20
381.8639035243008
 30
0.0
 40
1.99999999999978
100
AcDbArc
 50
92.0
 51
180.0
  0
LINE
  5
287
330
1F
100
AcDbEntity
  8
1
  6
CONTINUOUS
 62
     7
100
AcDbLine
 10
1363.091855961
 20
394.6484024919004
 30
0.0
 11
1381.1616549544
 21
395.2794137772999
 31
0.0
  0
LINE
  5
288
330
1F
100
AcDbEntity
  8
1
  6
DASHED
 62
     7
100
AcDbLine
 10
926.1217258096002
 20
198.7493383626999
 30
0.0
 11
929.5858274246997
 21
198.7493383626999
 31
0.0
  0
LINE
  5
289
330
1F
100
AcDbEntity
  8
1
  6
DASHED
 62
     7
100
AcDbLine
 10
928.8537766170997
 20
210.4684542818003
 30
0.0
 11
926.8537766172002
 21
210.4684542818003
 31
0.0
  0
ARC
  5
28A
330
1F
100
AcDbEntity
  8
1
  6
CONTINUOUS
 62
     7
100
AcDbCircle
 10
1072.618567897099
 20
125.2493383626998
 30
0.0
 40
1.500000000000057
100
AcDbArc
 50
180.0
 51
0.0
  0
LINE
  5
28B
330
1F
100
AcDbEntity
  8
1
  6
CONTINUOUS
 62
     7
100
AcDbLine
 10
928.8537766172
 20
221.498957304
 30
0.0
 11
945.3833591769998
 21
221.498957304
 31
0.0
  0
ARC
  5
28C
330
1F
100
AcDbEntity
  8
1
  6
CONTINUOUS
 62
     7
100
AcDbCircle
 10
993.7336997521991
 20
120.2493383626999
 30
0.0
 40
3.000000000000114
100
AcDbArc
 50
180.0
 51
270.0
  0
LINE
  5
28D
330
1F
100
AcDbEntity
  8
1
  6
CONTINUOUS
 62
     7
100
AcDbLine
 10
1360.961776789
 20
385.0279884915002
 30
0.0
 11
1327.591855961
 21
383.8626851783005
 31
0.0
  0
LINE
  5
28E
330
1F
100
AcDbEntity
  8
1
  6
CONTINUOUS
 62
     7
100
AcDbLine
 10
944.3833591770998
 20
219.4989573040003
 30
0.0
 11
929.8537766171
 21
219.4989573040003
 31
0.0
  0
LINE
  5
28F
330
1F
100
AcDbEntity
  8
1
  6
CONTINUOUS
 62
     7
100
AcDbLine
 10
1374.161654954399
 20
349.1349683907998
 30
0.0
 11
1374.161654954399
 21
357.1349683907998
 31
0.0
  0
ARC
  5
290
330
1F
100
AcDbEntity
  8
1
  6
CONTINUOUS
 62
     7
100
AcDbCircle
 10
1070.118567931799
 20
121.2493383627002
 30
0.0
 40
1.000000000000334
100
AcDbArc
 50
270.0
 51
0.0
  0
LINE
  5
291
330
1F
100
AcDbEntity
  8
1
  6
CONTINUOUS
 62
     7
100
AcDbLine
 10
993.7336997521991
 20
117.2493383626998
 30
0.0
 11
1071.118567897099
 21
117.2493383626998
 31
0.0
  0
LINE
  5
292
330
1F
100
AcDbEntity
  8
1
  6
CONTINUOUS
 62
     7
100
AcDbLine
 10
990.733699752199
 20
121.8523142109999
 30
0.0
 11
990.733699752199
 21
120.2493383626999
 31
0.0
  0
ARC
  5
293
330
1F
100
AcDbEntity
  8
1
  6
CONTINUOUS
 62
     7
100
AcDbCircle
 10
993.7336997521991
 20
121.8523142109999
 30
0.0
 40
3.000000000000114
100
AcDbArc
 50
90.0
 51
180.0
  0
LINE
  5
294
330
1F
100
AcDbEntity
  8
1
  6
CONTINUOUS
 62
     7
100
AcDbLine
 10
1504.161654954399
 20
60.09151196249984
 30
0.0
 11
1504.161654954399
 21
379.3699677486
 31
0.0
  0
LINE
  5
295
330
1F
100
AcDbEntity
  8
1
  6
CONTINUOUS
 62
     7
100
AcDbLine
 10
1374.1616546212
 20
56.78795800629999
 30
0.0
 11
1504.161654954399
 21
60.09151196249984
 31
0.0
  0
ARC
  5
296
330
1F
100
AcDbEntity
  8
1
  6
CONTINUOUS
 62
     7
100
AcDbCircle
 10
1363.161654954399
 20
47.42031594380069
 30
0.0
 40
1.99999999999978
100
AcDbArc
 50
180.0
 51
267.9999999999999
  0
LINE
  5
297
330
1F
100
AcDbEntity
  8
1
  6
CONTINUOUS
 62
     7
100
AcDbLine
 10
1381.1616549544
 20
395.2794137772999
 30
0.0
 11
1381.1616549544
 21
364.1349683908004
 31
0.0
  0
LINE
  5
298
330
1F
100
AcDbEntity
  8
1
  6
CONTINUOUS
 62
     7
100
AcDbLine
 10
1402.661654954399
 20
49.33505908260027
 30
0.0
 11
1374.1616546212
 21
49.33505908260027
 31
0.0
  0
LINE
  5
299
330
1F
100
AcDbEntity
  8
1
  6
DASHED
 62
     7
100
AcDbLine
 10
925.2557004057991
 20
206.2493383627002
 30
0.0
 11
923.5236495981995
 21
203.2493383627001
 31
0.0
  0
ARC
  5
29A
330
1F
100
AcDbEntity
  8
1
  6
DASHED
 62
     7
100
AcDbCircle
 10
926.1217258096002
 20
199.7493383627003
 30
0.0
 40
1.000000000000334
100
AcDbArc
 50
210.0
 51
270.0
  0
LINE
  5
29B
330
1F
100
AcDbEntity
  8
1
  6
CONTINUOUS
 62
     7
100
AcDbLine
 10
1402.661654954399
 20
57.51219868790081
 30
0.0
 11
1402.661654954399
 21
49.33505908260027
 31
0.0
  0
LINE
  5
29C
330
1F
100
AcDbEntity
  8
1
  6
DASHED
 62
     7
100
AcDbLine
 10
932.1839036360994
 20
202.2493383626997
 30
0.0
 11
930.451852828499
 21
199.2493383626996
 31
0.0
  0
ARC
  5
29D
330
1F
100
AcDbEntity
  8
1
  6
CONTINUOUS
 62
     7
100
AcDbCircle
 10
1381.1616549544
 20
357.1349683907998
 30
0.0
 40
6.999999999999673
100
AcDbArc
 50
90.0
 51
180.0
  0
ARC
  5
29E
330
1F
100
AcDbEntity
  8
1
  6
CONTINUOUS
 62
     7
100
AcDbCircle
 10
929.8537766171
 20
218.4989573039999
 30
0.0
 40
1.000000000000334
100
AcDbArc
 50
90.0
 51
180.0
  0
ARC
  5
29F
330
1F
100
AcDbEntity
  8
1
  6
DASHED
 62
     7
100
AcDbCircle
 10
926.1217258096002
 20
205.7493383626996
 30
0.0
 40
1.000000000000334
100
AcDbArc
 50
90.0
 51
150.0
  0
LINE
  5
2A0
330
1F
100
AcDbEntity
  8
1
  6
DASHED
 62
     7
100
AcDbLine
 10
928.4521859117998
 20
210.4696008274995
 30
0.0
 11
928.4537763432992
 21
208.8050208762997
 31
0.0
  0
ARC
  5
2A1
330
1F
100
AcDbEntity
  8
1
  6
CONTINUOUS
 62
     7
100
AcDbCircle
 10
1327.661654954399
 20
58.20603325740059
 30
0.0
 40
1.99999999999978
100
AcDbArc
 50
180.0
 51
267.9999999999999
  0
LINE
  5
2A2
330
1F
100
AcDbEntity
  8
1
  6
CONTINUOUS
 62
     7
100
AcDbLine
 10
1361.161654954399
 20
298.9349683908005
 30
0.0
 11
1361.161654954399
 21
141.1349683908005
 31
0.0
  0
LINE
  5
2A3
330
1F
100
AcDbEntity
  8
1
  6
DASHED
 62
     7
100
AcDbLine
 10
928.4532121176995
 20
209.395551559
 30
0.0
 11
930.2050845286001
 21
206.5345266453997
 31
0.0
  0
LINE
  5
2A4
330
1F
100
AcDbEntity
  8
1
  6
CONTINUOUS
 62
     7
100
AcDbLine
 10
1374.161654954399
 20
139.1349683907999
 30
0.0
 11
1374.161654954399
 21
300.9349683908002
 31
0.0
  0
ARC
  5
2A5
330
1F
100
AcDbEntity
  8
1
  6
CONTINUOUS
 62
     7
100
AcDbCircle
 10
928.8537766172
 20
219.4989573040003
 30
0.0
 40
1.99999999999978
100
AcDbArc
 50
90.0
 51
180.0
  0
LINE
  5
2A6
330
1F
100
AcDbEntity
  8
1
  6
CONTINUOUS
 62
     7
100
AcDbLine
 10
1325.661654954399
 20
101.9560332575002
 30
0.0
 11
1324.161654954399
 21
104.2060332574
 31
0.0
  0
LINE
  5
2A7
330
1F
100
AcDbEntity
  8
1
  6
CONTINUOUS
 62
     7
100
AcDbLine
 10
1324.161654954399
 20
369.8639035243003
 30
0.0
 11
1324.161654954399
 21
104.2060332574
 31
0.0
  0
LINE
  5
2A8
330
1F
100
AcDbEntity
  8
1
  6
DASHED
 62
     7
100
AcDbLine
 10
932.1839036360994
 20
203.2493383627001
 30
0.0
 11
930.451852828499
 21
206.2493383627002
 31
0.0
  0
LINE
  5
2A9
330
1F
100
AcDbEntity
  8
1
  6
CONTINUOUS
 62
     7
100
AcDbLine
 10
928.8537766170997
 20
218.4989573039999
 30
0.0
 11
928.8537766170997
 21
215.2493383626997
 31
0.0
  0
LINE
  5
2AA
330
1F
100
AcDbEntity
  8
1
  6
DASHED
 62
     7
100
AcDbLine
 10
927.253776890999
 20
208.8038743305995
 30
0.0
 11
927.2521864594995
 21
210.4684542818003
 31
0.0
  0
LINE
  5
2AB
330
1F
100
AcDbEntity
  8
1
  6
DASHED
 62
     7
100
AcDbLine
 10
928.8537766170997
 20
215.2493383626997
 30
0.0
 11
928.8537766170997
 21
210.4684542818003
 31
0.0
  0
ARC
  5
2AC
330
1F
100
AcDbEntity
  8
1
  6
CONTINUOUS
 62
     7
100
AcDbCircle
 10
1363.161654954399
 20
392.6496208378003
 30
0.0
 40
1.99999999999978
100
AcDbArc
 50
92.0
 51
180.0
  0
LINE
  5
2AD
330
1F
100
AcDbEntity
  8
1
  6
CONTINUOUS
 62
     7
100
AcDbLine
 10
1325.661654954399
 20
58.20603325740059
 30
0.0
 11
1325.661654954399
 21
381.8639035243007
 31
0.0
  0
LINE
  5
2AE
330
1F
100
AcDbEntity
  8
1
  6
DASHED
 62
     7
100
AcDbLine
 10
923.5236495981995
 20
202.2493383626997
 30
0.0
 11
925.2557004057991
 21
199.2493383626996
 31
0.0
  0
LINE
  5
2AF
330
1F
100
AcDbEntity
  8
1
  6
CONTINUOUS
 62
     7
100
AcDbLine
 10
1374.161654954399
 20
45.03496839079979
 30
0.0
 11
1374.1616549612
 21
90.93496839060045
 31
0.0
  0
LINE
  5
2B0
330
1F
100
AcDbEntity
  8
1
  6
CONTINUOUS
 62
     7
100
AcDbLine
 10
1360.961776789
 20
385.0279884915002
 30
0.0
 11
1361.161654954399
 21
385.2349683908001
 31
0.0
  0
LINE
  5
2B1
330
1F
100
AcDbEntity
  8
1
  6
CONTINUOUS
 62
     7
100
AcDbLine
 10
926.8537766172002
 20
219.4989573040003
 30
0.0
 11
926.8537766172002
 21
215.2493383626997
 31
0.0
  0
LINE
  5
2B2
330
1F
100
AcDbEntity
  8
1
  6
CONTINUOUS
 62
     7
100
AcDbLine
 10
1361.161654954399
 20
351.1349683908005
 30
0.0
 11
1361.161654954399
 21
392.6496208378003
 31
0.0
  0
LINE
  5
2B3
330
1F
100
AcDbEntity
  8
1
  6
CONTINUOUS
 62
     7
100
AcDbLine
 10
1361.161654954399
 20
88.93496839060066
 30
0.0
 11
1361.161654954399
 21
47.42031594380069
 31
0.0
  0
LINE
  5
2B4
330
1F
100
AcDbEntity
  8
1
  6
CONTINUOUS
 62
     7
100
AcDbLine
 10
1361.161654954399
 20
54.83496839080004
 30
0.0
 11
1360.961776789
 21
55.04194829020026
 31
0.0
  0
LINE
  5
2B5
330
1F
100
AcDbEntity
  8
1
  6
CONTINUOUS
 62
     7
100
AcDbLine
 10
1325.661654954399
 20
371.3639035243004
 30
0.0
 11
1324.161654954399
 21
369.8639035243003
 31
0.0
  0
LINE
  5
2B6
330
1F
100
AcDbEntity
  8
1
  6
CONTINUOUS
 62
     7
100
AcDbLine
 10
1363.091855961
 20
45.42153428980011
 30
0.0
 11
1374.161654954399
 21
45.03496839079979
 31
0.0
  0
LINE
  5
2B7
330
1F
100
AcDbEntity
  8
1
  6
CONTINUOUS
 62
     7
100
AcDbLine
 10
1327.591855961
 20
56.2072516034009
 30
0.0
 11
1360.961776789
 21
55.04194829020026
 31
0.0
  0
LINE
  5
2B8
330
1F
100
AcDbEntity
  8
1
  6
CENTER
 62
     7
100
AcDbLine
 10
1316.161654954399
 20
220.0349683904994
 30
0.0
 11
1512.161654954399
 21
220.0349683738008
 31
0.0
  0
LINE
  5
2B9
330
1F
100
AcDbEntity
  8
1
  6
CONTINUOUS
 62
     7
100
AcDbLine
 10
1075.418474781699
 20
131.0989193431995
 30
0.0
 11
1074.118567897099
 21
125.2493383626998
 31
0.0
  0
LINE
  5
2BA
330
1F
100
AcDbEntity
  8
1
  6
CONTINUOUS
 62
     7
100
AcDbLine
 10
1069.8186610126
 20
131.0989193431
 30
0.0
 11
1071.118567897099
 21
125.2493383626998
 31
0.0
  0
ARC
  5
2BB
330
1F
100
AcDbEntity
  8
1
  6
DASHED
 62
     7
100
AcDbCircle
 10
929.5858274246997
 20
205.7493383626996
 30
0.0
 40
1.000000000000334
100
AcDbArc
 50
30.0
 51
90.0
  0
LINE
  5
2BC
330
1F
100
AcDbEntity
  8
1
  6
CONTINUOUS
 62
     7
100
AcDbLine
 10
1074.118567897099
 20
120.2493383626999
 30
0.0
 11
1074.118567897099
 21
125.2493383626998
 31
0.0
  0
LINE
  5
2BD
330
1F
100
AcDbEntity
  8
1
  6
DASHED
 62
     7
100
AcDbLine
 10
929.5858274246997
 20
206.7493383626999
 30
0.0
 11
926.1217258096002
 21
206.7493383626999
 31
0.0
  0
ARC
  5
2BE
330
1F
100
AcDbEntity
  8
1
  6
DASHED
 62
     7
100
AcDbCircle
 10
924.3896750019998
 20
202.7493383626995
 30
0.0
 40
1.000000000000334
100
AcDbArc
 50
149.9999999999
 51
210.0000000001
  0
ARC
  5
2BF
330
1F
100
AcDbEntity
  8
1
  6
CONTINUOUS
 62
     7
100
AcDbCircle
 10
1071.118567897099
 20
120.2493383626999
 30
0.0
 40
3.000000000000114
100
AcDbArc
 50
270.0
 51
0.0
  0
LINE
  5
2C0
330
1F
100
AcDbEntity
  8
1
  6
DASHED
 62
     7
100
AcDbLine
 10
926.8537766172002
 20
210.4684542818003
 30
0.0
 11
926.8537766172002
 21
215.2493383626997
 31
0.0
  0
LINE
  5
2C1
330
1F
100
AcDbEntity
  8
1
  6
DASHED
 62
     7
100
AcDbLine
 10
863.9185678716998
 20
160.8473450092997
 30
0.0
 11
863.9185678716998
 21
154.3473450092998
 31
0.0
  0
LINE
  5
2C2
330
1F
100
AcDbEntity
  8
1
  6
CONTINUOUS
 62
     7
100
AcDbLine
 10
1072.8537766172
 20
221.4989573039006
 30
0.0
 11
1115.618567897299
 21
221.4989573039006
 31
0.0
  0
LINE
  5
2C3
330
1F
100
AcDbEntity
  8
1
  6
CONTINUOUS
 62
     7
100
AcDbLine
 10
834.4317978716997
 20
226.0536850093002
 30
0.0
 11
834.2558278716989
 21
225.9170350093003
 31
0.0
  0
LINE
  5
2C4
330
1F
100
AcDbEntity
  8
1
  6
CONTINUOUS
 62
     7
100
AcDbLine
 10
1115.618567897299
 20
203.1545051297998
 30
0.0
 11
1115.618567897299
 21
218.4989573039005
 31
0.0
  0
ARC
  5
2C5
330
1F
100
AcDbEntity
  8
1
  6
CONTINUOUS
 62
     7
100
AcDbCircle
 10
1074.350618704699
 20
137.2493383627003
 30
0.0
 40
1.000000000000334
100
AcDbArc
 50
30.0000000001
 51
90.0
  0
ARC
  5
2C6
330
1F
100
AcDbEntity
  8
1
  6
CONTINUOUS
 62
     7
100
AcDbCircle
 10
1073.8537766171
 20
218.4989573039005
 30
0.0
 40
1.000000000000334
100
AcDbArc
 50
90.0
 51
180.0
  0
ARC
  5
2C7
330
1F
100
AcDbEntity
  8
1
  6
CONTINUOUS
 62
     7
100
AcDbCircle
 10
1183.118567897299
 20
218.4989573039999
 30
0.0
 40
1.000000000000334
100
AcDbArc
 50
0.0
 51
90.0
  0
LINE
  5
2C8
330
1F
100
AcDbEntity
  8
1
  6
DASHED
 62
     7
100
AcDbLine
 10
863.9185678716998
 20
154.3473450092998
 30
0.0
 11
794.3185678716995
 21
154.3473450092998
 31
0.0
  0
LINE
  5
2C9
330
1F
100
AcDbEntity
  8
1
  6
CONTINUOUS
 62
     7
100
AcDbLine
 10
824.1185778716992
 20
225.9170450093002
 30
0.0
 11
823.9812978716996
 21
225.9170350093003
 31
0.0
  0
LINE
  5
2CA
330
1F
100
AcDbEntity
  8
1
  6
CONTINUOUS
 62
     7
100
AcDbLine
 10
823.9812978716996
 20
225.9170350093003
 30
0.0
 11
823.8053278716997
 21
226.0536850093002
 31
0.0
  0
LINE
  5
2CB
330
1F
100
AcDbEntity
  8
1
  6
CONTINUOUS
 62
     7
100
AcDbLine
 10
823.8053278716997
 20
226.0536850093002
 30
0.0
 11
823.6470078717
 21
226.3402150092997
 31
0.0
  0
LINE
  5
2CC
330
1F
100
AcDbEntity
  8
1
  6
CONTINUOUS
 62
     7
100
AcDbLine
 10
823.6470078717
 20
226.3402150092997
 30
0.0
 11
823.6185678716996
 21
226.5392650092997
 31
0.0
  0
LINE
  5
2CD
330
1F
100
AcDbEntity
  8
1
  6
CONTINUOUS
 62
     7
100
AcDbLine
 10
834.2558278716989
 20
225.9170350093003
 30
0.0
 11
834.1185478716992
 21
225.9170450093002
 31
0.0
  0
ARC
  5
2CE
330
1F
100
AcDbEntity
  8
1
  6
CONTINUOUS
 62
     7
100
AcDbCircle
 10
1072.8537766172
 20
219.4989573038999
 30
0.0
 40
1.99999999999978
100
AcDbArc
 50
90.0
 51
180.0
  0
LINE
  5
2CF
330
1F
100
AcDbEntity
  8
1
  6
CONTINUOUS
 62
     7
100
AcDbLine
 10
823.6185678716996
 20
226.5392650092997
 30
0.0
 11
823.6185578716996
 21
226.6599750093006
 31
0.0
  0
LINE
  5
2D0
330
1F
100
AcDbEntity
  8
1
  6
CONTINUOUS
 62
     7
100
AcDbLine
 10
834.6185678716997
 20
236.7799150092997
 30
0.0
 11
834.6185678716997
 21
226.6599850092996
 31
0.0
  0
LINE
  5
2D1
330
1F
100
AcDbEntity
  8
1
  6
CONTINUOUS
 62
     7
100
AcDbLine
 10
834.5901178717003
 20
226.3402150092997
 30
0.0
 11
834.4317978716997
 21
226.0536850093002
 31
0.0
  0
ARC
  5
2D2
330
1F
100
AcDbEntity
  8
1
  6
CONTINUOUS
 62
     7
100
AcDbCircle
 10
994.5336997521998
 20
121.052314211
 30
0.0
 40
0.7999999999999119
100
AcDbArc
 50
90.0
 51
180.0
  0
LINE
  5
2D3
330
1F
100
AcDbEntity
  8
1
  6
CONTINUOUS
 62
     7
100
AcDbLine
 10
834.8685678717001
 20
232.9473450093005
 30
0.0
 11
834.8685678717001
 21
217.7473450093004
 31
0.0
  0
LINE
  5
2D4
330
1F
100
AcDbEntity
  8
1
  6
CONTINUOUS
 62
     7
100
AcDbLine
 10
823.6185678716996
 20
236.7799150092997
 30
0.0
 11
823.6185678716996
 21
226.6599850092996
 31
0.0
  0
LINE
  5
2D5
330
1F
100
AcDbEntity
  8
1
  6
CONTINUOUS
 62
     7
100
AcDbLine
 10
823.3685678717002
 20
217.7473450093004
 30
0.0
 11
823.3685678717002
 21
232.9473450093005
 31
0.0
  0
LINE
  5
2D6
330
1F
100
AcDbEntity
  8
1
  6
CONTINUOUS
 62
     7
100
AcDbLine
 10
794.3185678716995
 20
160.8473450092997
 30
0.0
 11
794.3185678716995
 21
262.5473450092004
 31
0.0
  0
LINE
  5
2D7
330
1F
100
AcDbEntity
  8
1
  6
CONTINUOUS
 62
     7
100
AcDbLine
 10
863.9185678716998
 20
160.8473450092997
 30
0.0
 11
863.9185678716998
 21
262.5473450092004
 31
0.0
  0
LINE
  5
2D8
330
1F
100
AcDbEntity
  8
1
  6
CONTINUOUS
 62
     7
100
AcDbLine
 10
795.8185678716995
 20
159.3473450092997
 30
0.0
 11
862.4185678716998
 21
159.3473450092997
 31
0.0
  0
ARC
  5
2D9
330
1F
100
AcDbEntity
  8
1
  6
CONTINUOUS
 62
     7
100
AcDbCircle
 10
862.4185678716998
 20
160.8473450092997
 30
0.0
 40
1.500000000000057
100
AcDbArc
 50
270.0
 51
0.0
  0
LINE
  5
2DA
330
1F
100
AcDbEntity
  8
1
  6
CONTINUOUS
 62
     7
100
AcDbLine
 10
824.1185678716994
 20
225.9170350093003
 30
0.0
 11
834.1185678717
 21
225.9170350093003
 31
0.0
  0
LINE
  5
2DB
330
1F
100
AcDbEntity
  8
1
  6
CONTINUOUS
 62
     7
100
AcDbLine
 10
834.8685678717001
 20
217.7473450093004
 30
0.0
 11
823.3685678717002
 21
217.7473450093004
 31
0.0
  0
LINE
  5
2DC
330
1F
100
AcDbEntity
  8
1
  6
CONTINUOUS
 62
     7
100
AcDbLine
 10
834.1185478716992
 20
237.2799150092995
 30
0.0
 11
824.1185778716992
 21
237.2799150092995
 31
0.0
  0
LINE
  5
2DD
330
1F
100
AcDbEntity
  8
1
  6
CONTINUOUS
 62
     7
100
AcDbLine
 10
1074.350618704699
 20
130.2493383626997
 30
0.0
 11
1070.886517089499
 21
130.2493383626997
 31
0.0
  0
LINE
  5
2DE
330
1F
100
AcDbEntity
  8
1
  6
CONTINUOUS
 62
     7
100
AcDbLine
 10
1076.948694915999
 20
133.7493383626995
 30
0.0
 11
1075.2166441085
 21
130.7493383626994
 31
0.0
  0
LINE
  5
2DF
330
1F
100
AcDbEntity
  8
1
  6
CONTINUOUS
 62
     7
100
AcDbLine
 10
994.5336997521998
 20
120.2493383626999
 30
0.0
 11
1070.118567931799
 21
120.2493383626999
 31
0.0
  0
ARC
  5
2E0
330
1F
100
AcDbEntity
  8
1
  6
CONTINUOUS
 62
     7
100
AcDbCircle
 10
1070.886517089499
 20
137.2493383627003
 30
0.0
 40
1.000000000000334
100
AcDbArc
 50
90.0
 51
149.9999999999
  0
ARC
  5
2E1
330
1F
100
AcDbEntity
  8
1
  6
CONTINUOUS
 62
     7
100
AcDbCircle
 10
1122.6185678972
 20
219.4989573040003
 30
0.0
 40
1.99999999999978
100
AcDbArc
 50
90.0
 51
180.0
  0
LINE
  5
2E2
330
1F
100
AcDbEntity
  8
1
  6
CONTINUOUS
 62
     7
100
AcDbLine
 10
1070.886517089499
 20
138.2493383626997
 30
0.0
 11
1074.350618704699
 21
138.2493383626997
 31
0.0
  0
ARC
  5
2E3
330
1F
100
AcDbEntity
  8
1
  6
CONTINUOUS
 62
     7
100
AcDbCircle
 10
1184.118567897299
 20
219.4989573040003
 30
0.0
 40
1.99999999999978
100
AcDbArc
 50
0.0
 51
90.0
  0
ARC
  5
2E4
330
1F
100
AcDbEntity
  8
1
  6
CONTINUOUS
 62
     7
100
AcDbCircle
 10
795.8185678716995
 20
160.8473450092997
 30
0.0
 40
1.500000000000057
100
AcDbArc
 50
180.0
 51
270.0
  0
LINE
  5
2E5
330
1F
100
AcDbEntity
  8
1
  6
CONTINUOUS
 62
     7
100
AcDbLine
 10
1070.853776617199
 20
219.4989573038999
 30
0.0
 11
1070.853776617199
 21
215.2493383626997
 31
0.0
  0
LINE
  5
2E6
330
1F
100
AcDbEntity
  8
1
  6
CONTINUOUS
 62
     7
100
AcDbLine
 10
1186.118567897299
 20
219.4989573040003
 30
0.0
 11
1186.118567897299
 21
203.1545051290005
 31
0.0
  0
LINE
  5
2E7
330
1F
100
AcDbEntity
  8
1
  6
CONTINUOUS
 62
     7
100
AcDbLine
 10
1072.8537766171
 20
218.4989573039005
 30
0.0
 11
1072.8537766171
 21
215.2493383626997
 31
0.0
  0
LINE
  5
2E8
330
1F
100
AcDbEntity
  8
1
  6
DASHED
 62
     7
100
AcDbLine
 10
794.3185678716995
 20
160.8473450092997
 30
0.0
 11
794.3185678716995
 21
154.3473450092998
 31
0.0
  0
LINE
  5
2E9
330
1F
100
AcDbEntity
  8
1
  6
CONTINUOUS
 62
     7
100
AcDbLine
 10
1076.948694915999
 20
134.7493383626999
 30
0.0
 11
1075.2166441085
 21
137.7493383627
 31
0.0
  0
ARC
  5
2EA
330
1F
100
AcDbEntity
  8
1
  6
CONTINUOUS
 62
     7
100
AcDbCircle
 10
994.5336997521998
 20
121.0493383626998
 30
0.0
 40
0.7999999999999119
100
AcDbArc
 50
180.0
 51
270.0
  0
ARC
  5
2EB
330
1F
100
AcDbEntity
  8
1
  6
CONTINUOUS
 62
     7
100
AcDbCircle
 10
1069.154466281999
 20
134.2493383627001
 30
0.0
 40
1.000000000000334
100
AcDbArc
 50
150.0
 51
210.0
  0
ARC
  5
2EC
330
1F
100
AcDbEntity
  8
1
  6
CONTINUOUS
 62
     7
100
AcDbCircle
 10
1076.082669512199
 20
134.2493383627001
 30
0.0
 40
1.000000000000334
100
AcDbArc
 50
330.0
 51
30.0
  0
LINE
  5
2ED
330
1F
100
AcDbEntity
  8
1
  6
CONTINUOUS
 62
     7
100
AcDbLine
 10
1073.8537766171
 20
219.4989573038999
 30
0.0
 11
1114.618567897299
 21
219.4989573038999
 31
0.0
  0
LINE
  5
2EE
330
1F
100
AcDbEntity
  8
1
  6
CONTINUOUS
 62
     7
100
AcDbLine
 10
1120.618567897199
 20
203.2493383627996
 30
0.0
 11
1120.618567897199
 21
219.4989573040003
 31
0.0
  0
LINE
  5
2EF
330
1F
100
AcDbEntity
  8
1
  6
CONTINUOUS
 62
     7
100
AcDbLine
 10
994.5336997521998
 20
121.8523142109999
 30
0.0
 11
1061.118567897199
 21
121.8523142109999
 31
0.0
  0
LINE
  5
2F0
330
1F
100
AcDbEntity
  8
1
  6
CONTINUOUS
 62
     7
100
AcDbLine
 10
1061.118567897199
 20
121.8523142109999
 30
0.0
 11
1061.118567897199
 21
124.8523142110001
 31
0.0
  0
LINE
  5
2F1
330
1F
100
AcDbEntity
  8
1
  6
CONTINUOUS
 62
     7
100
AcDbLine
 10
1184.118567897299
 20
221.498957304
 30
0.0
 11
1122.6185678972
 21
221.498957304
 31
0.0
  0
LINE
  5
2F2
330
1F
100
AcDbEntity
  8
1
  6
CONTINUOUS
 62
     7
100
AcDbLine
 10
1122.6185678972
 20
218.4989573039999
 30
0.0
 11
1122.6185678972
 21
203.2493383627996
 31
0.0
  0
ARC
  5
2F3
330
1F
100
AcDbEntity
  8
1
  6
CONTINUOUS
 62
     7
100
AcDbCircle
 10
1123.618567897199
 20
218.4989573039999
 30
0.0
 40
1.000000000000334
100
AcDbArc
 50
90.0
 51
180.0
  0
LINE
  5
2F4
330
1F
100
AcDbEntity
  8
1
  6
CONTINUOUS
 62
     7
100
AcDbLine
 10
993.7336997521991
 20
124.8523142110001
 30
0.0
 11
1061.118567897199
 21
124.8523142110001
 31
0.0
  0
LINE
  5
2F5
330
1F
100
AcDbEntity
  8
1
  6
CONTINUOUS
 62
     7
100
AcDbLine
 10
1068.2884408782
 20
134.7493383626999
 30
0.0
 11
1070.0204916857
 21
137.7493383627
 31
0.0
  0
ARC
  5
2F6
330
1F
100
AcDbEntity
  8
1
  6
CONTINUOUS
 62
     7
100
AcDbCircle
 10
1114.618567897299
 20
218.4989573039005
 30
0.0
 40
1.000000000000334
100
AcDbArc
 50
0.0
 51
90.0
  0
ARC
  5
2F7
330
1F
100
AcDbEntity
  8
1
  6
CONTINUOUS
 62
     7
100
AcDbCircle
 10
1074.350618704699
 20
131.2493383627
 30
0.0
 40
1.000000000000334
100
AcDbArc
 50
270.0
 51
329.9999999999
  0
ARC
  5
2F8
330
1F
100
AcDbEntity
  8
1
  6
CONTINUOUS
 62
     7
100
AcDbCircle
 10
1070.886517089499
 20
131.2493383627
 30
0.0
 40
1.000000000000334
100
AcDbArc
 50
210.0000000001
 51
270.0
  0
ARC
  5
2F9
330
1F
100
AcDbEntity
  8
1
  6
CONTINUOUS
 62
     7
100
AcDbCircle
 10
1115.618567897299
 20
219.4989573038999
 30
0.0
 40
1.99999999999978
100
AcDbArc
 50
0.0
 51
90.0
  0
LINE
  5
2FA
330
1F
100
AcDbEntity
  8
1
  6
CENTER
 62
     7
100
AcDbLine
 10
829.1185678717001
 20
270.7072124687002
 30
0.0
 11
829.1185678717001
 21
141.9836323409997
 31
0.0
  0
LINE
  5
2FB
330
1F
100
AcDbEntity
  8
1
  6
CONTINUOUS
 62
     7
100
AcDbLine
 10
1184.118567897299
 20
203.1545051290005
 30
0.0
 11
1184.118567897299
 21
218.4989573039999
 31
0.0
  0
LINE
  5
2FC
330
1F
100
AcDbEntity
  8
1
  6
CONTINUOUS
 62
     7
100
AcDbLine
 10
1117.618567897299
 20
219.4989573038999
 30
0.0
 11
1117.618567897299
 21
203.1545051297998
 31
0.0
  0
LINE
  5
2FD
330
1F
100
AcDbEntity
  8
1
  6
CONTINUOUS
 62
     7
100
AcDbLine
 10
1123.618567897199
 20
219.4989573040003
 30
0.0
 11
1183.118567897299
 21
219.4989573040003
 31
0.0
  0
LINE
  5
2FE
330
1F
100
AcDbEntity
  8
1
  6
CONTINUOUS
 62
     7
100
AcDbLine
 10
834.6185778716997
 20
226.6599750093006
 30
0.0
 11
834.6185678716997
 21
226.5392650092997
 31
0.0
  0
LINE
  5
2FF
330
1F
100
AcDbEntity
  8
1
  6
CONTINUOUS
 62
     7
100
AcDbLine
 10
834.6185678716997
 20
226.5392650092997
 30
0.0
 11
834.5901178717003
 21
226.3402150092997
 31
0.0
  0
LINE
  5
300
330
1F
100
AcDbEntity
  8
1
  6
CONTINUOUS
 62
     7
100
AcDbLine
 10
1070.0204916857
 20
130.7493383626994
 30
0.0
 11
1068.2884408782
 21
133.7493383626995
 31
0.0
  0
ARC
  5
301
330
1F
100
AcDbEntity
  8
1
  6
CONTINUOUS
 62
     7
100
AcDbCircle
 10
834.1185678717
 20
236.7799150092997
 30
0.0
 40
0.4999999999997229
100
AcDbArc
 50
0.0
 51
90.0
  0
ARC
  5
302
330
1F
100
AcDbEntity
  8
1
  6
CONTINUOUS
 62
     7
100
AcDbCircle
 10
824.1185678716994
 20
236.7799150092997
 30
0.0
 40
0.4999999999997229
100
AcDbArc
 50
90.0
 51
180.0
  0
LINE
  5
303
330
1F
100
AcDbEntity
  8
1
  6
CONTINUOUS
 62
     7
100
AcDbLine
 10
823.3685678717002
 20
232.9473450093005
 30
0.0
 11
823.6185578716996
 21
232.9473450093005
 31
0.0
  0
LINE
  5
304
330
1F
100
AcDbEntity
  8
1
  6
DASHED
 62
     7
100
AcDbLine
 10
794.3185678716995
 20
262.8473450093001
 30
0.0
 11
794.3185678716995
 21
269.3473450093
 31
0.0
  0
LINE
  5
305
330
1F
100
AcDbEntity
  8
1
  6
CONTINUOUS
 62
     7
100
AcDbLine
 10
834.6185678716997
 20
232.9473450093005
 30
0.0
 11
834.8685678717001
 21
232.9473450093005
 31
0.0
  0
LINE
  5
306
330
1F
100
AcDbEntity
  8
1
  6
DASHED
 62
     7
100
AcDbLine
 10
863.9185678716998
 20
262.8473450093001
 30
0.0
 11
863.9185678716998
 21
269.3473450093
 31
0.0
  0
MTEXT
  5
307
330
1F
100
AcDbEntity
  8
1
 62
     7
100
AcDbMText
 10
1360.236741977272
 20
-8.385415909091021
 30
0.0
 40
3.5
 41
0.0
 71
     1
 72
     1
  1
{\fＭＳ ゴシック;\W0.632766;（Ｃ）１５－４２ＨＣ４（５）}
  0
LINE
  5
308
330
1F
100
AcDbEntity
  8
1
  6
CONTINUOUS
 62
     7
100
AcDbLine
 10
1048.8694815722
 20
322.2145694594998
 30
0.0
 11
1048.8694815722
 21
318.6088163656997
 31
0.0
  0
LINE
  5
309
330
1F
100
AcDbEntity
  8
1
  6
CONTINUOUS
 62
     7
100
AcDbLine
 10
1048.8694815722
 20
316.1088163656993
 30
0.0
 11
1048.8694815722
 21
299.4099683808997
 31
0.0
  0
LINE
  5
30A
330
1F
100
AcDbEntity
  8
1
  6
CONTINUOUS
 62
     7
100
AcDbLine
 10
1046.369481572199
 20
316.1088163656993
 30
0.0
 11
1046.369481572199
 21
299.4099683808997
 31
0.0
  0
LINE
  5
30B
330
1F
100
AcDbEntity
  8
1
  6
CONTINUOUS
 62
     7
100
AcDbLine
 10
1046.369481572199
 20
322.1145694595
 30
0.0
 11
1046.369481572199
 21
318.6088163656997
 31
0.0
  0
POINT
  5
30C
330
1F
100
AcDbEntity
  8
0
 62
     7
100
AcDbPoint
 10
1119.118567896998
 20
170.2493383628001
 30
0.0
  0
POINT
  5
30D
330
1F
100
AcDbEntity
  8
0
 62
     7
100
AcDbPoint
 10
1185.118567896999
 20
170.2493383628001
 30
0.0
  0
LINE
  5
30E
330
1F
100
AcDbEntity
  8
0
  6
CONTINUOUS
 62
     7
100
AcDbLine
 10
1118.539679896998
 20
163.0224583627999
 30
0.0
 11
1118.944099896998
 21
161.3379183627999
 31
0.0
  0
ARC
  5
30F
330
1F
100
AcDbEntity
  8
0
  6
CONTINUOUS
 62
     7
100
AcDbCircle
 10
1118.839331896998
 20
160.7035023628001
 30
0.0
 40
0.4999999999997229
100
AcDbArc
 50
193.499939
 51
268.322235
  0
ARC
  5
310
330
1F
100
AcDbEntity
  8
0
  6
CONTINUOUS
 62
     7
100
AcDbCircle
 10
1119.118751896998
 20
170.2494143628002
 30
0.0
 40
12.89999200000036
100
AcDbArc
 50
256.05484
 51
308.315155
  0
ARC
  5
311
330
1F
100
AcDbEntity
  8
0
  6
CONTINUOUS
 62
     7
100
AcDbCircle
 10
1123.517251896998
 20
179.2857303628006
 30
0.0
 40
0.7500000000000284
100
AcDbArc
 50
153.679413
 51
244.04129
  0
ARC
  5
312
330
1F
100
AcDbEntity
  8
0
  6
CONTINUOUS
 62
     7
100
AcDbCircle
 10
1109.179907896999
 20
168.7587383627998
 30
0.0
 40
0.7500000000000284
100
AcDbArc
 50
278.436005
 51
8.52973800000001
  0
LINE
  5
313
330
1F
100
AcDbEntity
  8
0
  6
CONTINUOUS
 62
     7
100
AcDbLine
 10
1119.946311896999
 20
171.5964143628001
 30
0.0
 11
1121.218467896998
 21
172.6638743628001
 31
0.0
  0
LINE
  5
314
330
1F
100
AcDbEntity
  8
0
  6
CONTINUOUS
 62
     7
100
AcDbLine
 10
1097.118567896999
 20
202.2493543627997
 30
0.0
 11
1141.118551896999
 21
202.2493543627997
 31
0.0
  0
ARC
  5
315
330
1F
100
AcDbEntity
  8
0
  6
CONTINUOUS
 62
     7
100
AcDbCircle
 10
1125.333899896998
 20
162.3516783627998
 30
0.0
 40
0.7500000000000284
100
AcDbArc
 50
38.861679
 51
128.201508
  0
LINE
  5
316
330
1F
100
AcDbEntity
  8
0
  6
CONTINUOUS
 62
     7
100
AcDbLine
 10
1117.417899896998
 20
171.4981943628002
 30
0.0
 11
1118.183951896998
 21
172.1409863628002
 31
0.0
  0
LINE
  5
317
330
1F
100
AcDbEntity
  8
0
  6
CONTINUOUS
 62
     7
100
AcDbLine
 10
1117.018807896998
 20
167.8345303627999
 30
0.0
 11
1118.290963896998
 21
168.9020023627999
 31
0.0
  0
ARC
  5
318
330
1F
100
AcDbEntity
  8
0
  6
CONTINUOUS
 62
     7
100
AcDbCircle
 10
1119.118751896998
 20
170.2494143628002
 30
0.0
 40
12.89999200000036
100
AcDbArc
 50
131.486557
 51
188.513611
  0
ARC
  5
319
330
1F
100
AcDbEntity
  8
0
  6
CONTINUOUS
 62
     7
100
AcDbCircle
 10
1119.118811896998
 20
170.2494143628002
 30
0.0
 40
12.14999200000033
100
AcDbArc
 50
21.516497
 51
63.981499
  0
ARC
  5
31A
330
1F
100
AcDbEntity
  8
0
  6
CONTINUOUS
 62
     7
100
AcDbCircle
 10
1116.190711896999
 20
158.4575143627997
 30
0.0
 40
0.7499999999991402
100
AcDbArc
 50
193.500595
 51
256.055725
  0
LINE
  5
31B
330
1F
100
AcDbEntity
  8
0
  6
CONTINUOUS
 62
     7
100
AcDbLine
 10
1121.197851896998
 20
196.6672023628
 30
0.0
 11
1121.276315896998
 21
197.6641023628
 31
0.0
  0
LINE
  5
31C
330
1F
100
AcDbEntity
  8
0
  6
CONTINUOUS
 62
     7
100
AcDbLine
 10
1151.118551896998
 20
148.2493383627998
 30
0.0
 11
1151.118551896998
 21
192.2493383627999
 31
0.0
  0
LINE
  5
31D
330
1F
100
AcDbEntity
  8
0
  6
CONTINUOUS
 62
     7
100
AcDbLine
 10
1119.127083896998
 20
158.0989183627999
 30
0.0
 11
1119.118659896998
 21
158.1489503627999
 31
0.0
  0
LINE
  5
31E
330
1F
100
AcDbEntity
  8
0
  6
CONTINUOUS
 62
     7
100
AcDbLine
 10
1111.631387896998
 20
179.8480623628001
 30
0.0
 11
1113.024575896998
 21
178.2767583628001
 31
0.0
  0
LINE
  5
31F
330
1F
100
AcDbEntity
  8
0
  6
CONTINUOUS
 62
     7
100
AcDbLine
 10
1122.845175896998
 20
179.6178383628
 30
0.0
 11
1123.776391896998
 21
181.5001343628
 31
0.0
  0
CIRCLE
  5
320
330
1F
100
AcDbEntity
  8
0
  6
CONTINUOUS
 62
     7
100
AcDbCircle
 10
1119.118567896998
 20
170.2493383628001
 30
0.0
 40
20.00000000000046
  0
ARC
  5
321
330
1F
100
AcDbEntity
  8
0
  6
CONTINUOUS
 62
     7
100
AcDbCircle
 10
1126.651587896999
 20
160.7163783628005
 30
0.0
 40
0.7500000000000284
100
AcDbArc
 50
308.314575
 51
38.86156799999998
  0
ARC
  5
322
330
1F
100
AcDbEntity
  8
0
  6
CONTINUOUS
 62
     7
100
AcDbCircle
 10
1119.118811896998
 20
170.2494143628002
 30
0.0
 40
10.04998800000045
100
AcDbArc
 50
131.470657
 51
188.529724
  0
ARC
  5
323
330
1F
100
AcDbEntity
  8
0
  6
CONTINUOUS
 62
     7
100
AcDbCircle
 10
1119.430519896999
 20
161.4549343628005
 30
0.0
 40
0.4999999999997229
100
AcDbArc
 50
193.500702
 51
272.031708
  0
ARC
  5
324
330
1F
100
AcDbEntity
  8
0
  6
CONTINUOUS
 62
     7
100
AcDbCircle
 10
1111.070043896999
 20
179.3511143627997
 30
0.0
 40
0.7499999999991402
100
AcDbArc
 50
41.562828
 51
131.48819
  0
ARC
  5
325
330
1F
100
AcDbEntity
  8
0
  6
CONTINUOUS
 62
     7
100
AcDbCircle
 10
1115.282447896998
 20
162.2407183628001
 30
0.0
 40
0.7500000000000284
100
AcDbArc
 50
103.499062
 51
193.500946
  0
ARC
  5
326
330
1F
100
AcDbEntity
  8
0
  6
CONTINUOUS
 62
     7
100
AcDbCircle
 10
1119.118751896998
 20
170.2494143628002
 30
0.0
 40
12.89999200000036
100
AcDbArc
 50
21.516388
 51
63.98155200000001
  0
ARC
  5
327
330
1F
100
AcDbEntity
  8
0
  6
CONTINUOUS
 62
     7
100
AcDbCircle
 10
1124.448463896998
 20
181.1680103627999
 30
0.0
 40
0.7500000000000284
100
AcDbArc
 50
63.98504599999998
 51
153.679153
  0
ARC
  5
328
330
1F
100
AcDbEntity
  8
0
  6
CONTINUOUS
 62
     7
100
AcDbCircle
 10
1119.118751896998
 20
170.2494143628002
 30
0.0
 40
9.299996000000199
100
AcDbArc
 50
272.0300599999999
 51
308.20105
  0
LINE
  5
329
330
1F
100
AcDbEntity
  8
0
  6
CONTINUOUS
 62
     7
100
AcDbLine
 10
1120.465843896998
 20
169.4215343628001
 30
0.0
 11
1120.819375896998
 21
169.0002103628001
 31
0.0
  0
LINE
  5
32A
330
1F
100
AcDbEntity
  8
0
  6
CONTINUOUS
 62
     7
100
AcDbLine
 10
1120.053335896999
 20
168.3574183627998
 30
0.0
 11
1120.819375896999
 21
169.0002103627998
 31
0.0
  0
LINE
  5
32B
330
1F
100
AcDbEntity
  8
0
  6
CONTINUOUS
 62
     7
100
AcDbLine
 10
1097.118567896999
 20
138.2493383628001
 30
0.0
 11
1141.118551896999
 21
138.2493383628001
 31
0.0
  0
LINE
  5
32C
330
1F
100
AcDbEntity
  8
0
  6
CONTINUOUS
 62
     7
100
AcDbLine
 10
1114.157495896999
 20
195.7711743628003
 30
0.0
 11
1114.062079896999
 21
196.2619903628003
 31
0.0
  0
LINE
  5
32D
330
1F
100
AcDbEntity
  8
0
  6
CONTINUOUS
 62
     7
100
AcDbLine
 10
1117.810431896999
 20
162.8473903628
 30
0.0
 11
1118.353155896998
 21
160.5867863628
 31
0.0
  0
LINE
  5
32E
330
1F
100
AcDbEntity
  8
0
  6
CONTINUOUS
 62
     7
100
AcDbLine
 10
1114.157479896998
 20
195.7711743628003
 30
0.0
 11
1114.062079896998
 21
196.2619903628003
 31
0.0
  0
ARC
  5
32F
330
1F
100
AcDbEntity
  8
0
  6
CONTINUOUS
 62
     7
100
AcDbCircle
 10
1107.102639896999
 20
168.4506623628002
 30
0.0
 40
0.7500000000000284
100
AcDbArc
 50
188.513947
 51
278.436005
  0
ARC
  5
330
330
1F
100
AcDbEntity
  8
0
  6
CONTINUOUS
 62
     7
100
AcDbCircle
 10
1119.118751896998
 20
170.2494143628002
 30
0.0
 40
9.299996000000199
100
AcDbArc
 50
131.470871
 51
188.52977
  0
LINE
  5
331
330
1F
100
AcDbEntity
  8
0
  6
CONTINUOUS
 62
     7
100
AcDbLine
 10
1119.699791896998
 20
168.7787423628002
 30
0.0
 11
1120.053335896998
 21
168.3574183628002
 31
0.0
  0
ARC
  5
332
330
1F
100
AcDbEntity
  8
0
  6
CONTINUOUS
 62
     7
100
AcDbCircle
 10
1119.118751896998
 20
170.2494143628002
 30
0.0
 40
9.299996000000199
100
AcDbArc
 50
21.453329
 51
64.045097
  0
ARC
  5
333
330
1F
100
AcDbEntity
  8
0
  6
CONTINUOUS
 62
     7
100
AcDbCircle
 10
1119.118811896998
 20
170.2494143628002
 30
0.0
 40
10.04999600000023
100
AcDbArc
 50
268.317169
 51
308.318481
  0
ARC
  5
334
330
1F
100
AcDbEntity
  8
0
  6
CONTINUOUS
 62
     7
100
AcDbCircle
 10
1112.463235896998
 20
177.7798103628001
 30
0.0
 40
0.7500000000000284
100
AcDbArc
 50
311.468933
 51
41.56315599999999
  0
ARC
  5
335
330
1F
100
AcDbEntity
  8
0
  6
CONTINUOUS
 62
     7
100
AcDbCircle
 10
1119.118811896998
 20
170.2494143628002
 30
0.0
 40
10.04999600000023
100
AcDbArc
 50
21.45322
 51
64.04499100000001
  0
CIRCLE
  5
336
330
1F
100
AcDbEntity
  8
0
  6
CONTINUOUS
 62
     7
100
AcDbCircle
 10
1119.118567896998
 20
170.2493383628001
 30
0.0
 40
25.00000000000036
  0
ARC
  5
337
330
1F
100
AcDbEntity
  8
0
  6
CONTINUOUS
 62
     7
100
AcDbCircle
 10
1117.810583896999
 20
162.8476823628002
 30
0.0
 40
0.7500000000000284
100
AcDbArc
 50
13.499384
 51
103.499001
  0
ARC
  5
338
330
1F
100
AcDbEntity
  8
0
  6
CONTINUOUS
 62
     7
100
AcDbCircle
 10
1119.118811896998
 20
170.2494143628002
 30
0.0
 40
12.14999200000033
100
AcDbArc
 50
256.054474
 51
308.3186650000001
  0
ARC
  5
339
330
1F
100
AcDbEntity
  8
0
  6
CONTINUOUS
 62
     7
100
AcDbCircle
 10
1119.118811896998
 20
170.2494143628002
 30
0.0
 40
12.14999200000033
100
AcDbArc
 50
131.486496
 51
188.51355
  0
LINE
  5
33A
330
1F
100
AcDbEntity
  8
0
  6
CONTINUOUS
 62
     7
100
AcDbLine
 10
1120.589087896998
 20
170.8303623627998
 30
0.0
 11
1121.861259896998
 21
171.8978383627998
 31
0.0
  0
LINE
  5
33B
330
1F
100
AcDbEntity
  8
0
  6
CONTINUOUS
 62
     7
100
AcDbLine
 10
1116.376015896998
 20
168.6005823628003
 30
0.0
 11
1117.648171896998
 21
169.6680423628003
 31
0.0
  0
LINE
  5
33C
330
1F
100
AcDbEntity
  8
0
  6
CONTINUOUS
 62
     7
100
AcDbLine
 10
1121.276359896998
 20
197.6639223627998
 30
0.0
 11
1124.079751896998
 21
195.7710063627999
 31
0.0
  0
LINE
  5
33D
330
1F
100
AcDbEntity
  8
0
  6
CONTINUOUS
 62
     7
100
AcDbLine
 10
1121.276343896998
 20
197.6639223627998
 30
0.0
 11
1124.079735896998
 21
195.7710063627999
 31
0.0
  0
LINE
  5
33E
330
1F
100
AcDbEntity
  8
0
  6
CONTINUOUS
 62
     7
100
AcDbLine
 10
1117.226843896998
 20
169.3145103628
 30
0.0
 11
1117.869635896998
 21
168.5484743628
 31
0.0
  0
LINE
  5
33F
330
1F
100
AcDbEntity
  8
0
  6
CONTINUOUS
 62
     7
100
AcDbLine
 10
1121.197851896998
 20
196.6672023628
 30
0.0
 11
1121.276315896998
 21
197.6641023628
 31
0.0
  0
LINE
  5
340
330
1F
100
AcDbEntity
  8
0
  6
CONTINUOUS
 62
     7
100
AcDbLine
 10
1120.367639896998
 20
171.9499463628003
 30
0.0
 11
1121.010427896998
 21
171.1839103628002
 31
0.0
  0
ARC
  5
341
330
1F
100
AcDbEntity
  8
0
  6
CONTINUOUS
 62
     7
100
AcDbCircle
 10
1128.472387896998
 20
173.9251063628
 30
0.0
 40
0.7500000000000284
100
AcDbArc
 50
201.45192
 51
291.814178
  0
LINE
  5
342
330
1F
100
AcDbEntity
  8
0
  6
CONTINUOUS
 62
     7
100
AcDbLine
 10
1118.183951896999
 20
172.1409863628
 30
0.0
 11
1118.537483896999
 21
171.7196623628001
 31
0.0
  0
LINE
  5
343
330
1F
100
AcDbEntity
  8
0
  6
CONTINUOUS
 62
     7
100
AcDbLine
 10
1087.118567896998
 20
148.2493383627998
 30
0.0
 11
1087.118567896998
 21
192.2493383627999
 31
0.0
  0
LINE
  5
344
330
1F
100
AcDbEntity
  8
0
  6
CONTINUOUS
 62
     7
100
AcDbLine
 10
1125.333871896999
 20
162.3511623628007
 30
0.0
 11
1126.651559896999
 21
160.7158783628007
 31
0.0
  0
LINE
  5
345
330
1F
100
AcDbEntity
  8
0
  6
CONTINUOUS
 62
     7
100
AcDbLine
 10
1117.417899896998
 20
171.4981943628002
 30
0.0
 11
1117.771431896998
 21
171.0768863628002
 31
0.0
  0
LINE
  5
346
330
1F
100
AcDbEntity
  8
0
  6
CONTINUOUS
 62
     7
100
AcDbLine
 10
1107.212851896998
 20
167.7084623627998
 30
0.0
 11
1109.290091896998
 21
168.0165503627998
 31
0.0
  0
LINE
  5
347
330
1F
100
AcDbEntity
  8
0
  6
CONTINUOUS
 62
     7
100
AcDbLine
 10
1107.102883896998
 20
168.4503583627999
 30
0.0
 11
1109.180123896999
 21
168.7584503627999
 31
0.0
  0
LINE
  5
348
330
1F
100
AcDbEntity
  8
0
  6
CONTINUOUS
 62
     7
100
AcDbLine
 10
1111.070211896998
 20
179.3504583628005
 30
0.0
 11
1112.463415896998
 21
177.7791543628005
 31
0.0
  0
LINE
  5
349
330
1F
100
AcDbEntity
  8
0
  6
CONTINUOUS
 62
     7
100
AcDbLine
 10
1125.917807896999
 20
162.8217103627998
 30
0.0
 11
1127.235479896999
 21
161.1864423627998
 31
0.0
  0
LINE
  5
34A
330
1F
100
AcDbEntity
  8
0
  6
CONTINUOUS
 62
     7
100
AcDbLine
 10
1128.750875896999
 20
173.2282663628002
 30
0.0
 11
1130.700479896999
 21
174.0087703628002
 31
0.0
  0
LINE
  5
34B
330
1F
100
AcDbEntity
  8
0
  6
CONTINUOUS
 62
     7
100
AcDbLine
 10
1123.517431896999
 20
179.2853023627998
 30
0.0
 11
1124.448647896999
 21
181.1675983627998
 31
0.0
  0
LINE
  5
34C
330
1F
100
AcDbEntity
  8
0
  6
CONTINUOUS
 62
     7
100
AcDbLine
 10
1128.472191896998
 20
173.9245543627996
 30
0.0
 11
1130.421775896998
 21
174.7050743627996
 31
0.0
  0
ARC
  5
34D
330
1F
100
AcDbEntity
  8
0
  6
CONTINUOUS
 62
     7
100
AcDbCircle
 10
1130.422035896999
 20
174.7056223627999
 30
0.0
 40
0.7500000000000284
100
AcDbArc
 50
291.817596
 51
21.51671399999998
  0
LINE
  5
34E
330
1F
100
AcDbEntity
  8
0
  6
CONTINUOUS
 62
     7
100
AcDbLine
 10
1183.417899896999
 20
171.4981943628002
 30
0.0
 11
1184.183951896999
 21
172.1409863628002
 31
0.0
  0
ARC
  5
34F
330
1F
100
AcDbEntity
  8
0
  6
CONTINUOUS
 62
     7
100
AcDbCircle
 10
1185.118567896999
 20
170.2493383628001
 30
0.0
 40
3.199999999999648
100
AcDbArc
 50
31.010698
 51
48.989288
  0
LINE
  5
350
330
1F
100
AcDbEntity
  8
0
  6
CONTINUOUS
 62
     7
100
AcDbLine
 10
1115.282279896998
 20
162.2404423628003
 30
0.0
 11
1117.810403896998
 21
162.8473903628003
 31
0.0
  0
LINE
  5
351
330
1F
100
AcDbEntity
  8
0
  6
CONTINUOUS
 62
     7
100
AcDbLine
 10
1115.282279896998
 20
162.2404423628003
 30
0.0
 11
1116.190543896999
 21
158.4572703628003
 31
0.0
  0
ARC
  5
352
330
1F
100
AcDbEntity
  8
0
  6
CONTINUOUS
 62
     7
100
AcDbCircle
 10
1185.303475896998
 20
172.3625583628001
 30
0.0
 40
1.000000000000334
100
AcDbArc
 50
220.000198
 51
310.000183
  0
CIRCLE
  5
353
330
1F
100
AcDbEntity
  8
0
  6
CONTINUOUS
 62
     7
100
AcDbCircle
 10
1177.814187896999
 20
195.7227743628005
 30
0.0
 40
0.7500000000000284
  0
ARC
  5
354
330
1F
100
AcDbEntity
  8
0
  6
CONTINUOUS
 62
     7
100
AcDbCircle
 10
1185.118811896999
 20
170.2494143628002
 30
0.0
 40
12.14999200000033
100
AcDbArc
 50
21.516497
 51
63.981499
  0
ARC
  5
355
330
1F
100
AcDbEntity
  8
0
  6
CONTINUOUS
 62
     7
100
AcDbCircle
 10
1185.118811896999
 20
170.2494143628002
 30
0.0
 40
12.14999200000033
100
AcDbArc
 50
131.486496
 51
188.51355
  0
ARC
  5
356
330
1F
100
AcDbEntity
  8
0
  6
CONTINUOUS
 62
     7
100
AcDbCircle
 10
1185.118811896999
 20
170.2494143628002
 30
0.0
 40
10.04998800000045
100
AcDbArc
 50
131.470657
 51
188.529724
  0
CIRCLE
  5
357
330
1F
100
AcDbEntity
  8
0
  6
CONTINUOUS
 62
     7
100
AcDbCircle
 10
1192.422967896999
 20
195.7227743628005
 30
0.0
 40
0.7500000000000284
  0
ARC
  5
358
330
1F
100
AcDbEntity
  8
0
  6
CONTINUOUS
 62
     7
100
AcDbCircle
 10
1173.102639896999
 20
168.4506623628002
 30
0.0
 40
0.7500000000000284
100
AcDbArc
 50
188.513947
 51
278.436005
  0
ARC
  5
359
330
1F
100
AcDbEntity
  8
0
  6
CONTINUOUS
 62
     7
100
AcDbCircle
 10
1189.517251896999
 20
179.2857303628006
 30
0.0
 40
0.7500000000000284
100
AcDbArc
 50
153.679413
 51
244.04129
  0
ARC
  5
35A
330
1F
100
AcDbEntity
  8
0
  6
CONTINUOUS
 62
     7
100
AcDbCircle
 10
1163.118567896999
 20
192.2493383628003
 30
0.0
 40
10.00000000000068
100
AcDbArc
 50
89.99998499999998
 51
179.999969
  0
ARC
  5
35B
330
1F
100
AcDbEntity
  8
0
  6
CONTINUOUS
 62
     7
100
AcDbCircle
 10
1196.422035896999
 20
174.7056223627999
 30
0.0
 40
0.7500000000000284
100
AcDbArc
 50
291.817596
 51
21.51671399999998
  0
ARC
  5
35C
330
1F
100
AcDbEntity
  8
0
  6
CONTINUOUS
 62
     7
100
AcDbCircle
 10
1187.231851896999
 20
170.0643583627999
 30
0.0
 40
1.000000000000334
100
AcDbArc
 50
129.999756
 51
219.999741
  0
ARC
  5
35D
330
1F
100
AcDbEntity
  8
0
  6
CONTINUOUS
 62
     7
100
AcDbCircle
 10
1185.430519896998
 20
161.4549343628005
 30
0.0
 40
0.5000000000006111
100
AcDbArc
 50
193.500702
 51
272.031708
  0
ARC
  5
35E
330
1F
100
AcDbEntity
  8
0
  6
CONTINUOUS
 62
     7
100
AcDbCircle
 10
1177.070043896998
 20
179.3511143627997
 30
0.0
 40
0.7500000000000284
100
AcDbArc
 50
41.562828
 51
131.48819
  0
CIRCLE
  5
35F
330
1F
100
AcDbEntity
  8
0
  6
CONTINUOUS
 62
     7
100
AcDbCircle
 10
1185.118567896999
 20
170.2493383628001
 30
0.0
 40
3.499999999999837
  0
ARC
  5
360
330
1F
100
AcDbEntity
  8
0
  6
CONTINUOUS
 62
     7
100
AcDbCircle
 10
1181.282447896999
 20
162.2407183628001
 30
0.0
 40
0.7500000000000284
100
AcDbArc
 50
103.499062
 51
193.500946
  0
ARC
  5
361
330
1F
100
AcDbEntity
  8
0
  6
CONTINUOUS
 62
     7
100
AcDbCircle
 10
1185.118751896999
 20
170.2494143628002
 30
0.0
 40
9.299996000000199
100
AcDbArc
 50
131.470871
 51
188.52977
  0
ARC
  5
362
330
1F
100
AcDbEntity
  8
0
  6
CONTINUOUS
 62
     7
100
AcDbCircle
 10
1185.118751896999
 20
170.2494143628002
 30
0.0
 40
9.299996000000199
100
AcDbArc
 50
21.453329
 51
64.045097
  0
ARC
  5
363
330
1F
100
AcDbEntity
  8
0
  6
CONTINUOUS
 62
     7
100
AcDbCircle
 10
1185.118567896999
 20
170.2493383628001
 30
0.0
 40
3.199999999999648
100
AcDbArc
 50
211.010849
 51
228.989426
  0
ARC
  5
364
330
1F
100
AcDbEntity
  8
0
  6
CONTINUOUS
 62
     7
100
AcDbCircle
 10
1207.118551896999
 20
192.2493383628003
 30
0.0
 40
9.999999999999787
100
AcDbArc
 50
0.0
 51
89.99998499999998
  0
ARC
  5
365
330
1F
100
AcDbEntity
  8
0
  6
CONTINUOUS
 62
     7
100
AcDbCircle
 10
1185.118811896999
 20
170.2494143628002
 30
0.0
 40
10.04999600000023
100
AcDbArc
 50
21.45322
 51
64.04499100000001
  0
ARC
  5
366
330
1F
100
AcDbEntity
  8
0
  6
CONTINUOUS
 62
     7
100
AcDbCircle
 10
1178.463235896999
 20
177.7798103628001
 30
0.0
 40
0.7500000000000284
100
AcDbArc
 50
311.468933
 51
41.56315599999999
  0
LINE
  5
367
330
1F
100
AcDbEntity
  8
0
  6
CONTINUOUS
 62
     7
100
AcDbLine
 10
1114.553015896998
 20
162.0653503628002
 30
0.0
 11
1115.461279896998
 21
158.2821903628002
 31
0.0
  0
CIRCLE
  5
368
330
1F
100
AcDbEntity
  8
0
  6
CONTINUOUS
 62
     7
100
AcDbCircle
 10
1192.422967896999
 20
195.7227743628005
 30
0.0
 40
0.7500000000000284
  0
CIRCLE
  5
369
330
1F
100
AcDbEntity
  8
0
  6
CONTINUOUS
 62
     7
100
AcDbCircle
 10
1185.118567896999
 20
170.2493383628001
 30
0.0
 40
25.00000000000036
  0
ARC
  5
36A
330
1F
100
AcDbEntity
  8
0
  6
CONTINUOUS
 62
     7
100
AcDbCircle
 10
1190.448463896999
 20
181.1680103627999
 30
0.0
 40
0.7500000000000284
100
AcDbArc
 50
63.98504599999998
 51
153.679153
  0
ARC
  5
36B
330
1F
100
AcDbEntity
  8
0
  6
CONTINUOUS
 62
     7
100
AcDbCircle
 10
1182.190711896998
 20
158.4575143627997
 30
0.0
 40
0.7500000000000284
100
AcDbArc
 50
193.500595
 51
256.055725
  0
ARC
  5
36C
330
1F
100
AcDbEntity
  8
0
  6
CONTINUOUS
 62
     7
100
AcDbCircle
 10
1185.118751896999
 20
170.2494143628002
 30
0.0
 40
12.89999199999947
100
AcDbArc
 50
131.486557
 51
188.513611
  0
ARC
  5
36D
330
1F
100
AcDbEntity
  8
0
  6
CONTINUOUS
 62
     7
100
AcDbCircle
 10
1184.839331896999
 20
160.7035023628001
 30
0.0
 40
0.4999999999997229
100
AcDbArc
 50
193.499939
 51
268.322235
  0
ARC
  5
36E
330
1F
100
AcDbEntity
  8
0
  6
CONTINUOUS
 62
     7
100
AcDbCircle
 10
1191.333899896999
 20
162.3516783627998
 30
0.0
 40
0.7500000000000284
100
AcDbArc
 50
38.861679
 51
128.201508
  0
ARC
  5
36F
330
1F
100
AcDbEntity
  8
0
  6
CONTINUOUS
 62
     7
100
AcDbCircle
 10
1185.118751896999
 20
170.2494143628002
 30
0.0
 40
9.299996000000199
100
AcDbArc
 50
272.0300599999999
 51
308.20105
  0
ARC
  5
370
330
1F
100
AcDbEntity
  8
0
  6
CONTINUOUS
 62
     7
100
AcDbCircle
 10
1183.005331896998
 20
170.4341983628001
 30
0.0
 40
1.000000000000334
100
AcDbArc
 50
310.000183
 51
39.99999200000002
  0
ARC
  5
371
330
1F
100
AcDbEntity
  8
0
  6
CONTINUOUS
 62
     7
100
AcDbCircle
 10
1185.118567896999
 20
170.2493383628001
 30
0.0
 40
25.9999999999998
100
AcDbArc
 50
78.999992
 51
100.999977
  0
ARC
  5
372
330
1F
100
AcDbEntity
  8
0
  6
CONTINUOUS
 62
     7
100
AcDbCircle
 10
1184.933707896999
 20
168.1360423628
 30
0.0
 40
1.000000000000334
100
AcDbArc
 50
39.999992
 51
129.999756
  0
ARC
  5
373
330
1F
100
AcDbEntity
  8
0
  6
CONTINUOUS
 62
     7
100
AcDbCircle
 10
1175.179907896998
 20
168.7587383627998
 30
0.0
 40
0.7500000000000284
100
AcDbArc
 50
278.436005
 51
8.52973800000001
  0
ARC
  5
374
330
1F
100
AcDbEntity
  8
0
  6
CONTINUOUS
 62
     7
100
AcDbCircle
 10
1185.118751896999
 20
170.2494143628002
 30
0.0
 40
12.89999199999947
100
AcDbArc
 50
21.516388
 51
63.98155200000001
  0
ARC
  5
375
330
1F
100
AcDbEntity
  8
0
  6
CONTINUOUS
 62
     7
100
AcDbCircle
 10
1163.118567896999
 20
148.2493383627998
 30
0.0
 40
10.00000000000068
100
AcDbArc
 50
179.999969
 51
270.0
  0
ARC
  5
376
330
1F
100
AcDbEntity
  8
0
  6
CONTINUOUS
 62
     7
100
AcDbCircle
 10
1194.472387896999
 20
173.9251063628
 30
0.0
 40
0.7500000000000284
100
AcDbArc
 50
201.45192
 51
291.814178
  0
ARC
  5
377
330
1F
100
AcDbEntity
  8
0
  6
CONTINUOUS
 62
     7
100
AcDbCircle
 10
1185.118811896999
 20
170.2494143628002
 30
0.0
 40
10.04999600000023
100
AcDbArc
 50
268.317169
 51
308.318481
  0
ARC
  5
378
330
1F
100
AcDbEntity
  8
0
  6
CONTINUOUS
 62
     7
100
AcDbCircle
 10
1185.118811896999
 20
170.2494143628002
 30
0.0
 40
12.14999200000033
100
AcDbArc
 50
256.054474
 51
308.3186650000001
  0
LINE
  5
379
330
1F
100
AcDbEntity
  8
0
  6
CONTINUOUS
 62
     7
100
AcDbLine
 10
1187.197851896999
 20
196.6672023628
 30
0.0
 11
1187.276315896999
 21
197.6641023628
 31
0.0
  0
LINE
  5
37A
330
1F
100
AcDbEntity
  8
0
  6
CONTINUOUS
 62
     7
100
AcDbLine
 10
1183.810431896999
 20
162.8473903628
 30
0.0
 11
1184.353155896999
 21
160.5867863628
 31
0.0
  0
LINE
  5
37B
330
1F
100
AcDbEntity
  8
0
  6
CONTINUOUS
 62
     7
100
AcDbLine
 10
1185.946311896998
 20
171.5964143628001
 30
0.0
 11
1187.218467896998
 21
172.6638743628001
 31
0.0
  0
ARC
  5
37C
330
1F
100
AcDbEntity
  8
0
  6
CONTINUOUS
 62
     7
100
AcDbCircle
 10
1185.118567896999
 20
170.2493383628001
 30
0.0
 40
25.9999999999998
100
AcDbArc
 50
78.999992
 51
100.999977
  0
ARC
  5
37D
330
1F
100
AcDbEntity
  8
0
  6
CONTINUOUS
 62
     7
100
AcDbCircle
 10
1192.651587896999
 20
160.7163783628005
 30
0.0
 40
0.7500000000000284
100
AcDbArc
 50
308.314575
 51
38.86156799999998
  0
LINE
  5
37E
330
1F
100
AcDbEntity
  8
0
  6
CONTINUOUS
 62
     7
100
AcDbLine
 10
1186.465843896999
 20
169.4215343628001
 30
0.0
 11
1186.819375896999
 21
169.0002103628001
 31
0.0
  0
CIRCLE
  5
37F
330
1F
100
AcDbEntity
  8
0
  6
CONTINUOUS
 62
     7
100
AcDbCircle
 10
1177.814187896999
 20
195.7227743628005
 30
0.0
 40
0.7500000000000284
  0
CIRCLE
  5
380
330
1F
100
AcDbEntity
  8
0
  6
CONTINUOUS
 62
     7
100
AcDbCircle
 10
1185.118567896999
 20
170.2493383628001
 30
0.0
 40
27.99999999999958
  0
ARC
  5
381
330
1F
100
AcDbEntity
  8
0
  6
CONTINUOUS
 62
     7
100
AcDbCircle
 10
1185.118751896999
 20
170.2494143628002
 30
0.0
 40
12.89999199999947
100
AcDbArc
 50
256.05484
 51
308.315155
  0
LINE
  5
382
330
1F
100
AcDbEntity
  8
0
  6
CONTINUOUS
 62
     7
100
AcDbLine
 10
1180.157495896998
 20
195.7711743628003
 30
0.0
 11
1180.062079896999
 21
196.2619903628003
 31
0.0
  0
LINE
  5
383
330
1F
100
AcDbEntity
  8
0
  6
CONTINUOUS
 62
     7
100
AcDbLine
 10
1185.699791896999
 20
168.7787423628002
 30
0.0
 11
1186.053335896999
 21
168.3574183628002
 31
0.0
  0
ARC
  5
384
330
1F
100
AcDbEntity
  8
0
  6
CONTINUOUS
 62
     7
100
AcDbCircle
 10
1207.118551896999
 20
148.2493383627998
 30
0.0
 40
9.999999999999787
100
AcDbArc
 50
270.000031
 51
0.0
  0
ARC
  5
385
330
1F
100
AcDbEntity
  8
0
  6
CONTINUOUS
 62
     7
100
AcDbCircle
 10
1185.118567896999
 20
170.2493383628001
 30
0.0
 40
26.49999999999952
100
AcDbArc
 50
85.499977
 51
100.999977
  0
LINE
  5
386
330
1F
100
AcDbEntity
  8
0
  6
CONTINUOUS
 62
     7
100
AcDbLine
 10
1115.107199896999
 20
162.9697223628002
 30
0.0
 11
1117.635367896999
 21
163.5766703628001
 31
0.0
  0
CIRCLE
  5
387
330
1F
100
AcDbEntity
  8
0
  6
CONTINUOUS
 62
     7
100
AcDbCircle
 10
1185.118567896999
 20
170.2493383628001
 30
0.0
 40
20.00000000000046
  0
LINE
  5
388
330
1F
100
AcDbEntity
  8
0
  6
CONTINUOUS
 62
     7
100
AcDbLine
 10
1187.276343896999
 20
197.6639223627998
 30
0.0
 11
1190.079735896998
 21
195.7710063627999
 31
0.0
  0
ARC
  5
389
330
1F
100
AcDbEntity
  8
0
  6
CONTINUOUS
 62
     7
100
AcDbCircle
 10
1183.810583896998
 20
162.8476823628002
 30
0.0
 40
0.7500000000000284
100
AcDbArc
 50
13.499384
 51
103.499001
  0
CIRCLE
  5
38A
330
1F
100
AcDbEntity
  8
0
  6
CONTINUOUS
 62
     7
100
AcDbCircle
 10
1185.118567896999
 20
170.2493383628001
 30
0.0
 40
3.750000000000142
  0
LINE
  5
38B
330
1F
100
AcDbEntity
  8
0
  6
CONTINUOUS
 62
     7
100
AcDbLine
 10
1186.053335896999
 20
168.3574183627998
 30
0.0
 11
1186.819375896999
 21
169.0002103627998
 31
0.0
  0
ARC
  5
38C
330
1F
100
AcDbEntity
  8
0
  6
CONTINUOUS
 62
     7
100
AcDbCircle
 10
1185.118567896999
 20
170.2493383628001
 30
0.0
 40
26.49999999999952
100
AcDbArc
 50
85.499977
 51
100.999977
  0
LINE
  5
38D
330
1F
100
AcDbEntity
  8
0
  6
CONTINUOUS
 62
     7
100
AcDbLine
 10
1186.589087896999
 20
170.8303623627998
 30
0.0
 11
1187.861259896999
 21
171.8978383627998
 31
0.0
  0
LINE
  5
38E
330
1F
100
AcDbEntity
  8
0
  6
CONTINUOUS
 62
     7
100
AcDbLine
 10
1163.118567896999
 20
202.2493543627997
 30
0.0
 11
1207.118551896999
 21
202.2493543627997
 31
0.0
  0
LINE
  5
38F
330
1F
100
AcDbEntity
  8
0
  6
CONTINUOUS
 62
     7
100
AcDbLine
 10
1217.118551896998
 20
148.2493383627998
 30
0.0
 11
1217.118551896998
 21
192.2493383627999
 31
0.0
  0
LINE
  5
390
330
1F
100
AcDbEntity
  8
0
  6
CONTINUOUS
 62
     7
100
AcDbLine
 10
1194.472191896999
 20
173.9245543627996
 30
0.0
 11
1196.421775896999
 21
174.7050743627996
 31
0.0
  0
LINE
  5
391
330
1F
100
AcDbEntity
  8
0
  6
CONTINUOUS
 62
     7
100
AcDbLine
 10
1184.183951896998
 20
172.1409863628
 30
0.0
 11
1184.537483896999
 21
171.7196623628001
 31
0.0
  0
LINE
  5
392
330
1F
100
AcDbEntity
  8
0
  6
CONTINUOUS
 62
     7
100
AcDbLine
 10
1173.102883896998
 20
168.4503583627999
 30
0.0
 11
1175.180123896998
 21
168.7584503627999
 31
0.0
  0
LINE
  5
393
330
1F
100
AcDbEntity
  8
0
  6
CONTINUOUS
 62
     7
100
AcDbLine
 10
1184.539679896999
 20
163.0224583627999
 30
0.0
 11
1184.944099896999
 21
161.3379183627999
 31
0.0
  0
LINE
  5
394
330
1F
100
AcDbEntity
  8
0
  6
CONTINUOUS
 62
     7
100
AcDbLine
 10
1181.282279896999
 20
162.2404423628003
 30
0.0
 11
1183.810403896999
 21
162.8473903628003
 31
0.0
  0
LINE
  5
395
330
1F
100
AcDbEntity
  8
0
  6
CONTINUOUS
 62
     7
100
AcDbLine
 10
1187.276359896999
 20
197.6639223627998
 30
0.0
 11
1190.079751896999
 21
195.7710063627999
 31
0.0
  0
LINE
  5
396
330
1F
100
AcDbEntity
  8
0
  6
CONTINUOUS
 62
     7
100
AcDbLine
 10
1183.226843896999
 20
169.3145103628
 30
0.0
 11
1183.869635896999
 21
168.5484743628
 31
0.0
  0
LINE
  5
397
330
1F
100
AcDbEntity
  8
0
  6
CONTINUOUS
 62
     7
100
AcDbLine
 10
1181.107199896999
 20
162.9697223628002
 30
0.0
 11
1183.635367896999
 21
163.5766703628001
 31
0.0
  0
LINE
  5
398
330
1F
100
AcDbEntity
  8
0
  6
CONTINUOUS
 62
     7
100
AcDbLine
 10
1183.018807896999
 20
167.8345303627999
 30
0.0
 11
1184.290963896999
 21
168.9020023627999
 31
0.0
  0
LINE
  5
399
330
1F
100
AcDbEntity
  8
0
  6
CONTINUOUS
 62
     7
100
AcDbLine
 10
1185.127083896999
 20
158.0989183627999
 30
0.0
 11
1185.118659896999
 21
158.1489503627999
 31
0.0
  0
LINE
  5
39A
330
1F
100
AcDbEntity
  8
0
  6
CONTINUOUS
 62
     7
100
AcDbLine
 10
1191.333871896999
 20
162.3511623628007
 30
0.0
 11
1192.651559896999
 21
160.7158783628007
 31
0.0
  0
LINE
  5
39B
330
1F
100
AcDbEntity
  8
0
  6
CONTINUOUS
 62
     7
100
AcDbLine
 10
1194.750875896998
 20
173.2282663628002
 30
0.0
 11
1196.700479896998
 21
174.0087703628002
 31
0.0
  0
LINE
  5
39C
330
1F
100
AcDbEntity
  8
0
  6
CONTINUOUS
 62
     7
100
AcDbLine
 10
1189.517431896998
 20
179.2853023627998
 30
0.0
 11
1190.448647896998
 21
181.1675983627998
 31
0.0
  0
LINE
  5
39D
330
1F
100
AcDbEntity
  8
0
  6
CONTINUOUS
 62
     7
100
AcDbLine
 10
1173.212851896999
 20
167.7084623627998
 30
0.0
 11
1175.290091896999
 21
168.0165503627998
 31
0.0
  0
LINE
  5
39E
330
1F
100
AcDbEntity
  8
0
  6
CONTINUOUS
 62
     7
100
AcDbLine
 10
1186.367639896999
 20
171.9499463628003
 30
0.0
 11
1187.010427896999
 21
171.1839103628002
 31
0.0
  0
LINE
  5
39F
330
1F
100
AcDbEntity
  8
0
  6
CONTINUOUS
 62
     7
100
AcDbLine
 10
1180.157479896999
 20
195.7711743628003
 30
0.0
 11
1180.062079896999
 21
196.2619903628003
 31
0.0
  0
LINE
  5
3A0
330
1F
100
AcDbEntity
  8
0
  6
CONTINUOUS
 62
     7
100
AcDbLine
 10
1180.553015896999
 20
162.0653503628002
 30
0.0
 11
1181.461279896999
 21
158.2821903628002
 31
0.0
  0
LINE
  5
3A1
330
1F
100
AcDbEntity
  8
0
  6
CONTINUOUS
 62
     7
100
AcDbLine
 10
1177.070211896999
 20
179.3504583628005
 30
0.0
 11
1178.463415896999
 21
177.7791543628005
 31
0.0
  0
LINE
  5
3A2
330
1F
100
AcDbEntity
  8
0
  6
CONTINUOUS
 62
     7
100
AcDbLine
 10
1181.282279896999
 20
162.2404423628003
 30
0.0
 11
1182.190543896999
 21
158.4572703628003
 31
0.0
  0
LINE
  5
3A3
330
1F
100
AcDbEntity
  8
0
  6
CONTINUOUS
 62
     7
100
AcDbLine
 10
1188.845175896999
 20
179.6178383628
 30
0.0
 11
1189.776391896999
 21
181.5001343628
 31
0.0
  0
LINE
  5
3A4
330
1F
100
AcDbEntity
  8
0
  6
CONTINUOUS
 62
     7
100
AcDbLine
 10
1182.376015896999
 20
168.6005823628003
 30
0.0
 11
1183.648171896999
 21
169.6680423628003
 31
0.0
  0
LINE
  5
3A5
330
1F
100
AcDbEntity
  8
0
  6
CONTINUOUS
 62
     7
100
AcDbLine
 10
1163.118567896999
 20
138.2493383628001
 30
0.0
 11
1207.118551896999
 21
138.2493383628001
 31
0.0
  0
LINE
  5
3A6
330
1F
100
AcDbEntity
  8
0
  6
CONTINUOUS
 62
     7
100
AcDbLine
 10
1187.197851896999
 20
196.6672023628
 30
0.0
 11
1187.276315896999
 21
197.6641023628
 31
0.0
  0
LINE
  5
3A7
330
1F
100
AcDbEntity
  8
0
  6
CONTINUOUS
 62
     7
100
AcDbLine
 10
1153.118567896999
 20
148.2493383627998
 30
0.0
 11
1153.118567896999
 21
192.2493383627999
 31
0.0
  0
LINE
  5
3A8
330
1F
100
AcDbEntity
  8
0
  6
CONTINUOUS
 62
     7
100
AcDbLine
 10
1191.917807896999
 20
162.8217103627998
 30
0.0
 11
1193.235479896999
 21
161.1864423627998
 31
0.0
  0
LINE
  5
3A9
330
1F
100
AcDbEntity
  8
0
  6
CONTINUOUS
 62
     7
100
AcDbLine
 10
1183.417899896999
 20
171.4981943628002
 30
0.0
 11
1183.771431896999
 21
171.0768863628002
 31
0.0
  0
LINE
  5
3AA
330
1F
100
AcDbEntity
  8
0
  6
CONTINUOUS
 62
     7
100
AcDbLine
 10
1177.631387896999
 20
179.8480623628001
 30
0.0
 11
1179.024575896999
 21
178.2767583628001
 31
0.0
  0
LINE
  5
3AB
330
1F
100
AcDbEntity
  8
1
  6
CONTINUOUS
 62
     7
100
AcDbLine
 10
835.2876154734998
 20
127.1473449942997
 30
0.0
 11
835.4797582171996
 21
127.3394877378999
 31
0.0
  0
LINE
  5
3AC
330
1F
100
AcDbEntity
  8
1
  6
CONTINUOUS
 62
     7
100
AcDbLine
 10
860.6561411949993
 20
134.1687747839
 30
0.0
 11
860.6775709695
 21
134.1473450092998
 31
0.0
  0
LINE
  5
3AD
330
1F
100
AcDbEntity
  8
1
  6
CONTINUOUS
 62
     7
100
AcDbLine
 10
855.6775709715998
 20
139.1473450073004
 30
0.0
 11
856.1399976937993
 21
138.6849182850005
 31
0.0
  0
LINE
  5
3AE
330
1F
100
AcDbEntity
  8
0
  6
CONTINUOUS
 62
     7
100
AcDbLine
 10
1073.853776616999
 20
120.9997194215999
 30
0.0
 11
1114.618567897199
 21
120.9997194215999
 31
0.0
  0
ENDSEC
  0
SECTION
  2
OBJECTS
  0
DICTIONARY
  5
C
330
0
100
AcDbDictionary
  3
ACAD_GROUP
350
D
  3
ACAD_LAYOUT
350
1A
  3
ACAD_MATERIAL
350
43
  3
ACAD_MLEADERSTYLE
350
6B
  3
ACAD_MLINESTYLE
350
17
  3
ACAD_PLOTSETTINGS
350
19
  3
ACAD_SCALELIST
350
47
  3
ACAD_VISUALSTYLE
350
2A
  3
ACDBHEADERROUNDTRIPXREC
350
3AF
  3
ACDBVARIABLEDICTIONARY
350
3D0
  0
DICTIONARY
  5
3D7
330
8
100
AcDbDictionary
280
     1
  3
ACAD_XREC_ROUNDTRIP
360
3D8
  0
DICTIONARY
  5
D
102
{ACAD_REACTORS
330
C
102
}
330
C
100
AcDbDictionary
  0
DICTIONARY
  5
1A
102
{ACAD_REACTORS
330
C
102
}
330
C
100
AcDbDictionary
  0
DICTIONARY
  5
43
102
{ACAD_REACTORS
330
C
102
}
330
C
100
AcDbDictionary
  3
BYBLOCK
350
45
  3
BYLAYER
350
44
  3
GLOBAL
350
46
  0
DICTIONARY
  5
6B
102
{ACAD_REACTORS
330
C
102
}
330
C
100
AcDbDictionary
  3
STANDARD
350
6C
  0
DICTIONARY
  5
17
102
{ACAD_REACTORS
330
C
102
}
330
C
100
AcDbDictionary
  3
STANDARD
350
18
  0
DICTIONARY
  5
19
102
{ACAD_REACTORS
330
C
102
}
330
C
100
AcDbDictionary
  0
DICTIONARY
  5
47
102
{ACAD_REACTORS
330
C
102
}
330
C
100
AcDbDictionary
  3
A0
350
48
  3
A1
350
49
  3
A2
350
4A
  3
A3
350
4B
  3
A4
350
4C
  3
A5
350
4D
  3
A6
350
4E
  3
A7
350
4F
  3
A8
350
50
  3
A9
350
51
  3
B0
350
52
  3
B1
350
53
  3
B2
350
54
  3
B3
350
55
  3
B4
350
56
  3
B5
350
57
  3
B6
350
58
  3
B7
350
59
  3
B8
350
5A
  3
B9
350
5B
  3
C0
350
5C
  3
C1
350
5D
  3
C2
350
5E
  3
C3
350
5F
  3
C4
350
60
  3
C5
350
61
  3
C6
350
62
  3
C7
350
63
  3
C8
350
64
  3
C9
350
65
  3
D0
350
66
  3
D1
350
67
  3
D2
350
68
  0
DICTIONARY
  5
2A
102
{ACAD_REACTORS
330
C
102
}
330
C
100
AcDbDictionary
  3
2DWIREFRAME
350
2F
  3
BASIC
350
32
  3
BRIGHTEN
350
36
  3
COLORCHANGE
350
3A
  3
CONCEPTUAL
350
34
  3
DIM
350
35
  3
EDGECOLOROFF
350
3D
  3
FACEPATTERN
350
39
  3
FLAT
350
2B
  3
FLATWITHEDGES
350
2C
  3
GOURAUD
350
2D
  3
GOURAUDWITHEDGES
350
2E
  3
HIDDEN
350
31
  3
JITTEROFF
350
3B
  3
LINEPATTERN
350
38
  3
OVERHANGOFF
350
3C
  3
REALISTIC
350
33
  3
SHADED
350
42
  3
SHADED_WITH_EDGES
350
41
  3
SHADES_OF_GRAY
350
3E
  3
SKETCHY
350
3F
  3
THICKEN
350
37
  3
WIREFRAME
350
30
  3
X-RAY
350
40
  0
DICTIONARY
  5
3AF
102
{ACAD_REACTORS
330
C
102
}
330
C
100
AcDbDictionary
  3
CEPSNID
350
3B9
  3
CEPSNTYPE
350
3B8
  3
DIMSTYLEDATA
350
3CF
  3
FINGERPRINTGUID
350
3BA
  3
HYPERLINKBASE
350
3B2
  3
INSUNITS
350
3B7
  3
LAYOUTDICT
350
3B4
  3
LWETCUNION
350
3B6
  3
PLOTSETDICT
350
3B5
  3
PSVPSCALE
350
3BC
  3
PUCSBASE
350
3BF
  3
PUCSORGBACK
350
3C5
  3
PUCSORGBOTTOM
350
3C1
  3
PUCSORGFRONT
350
3C4
  3
PUCSORGLEFT
350
3C2
  3
PUCSORGRIGHT
350
3C3
  3
PUCSORGTOP
350
3C0
  3
PUCSORTHOREF
350
3BD
  3
PUCSORTHOVIEW
350
3BE
  3
STYLESHEET
350
3B3
  3
TSTACKALIGN
350
3B0
  3
TSTACKSIZE
350
3B1
  3
UCSBASE
350
3C8
  3
UCSORGBACK
350
3CE
  3
UCSORGBOTTOM
350
3CA
  3
UCSORGFRONT
350
3CD
  3
UCSORGLEFT
350
3CB
  3
UCSORGRIGHT
350
3CC
  3
UCSORGTOP
350
3C9
  3
UCSORTHOREF
350
3C6
  3
UCSORTHOVIEW
350
3C7
  3
VERSIONGUID
350
3BB
  0
DICTIONARY
  5
3D0
102
{ACAD_REACTORS
330
C
102
}
330
C
100
AcDbDictionary
  3
CANNOSCALE
350
3D9
  3
CMLEADERSTYLE
350
3D2
  3
CTABLESTYLE
350
3D1
  3
DIMASSOC
350
3D5
  3
HIDETEXT
350
3D6
  3
MSLTSCALE
350
3DA
  0
XRECORD
  5
3D8
102
{ACAD_REACTORS
330
3D7
102
}
330
3D7
100
AcDbXrecord
102
VTR_0.000_0.000_1.000_1.000_VISUALSTYLE
340
2F
102
VTR_0.000_0.000_1.000_1.000_GRIDDISPLAY
 70
     3
102
VTR_0.000_0.000_1.000_1.000_GRIDMAJOR
 70
     5
102
VTR_0.000_0.000_1.000_1.000_DEFAULTLIGHTING
280
     1
102
VTR_0.000_0.000_1.000_1.000_DEFAULTLIGHTINGTYPE
 70
     1
102
VTR_0.000_0.000_1.000_1.000_BRIGHTNESS
141
0.0
102
VTR_0.000_0.000_1.000_1.000_CONTRAST
142
0.0
  0
MATERIAL
  5
45
102
{ACAD_REACTORS
330
43
102
}
102
{ACAD_XDICTIONARY
360
3DD
102
}
330
43
100
AcDbMaterial
  1
BYBLOCK
  0
MATERIAL
  5
44
102
{ACAD_REACTORS
330
43
102
}
102
{ACAD_XDICTIONARY
360
3DB
102
}
330
43
100
AcDbMaterial
  1
BYLAYER
  0
MATERIAL
  5
46
102
{ACAD_REACTORS
330
43
102
}
102
{ACAD_XDICTIONARY
360
3DF
102
}
330
43
100
AcDbMaterial
  1
GLOBAL
  0
ACAD_PROXY_OBJECT
  5
6C
102
{ACAD_REACTORS
330
6B
102
}
330
6B
100
AcDbProxyObject
 90
      499
 91
      505
 93
      610
310
40901902A4063FBFFFFFE056BD1B81E855B9FC0AD7A3703D0AD73F4214DD185B99185C9900AD7A3703D0AC73F90141901A02B5E8DC0F42B1CFC02B5E8DC0F42B1CFE5764000000000000300FC0
340
14
340
0
340
11
340
0
 94
        0
1001
ACAD_MLEADERVER
1070
     2
  0
MLINESTYLE
  5
18
102
{ACAD_REACTORS
330
17
102
}
330
17
100
AcDbMlineStyle
  2
Standard
 70
     0
  3

 62
   256
 51
90.0
 52
90.0
 71
     2
 49
0.5
 62
   256
  6
BYLAYER
 49
-0.5
 62
   256
  6
BYLAYER
  0
ACAD_PROXY_OBJECT
  5
48
102
{ACAD_REACTORS
330
47
102
}
330
47
100
AcDbProxyObject
 90
      499
 91
      503
 93
       41
310
903313A31580
  0
ACAD_PROXY_OBJECT
  5
49
102
{ACAD_REACTORS
330
47
102
}
330
47
100
AcDbProxyObject
 90
      499
 91
      503
 93
      105
310
903313A324000000000000004000
  0
ACAD_PROXY_OBJECT
  5
4A
102
{ACAD_REACTORS
330
47
102
}
330
47
100
AcDbProxyObject
 90
      499
 91
      503
 93
      105
310
903313A344000000000000104000
  0
ACAD_PROXY_OBJECT
  5
4B
102
{ACAD_REACTORS
330
47
102
}
330
47
100
AcDbProxyObject
 90
      499
 91
      503
 93
      105
310
903313A354000000000000144000
  0
ACAD_PROXY_OBJECT
  5
4C
102
{ACAD_REACTORS
330
47
102
}
330
47
100
AcDbProxyObject
 90
      499
 91
      503
 93
      105
310
903313A384000000000000204000
  0
ACAD_PROXY_OBJECT
  5
4D
102
{ACAD_REACTORS
330
47
102
}
330
47
100
AcDbProxyObject
 90
      499
 91
      503
 93
      113
310
904313A31304000000000000244000
  0
ACAD_PROXY_OBJECT
  5
4E
102
{ACAD_REACTORS
330
47
102
}
330
47
100
AcDbProxyObject
 90
      499
 91
      503
 93
      113
310
904313A31364000000000000304000
  0
ACAD_PROXY_OBJECT
  5
4F
102
{ACAD_REACTORS
330
47
102
}
330
47
100
AcDbProxyObject
 90
      499
 91
      503
 93
      113
310
904313A32304000000000000344000
  0
ACAD_PROXY_OBJECT
  5
50
102
{ACAD_REACTORS
330
47
102
}
330
47
100
AcDbProxyObject
 90
      499
 91
      503
 93
      113
310
904313A333040000000000003E4000
  0
ACAD_PROXY_OBJECT
  5
51
102
{ACAD_REACTORS
330
47
102
}
330
47
100
AcDbProxyObject
 90
      499
 91
      503
 93
      113
310
904313A34304000000000000444000
  0
ACAD_PROXY_OBJECT
  5
52
102
{ACAD_REACTORS
330
47
102
}
330
47
100
AcDbProxyObject
 90
      499
 91
      503
 93
      113
310
904313A35304000000000000494000
  0
ACAD_PROXY_OBJECT
  5
53
102
{ACAD_REACTORS
330
47
102
}
330
47
100
AcDbProxyObject
 90
      499
 91
      503
 93
      121
310
905313A3130304000000000000594000
  0
ACAD_PROXY_OBJECT
  5
54
102
{ACAD_REACTORS
330
47
102
}
330
47
100
AcDbProxyObject
 90
      499
 91
      503
 93
      105
310
903323A310000000000000010100
  0
ACAD_PROXY_OBJECT
  5
55
102
{ACAD_REACTORS
330
47
102
}
330
47
100
AcDbProxyObject
 90
      499
 91
      503
 93
      105
310
903343A310000000000000410100
  0
ACAD_PROXY_OBJECT
  5
56
102
{ACAD_REACTORS
330
47
102
}
330
47
100
AcDbProxyObject
 90
      499
 91
      503
 93
      105
310
903383A310000000000000810100
  0
ACAD_PROXY_OBJECT
  5
57
102
{ACAD_REACTORS
330
47
102
}
330
47
100
AcDbProxyObject
 90
      499
 91
      503
 93
      113
310
90431303A310000000000000910100
  0
ACAD_PROXY_OBJECT
  5
58
102
{ACAD_REACTORS
330
47
102
}
330
47
100
AcDbProxyObject
 90
      499
 91
      503
 93
      121
310
9053130303A310000000000001650100
  0
ACAD_PROXY_OBJECT
  5
59
102
{ACAD_REACTORS
330
47
102
}
330
47
100
AcDbProxyObject
 90
      499
 91
      503
 93
      257
310
90E312F31323822203D2031272D3022000000000000200FC000000000000284000
  0
ACAD_PROXY_OBJECT
  5
5A
102
{ACAD_REACTORS
330
47
102
}
330
47
100
AcDbProxyObject
 90
      499
 91
      503
 93
      249
310
90D312F363422203D2031272D3022000000000000240FC000000000000284000
  0
ACAD_PROXY_OBJECT
  5
5B
102
{ACAD_REACTORS
330
47
102
}
330
47
100
AcDbProxyObject
 90
      499
 91
      503
 93
      249
310
90D312F333222203D2031272D3022000000000000280FC000000000000284000
  0
ACAD_PROXY_OBJECT
  5
5C
102
{ACAD_REACTORS
330
47
102
}
330
47
100
AcDbProxyObject
 90
      499
 91
      503
 93
      249
310
90D312F313622203D2031272D30220000000000002C0FC000000000000284000
  0
ACAD_PROXY_OBJECT
  5
5D
102
{ACAD_REACTORS
330
47
102
}
330
47
100
AcDbProxyObject
 90
      499
 91
      503
 93
      249
310
90D332F333222203D2031272D30220000000000002E0FC000000000000284000
  0
ACAD_PROXY_OBJECT
  5
5E
102
{ACAD_REACTORS
330
47
102
}
330
47
100
AcDbProxyObject
 90
      499
 91
      503
 93
      241
310
90C312F3822203D2031272D3022000000000000300FC000000000000284000
  0
ACAD_PROXY_OBJECT
  5
5F
102
{ACAD_REACTORS
330
47
102
}
330
47
100
AcDbProxyObject
 90
      499
 91
      503
 93
      249
310
90D332F313622203D2031272D3022000000000000320FC000000000000284000
  0
ACAD_PROXY_OBJECT
  5
60
102
{ACAD_REACTORS
330
47
102
}
330
47
100
AcDbProxyObject
 90
      499
 91
      503
 93
      241
310
90C312F3422203D2031272D3022000000000000340FC000000000000284000
  0
ACAD_PROXY_OBJECT
  5
61
102
{ACAD_REACTORS
330
47
102
}
330
47
100
AcDbProxyObject
 90
      499
 91
      503
 93
      241
310
90C332F3822203D2031272D3022000000000000360FC000000000000284000
  0
ACAD_PROXY_OBJECT
  5
62
102
{ACAD_REACTORS
330
47
102
}
330
47
100
AcDbProxyObject
 90
      499
 91
      503
 93
      241
310
90C312F3222203D2031272D3022000000000000380FC000000000000284000
  0
ACAD_PROXY_OBJECT
  5
63
102
{ACAD_REACTORS
330
47
102
}
330
47
100
AcDbProxyObject
 90
      499
 91
      503
 93
      241
310
90C332F3422203D2031272D30220000000000003A0FC000000000000284000
  0
ACAD_PROXY_OBJECT
  5
64
102
{ACAD_REACTORS
330
47
102
}
330
47
100
AcDbProxyObject
 90
      499
 91
      503
 93
      161
310
90A3122203D2031272D30224000000000000284000
  0
ACAD_PROXY_OBJECT
  5
65
102
{ACAD_REACTORS
330
47
102
}
330
47
100
AcDbProxyObject
 90
      499
 91
      503
 93
      257
310
90E312D312F3222203D2031272D30220000000000003E0FC000000000000284000
  0
ACAD_PROXY_OBJECT
  5
66
102
{ACAD_REACTORS
330
47
102
}
330
47
100
AcDbProxyObject
 90
      499
 91
      503
 93
      225
310
90A3322203D2031272D302200000000000002100000000000000284000
  0
ACAD_PROXY_OBJECT
  5
67
102
{ACAD_REACTORS
330
47
102
}
330
47
100
AcDbProxyObject
 90
      499
 91
      503
 93
      225
310
90A3622203D2031272D302200000000000006100000000000000284000
  0
ACAD_PROXY_OBJECT
  5
68
102
{ACAD_REACTORS
330
47
102
}
330
47
100
AcDbProxyObject
 90
      499
 91
      503
 93
      249
310
90D31272D3022203D2031272D30220000000000000A100000000000000284000
  0
ACAD_PROXY_OBJECT
  5
2F
102
{ACAD_REACTORS
330
2A
102
}
330
2A
100
AcDbProxyObject
 90
      499
 91
      501
 93
      436
310
42CC9915DA5C99599C985B595049028333333333333E33F0000000000000F90107901411070040501600405405064090741402480A0340
1001
ACAD
1000
AcDbSavedByObjectVersion
1070
     0
  0
ACAD_PROXY_OBJECT
  5
32
102
{ACAD_REACTORS
330
2A
102
}
330
2A
100
AcDbProxyObject
 90
      499
 91
      501
 93
      388
310
4150985CDA58D07406404333333333333E33F0000000000000F90107A41107004050150841D405064090741402480A0350
1001
ACAD
1000
AcDbSavedByObjectVersion
1070
     0
  0
ACAD_PROXY_OBJECT
  5
36
102
{ACAD_REACTORS
330
2A
102
}
330
2A
100
AcDbProxyObject
 90
      499
 91
      501
 93
      428
310
42109C9A59DA1D195B90C409028333333333333E33F0000000000000F9010790141107004050150841D405064090741402480A029950
1001
ACAD
1000
AcDbSavedByObjectVersion
1070
     0
  0
ACAD_PROXY_OBJECT
  5
3A
102
{ACAD_REACTORS
330
2A
102
}
330
2A
100
AcDbProxyObject
 90
      499
 91
      501
 93
      452
310
42D0DBDB1BDC90DA185B99D95104090240C333333333333E33F0000000000000F90108901411070040501508421405064090741402480A0350
1001
ACAD
1000
AcDbSavedByObjectVersion
1070
     0
  0
ACAD_PROXY_OBJECT
  5
34
102
{ACAD_REACTORS
330
2A
102
}
330
2A
100
AcDbProxyObject
 90
      499
 91
      501
 93
      500
310
4290DBDB98D95C1D1D585B10940D028333333333333E33F0000000000000F90107902409070040501000000000018199010841D405064090740C02480A0340
1001
ACAD
1000
AcDbSavedByObjectVersion
1070
     0
  0
ACAD_PROXY_OBJECT
  5
35
102
{ACAD_REACTORS
330
2A
102
}
330
2A
100
AcDbProxyObject
 90
      499
 91
      501
 93
      412
310
40D11A5B50B409028333333333333E33F0000000000000F9010790141107004050150841D405064090741402480A02677FFFFFD0
1001
ACAD
1000
AcDbSavedByObjectVersion
1070
     0
  0
ACAD_PROXY_OBJECT
  5
3D
102
{ACAD_REACTORS
330
2A
102
}
330
2A
100
AcDbProxyObject
 90
      499
 91
      501
 93
      452
310
43115919D950DBDB1BDC93D999916409028333333333333E33F0000000000000F9010790141107004050150841D405064090741402480A0350
1001
ACAD
1000
AcDbSavedByObjectVersion
1070
     0
  0
ACAD_PROXY_OBJECT
  5
39
102
{ACAD_REACTORS
330
2A
102
}
330
2A
100
AcDbProxyObject
 90
      499
 91
      501
 93
      444
310
42D19858D95C185D1D195C9B90F409028333333333333E33F0000000000000F9010790141107004050150841D405064090741402480A0350
1001
ACAD
1000
AcDbSavedByObjectVersion
1070
     0
  0
ACAD_PROXY_OBJECT
  5
2B
102
{ACAD_REACTORS
330
2A
102
}
330
2A
100
AcDbProxyObject
 90
      499
 91
      501
 93
      380
310
41119B185D240901404333333333333E33F0000000000000F9010740A907004050150841D405064090741402480A1B50
1001
ACAD
1000
AcDbSavedByObjectVersion
1070
     0
  0
ACAD_PROXY_OBJECT
  5
2C
102
{ACAD_REACTORS
330
2A
102
}
330
2A
100
AcDbProxyObject
 90
      499
 91
      501
 93
      468
310
43519B185D15DA5D1A115919D95CD0140901404333333333333E33F0000000000000F90107409019070040501600405405064090741402480A1B50
1001
ACAD
1000
AcDbSavedByObjectVersion
1070
     0
  0
ACAD_PROXY_OBJECT
  5
2D
102
{ACAD_REACTORS
330
2A
102
}
330
2A
100
AcDbProxyObject
 90
      499
 91
      501
 93
      404
310
41D1DBDD5C985D5910240902404333333333333E33F0000000000000F9010740A9070040501641D405064090741402480A1B50
1001
ACAD
1000
AcDbSavedByObjectVersion
1070
     0
  0
ACAD_PROXY_OBJECT
  5
2E
102
{ACAD_REACTORS
330
2A
102
}
330
2A
100
AcDbProxyObject
 90
      499
 91
      501
 93
      492
310
4411DBDD5C985D5915DA5D1A115919D95CD0340902404333333333333E33F0000000000000F90107409019070040501600405405064090741402480A1B50
1001
ACAD
1000
AcDbSavedByObjectVersion
1070
     0
  0
ACAD_PROXY_OBJECT
  5
31
102
{ACAD_REACTORS
330
2A
102
}
330
2A
100
AcDbProxyObject
 90
      499
 91
      501
 93
      476
310
41921A5919195B90640502408333333333333E33F0000000000000F901079024090700405020000000000001110200405405064090740C02480A0340
1001
ACAD
1000
AcDbSavedByObjectVersion
1070
     0
  0
ACAD_PROXY_OBJECT
  5
3B
102
{ACAD_REACTORS
330
2A
102
}
330
2A
100
AcDbProxyObject
 90
      499
 91
      501
 93
      428
310
42529A5D1D195C93D999914409028333333333333E33F0000000000000F9010790141107004050150A41D405064090741402480A0350
1001
ACAD
1000
AcDbSavedByObjectVersion
1070
     0
  0
ACAD_PROXY_OBJECT
  5
38
102
{ACAD_REACTORS
330
2A
102
}
330
2A
100
AcDbProxyObject
 90
      499
 91
      501
 93
      444
310
42D31A5B995C185D1D195C9B90E409028333333333333E33F0000000000000F9010790141107004050750841D405064090741402483A0350
1001
ACAD
1000
AcDbSavedByObjectVersion
1070
     0
  0
ACAD_PROXY_OBJECT
  5
3C
102
{ACAD_REACTORS
330
2A
102
}
330
2A
100
AcDbProxyObject
 90
      499
 91
      501
 93
      444
310
42D3DD995C9A185B99D3D999915409028333333333333E33F0000000000000F9010790141107004050150941D405064090741402480A0350
1001
ACAD
1000
AcDbSavedByObjectVersion
1070
     0
  0
ACAD_PROXY_OBJECT
  5
33
102
{ACAD_REACTORS
330
2A
102
}
330
2A
100
AcDbProxyObject
 90
      499
 91
      501
 93
      428
310
425499585B1A5CDD1A58D08409038333333333333E33F0000000000000F9010740A907004050150800405405064090740C02480A1B40
1001
ACAD
1000
AcDbSavedByObjectVersion
1070
     0
  0
ACAD_PROXY_OBJECT
  5
42
102
{ACAD_REACTORS
330
2A
102
}
330
2A
100
AcDbProxyObject
 90
      499
 91
      501
 93
      420
310
4194DA1859195911B40902404333333333333E33F0000000000000F9010740A41107004050150800405405064090840C02480A0B40
1001
ACAD
1000
AcDbSavedByObjectVersion
1070
     0
  0
ACAD_PROXY_OBJECT
  5
41
102
{ACAD_REACTORS
330
2A
102
}
330
2A
100
AcDbProxyObject
 90
      499
 91
      501
 93
      516
310
4454DA18591959081DDA5D1A08195919D95CD1A40902404333333333333E33F0000000000000F901074090142907004050250800405405064090740C02480A0B40
1001
ACAD
1000
AcDbSavedByObjectVersion
1070
     0
  0
ACAD_PROXY_OBJECT
  5
3E
102
{ACAD_REACTORS
330
2A
102
}
330
2A
100
AcDbProxyObject
 90
      499
 91
      501
 93
      532
310
4394DA1859195CC81BD98811DC985E5174090240C333333333333E33F0000000000000F901079024090741D01000000000000111010841D405064090740C02480A0340
1001
ACAD
1000
AcDbSavedByObjectVersion
1070
     0
  0
ACAD_PROXY_OBJECT
  5
3F
102
{ACAD_REACTORS
330
2A
102
}
330
2A
100
AcDbProxyObject
 90
      499
 91
      501
 93
      476
310
41D4DAD95D18DA1E51840502408333333333333E33F0000000000000F901079024090741D01000000000000111010B41D405064090741802480A0340
1001
ACAD
1000
AcDbSavedByObjectVersion
1070
     0
  0
ACAD_PROXY_OBJECT
  5
37
102
{ACAD_REACTORS
330
2A
102
}
330
2A
100
AcDbProxyObject
 90
      499
 91
      501
 93
      412
310
41D51A1A58DAD95B90D409028333333333333E33F0000000000000F9010790141107004050150C41D405064090741402480A0350
1001
ACAD
1000
AcDbSavedByObjectVersion
1070
     0
  0
ACAD_PROXY_OBJECT
  5
30
102
{ACAD_REACTORS
330
2A
102
}
330
2A
100
AcDbProxyObject
 90
      499
 91
      501
 93
      420
310
4255DA5C99599C985B595059028333333333333E33F0000000000000F90107901411070040501600405405064090740C02480A0340
1001
ACAD
1000
AcDbSavedByObjectVersion
1070
     0
  0
ACAD_PROXY_OBJECT
  5
40
102
{ACAD_REACTORS
330
2A
102
}
330
2A
100
AcDbProxyObject
 90
      499
 91
      501
 93
      404
310
41560B54985E51940902404000000000000E03F0000000000000F9010740501907004050150841D405064090740C02480A1B40
1001
ACAD
1000
AcDbSavedByObjectVersion
1070
     0
  0
XRECORD
  5
3B9
102
{ACAD_REACTORS
330
3AF
102
}
330
3AF
100
AcDbXrecord
340
0
  0
XRECORD
  5
3B8
102
{ACAD_REACTORS
330
3AF
102
}
330
3AF
100
AcDbXrecord
 90
        0
  0
XRECORD
  5
3CF
102
{ACAD_REACTORS
330
3AF
102
}
330
3AF
100
AcDbXrecord
1000
DSTYLE
1002
{
1070
   179
 70
     2
1070
   171
 70
     2
1070
   143
 40
25.4
1070
   274
 70
     2
1070
    41
 40
1.5
1070
   141
 40
0.09
1070
    43
 40
0.38
1070
   278
 70
    46
1070
    44
 40
0.75
1070
    42
 40
0.0625
1070
   147
 40
1.5
1070
   272
 70
     4
1070
    73
 70
     1
1070
   172
 70
     0
1070
    74
 70
     1
1070
   283
 70
     1
1070
   340
340
6F
1070
   140
 40
3.0
1070
   284
 70
     0
1070
    78
 70
     0
1002
}
  0
XRECORD
  5
3BA
102
{ACAD_REACTORS
330
3AF
102
}
330
3AF
100
AcDbXrecord
  1
{9E8714C6-A2AE-4DB2-8105-F0EAEB9752B9}
  0
XRECORD
  5
3B2
102
{ACAD_REACTORS
330
3AF
102
}
330
3AF
100
AcDbXrecord
  1

  0
XRECORD
  5
3B7
102
{ACAD_REACTORS
330
3AF
102
}
330
3AF
100
AcDbXrecord
 90
        4
  0
XRECORD
  5
3B4
102
{ACAD_REACTORS
330
3AF
102
}
330
3AF
100
AcDbXrecord
340
1A
  0
XRECORD
  5
3B6
102
{ACAD_REACTORS
330
3AF
102
}
330
3AF
100
AcDbXrecord
 90
    10269
  0
XRECORD
  5
3B5
102
{ACAD_REACTORS
330
3AF
102
}
330
3AF
100
AcDbXrecord
340
19
  0
XRECORD
  5
3BC
102
{ACAD_REACTORS
330
3AF
102
}
330
3AF
100
AcDbXrecord
 40
0.0
  0
XRECORD
  5
3BF
102
{ACAD_REACTORS
330
3AF
102
}
330
3AF
100
AcDbXrecord
340
0
  0
XRECORD
  5
3C5
102
{ACAD_REACTORS
330
3AF
102
}
330
3AF
100
AcDbXrecord
 10
0.0
 20
0.0
 30
0.0
  0
XRECORD
  5
3C1
102
{ACAD_REACTORS
330
3AF
102
}
330
3AF
100
AcDbXrecord
 10
0.0
 20
0.0
 30
0.0
  0
XRECORD
  5
3C4
102
{ACAD_REACTORS
330
3AF
102
}
330
3AF
100
AcDbXrecord
 10
0.0
 20
0.0
 30
0.0
  0
XRECORD
  5
3C2
102
{ACAD_REACTORS
330
3AF
102
}
330
3AF
100
AcDbXrecord
 10
0.0
 20
0.0
 30
0.0
  0
XRECORD
  5
3C3
102
{ACAD_REACTORS
330
3AF
102
}
330
3AF
100
AcDbXrecord
 10
0.0
 20
0.0
 30
0.0
  0
XRECORD
  5
3C0
102
{ACAD_REACTORS
330
3AF
102
}
330
3AF
100
AcDbXrecord
 10
0.0
 20
0.0
 30
0.0
  0
XRECORD
  5
3BD
102
{ACAD_REACTORS
330
3AF
102
}
330
3AF
100
AcDbXrecord
340
0
  0
XRECORD
  5
3BE
102
{ACAD_REACTORS
330
3AF
102
}
330
3AF
100
AcDbXrecord
 70
     0
  0
XRECORD
  5
3B3
102
{ACAD_REACTORS
330
3AF
102
}
330
3AF
100
AcDbXrecord
  1

  0
XRECORD
  5
3B0
102
{ACAD_REACTORS
330
3AF
102
}
330
3AF
100
AcDbXrecord
 90
        1
  0
XRECORD
  5
3B1
102
{ACAD_REACTORS
330
3AF
102
}
330
3AF
100
AcDbXrecord
 90
       70
  0
XRECORD
  5
3C8
102
{ACAD_REACTORS
330
3AF
102
}
330
3AF
100
AcDbXrecord
340
0
  0
XRECORD
  5
3CE
102
{ACAD_REACTORS
330
3AF
102
}
330
3AF
100
AcDbXrecord
 10
0.0
 20
0.0
 30
0.0
  0
XRECORD
  5
3CA
102
{ACAD_REACTORS
330
3AF
102
}
330
3AF
100
AcDbXrecord
 10
0.0
 20
0.0
 30
0.0
  0
XRECORD
  5
3CD
102
{ACAD_REACTORS
330
3AF
102
}
330
3AF
100
AcDbXrecord
 10
0.0
 20
0.0
 30
0.0
  0
XRECORD
  5
3CB
102
{ACAD_REACTORS
330
3AF
102
}
330
3AF
100
AcDbXrecord
 10
0.0
 20
0.0
 30
0.0
  0
XRECORD
  5
3CC
102
{ACAD_REACTORS
330
3AF
102
}
330
3AF
100
AcDbXrecord
 10
0.0
 20
0.0
 30
0.0
  0
XRECORD
  5
3C9
102
{ACAD_REACTORS
330
3AF
102
}
330
3AF
100
AcDbXrecord
 10
0.0
 20
0.0
 30
0.0
  0
XRECORD
  5
3C6
102
{ACAD_REACTORS
330
3AF
102
}
330
3AF
100
AcDbXrecord
340
0
  0
XRECORD
  5
3C7
102
{ACAD_REACTORS
330
3AF
102
}
330
3AF
100
AcDbXrecord
 70
     0
  0
XRECORD
  5
3BB
102
{ACAD_REACTORS
330
3AF
102
}
330
3AF
100
AcDbXrecord
  1
{FAEB1C32-E019-11D5-929B-00C0DF256EC4}
  0
DICTIONARYVAR
  5
3D9
102
{ACAD_REACTORS
330
3D0
102
}
330
3D0
100
DictionaryVariables
280
     0
  1
1:1
  0
DICTIONARYVAR
  5
3D2
102
{ACAD_REACTORS
330
3D0
102
}
330
3D0
100
DictionaryVariables
280
     0
  1
Standard
  0
DICTIONARYVAR
  5
3D1
102
{ACAD_REACTORS
330
3D0
102
}
330
3D0
100
DictionaryVariables
280
     0
  1
Standard
  0
DICTIONARYVAR
  5
3D5
102
{ACAD_REACTORS
330
3D0
102
}
330
3D0
100
DictionaryVariables
280
     0
  1
2
  0
DICTIONARYVAR
  5
3D6
102
{ACAD_REACTORS
330
3D0
102
}
330
3D0
100
DictionaryVariables
280
     0
  1
1
  0
DICTIONARYVAR
  5
3DA
102
{ACAD_REACTORS
330
3D0
102
}
330
3D0
100
DictionaryVariables
280
     0
  1
1
  0
DICTIONARY
  5
3DD
330
45
100
AcDbDictionary
280
     1
  3
ACAD_XREC_ROUNDTRIP
360
3DE
  0
DICTIONARY
  5
3DB
330
44
100
AcDbDictionary
280
     1
  3
ACAD_XREC_ROUNDTRIP
360
3DC
  0
DICTIONARY
  5
3DF
330
46
100
AcDbDictionary
280
     1
  3
ACAD_XREC_ROUNDTRIP
360
3E0
  0
XRECORD
  5
3DE
102
{ACAD_REACTORS
330
3DD
102
}
330
3DD
100
AcDbXrecord
102
MATERIAL
148
0.0
149
0.0
149
0.0
 93
        0
 94
      127
282
     0
 72
     1
 77
     1
171
     1
175
     1
179
     1
273
     0
  0
XRECORD
  5
3DC
102
{ACAD_REACTORS
330
3DB
102
}
330
3DB
100
AcDbXrecord
102
MATERIAL
148
0.0
149
0.0
149
0.0
 93
        0
 94
      127
282
     0
 72
     1
 77
     1
171
     1
175
     1
179
     1
273
     0
  0
XRECORD
  5
3E0
102
{ACAD_REACTORS
330
3DF
102
}
330
3DF
100
AcDbXrecord
102
MATERIAL
148
0.0
149
0.0
149
0.0
 93
        0
 94
      127
282
     0
 72
     1
 77
     1
171
     1
175
     1
179
     1
273
     0
  0
ENDSEC
  0
EOF
