  0
SECTION
  2
HEADER
  9
$ACADVER
  1
AC1006
  9
$DWGCODEPAGE
  3
ansi_932
  9
$INSBASE
 10
0.0
 20
0.0
 30
0.0
  9
$EXTMIN
 10
13359.1119437866
 20
-1131.758021272727
  9
$EXTMAX
 10
13777.1104301423
 20
-826.0165191316
  9
$LIMMIN
 10
0.0
 20
0.0
  9
$LIMMAX
 10
12.0
 20
9.0
  9
$ORTHOMODE
 70
     0
  9
$REGENMODE
 70
     1
  9
$FILLMODE
 70
     1
  9
$QTEXTMODE
 70
     0
  9
$MIRRTEXT
 70
     1
  9
$DRAGMODE
 70
     2
  9
$LTSCALE
 40
1.0
  9
$OSMODE
 70
    37
  9
$ATTMODE
 70
     1
  9
$TEXTSIZE
 40
0.2
  9
$TRACEWID
 40
0.05
  9
$TEXTSTYLE
  7
STANDARD
  9
$CLAYER
  8
0
  9
$CELTYPE
  6
BYLAYER
  9
$CECOLOR
 62
   256
  9
$DIMSCALE
 40
1.0
  9
$DIMASZ
 40
1.5
  9
$DIMEXO
 40
0.0625
  9
$DIMDLI
 40
0.38
  9
$DIMRND
 40
0.0
  9
$DIMDLE
 40
0.0
  9
$DIMEXE
 40
0.75
  9
$DIMTP
 40
0.0
  9
$DIMTM
 40
0.0
  9
$DIMTXT
 40
3.0
  9
$DIMCEN
 40
0.09
  9
$DIMTSZ
 40
0.0
  9
$DIMTOL
 70
     0
  9
$DIMLIM
 70
     0
  9
$DIMTIH
 70
     1
  9
$DIMTOH
 70
     1
  9
$DIMSE1
 70
     0
  9
$DIMSE2
 70
     0
  9
$DIMTAD
 70
     1
  9
$DIMZIN
 70
     0
  9
$DIMBLK
  1

  9
$DIMASO
 70
     1
  9
$DIMSHO
 70
     1
  9
$DIMPOST
  1

  9
$DIMAPOST
  1

  9
$DIMALT
 70
     0
  9
$DIMALTD
 70
     2
  9
$DIMALTF
 40
25.4
  9
$DIMLFAC
 40
1.0
  9
$DIMTOFL
 70
     0
  9
$DIMTVP
 40
0.0
  9
$DIMTIX
 70
     0
  9
$DIMSOXD
 70
     0
  9
$DIMSAH
 70
     0
  9
$DIMBLK1
  1

  9
$DIMBLK2
  1

  9
$LUNITS
 70
     2
  9
$LUPREC
 70
     4
  9
$SKETCHINC
 40
0.1
  9
$FILLETRAD
 40
0.5
  9
$AUNITS
 70
     0
  9
$AUPREC
 70
     0
  9
$MENU
  1
.
  9
$ELEVATION
 40
0.0
  9
$THICKNESS
 40
0.0
  9
$LIMCHECK
 70
     0
  9
$CHAMFERA
 40
0.0
  9
$CHAMFERB
 40
0.0
  9
$SKPOLY
 70
     0
  9
$TDCREATE
 40
2460032.680400382
  9
$TDUPDATE
 40
2460032.680400625
  9
$TDINDWG
 40
0.0000000116
  9
$TDUSRTIMER
 40
0.0000000116
  9
$USRTIMER
 70
     1
  9
$ANGBASE
 50
0.0
  9
$ANGDIR
 70
     0
  9
$PDMODE
 70
     0
  9
$PDSIZE
 40
0.0
  9
$PLINEWID
 40
0.0
  9
$COORDS
 70
     1
  9
$SPLFRAME
 70
     0
  9
$SPLINETYPE
 70
     6
  9
$SPLINESEGS
 70
     8
  9
$ATTDIA
 70
     0
  9
$ATTREQ
 70
     1
  9
$HANDLING
 70
     1
  9
$HANDSEED
  5
1A5
  9
$SURFTAB1
 70
     6
  9
$SURFTAB2
 70
     6
  9
$SURFTYPE
 70
     6
  9
$SURFU
 70
     6
  9
$SURFV
 70
     6
  9
$UCSNAME
  2

  9
$UCSORG
 10
0.0
 20
0.0
 30
0.0
  9
$UCSXDIR
 10
1.0
 20
0.0
 30
0.0
  9
$UCSYDIR
 10
0.0
 20
1.0
 30
0.0
  9
$USERI1
 70
     0
  9
$USERI2
 70
     0
  9
$USERI3
 70
     0
  9
$USERI4
 70
     0
  9
$USERI5
 70
     0
  9
$USERR1
 40
0.0
  9
$USERR2
 40
0.0
  9
$USERR3
 40
0.0
  9
$USERR4
 40
0.0
  9
$USERR5
 40
0.0
  9
$WORLDVIEW
 70
     1
  0
ENDSEC
  0
SECTION
  2
TABLES
  0
TABLE
  2
VPORT
 70
     1
  0
VPORT
  2
*ACTIVE
 70
     0
 10
0.0
 20
0.0
 11
1.0
 21
1.0
 12
13568.11118696445
 22
-978.8872702021636
 13
0.0
 23
0.0
 14
0.5
 24
0.5
 15
0.5
 25
0.5
 16
0.0
 26
0.0
 36
1.0
 17
0.0
 27
0.0
 37
0.0
 40
305.7415021411271
 41
1.6
 42
50.0
 43
0.0
 44
0.0
 50
0.0
 51
0.0
 71
     0
 72
   100
 73
     1
 74
     3
 75
     0
 76
     0
 77
     0
 78
     0
  0
ENDTAB
  0
TABLE
  2
LTYPE
 70
     3
  0
LTYPE
  2
CONTINUOUS
 70
     0
  3
Solid line
 72
    65
 73
     0
 40
0.0
  0
LTYPE
  2
CENTER
 70
     0
  3

 72
    65
 73
     0
 40
0.0
  0
LTYPE
  2
PHANTOM
 70
     0
  3

 72
    65
 73
     0
 40
0.0
  0
ENDTAB
  0
TABLE
  2
LAYER
 70
     1
  0
LAYER
  2
0
 70
     0
 62
     7
  6
CONTINUOUS
  0
ENDTAB
  0
TABLE
  2
STYLE
 70
     2
  0
STYLE
  2
STANDARD
 70
     0
 40
0.0
 41
1.0
 50
0.0
 71
     0
 42
0.2
  3
txt
  4

  0
STYLE
  2
ＭＳ_ゴシック
 70
     0
 40
0.0
 41
1.0
 50
0.0
 71
     0
 42
0.2
  3
ＭＳ ゴシック.shx
  4

  0
ENDTAB
  0
TABLE
  2
VIEW
 70
     0
  0
ENDTAB
  0
TABLE
  2
UCS
 70
     0
  0
ENDTAB
  0
ENDSEC
  0
SECTION
  2
BLOCKS
  0
ENDSEC
  0
SECTION
  2
ENTITIES
  0
LINE
  5
6F
  8
0
  6
CONTINUOUS
 62
     7
 10
13492.4872656611
 20
-870.7915947077
 30
0.0
 11
13492.4872656611
 21
-886.3021281811
 31
0.0
  0
LINE
  5
70
  8
0
  6
CONTINUOUS
 62
     7
 10
13487.4872656611
 20
-870.7915947077
 30
0.0
 11
13487.4872656611
 21
-886.3021281812
 31
0.0
  0
LINE
  5
71
  8
0
  6
CONTINUOUS
 62
     7
 10
13454.9012992051
 20
-886.3021281812
 30
0.0
 11
13454.9012992051
 21
-870.7915947077
 31
0.0
  0
LINE
  5
72
  8
0
  6
CONTINUOUS
 62
     7
 10
13459.9012992051
 20
-870.7915947077
 30
0.0
 11
13459.9012992051
 21
-886.3021281811
 31
0.0
  0
LINE
  5
73
  8
0
  6
CONTINUOUS
 62
     7
 10
13503.3892559587
 20
-870.7915947077
 30
0.0
 11
13503.3892559587
 21
-886.3021281811
 31
0.0
  0
LINE
  5
74
  8
0
  6
CONTINUOUS
 62
     7
 10
13465.8032895028
 20
-870.7915947077
 30
0.0
 11
13465.8032895028
 21
-886.3021281812
 31
0.0
  0
LINE
  5
75
  8
0
  6
CONTINUOUS
 62
     7
 10
13498.3892559587
 20
-870.7915947077
 30
0.0
 11
13498.3892559587
 21
-886.3021281812
 31
0.0
  0
LINE
  5
76
  8
0
  6
CONTINUOUS
 62
     7
 10
13470.8032895028
 20
-870.7915947077
 30
0.0
 11
13470.8032895028
 21
-886.3021281811
 31
0.0
  0
LINE
  5
77
  8
0
  6
CONTINUOUS
 62
     7
 10
13481.6452775819
 20
-1045.3098110821
 30
0.0
 11
13476.6452775819
 21
-1045.309811082
 31
0.0
  0
CIRCLE
  5
78
  8
0
  6
CONTINUOUS
 62
     7
 10
13520.8952775819
 20
-940.260964518
 30
0.0
 40
3.75
  0
LINE
  5
79
  8
0
  6
CONTINUOUS
 62
     7
 10
13476.6452775819
 20
-1060.8203445555
 30
0.0
 11
13481.6452775819
 21
-1060.8203445555
 31
0.0
  0
LINE
  5
7A
  8
0
  6
CONTINUOUS
 62
     7
 10
13476.6452775819
 20
-1044.3203445558
 30
0.0
 11
13476.6452775819
 21
-1021.3650495947
 31
0.0
  0
LINE
  5
7B
  8
0
  6
CONTINUOUS
 62
     7
 10
13481.6452775819
 20
-1021.3650495948
 30
0.0
 11
13481.6452775819
 21
-1044.3203445558
 31
0.0
  0
CIRCLE
  5
7C
  8
0
  6
CONTINUOUS
 62
     7
 10
13424.1452775819
 20
-1075.260964518
 30
0.0
 40
2.5
  0
LINE
  5
7D
  8
0
  6
CONTINUOUS
 62
     7
 10
13481.6452775819
 20
-1060.8203445555
 30
0.0
 11
13481.6452775819
 21
-1045.2198006601
 31
0.0
  0
LINE
  5
7E
  8
0
  6
CONTINUOUS
 62
     7
 10
13476.6452775819
 20
-1045.2198006601
 30
0.0
 11
13476.6452775819
 21
-1060.8203445555
 31
0.0
  0
LINE
  5
7F
  8
0
  6
CONTINUOUS
 62
     7
 10
13476.6452775819
 20
-1044.3203443573
 30
0.0
 11
13481.6452775819
 21
-1044.3203443572
 31
0.0
  0
TEXT
  5
80
  8
0
  6
CONTINUOUS
 62
     7
 10
13733.81366605802
 20
-1132.10005578567
 30
0.0
 40
3.0
  1
C2AO-T
  0
LINE
  5
81
  8
0
  6
CONTINUOUS
 62
     7
 10
13492.4872656611
 20
-905.2468896684
 30
0.0
 11
13492.4872656611
 21
-887.291594906
 31
0.0
  0
LINE
  5
82
  8
0
  6
CONTINUOUS
 62
     7
 10
13498.3892559587
 20
-887.2915949059
 30
0.0
 11
13498.3892559587
 21
-905.2468896685
 31
0.0
  0
LINE
  5
83
  8
0
  6
CONTINUOUS
 62
     7
 10
13503.3892559587
 20
-905.2468896684
 30
0.0
 11
13503.3892559587
 21
-887.291594906
 31
0.0
  0
LINE
  5
84
  8
0
  6
CONTINUOUS
 62
     7
 10
13459.9012992051
 20
-905.2468896684
 30
0.0
 11
13459.9012992051
 21
-887.291594906
 31
0.0
  0
LINE
  5
85
  8
0
  6
CONTINUOUS
 62
     7
 10
13487.4872656611
 20
-887.2915949059
 30
0.0
 11
13487.4872656611
 21
-905.2468896685
 31
0.0
  0
LINE
  5
86
  8
0
  6
CONTINUOUS
 62
     7
 10
13465.8032895028
 20
-887.29159490595
 30
0.0
 11
13465.8032895028
 21
-905.2468896685
 31
0.0
  0
LINE
  5
87
  8
0
  6
CONTINUOUS
 62
     7
 10
13454.9012992051
 20
-887.2915949059
 30
0.0
 11
13454.9012992051
 21
-905.2468896685
 31
0.0
  0
LINE
  5
88
  8
0
  6
CONTINUOUS
 62
     7
 10
13470.8032895028
 20
-905.2468896684
 30
0.0
 11
13470.8032895028
 21
-887.291594906
 31
0.0
  0
ARC
  5
89
  8
0
  6
CONTINUOUS
 62
     7
 10
13520.8952775819
 20
-964.760964518
 30
0.0
 40
2.5
 50
180.0
 51
0.0
  0
ARC
  5
8A
  8
0
  6
CONTINUOUS
 62
     7
 10
13520.8952775819
 20
-961.760964518
 30
0.0
 40
2.5
 50
0.0
 51
180.0
  0
LINE
  5
8B
  8
0
  6
CONTINUOUS
 62
     7
 10
13523.3952775819
 20
-961.760964518
 30
0.0
 11
13523.3952775819
 21
-964.760964518
 31
0.0
  0
LINE
  5
8C
  8
0
  6
CONTINUOUS
 62
     7
 10
13498.3892559587
 20
-1016.7896870933
 30
0.0
 11
13498.3892559587
 21
-1003.260964518
 31
0.0
  0
LINE
  5
8D
  8
0
  6
CONTINUOUS
 62
     7
 10
13459.9012992051
 20
-886.3021281811
 30
0.0
 11
13454.9012992051
 21
-886.3021281812
 31
0.0
  0
LINE
  5
8E
  8
0
  6
CONTINUOUS
 62
     7
 10
13470.8032895028
 20
-923.260964518
 30
0.0
 11
13470.8032895028
 21
-909.7322419427
 31
0.0
  0
LINE
  5
8F
  8
0
  6
CONTINUOUS
 62
     7
 10
13487.4872656611
 20
-1016.7896870933
 30
0.0
 11
13487.4872656611
 21
-1003.260964518
 31
0.0
  0
LINE
  5
90
  8
0
  6
CONTINUOUS
 62
     7
 10
13481.6452775819
 20
-1003.260964518
 30
0.0
 11
13481.6452775819
 21
-1016.8796973205
 31
0.0
  0
LINE
  5
91
  8
0
  6
CONTINUOUS
 62
     7
 10
13476.6452775819
 20
-865.7015844805
 30
0.0
 11
13481.6452775819
 21
-865.7015844805
 31
0.0
  0
LINE
  5
92
  8
0
  6
CONTINUOUS
 62
     7
 10
13481.6452775819
 20
-881.2121179539
 30
0.0
 11
13476.6452775819
 21
-881.212117954
 31
0.0
  0
LINE
  5
93
  8
0
  6
CONTINUOUS
 62
     7
 10
13476.6452775819
 20
-882.2015846787
 30
0.0
 11
13481.6452775819
 21
-882.2015846788
 31
0.0
  0
LINE
  5
94
  8
0
  6
CONTINUOUS
 62
     7
 10
13470.8032895028
 20
-886.3021281811
 30
0.0
 11
13465.8032895028
 21
-886.3021281812
 31
0.0
  0
LINE
  5
95
  8
0
  6
CONTINUOUS
 62
     7
 10
13470.8032895028
 20
-1003.260964518
 30
0.0
 11
13470.8032895028
 21
-1016.7896870933
 31
0.0
  0
LINE
  5
96
  8
0
  6
CONTINUOUS
 62
     7
 10
13454.9012992051
 20
-909.7322419427
 30
0.0
 11
13454.9012992051
 21
-923.260964518
 31
0.0
  0
LINE
  5
97
  8
0
  6
CONTINUOUS
 62
     7
 10
13481.6452775819
 20
-905.1568794412
 30
0.0
 11
13481.6452775819
 21
-882.2015844802
 31
0.0
  0
LINE
  5
98
  8
0
  6
CONTINUOUS
 62
     7
 10
13481.6452775819
 20
-923.260964518
 30
0.0
 11
13481.6452775819
 21
-909.6422317155
 31
0.0
  0
LINE
  5
99
  8
0
  6
CONTINUOUS
 62
     7
 10
13481.6452775819
 20
-865.7015844805
 30
0.0
 11
13481.6452775819
 21
-881.3021283759
 31
0.0
  0
LINE
  5
9A
  8
0
  6
CONTINUOUS
 62
     7
 10
13459.9012992051
 20
-923.260964518
 30
0.0
 11
13459.9012992051
 21
-909.7322419427
 31
0.0
  0
LINE
  5
9B
  8
0
  6
CONTINUOUS
 62
     7
 10
13476.6452775819
 20
-882.2015844802
 30
0.0
 11
13476.6452775819
 21
-905.1568794413
 31
0.0
  0
LINE
  5
9C
  8
0
  6
CONTINUOUS
 62
     7
 10
13487.4872656611
 20
-909.7322419427
 30
0.0
 11
13487.4872656611
 21
-923.260964518
 31
0.0
  0
LINE
  5
9D
  8
0
  6
CONTINUOUS
 62
     7
 10
13492.4872656611
 20
-923.260964518
 30
0.0
 11
13492.4872656611
 21
-909.7322419427
 31
0.0
  0
LINE
  5
9E
  8
0
  6
CONTINUOUS
 62
     7
 10
13498.3892559587
 20
-870.7915947077
 30
0.0
 11
13503.3892559587
 21
-870.7915947077
 31
0.0
  0
LINE
  5
9F
  8
0
  6
CONTINUOUS
 62
     7
 10
13503.3892559587
 20
-886.3021281811
 30
0.0
 11
13498.3892559587
 21
-886.3021281812
 31
0.0
  0
LINE
  5
A0
  8
0
  6
CONTINUOUS
 62
     7
 10
13498.3892559587
 20
-909.7322419427
 30
0.0
 11
13498.3892559587
 21
-923.260964518
 31
0.0
  0
LINE
  5
A1
  8
0
  6
CONTINUOUS
 62
     7
 10
13518.3952775819
 20
-961.760964518
 30
0.0
 11
13518.3952775819
 21
-964.760964518
 31
0.0
  0
LINE
  5
A2
  8
0
  6
CONTINUOUS
 62
     7
 10
13476.6452775819
 20
-1016.8796973205
 30
0.0
 11
13476.6452775819
 21
-1003.260964518
 31
0.0
  0
LINE
  5
A3
  8
0
  6
CONTINUOUS
 62
     7
 10
13492.4872656611
 20
-886.3021281811
 30
0.0
 11
13487.4872656611
 21
-886.3021281812
 31
0.0
  0
LINE
  5
A4
  8
0
  6
CONTINUOUS
 62
     7
 10
13465.8032895028
 20
-887.2915949059
 30
0.0
 11
13470.8032895028
 21
-887.291594906
 31
0.0
  0
LINE
  5
A5
  8
0
  6
CONTINUOUS
 62
     7
 10
13476.6452775819
 20
-881.3021283759
 30
0.0
 11
13476.6452775819
 21
-865.7015844805
 31
0.0
  0
LINE
  5
A6
  8
0
  6
CONTINUOUS
 62
     7
 10
13487.4872656611
 20
-870.7915947077
 30
0.0
 11
13492.4872656611
 21
-870.7915947077
 31
0.0
  0
LINE
  5
A7
  8
0
  6
CONTINUOUS
 62
     7
 10
13487.4872656611
 20
-887.2915949059
 30
0.0
 11
13492.4872656611
 21
-887.291594906
 31
0.0
  0
LINE
  5
A8
  8
0
  6
CONTINUOUS
 62
     7
 10
13498.3892559587
 20
-887.2915949059
 30
0.0
 11
13503.3892559587
 21
-887.291594906
 31
0.0
  0
LINE
  5
A9
  8
0
  6
CONTINUOUS
 62
     7
 10
13503.3892559587
 20
-1003.260964518
 30
0.0
 11
13503.3892559587
 21
-1016.7896870933
 31
0.0
  0
LINE
  5
AA
  8
0
  6
CONTINUOUS
 62
     7
 10
13465.8032895028
 20
-870.7915947077
 30
0.0
 11
13470.8032895028
 21
-870.7915947077
 31
0.0
  0
LINE
  5
AB
  8
0
  6
CONTINUOUS
 62
     7
 10
13492.4872656611
 20
-1003.260964518
 30
0.0
 11
13492.4872656611
 21
-1016.7896870933
 31
0.0
  0
CIRCLE
  5
AC
  8
0
  6
CONTINUOUS
 62
     7
 10
13520.8952775819
 20
-986.260964518
 30
0.0
 40
3.75
  0
LINE
  5
AD
  8
0
  6
CONTINUOUS
 62
     7
 10
13465.8032895028
 20
-1016.7896870933
 30
0.0
 11
13465.8032895028
 21
-1003.260964518
 31
0.0
  0
LINE
  5
AE
  8
0
  6
CONTINUOUS
 62
     7
 10
13454.9012992051
 20
-887.2915949059
 30
0.0
 11
13459.9012992051
 21
-887.291594906
 31
0.0
  0
LINE
  5
AF
  8
0
  6
CONTINUOUS
 62
     7
 10
13476.6452775819
 20
-909.6422317155
 30
0.0
 11
13476.6452775819
 21
-923.260964518
 31
0.0
  0
LINE
  5
B0
  8
0
  6
CONTINUOUS
 62
     7
 10
13465.8032895028
 20
-909.7322419427
 30
0.0
 11
13465.8032895028
 21
-923.260964518
 31
0.0
  0
LINE
  5
B1
  8
0
  6
CONTINUOUS
 62
     7
 10
13503.3892559587
 20
-923.260964518
 30
0.0
 11
13503.3892559587
 21
-909.7322419427
 31
0.0
  0
LINE
  5
B2
  8
0
  6
CONTINUOUS
 62
     7
 10
13454.9012992051
 20
-870.7915947077
 30
0.0
 11
13459.9012992051
 21
-870.7915947077
 31
0.0
  0
CIRCLE
  5
B3
  8
0
  6
CONTINUOUS
 62
     7
 10
13534.1452775819
 20
-1075.260964518
 30
0.0
 40
2.5
  0
LINE
  5
B4
  8
0
  6
CONTINUOUS
 62
     7
 10
13647.5484909825
 20
-831.8789000306
 30
0.0
 11
13678.6204024026
 21
-830.760964518
 31
0.0
  0
LINE
  5
B5
  8
0
  6
CONTINUOUS
 62
     7
 10
13672.6204024026
 20
-1036.260964518
 30
0.0
 11
13701.6204024026
 21
-1036.260964518
 31
0.0
  0
ARC
  5
B6
  8
0
  6
CONTINUOUS
 62
     7
 10
13546.6452775819
 20
-840.760964518
 30
0.0
 40
3.5
 50
0.0
 51
90.0
  0
ARC
  5
B7
  8
0
  6
CONTINUOUS
 62
     7
 10
13647.6204024026
 20
-1092.6443222366
 30
0.0
 40
2.0
 50
180.0
 51
267.939445416
  0
LINE
  5
B8
  8
0
  6
CONTINUOUS
 62
     7
 10
13709.6204024026
 20
-1021.260964518
 30
0.0
 11
13709.6204024026
 21
-1026.260964518
 31
0.0
  0
LINE
  5
B9
  8
0
  6
CONTINUOUS
 62
     7
 10
13705.5204024026
 20
-1057.260964518
 30
0.0
 11
13705.5204024026
 21
-1044.260964518
 31
0.0
  0
LINE
  5
BA
  8
0
  6
CONTINUOUS
 62
     7
 10
13697.7204024026
 20
-1057.260964518
 30
0.0
 11
13697.7204024026
 21
-1044.260964518
 31
0.0
  0
LINE
  5
BB
  8
0
  6
CENTER
 62
     7
 10
13359.1119437866
 20
-963.260964518
 30
0.0
 11
13579.1952475535
 21
-963.260964518
 31
0.0
  0
LINE
  5
BD
  8
0
  6
CONTINUOUS
 62
     7
 10
13504.1452775819
 20
-1088.1034005438
 30
0.0
 11
13504.1452775819
 21
-1097.556629565
 31
0.0
  0
ARC
  5
BE
  8
0
  6
CONTINUOUS
 62
     7
 10
13549.1452775819
 20
-1088.260964518
 30
0.0
 40
7.0
 50
270.0
 51
0.0
  0
ARC
  5
BF
  8
0
  6
CONTINUOUS
 62
     7
 10
13549.1452775819
 20
-1084.760964518
 30
0.0
 40
7.5
 50
338.9605302187001
 51
0.0
  0
LINE
  5
C0
  8
0
  6
CONTINUOUS
 62
     7
 10
13699.6204024026
 20
-855.260964518
 30
0.0
 11
13699.6204024026
 21
-826.0165191316
 31
0.0
  0
LINE
  5
C1
  8
0
  6
CONTINUOUS
 62
     7
 10
13678.6204024026
 20
-828.6812328405
 30
0.0
 11
13678.6204024026
 21
-864.260964518
 31
0.0
  0
LINE
  5
C2
  8
0
  6
CONTINUOUS
 62
     7
 10
13678.6204024026
 20
-1038.260964518
 30
0.0
 11
13678.6204024026
 21
-1098.260964518
 31
0.0
  0
ARC
  5
C3
  8
0
  6
CONTINUOUS
 62
     7
 10
13647.6204024026
 20
-833.8776067994
 30
0.0
 40
2.0
 50
92.06055458400002
 51
180.0
  0
ARC
  5
C4
  8
0
  6
CONTINUOUS
 62
     7
 10
13680.6204024026
 20
-828.6812328405
 30
0.0
 40
2.0
 50
92.0
 51
180.0
  0
LINE
  5
C5
  8
0
  6
CONTINUOUS
 62
     7
 10
13678.6204024026
 20
-1026.260964518
 30
0.0
 11
13678.6204024026
 21
-1031.260964518
 31
0.0
  0
LINE
  5
C6
  8
0
  6
CONTINUOUS
 62
     7
 10
13705.5204024026
 20
-871.260964518
 30
0.0
 11
13705.5204024026
 21
-876.260964518
 31
0.0
  0
LINE
  5
C7
  8
0
  6
CONTINUOUS
 62
     7
 10
13709.6204024026
 20
-866.260964518
 30
0.0
 11
13709.6204024026
 21
-871.260964518
 31
0.0
  0
LINE
  5
C8
  8
0
  6
CONTINUOUS
 62
     7
 10
13645.6204024026
 20
-1092.6443222366
 30
0.0
 11
13645.6204024026
 21
-833.8776067994
 31
0.0
  0
LINE
  5
C9
  8
0
  6
CONTINUOUS
 62
     7
 10
13672.6204024026
 20
-876.260964518
 30
0.0
 11
13709.6204024026
 21
-876.260964518
 31
0.0
  0
LINE
  5
CA
  8
0
  6
CONTINUOUS
 62
     7
 10
13697.7204024026
 20
-871.260964518
 30
0.0
 11
13697.7204024026
 21
-876.260964518
 31
0.0
  0
LINE
  5
CB
  8
0
  6
CONTINUOUS
 62
     7
 10
13678.6204024026
 20
-883.260964518
 30
0.0
 11
13678.6204024026
 21
-1019.260964518
 31
0.0
  0
LINE
  5
CC
  8
0
  6
CONTINUOUS
 62
     7
 10
13709.6204024026
 20
-1026.260964518
 30
0.0
 11
13672.6204024026
 21
-1026.260964518
 31
0.0
  0
LINE
  5
CD
  8
0
  6
CONTINUOUS
 62
     7
 10
13692.6204024026
 20
-862.260964518
 30
0.0
 11
13692.6204024026
 21
-866.260964518
 31
0.0
  0
LINE
  5
CE
  8
0
  6
CONTINUOUS
 62
     7
 10
13672.6204024026
 20
-881.260964518
 30
0.0
 11
13701.6204024026
 21
-881.260964518
 31
0.0
  0
LINE
  5
CF
  8
0
  6
CONTINUOUS
 62
     7
 10
13705.5204024026
 20
-1026.260964518
 30
0.0
 11
13705.5204024026
 21
-1031.260964518
 31
0.0
  0
LINE
  5
D0
  8
0
  6
CONTINUOUS
 62
     7
 10
13705.5204024026
 20
-902.260964518
 30
0.0
 11
13705.5204024026
 21
-889.260964518
 31
0.0
  0
LINE
  5
D1
  8
0
  6
CENTER
 62
     7
 10
13479.1452775819
 20
-826.4815390803
 30
0.0
 11
13479.1452775819
 21
-1098.7704500409
 31
0.0
  0
CIRCLE
  5
D2
  8
0
  6
CONTINUOUS
 62
     7
 10
13451.1452775819
 20
-1074.260964518
 30
0.0
 40
10.0
  0
LINE
  5
D3
  8
0
  6
CONTINUOUS
 62
     7
 10
13709.6204024026
 20
-876.260964518
 30
0.0
 11
13709.6204024026
 21
-883.260964518
 31
0.0
  0
LINE
  5
D4
  8
0
  6
CONTINUOUS
 62
     7
 10
13692.6204024026
 20
-1036.260964518
 30
0.0
 11
13692.6204024026
 21
-1100.260964518
 31
0.0
  0
LINE
  5
D5
  8
0
  6
CONTINUOUS
 62
     7
 10
13644.6204024026
 20
-1059.0736583553
 30
0.0
 11
13644.6204024026
 21
-840.6355768434
 31
0.0
  0
CIRCLE
  5
D6
  8
0
  6
CONTINUOUS
 62
     7
 10
13479.1452775819
 20
-1075.260964518
 30
0.0
 40
2.5
  0
ARC
  5
D7
  8
0
  6
CONTINUOUS
 62
     7
 10
13549.1452775819
 20
-838.260964518
 30
0.0
 40
7.5
 50
0.0
 51
90.0
  0
LINE
  5
D8
  8
0
  6
CONTINUOUS
 62
     7
 10
13556.6452775819
 20
-838.260964518
 30
0.0
 11
13556.6452775819
 21
-1084.760964518
 31
0.0
  0
LINE
  5
D9
  8
0
  6
CONTINUOUS
 62
     7
 10
13550.1452775819
 20
-1085.760964518
 30
0.0
 11
13550.1452775819
 21
-840.760964518
 31
0.0
  0
ARC
  5
DA
  8
0
  6
CONTINUOUS
 62
     7
 10
13409.1452775819
 20
-1088.260964518
 30
0.0
 40
7.0
 50
180.0
 51
270.0
  0
LINE
  5
DB
  8
0
  6
CONTINUOUS
 62
     7
 10
13699.6204024026
 20
-826.0165191316
 30
0.0
 11
13680.5506034092
 21
-826.6824511865
 31
0.0
  0
LINE
  5
DC
  8
0
  6
CONTINUOUS
 62
     7
 10
13672.6204024026
 20
-866.260964518
 30
0.0
 11
13709.6204024026
 21
-866.260964518
 31
0.0
  0
CIRCLE
  5
DD
  8
0
  6
CONTINUOUS
 62
     7
 10
13534.1452775819
 20
-851.260964518
 30
0.0
 40
2.5
  0
ARC
  5
DE
  8
0
  6
CONTINUOUS
 62
     7
 10
13546.6452775819
 20
-1085.760964518
 30
0.0
 40
3.5
 50
270.0
 51
0.0
  0
ARC
  5
DF
  8
0
  6
CONTINUOUS
 62
     7
 10
13409.1452775819
 20
-1084.760964518
 30
0.0
 40
7.5
 50
180.0
 51
201.0394697813
  0
LINE
  5
E0
  8
0
  6
CONTINUOUS
 62
     7
 10
13645.6204024026
 20
-1060.0736583553
 30
0.0
 11
13644.6204024026
 21
-1059.0736583553
 31
0.0
  0
LINE
  5
E1
  8
0
  6
CONTINUOUS
 62
     7
 10
13672.6204024026
 20
-1031.260964518
 30
0.0
 11
13709.6204024026
 21
-1031.260964518
 31
0.0
  0
LINE
  5
E2
  8
0
  6
CONTINUOUS
 62
     7
 10
13454.1452775819
 20
-1088.1034005438
 30
0.0
 11
13454.1452775819
 21
-1097.2065099716
 31
0.0
  0
CIRCLE
  5
E3
  8
0
  6
CONTINUOUS
 62
     7
 10
13507.1452775819
 20
-1074.260964518
 30
0.0
 40
10.0
  0
ARC
  5
E4
  8
0
  6
CONTINUOUS
 62
     7
 10
13411.6452775819
 20
-1085.760964518
 30
0.0
 40
3.5
 50
180.0
 51
270.0
  0
LINE
  5
E5
  8
0
  6
CONTINUOUS
 62
     7
 10
13549.1452775819
 20
-1095.260964518
 30
0.0
 11
13409.1452775819
 21
-1095.260964518
 31
0.0
  0
ARC
  5
E6
  8
0
  6
CONTINUOUS
 62
     7
 10
13680.6204024026
 20
-1098.260964518
 30
0.0
 40
2.0
 50
180.0
 51
270.0
  0
ARC
  5
E7
  8
0
  6
CONTINUOUS
 62
     7
 10
13699.6204024026
 20
-862.260964518
 30
0.0
 40
7.0
 50
90.0
 51
180.0
  0
LINE
  5
E8
  8
0
  6
CONTINUOUS
 62
     7
 10
13647.5484909825
 20
-1094.6430290054
 30
0.0
 11
13678.6204024026
 21
-1095.760964518
 31
0.0
  0
LINE
  5
E9
  8
0
  6
CONTINUOUS
 62
     7
 10
13680.6204024026
 20
-1100.260964518
 30
0.0
 11
13692.6204024026
 21
-1100.260964518
 31
0.0
  0
LINE
  5
EA
  8
0
  6
CONTINUOUS
 62
     7
 10
13539.1452775819
 20
-1063.260964518
 30
0.0
 11
13539.1452775819
 21
-863.260964518
 31
0.0
  0
LINE
  5
EB
  8
0
  6
CONTINUOUS
 62
     7
 10
13672.6204024026
 20
-1021.260964518
 30
0.0
 11
13709.6204024026
 21
-1021.260964518
 31
0.0
  0
LINE
  5
EC
  8
0
  6
CONTINUOUS
 62
     7
 10
13709.6204024026
 20
-871.260964518
 30
0.0
 11
13672.6204024026
 21
-871.260964518
 31
0.0
  0
LINE
  5
ED
  8
0
  6
CONTINUOUS
 62
     7
 10
13709.6204024026
 20
-1031.260964518
 30
0.0
 11
13709.6204024026
 21
-1038.260964518
 31
0.0
  0
LINE
  5
EE
  8
0
  6
CONTINUOUS
 62
     7
 10
13697.7204024026
 20
-1026.260964518
 30
0.0
 11
13697.7204024026
 21
-1031.260964518
 31
0.0
  0
LINE
  5
EF
  8
0
  6
CONTINUOUS
 62
     7
 10
13692.6204024026
 20
-881.260964518
 30
0.0
 11
13692.6204024026
 21
-1021.260964518
 31
0.0
  0
LINE
  5
F0
  8
0
  6
CONTINUOUS
 62
     7
 10
13697.7204024026
 20
-902.260964518
 30
0.0
 11
13697.7204024026
 21
-889.260964518
 31
0.0
  0
LINE
  5
F1
  8
0
  6
CENTER
 62
     7
 10
13670.8556965434
 20
-963.260964518
 30
0.0
 11
13777.1104301423
 21
-963.260964518
 31
0.0
  0
LINE
  5
F2
  8
0
  6
CONTINUOUS
 62
     7
 10
13678.6204024026
 20
-871.260964518
 30
0.0
 11
13678.6204024026
 21
-876.260964518
 31
0.0
  0
LINE
  5
F3
  8
0
  6
CONTINUOUS
 62
     7
 10
13494.1452775819
 20
-1090.260964518
 30
0.0
 11
13495.1452775819
 21
-1090.260964518
 31
0.0
  0
LINE
  5
F4
  8
0
  6
CONTINUOUS
 62
     7
 10
13496.1452775819
 20
-1091.260964518
 30
0.0
 11
13512.1452775819
 21
-1091.260964518
 31
0.0
  0
LINE
  5
F5
  8
0
  6
CONTINUOUS
 62
     7
 10
13512.1452775819
 20
-1091.260964518
 30
0.0
 11
13513.1452775819
 21
-1090.260964518
 31
0.0
  0
LINE
  5
F6
  8
0
  6
CONTINUOUS
 62
     7
 10
13513.1452775819
 20
-1090.260964518
 30
0.0
 11
13514.1452775819
 21
-1090.260964518
 31
0.0
  0
LINE
  5
F7
  8
0
  6
CONTINUOUS
 62
     7
 10
13397.1452775819
 20
-941.0331790803
 30
0.0
 11
13397.1452775819
 21
-966.3748572369
 31
0.0
  0
LINE
  5
F8
  8
0
  6
CONTINUOUS
 62
     7
 10
13556.6452775819
 20
-1060.260964518
 30
0.0
 11
13576.1452775819
 21
-1060.260964518
 31
0.0
  0
ARC
  5
F9
  8
0
  6
CONTINUOUS
 62
     7
 10
13383.6452775819
 20
-982.6026426746
 30
0.0
 40
3.0
 50
180.0
 51
263.088772881
  0
LINE
  5
FA
  8
0
  6
CONTINUOUS
 62
     7
 10
13576.1452775819
 20
-1038.260964518
 30
0.0
 11
13576.1452775819
 21
-1044.260964518
 31
0.0
  0
LINE
  5
FB
  8
0
  6
CONTINUOUS
 62
     7
 10
13408.1452775819
 20
-840.760964518
 30
0.0
 11
13408.1452775819
 21
-1085.760964518
 31
0.0
  0
LINE
  5
FC
  8
0
  6
CONTINUOUS
 62
     7
 10
13546.6452775819
 20
-837.260964518
 30
0.0
 11
13411.6452775819
 21
-837.260964518
 31
0.0
  0
LINE
  5
FD
  8
0
  6
CONTINUOUS
 62
     7
 10
13444.1452775819
 20
-1095.260964518
 30
0.0
 11
13444.1452775819
 21
-1090.260964518
 31
0.0
  0
ARC
  5
FE
  8
0
  6
CONTINUOUS
 62
     7
 10
13409.1452775819
 20
-838.260964518
 30
0.0
 40
7.5
 50
90.0
 51
180.0
  0
LINE
  5
FF
  8
0
  6
CONTINUOUS
 62
     7
 10
13563.1452775819
 20
-1026.760964518
 30
0.0
 11
13563.1452775819
 21
-1030.760964518
 31
0.0
  0
LINE
  5
100
  8
0
  6
CONTINUOUS
 62
     7
 10
13556.6452775819
 20
-1038.260964518
 30
0.0
 11
13576.1452775819
 21
-1038.260964518
 31
0.0
  0
LINE
  5
101
  8
0
  6
CONTINUOUS
 62
     7
 10
13444.1452775819
 20
-1090.260964518
 30
0.0
 11
13445.1452775819
 21
-1090.260964518
 31
0.0
  0
LINE
  5
102
  8
0
  6
CONTINUOUS
 62
     7
 10
13446.1452775819
 20
-1091.260964518
 30
0.0
 11
13462.1452775819
 21
-1091.260964518
 31
0.0
  0
LINE
  5
103
  8
0
  6
CONTINUOUS
 62
     7
 10
13463.1452775819
 20
-1090.260964518
 30
0.0
 11
13464.1452775819
 21
-1090.260964518
 31
0.0
  0
CIRCLE
  5
104
  8
0
  6
CONTINUOUS
 62
     7
 10
13389.1452775819
 20
-977.260964518
 30
0.0
 40
4.5
  0
LINE
  5
105
  8
0
  6
CONTINUOUS
 62
     7
 10
13556.6452775819
 20
-883.260964518
 30
0.0
 11
13576.1452775819
 21
-883.260964518
 31
0.0
  0
LINE
  5
106
  8
0
  6
CONTINUOUS
 62
     7
 10
13559.1452775819
 20
-875.760964518
 30
0.0
 11
13563.1452775819
 21
-875.760964518
 31
0.0
  0
LINE
  5
107
  8
0
  6
CONTINUOUS
 62
     7
 10
13401.6452775819
 20
-838.260964518
 30
0.0
 11
13401.6452775819
 21
-1084.760964518
 31
0.0
  0
LINE
  5
108
  8
0
  6
CONTINUOUS
 62
     7
 10
13556.6452775819
 20
-902.260964518
 30
0.0
 11
13576.1452775819
 21
-902.260964518
 31
0.0
  0
LINE
  5
109
  8
0
  6
CONTINUOUS
 62
     7
 10
13576.1452775819
 20
-902.260964518
 30
0.0
 11
13576.1452775819
 21
-908.260964518
 31
0.0
  0
LINE
  5
10A
  8
0
  6
CONTINUOUS
 62
     7
 10
13494.1452775819
 20
-1095.260964518
 30
0.0
 11
13494.1452775819
 21
-1090.260964518
 31
0.0
  0
LINE
  5
10B
  8
0
  6
CONTINUOUS
 62
     7
 10
13495.1452775819
 20
-1090.260964518
 30
0.0
 11
13496.1452775819
 21
-1091.260964518
 31
0.0
  0
LINE
  5
10C
  8
0
  6
CONTINUOUS
 62
     7
 10
13546.6452775819
 20
-1089.260964518
 30
0.0
 11
13411.6452775819
 21
-1089.260964518
 31
0.0
  0
LINE
  5
10D
  8
0
  6
CONTINUOUS
 62
     7
 10
13558.1452775819
 20
-876.760964518
 30
0.0
 11
13558.1452775819
 21
-883.260964518
 31
0.0
  0
LINE
  5
10E
  8
0
  6
CONTINUOUS
 62
     7
 10
13556.6452775819
 20
-1026.760964518
 30
0.0
 11
13563.1452775819
 21
-1026.760964518
 31
0.0
  0
LINE
  5
10F
  8
0
  6
CONTINUOUS
 62
     7
 10
13398.9046148469
 20
-939.0477115162
 30
0.0
 11
13401.6452775819
 21
-938.7155099725
 31
0.0
  0
LINE
  5
110
  8
0
  6
CONTINUOUS
 62
     7
 10
13383.2842834794
 20
-968.9410850153
 30
0.0
 11
13396.2656089495
 21
-967.3675910189
 31
0.0
  0
ARC
  5
111
  8
0
  6
CONTINUOUS
 62
     7
 10
13383.6452775819
 20
-971.9192863614
 30
0.0
 40
3.0
 50
96.911227119
 51
180.0
  0
LINE
  5
112
  8
0
  6
CONTINUOUS
 62
     7
 10
13559.1452775819
 20
-1030.760964518
 30
0.0
 11
13563.1452775819
 21
-1030.760964518
 31
0.0
  0
LINE
  5
113
  8
0
  6
CONTINUOUS
 62
     7
 10
13576.1452775819
 20
-1054.260964518
 30
0.0
 11
13556.6452775819
 21
-1054.260964518
 31
0.0
  0
ARC
  5
114
  8
0
  6
CONTINUOUS
 62
     7
 10
13767.1204024026
 20
-909.260964518
 30
0.0
 40
1.5
 50
180.0
 51
0.0
  0
LINE
  5
115
  8
0
  6
CONTINUOUS
 62
     7
 10
13711.6204024026
 20
-883.260964518
 30
0.0
 11
13711.6204024026
 21
-889.260964518
 31
0.0
  0
LINE
  5
116
  8
0
  6
CONTINUOUS
 62
     7
 10
13711.6204024026
 20
-889.260964518
 30
0.0
 11
13693.6204024026
 21
-889.260964518
 31
0.0
  0
ARC
  5
117
  8
0
  6
CONTINUOUS
 62
     7
 10
13399.1452775819
 20
-941.0331790803
 30
0.0
 40
2.0
 50
96.911227119
 51
180.0
  0
LINE
  5
118
  8
0
  6
CONTINUOUS
 62
     7
 10
13558.1452775819
 20
-1031.760964518
 30
0.0
 11
13558.1452775819
 21
-1038.260964518
 31
0.0
  0
LINE
  5
119
  8
0
  6
CONTINUOUS
 62
     7
 10
13693.6204024026
 20
-889.260964518
 30
0.0
 11
13693.6204024026
 21
-883.260964518
 31
0.0
  0
LINE
  5
11A
  8
0
  6
CONTINUOUS
 62
     7
 10
13693.6204024026
 20
-902.260964518
 30
0.0
 11
13711.6204024026
 21
-902.260964518
 31
0.0
  0
LINE
  5
11B
  8
0
  6
CONTINUOUS
 62
     7
 10
13462.1452775819
 20
-1091.260964518
 30
0.0
 11
13463.1452775819
 21
-1090.260964518
 31
0.0
  0
LINE
  5
11C
  8
0
  6
CONTINUOUS
 62
     7
 10
13563.1452775819
 20
-871.760964518
 30
0.0
 11
13563.1452775819
 21
-875.760964518
 31
0.0
  0
ARC
  5
11D
  8
0
  6
CONTINUOUS
 62
     7
 10
13559.1452775819
 20
-1031.760964518
 30
0.0
 40
1.0
 50
90.0
 51
180.0
  0
LINE
  5
11E
  8
0
  6
CONTINUOUS
 62
     7
 10
13514.1452775819
 20
-1090.260964518
 30
0.0
 11
13514.1452775819
 21
-1095.260964518
 31
0.0
  0
LINE
  5
11F
  8
0
  6
CONTINUOUS
 62
     7
 10
13576.1452775819
 20
-1044.260964518
 30
0.0
 11
13556.6452775819
 21
-1044.260964518
 31
0.0
  0
LINE
  5
120
  8
0
  6
CONTINUOUS
 62
     7
 10
13711.6204024026
 20
-902.260964518
 30
0.0
 11
13711.6204024026
 21
-908.260964518
 31
0.0
  0
LINE
  5
121
  8
0
  6
CONTINUOUS
 62
     7
 10
13711.6204024026
 20
-908.260964518
 30
0.0
 11
13693.6204024026
 21
-908.260964518
 31
0.0
  0
LINE
  5
122
  8
0
  6
CONTINUOUS
 62
     7
 10
13693.6204024026
 20
-908.260964518
 30
0.0
 11
13693.6204024026
 21
-902.260964518
 31
0.0
  0
LINE
  5
123
  8
0
  6
CONTINUOUS
 62
     7
 10
13765.6204024026
 20
-889.8834635172
 30
0.0
 11
13765.6204024026
 21
-909.260964518
 31
0.0
  0
LINE
  5
124
  8
0
  6
CONTINUOUS
 62
     7
 10
13445.1452775819
 20
-1090.260964518
 30
0.0
 11
13446.1452775819
 21
-1091.260964518
 31
0.0
  0
ARC
  5
125
  8
0
  6
CONTINUOUS
 62
     7
 10
13764.6204024026
 20
-889.8834635172
 30
0.0
 40
1.0
 50
0.0
 51
51.3178125465
  0
LINE
  5
126
  8
0
  6
CONTINUOUS
 62
     7
 10
13768.6204024026
 20
-889.8834635172
 30
0.0
 11
13768.6204024026
 21
-909.260964518
 31
0.0
  0
LINE
  5
127
  8
0
  6
CONTINUOUS
 62
     7
 10
13576.1452775819
 20
-889.260964518
 30
0.0
 11
13556.6452775819
 21
-889.260964518
 31
0.0
  0
LINE
  5
128
  8
0
  6
CONTINUOUS
 62
     7
 10
13576.1452775819
 20
-1060.260964518
 30
0.0
 11
13576.1452775819
 21
-1054.260964518
 31
0.0
  0
LINE
  5
129
  8
0
  6
CONTINUOUS
 62
     7
 10
13556.6452775819
 20
-871.760964518
 30
0.0
 11
13563.1452775819
 21
-871.760964518
 31
0.0
  0
ARC
  5
12A
  8
0
  6
CONTINUOUS
 62
     7
 10
13411.6452775819
 20
-840.760964518
 30
0.0
 40
3.5
 50
90.0
 51
180.0
  0
ARC
  5
12B
  8
0
  6
CONTINUOUS
 62
     7
 10
13396.1452775819
 20
-966.3748572369
 30
0.0
 40
1.0
 50
276.9112271192
 51
0.0
  0
LINE
  5
12C
  8
0
  6
CONTINUOUS
 62
     7
 10
13464.1452775819
 20
-1090.260964518
 30
0.0
 11
13464.1452775819
 21
-1095.260964518
 31
0.0
  0
LINE
  5
12D
  8
0
  6
CONTINUOUS
 62
     7
 10
13549.1452775819
 20
-830.760964518
 30
0.0
 11
13409.1452775819
 21
-830.760964518
 31
0.0
  0
LINE
  5
12E
  8
0
  6
CONTINUOUS
 62
     7
 10
13380.6452775819
 20
-982.6026426746
 30
0.0
 11
13380.6452775819
 21
-971.9192863614
 31
0.0
  0
LINE
  5
12F
  8
0
  6
CONTINUOUS
 62
     7
 10
13383.2842834794
 20
-985.5808440207
 30
0.0
 11
13401.6452775819
 21
-987.8064190635
 31
0.0
  0
LINE
  5
130
  8
0
  6
CONTINUOUS
 62
     7
 10
13576.1452775819
 20
-883.260964518
 30
0.0
 11
13576.1452775819
 21
-889.260964518
 31
0.0
  0
LINE
  5
131
  8
0
  6
CONTINUOUS
 62
     7
 10
13576.1452775819
 20
-908.260964518
 30
0.0
 11
13556.6452775819
 21
-908.260964518
 31
0.0
  0
ARC
  5
132
  8
0
  6
CONTINUOUS
 62
     7
 10
13559.1452775819
 20
-876.760964518
 30
0.0
 40
1.0
 50
90.0
 51
180.0
  0
LINE
  5
133
  8
0
  6
CONTINUOUS
 62
     7
 10
13700.1204024026
 20
-1074.760964518
 30
0.0
 11
13700.1204024026
 21
-1063.260964518
 31
0.0
  0
LINE
  5
134
  8
0
  6
CONTINUOUS
 62
     7
 10
13692.6204024026
 20
-1092.0514771454
 30
0.0
 11
13774.6204024026
 21
-1089.9042315768
 31
0.0
  0
ARC
  5
135
  8
0
  6
CONTINUOUS
 62
     7
 10
13764.6204024026
 20
-955.8834635172
 30
0.0
 40
1.0
 50
0.0
 51
51.3178125465
  0
LINE
  5
136
  8
0
  6
CONTINUOUS
 62
     7
 10
13481.6452775819
 20
-846.260964518
 30
0.0
 11
13481.6452775819
 21
-850.930837499
 31
0.0
  0
LINE
  5
137
  8
0
  6
CONTINUOUS
 62
     7
 10
13768.6204024026
 20
-1036.6384655188
 30
0.0
 11
13768.6204024026
 21
-1017.260964518
 31
0.0
  0
LINE
  5
138
  8
0
  6
CONTINUOUS
 62
     7
 10
13711.6204024026
 20
-1044.260964518
 30
0.0
 11
13711.6204024026
 21
-1038.260964518
 31
0.0
  0
ARC
  5
139
  8
0
  6
CONTINUOUS
 62
     7
 10
13479.1452775819
 20
-855.260964518
 30
0.0
 40
5.0
 50
120.0
 51
60.00000000019998
  0
ARC
  5
13A
  8
0
  6
CONTINUOUS
 62
     7
 10
13764.6204024026
 20
-1036.6384655188
 30
0.0
 40
1.0
 50
308.6821874535
 51
0.0
  0
LINE
  5
13B
  8
0
  6
CONTINUOUS
 62
     7
 10
13476.6452775819
 20
-846.260964518
 30
0.0
 11
13476.6452775819
 21
-850.9308374991
 31
0.0
  0
LINE
  5
13C
  8
0
  6
CONTINUOUS
 62
     7
 10
13703.1204024026
 20
-1070.760964518
 30
0.0
 11
13700.1204024026
 21
-1070.760964518
 31
0.0
  0
ARC
  5
13D
  8
0
  6
CONTINUOUS
 62
     7
 10
13424.1452775819
 20
-855.260964518
 30
0.0
 40
5.0
 50
120.0
 51
60.00000000019998
  0
ARC
  5
13E
  8
0
  6
CONTINUOUS
 62
     7
 10
13769.6204024026
 20
-889.8834635172
 30
0.0
 40
1.0
 50
128.6821874535
 51
180.0
  0
ARC
  5
13F
  8
0
  6
CONTINUOUS
 62
     7
 10
13767.1204024026
 20
-1017.260964518
 30
0.0
 40
1.5
 50
0.0
 51
180.0
  0
LINE
  5
140
  8
0
  6
CONTINUOUS
 62
     7
 10
13693.6204024026
 20
-1044.260964518
 30
0.0
 11
13711.6204024026
 21
-1044.260964518
 31
0.0
  0
ARC
  5
141
  8
0
  6
CONTINUOUS
 62
     7
 10
13767.1204024026
 20
-952.760964518
 30
0.0
 40
3.0
 50
308.6821874535
 51
231.3178125465
  0
LINE
  5
142
  8
0
  6
CONTINUOUS
 62
     7
 10
13426.6452775819
 20
-846.260964518
 30
0.0
 11
13426.6452775819
 21
-850.930837499
 31
0.0
  0
LINE
  5
143
  8
0
  6
CONTINUOUS
 62
     7
 10
13774.6204024026
 20
-1089.9042315768
 30
0.0
 11
13774.6204024026
 21
-836.6176974592
 31
0.0
  0
LINE
  5
144
  8
0
  6
CONTINUOUS
 62
     7
 10
13419.1452775819
 20
-863.260964518
 30
0.0
 11
13419.1452775819
 21
-1063.260964518
 31
0.0
  0
LINE
  5
145
  8
0
  6
CONTINUOUS
 62
     7
 10
13645.6204024026
 20
-839.6355768434
 30
0.0
 11
13644.6204024026
 21
-840.6355768434
 31
0.0
  0
CIRCLE
  5
146
  8
0
  6
CONTINUOUS
 62
     7
 10
13507.1452775819
 20
-852.260964518
 30
0.0
 40
10.0
  0
LINE
  5
147
  8
0
  6
PHANTOM
 62
     7
 10
13672.6204024026
 20
-866.260964518
 30
0.0
 11
13672.6204024026
 21
-871.260964518
 31
0.0
  0
ARC
  5
149
  8
0
  6
CONTINUOUS
 62
     7
 10
13676.6204024026
 20
-864.260964518
 30
0.0
 40
2.0
 50
270.0
 51
0.0
  0
LINE
  5
14A
  8
0
  6
PHANTOM
 62
     7
 10
13672.6204024026
 20
-1021.260964518
 30
0.0
 11
13672.6204024026
 21
-1026.260964518
 31
0.0
  0
ARC
  5
14B
  8
0
  6
CONTINUOUS
 62
     7
 10
13676.6204024026
 20
-1038.260964518
 30
0.0
 40
2.0
 50
0.0
 51
90.0
  0
LINE
  5
14C
  8
0
  6
CONTINUOUS
 62
     7
 10
13531.1452775819
 20
-1000.260964518
 30
0.0
 11
13531.1452775819
 21
-926.260964518
 31
0.0
  0
LINE
  5
14D
  8
0
  6
CONTINUOUS
 62
     7
 10
13528.1452775819
 20
-923.260964518
 30
0.0
 11
13430.1452775819
 21
-923.260964518
 31
0.0
  0
ARC
  5
14E
  8
0
  6
CONTINUOUS
 62
     7
 10
13767.1204024026
 20
-886.760964518
 30
0.0
 40
3.0
 50
308.6821874535
 51
231.3178125465
  0
ARC
  5
14F
  8
0
  6
CONTINUOUS
 62
     7
 10
13430.1452775819
 20
-1000.260964518
 30
0.0
 40
3.0
 50
180.0
 51
270.0
  0
ARC
  5
150
  8
0
  6
CONTINUOUS
 62
     7
 10
13528.1452775819
 20
-1000.260964518
 30
0.0
 40
3.0
 50
270.0
 51
0.0
  0
CIRCLE
  5
151
  8
0
  6
CONTINUOUS
 62
     7
 10
13437.3952775819
 20
-940.260964518
 30
0.0
 40
3.75
  0
ARC
  5
152
  8
0
  6
CONTINUOUS
 62
     7
 10
13767.1204024026
 20
-975.260964518
 30
0.0
 40
1.5
 50
180.0
 51
0.0
  0
ARC
  5
153
  8
0
  6
CONTINUOUS
 62
     7
 10
13479.1452775819
 20
-846.260964518
 30
0.0
 40
2.5
 50
0.0
 51
180.0
  0
ARC
  5
154
  8
0
  6
CONTINUOUS
 62
     7
 10
13430.1452775819
 20
-926.260964518
 30
0.0
 40
3.0
 50
90.0
 51
180.0
  0
ARC
  5
155
  8
0
  6
CONTINUOUS
 62
     7
 10
13676.6204024026
 20
-1019.260964518
 30
0.0
 40
2.0
 50
270.0
 51
0.0
  0
ARC
  5
156
  8
0
  6
CONTINUOUS
 62
     7
 10
13528.1452775819
 20
-926.260964518
 30
0.0
 40
3.0
 50
0.0
 51
90.0
  0
LINE
  5
157
  8
0
  6
CONTINUOUS
 62
     7
 10
13693.6204024026
 20
-1038.260964518
 30
0.0
 11
13693.6204024026
 21
-1044.260964518
 31
0.0
  0
ARC
  5
158
  8
0
  6
CONTINUOUS
 62
     7
 10
13767.1204024026
 20
-1039.760964518
 30
0.0
 40
3.0
 50
128.6821874535
 51
51.31781254650002
  0
LINE
  5
159
  8
0
  6
CONTINUOUS
 62
     7
 10
13693.6204024026
 20
-1063.260964518
 30
0.0
 11
13711.6204024026
 21
-1063.260964518
 31
0.0
  0
LINE
  5
15A
  8
0
  6
CONTINUOUS
 62
     7
 10
13711.6204024026
 20
-1063.260964518
 30
0.0
 11
13711.6204024026
 21
-1057.260964518
 31
0.0
  0
LINE
  5
15B
  8
0
  6
CONTINUOUS
 62
     7
 10
13699.6204024027
 20
-834.6537533415
 30
0.0
 11
13774.6204024026
 21
-836.6176974592
 31
0.0
  0
ARC
  5
15C
  8
0
  6
CONTINUOUS
 62
     7
 10
13424.1452775819
 20
-846.260964518
 30
0.0
 40
2.5
 50
0.0
 51
180.0
  0
LINE
  5
15D
  8
0
  6
CONTINUOUS
 62
     7
 10
13419.1452775819
 20
-1063.260964518
 30
0.0
 11
13539.1452775819
 21
-1063.260964518
 31
0.0
  0
ARC
  5
15E
  8
0
  6
CONTINUOUS
 62
     7
 10
13769.6204024026
 20
-1036.6384655188
 30
0.0
 40
1.0
 50
180.0
 51
231.3178125465
  0
LINE
  5
15F
  8
0
  6
CONTINUOUS
 62
     7
 10
13711.6204024026
 20
-1038.260964518
 30
0.0
 11
13692.6204024026
 21
-1038.260964518
 31
0.0
  0
CIRCLE
  5
160
  8
0
  6
CONTINUOUS
 62
     7
 10
13451.1452775819
 20
-852.260964518
 30
0.0
 40
10.0
  0
ARC
  5
161
  8
0
  6
CONTINUOUS
 62
     7
 10
13676.6204024026
 20
-883.260964518
 30
0.0
 40
2.0
 50
0.0
 51
90.0
  0
LINE
  5
162
  8
0
  6
CONTINUOUS
 62
     7
 10
13430.1452775819
 20
-1003.260964518
 30
0.0
 11
13528.1452775819
 21
-1003.260964518
 31
0.0
  0
LINE
  5
163
  8
0
  6
CONTINUOUS
 62
     7
 10
13427.1452775819
 20
-926.260964518
 30
0.0
 11
13427.1452775819
 21
-1000.260964518
 31
0.0
  0
CIRCLE
  5
164
  8
0
  6
CONTINUOUS
 62
     7
 10
13437.3952775819
 20
-986.260964518
 30
0.0
 40
3.75
  0
LINE
  5
165
  8
0
  6
CONTINUOUS
 62
     7
 10
13539.1452775819
 20
-863.260964518
 30
0.0
 11
13419.1452775819
 21
-863.260964518
 31
0.0
  0
LINE
  5
166
  8
0
  6
CONTINUOUS
 62
     7
 10
13443.1452775819
 20
-923.260964518
 30
0.0
 11
13443.1452775819
 21
-1003.260964518
 31
0.0
  0
ARC
  5
167
  8
0
  6
CONTINUOUS
 62
     7
 10
13437.3952775819
 20
-964.760964518
 30
0.0
 40
2.5
 50
180.0
 51
0.0
  0
LINE
  5
168
  8
0
  6
CONTINUOUS
 62
     7
 10
13765.6204024026
 20
-1036.6384655188
 30
0.0
 11
13765.6204024026
 21
-1017.260964518
 31
0.0
  0
ARC
  5
169
  8
0
  6
CONTINUOUS
 62
     7
 10
13769.6204024026
 20
-955.8834635172
 30
0.0
 40
1.0
 50
128.6821874535
 51
180.0
  0
LINE
  5
16A
  8
0
  6
PHANTOM
 62
     7
 10
13672.6204024026
 20
-876.260964518
 30
0.0
 11
13672.6204024026
 21
-881.260964518
 31
0.0
  0
LINE
  5
16B
  8
0
  6
CONTINUOUS
 62
     7
 10
13692.6204024026
 20
-883.260964518
 30
0.0
 11
13711.6204024026
 21
-883.260964518
 31
0.0
  0
LINE
  5
16C
  8
0
  6
CONTINUOUS
 62
     7
 10
13703.1204024026
 20
-1063.260964518
 30
0.0
 11
13703.1204024026
 21
-1074.760964518
 31
0.0
  0
LINE
  5
16D
  8
0
  6
CONTINUOUS
 62
     7
 10
13768.6204024026
 20
-955.8834635172
 30
0.0
 11
13768.6204024026
 21
-975.260964518
 31
0.0
  0
LINE
  5
16E
  8
0
  6
PHANTOM
 62
     7
 10
13672.6204024026
 20
-1031.260964518
 30
0.0
 11
13672.6204024026
 21
-1036.260964518
 31
0.0
  0
LINE
  5
16F
  8
0
  6
CONTINUOUS
 62
     7
 10
13421.6452775819
 20
-846.260964518
 30
0.0
 11
13421.6452775819
 21
-850.9308374991
 31
0.0
  0
LINE
  5
170
  8
0
  6
CONTINUOUS
 62
     7
 10
13693.6204024026
 20
-1057.260964518
 30
0.0
 11
13693.6204024026
 21
-1063.260964518
 31
0.0
  0
LINE
  5
171
  8
0
  6
CONTINUOUS
 62
     7
 10
13711.6204024026
 20
-1057.260964518
 30
0.0
 11
13693.6204024026
 21
-1057.260964518
 31
0.0
  0
LINE
  5
172
  8
0
  6
CONTINUOUS
 62
     7
 10
13703.1204024026
 20
-1074.760964518
 30
0.0
 11
13700.1204024026
 21
-1074.760964518
 31
0.0
  0
LINE
  5
173
  8
0
  6
CONTINUOUS
 62
     7
 10
13765.6204024026
 20
-955.8834635172
 30
0.0
 11
13765.6204024026
 21
-975.260964518
 31
0.0
  0
ARC
  5
174
  8
0
  6
CONTINUOUS
 62
     7
 10
13437.3952775819
 20
-961.760964518
 30
0.0
 40
2.5
 50
0.0
 51
180.0
  0
LINE
  5
175
  8
0
  6
CONTINUOUS
 62
     7
 10
13434.8952775819
 20
-961.760964518
 30
0.0
 11
13434.8952775819
 21
-964.760964518
 31
0.0
  0
LINE
  5
176
  8
0
  6
CONTINUOUS
 62
     7
 10
13454.9012992051
 20
-1016.7896870933
 30
0.0
 11
13454.9012992051
 21
-1003.260964518
 31
0.0
  0
LINE
  5
177
  8
0
  6
CONTINUOUS
 62
     7
 10
13459.9012992051
 20
-1003.260964518
 30
0.0
 11
13459.9012992051
 21
-1016.7896870933
 31
0.0
  0
LINE
  5
178
  8
0
  6
CONTINUOUS
 62
     7
 10
13515.1452775819
 20
-923.260964518
 30
0.0
 11
13515.1452775819
 21
-1003.260964518
 31
0.0
  0
LINE
  5
179
  8
0
  6
CONTINUOUS
 62
     7
 10
13439.8952775819
 20
-961.760964518
 30
0.0
 11
13439.8952775819
 21
-964.760964518
 31
0.0
  0
LINE
  5
17A
  8
0
  6
CONTINUOUS
 62
     7
 10
13498.3892559587
 20
-1016.7896870933
 30
0.0
 11
13498.3892559587
 21
-1003.260964518
 31
0.0
  0
LINE
  5
17B
  8
0
  6
CONTINUOUS
 62
     7
 10
13470.8032895028
 20
-1040.2198008549
 30
0.0
 11
13465.8032895028
 21
-1040.2198008548
 31
0.0
  0
LINE
  5
17C
  8
0
  6
CONTINUOUS
 62
     7
 10
13503.3892559587
 20
-1055.7303343283
 30
0.0
 11
13503.3892559587
 21
-1040.2198008549
 31
0.0
  0
LINE
  5
17D
  8
0
  6
CONTINUOUS
 62
     7
 10
13498.3892559587
 20
-1039.2303341301
 30
0.0
 11
13503.3892559587
 21
-1039.23033413
 31
0.0
  0
LINE
  5
17E
  8
0
  6
CONTINUOUS
 62
     7
 10
13465.8032895028
 20
-1039.23033413005
 30
0.0
 11
13465.8032895028
 21
-1021.2750393675
 31
0.0
  0
LINE
  5
17F
  8
0
  6
CONTINUOUS
 62
     7
 10
13454.9012992051
 20
-1039.2303341301
 30
0.0
 11
13459.9012992051
 21
-1039.23033413
 31
0.0
  0
LINE
  5
180
  8
0
  6
CONTINUOUS
 62
     7
 10
13465.8032895028
 20
-1055.7303343283
 30
0.0
 11
13470.8032895028
 21
-1055.7303343283
 31
0.0
  0
LINE
  5
181
  8
0
  6
CONTINUOUS
 62
     7
 10
13465.8032895028
 20
-1039.2303341301
 30
0.0
 11
13470.8032895028
 21
-1039.23033413
 31
0.0
  0
LINE
  5
182
  8
0
  6
CONTINUOUS
 62
     7
 10
13454.9012992051
 20
-1039.2303341301
 30
0.0
 11
13454.9012992051
 21
-1021.2750393675
 31
0.0
  0
LINE
  5
183
  8
0
  6
CONTINUOUS
 62
     7
 10
13459.9012992051
 20
-1055.7303343283
 30
0.0
 11
13459.9012992051
 21
-1040.2198008549
 31
0.0
  0
LINE
  5
184
  8
0
  6
CONTINUOUS
 62
     7
 10
13470.8032895028
 20
-1055.7303343283
 30
0.0
 11
13470.8032895028
 21
-1040.2198008549
 31
0.0
  0
LINE
  5
185
  8
0
  6
CONTINUOUS
 62
     7
 10
13487.4872656611
 20
-1039.2303341301
 30
0.0
 11
13487.4872656611
 21
-1021.2750393675
 31
0.0
  0
LINE
  5
186
  8
0
  6
CONTINUOUS
 62
     7
 10
13492.4872656611
 20
-1003.260964518
 30
0.0
 11
13492.4872656611
 21
-1016.7896870933
 31
0.0
  0
LINE
  5
187
  8
0
  6
CONTINUOUS
 62
     7
 10
13498.3892559587
 20
-1055.7303343283
 30
0.0
 11
13503.3892559587
 21
-1055.7303343283
 31
0.0
  0
LINE
  5
188
  8
0
  6
CONTINUOUS
 62
     7
 10
13498.3892559587
 20
-1039.2303341301
 30
0.0
 11
13498.3892559587
 21
-1021.2750393675
 31
0.0
  0
LINE
  5
189
  8
0
  6
CONTINUOUS
 62
     7
 10
13459.9012992051
 20
-1021.2750393676
 30
0.0
 11
13459.9012992051
 21
-1039.23033413
 31
0.0
  0
LINE
  5
18A
  8
0
  6
CONTINUOUS
 62
     7
 10
13487.4872656611
 20
-1016.7896870933
 30
0.0
 11
13487.4872656611
 21
-1003.260964518
 31
0.0
  0
LINE
  5
18B
  8
0
  6
CONTINUOUS
 62
     7
 10
13459.9012992051
 20
-1040.2198008549
 30
0.0
 11
13454.9012992051
 21
-1040.2198008548
 31
0.0
  0
LINE
  5
18C
  8
0
  6
CONTINUOUS
 62
     7
 10
13454.9012992051
 20
-1016.7896870933
 30
0.0
 11
13454.9012992051
 21
-1003.260964518
 31
0.0
  0
LINE
  5
18D
  8
0
  6
CONTINUOUS
 62
     7
 10
13459.9012992051
 20
-1003.260964518
 30
0.0
 11
13459.9012992051
 21
-1016.7896870933
 31
0.0
  0
LINE
  5
18E
  8
0
  6
CONTINUOUS
 62
     7
 10
13492.4872656611
 20
-1040.2198008549
 30
0.0
 11
13487.4872656611
 21
-1040.2198008548
 31
0.0
  0
LINE
  5
18F
  8
0
  6
CONTINUOUS
 62
     7
 10
13503.3892559587
 20
-1021.2750393676
 30
0.0
 11
13503.3892559587
 21
-1039.23033413
 31
0.0
  0
LINE
  5
190
  8
0
  6
CONTINUOUS
 62
     7
 10
13487.4872656611
 20
-1055.7303343283
 30
0.0
 11
13487.4872656611
 21
-1040.2198008548
 31
0.0
  0
LINE
  5
191
  8
0
  6
CONTINUOUS
 62
     7
 10
13498.3892559587
 20
-1055.7303343283
 30
0.0
 11
13498.3892559587
 21
-1040.2198008548
 31
0.0
  0
LINE
  5
192
  8
0
  6
CONTINUOUS
 62
     7
 10
13465.8032895028
 20
-1016.7896870933
 30
0.0
 11
13465.8032895028
 21
-1003.260964518
 31
0.0
  0
LINE
  5
193
  8
0
  6
CONTINUOUS
 62
     7
 10
13465.8032895028
 20
-1055.7303343283
 30
0.0
 11
13465.8032895028
 21
-1040.2198008548
 31
0.0
  0
LINE
  5
194
  8
0
  6
CONTINUOUS
 62
     7
 10
13454.9012992051
 20
-1040.2198008548
 30
0.0
 11
13454.9012992051
 21
-1055.7303343283
 31
0.0
  0
LINE
  5
195
  8
0
  6
CONTINUOUS
 62
     7
 10
13492.4872656611
 20
-1021.2750393676
 30
0.0
 11
13492.4872656611
 21
-1039.23033413
 31
0.0
  0
LINE
  5
196
  8
0
  6
CONTINUOUS
 62
     7
 10
13503.3892559587
 20
-1003.260964518
 30
0.0
 11
13503.3892559587
 21
-1016.7896870933
 31
0.0
  0
LINE
  5
197
  8
0
  6
CONTINUOUS
 62
     7
 10
13492.4872656611
 20
-1055.7303343283
 30
0.0
 11
13492.4872656611
 21
-1040.2198008549
 31
0.0
  0
LINE
  5
198
  8
0
  6
CONTINUOUS
 62
     7
 10
13503.3892559587
 20
-1040.2198008549
 30
0.0
 11
13498.3892559587
 21
-1040.2198008548
 31
0.0
  0
LINE
  5
199
  8
0
  6
CONTINUOUS
 62
     7
 10
13470.8032895028
 20
-1021.2750393676
 30
0.0
 11
13470.8032895028
 21
-1039.23033413
 31
0.0
  0
LINE
  5
19A
  8
0
  6
CONTINUOUS
 62
     7
 10
13470.8032895028
 20
-1003.260964518
 30
0.0
 11
13470.8032895028
 21
-1016.7896870933
 31
0.0
  0
LINE
  5
19B
  8
0
  6
CONTINUOUS
 62
     7
 10
13454.9012992051
 20
-1055.7303343283
 30
0.0
 11
13459.9012992051
 21
-1055.7303343283
 31
0.0
  0
LINE
  5
19C
  8
0
  6
CONTINUOUS
 62
     7
 10
13487.4872656611
 20
-1055.7303343283
 30
0.0
 11
13492.4872656611
 21
-1055.7303343283
 31
0.0
  0
LINE
  5
19D
  8
0
  6
CONTINUOUS
 62
     7
 10
13487.4872656611
 20
-1039.2303341301
 30
0.0
 11
13492.4872656611
 21
-1039.23033413
 31
0.0
  0
ENDSEC
  0
EOF
