  0
SECTION
  2
HEADER
  9
$ACADVER
  1
AC1006
  9
$DWGCODEPAGE
  3
ansi_932
  9
$INSBASE
 10
0.0
 20
0.0
 30
0.0
  9
$EXTMIN
 10
69.08647424236986
 20
89.47802997599258
  9
$EXTMAX
 10
149.1062605589204
 20
156.1119716484459
  9
$LIMMIN
 10
0.0
 20
0.0
  9
$LIMMAX
 10
12.0
 20
9.0
  9
$ORTHOMODE
 70
     0
  9
$REGENMODE
 70
     1
  9
$FILLMODE
 70
     1
  9
$QTEXTMODE
 70
     0
  9
$MIRRTEXT
 70
     1
  9
$DRAGMODE
 70
     2
  9
$LTSCALE
 40
1.0
  9
$OSMODE
 70
    37
  9
$ATTMODE
 70
     1
  9
$TEXTSIZE
 40
0.2
  9
$TRACEWID
 40
0.05
  9
$TEXTSTYLE
  7
STANDARD
  9
$CLAYER
  8
0
  9
$CELTYPE
  6
BYLAYER
  9
$CECOLOR
 62
   256
  9
$DIMSCALE
 40
1.0
  9
$DIMASZ
 40
3.0
  9
$DIMEXO
 40
0.0625
  9
$DIMDLI
 40
0.38
  9
$DIMRND
 40
0.0
  9
$DIMDLE
 40
0.0
  9
$DIMEXE
 40
1.5
  9
$DIMTP
 40
0.0
  9
$DIMTM
 40
0.0
  9
$DIMTXT
 40
3.0
  9
$DIMCEN
 40
0.09
  9
$DIMTSZ
 40
0.0
  9
$DIMTOL
 70
     0
  9
$DIMLIM
 70
     0
  9
$DIMTIH
 70
     1
  9
$DIMTOH
 70
     1
  9
$DIMSE1
 70
     0
  9
$DIMSE2
 70
     0
  9
$DIMTAD
 70
     1
  9
$DIMZIN
 70
     0
  9
$DIMBLK
  1

  9
$DIMASO
 70
     1
  9
$DIMSHO
 70
     1
  9
$DIMPOST
  1

  9
$DIMAPOST
  1

  9
$DIMALT
 70
     0
  9
$DIMALTD
 70
     2
  9
$DIMALTF
 40
25.4
  9
$DIMLFAC
 40
1.0
  9
$DIMTOFL
 70
     0
  9
$DIMTVP
 40
0.0
  9
$DIMTIX
 70
     0
  9
$DIMSOXD
 70
     0
  9
$DIMSAH
 70
     0
  9
$DIMBLK1
  1

  9
$DIMBLK2
  1

  9
$LUNITS
 70
     2
  9
$LUPREC
 70
     4
  9
$SKETCHINC
 40
0.1
  9
$FILLETRAD
 40
0.5
  9
$AUNITS
 70
     0
  9
$AUPREC
 70
     0
  9
$MENU
  1
.
  9
$ELEVATION
 40
0.0
  9
$THICKNESS
 40
0.0
  9
$LIMCHECK
 70
     0
  9
$CHAMFERA
 40
0.0
  9
$CHAMFERB
 40
0.0
  9
$SKPOLY
 70
     0
  9
$TDCREATE
 40
2460745.661106852
  9
$TDUPDATE
 40
2460745.661107072
  9
$TDINDWG
 40
0.0000000116
  9
$TDUSRTIMER
 40
0.0000000116
  9
$USRTIMER
 70
     1
  9
$ANGBASE
 50
0.0
  9
$ANGDIR
 70
     0
  9
$PDMODE
 70
     0
  9
$PDSIZE
 40
0.0
  9
$PLINEWID
 40
0.0
  9
$COORDS
 70
     1
  9
$SPLFRAME
 70
     0
  9
$SPLINETYPE
 70
     6
  9
$SPLINESEGS
 70
     8
  9
$ATTDIA
 70
     0
  9
$ATTREQ
 70
     1
  9
$HANDLING
 70
     1
  9
$HANDSEED
  5
14E
  9
$SURFTAB1
 70
     6
  9
$SURFTAB2
 70
     6
  9
$SURFTYPE
 70
     6
  9
$SURFU
 70
     6
  9
$SURFV
 70
     6
  9
$UCSNAME
  2

  9
$UCSORG
 10
0.0
 20
0.0
 30
0.0
  9
$UCSXDIR
 10
1.0
 20
0.0
 30
0.0
  9
$UCSYDIR
 10
0.0
 20
1.0
 30
0.0
  9
$USERI1
 70
     0
  9
$USERI2
 70
     0
  9
$USERI3
 70
     0
  9
$USERI4
 70
     0
  9
$USERI5
 70
     0
  9
$USERR1
 40
0.0
  9
$USERR2
 40
0.0
  9
$USERR3
 40
0.0
  9
$USERR4
 40
0.0
  9
$USERR5
 40
0.0
  9
$WORLDVIEW
 70
     1
  0
ENDSEC
  0
SECTION
  2
TABLES
  0
TABLE
  2
VPORT
 70
     1
  0
VPORT
  2
*ACTIVE
 70
     0
 10
0.0
 20
0.0
 11
1.0
 21
1.0
 12
109.0963674006451
 22
122.7950008122193
 13
0.0
 23
0.0
 14
0.5
 24
0.5
 15
0.5
 25
0.5
 16
0.0
 26
0.0
 36
1.0
 17
0.0
 27
0.0
 37
0.0
 40
66.63394167245336
 41
1.6
 42
50.0
 43
0.0
 44
0.0
 50
0.0
 51
0.0
 71
     0
 72
   100
 73
     1
 74
     3
 75
     0
 76
     0
 77
     0
 78
     0
  0
ENDTAB
  0
TABLE
  2
LTYPE
 70
     2
  0
LTYPE
  2
CONTINUOUS
 70
     0
  3
Solid line
 72
    65
 73
     0
 40
0.0
  0
LTYPE
  2
CENTER
 70
     0
  3

 72
    65
 73
     0
 40
0.0
  0
ENDTAB
  0
TABLE
  2
LAYER
 70
     2
  0
LAYER
  2
0
 70
     0
 62
     7
  6
CONTINUOUS
  0
LAYER
  2
1
 70
     0
 62
     7
  6
CONTINUOUS
  0
ENDTAB
  0
TABLE
  2
STYLE
 70
     2
  0
STYLE
  2
STANDARD
 70
     0
 40
0.0
 41
1.0
 50
0.0
 71
     0
 42
0.2
  3
txt
  4

  0
STYLE
  2
ＭＳ_ゴシック
 70
     0
 40
0.0
 41
1.0
 50
0.0
 71
     0
 42
0.2
  3
ＭＳ ゴシック.shx
  4

  0
ENDTAB
  0
TABLE
  2
VIEW
 70
     0
  0
ENDTAB
  0
TABLE
  2
UCS
 70
     0
  0
ENDTAB
  0
ENDSEC
  0
SECTION
  2
BLOCKS
  0
BLOCK
  8
0
  2
D_FRAME_VIEW_2823
 70
     0
 10
0.0
 20
0.0
 30
0.0
  0
LINE
  5
71
  8
1
  6
CONTINUOUS
 62
     7
 10
71.26644738940792
 20
105.3762397785277
 30
0.0
 11
71.34989114519891
 21
104.3827931700988
 31
0.0
  0
LINE
  5
72
  8
1
  6
CONTINUOUS
 62
     7
 10
91.82305733954084
 20
104.3827931700988
 30
0.0
 11
91.90650109533182
 21
105.3762397785277
 31
0.0
  0
LINE
  5
73
  8
1
  6
CONTINUOUS
 62
     7
 10
91.82305733954084
 20
104.3827931700988
 30
0.0
 11
91.98976440330387
 21
93.37802997599256
 31
0.0
  0
LINE
  5
74
  8
1
  6
CONTINUOUS
 62
     7
 10
88.01944599377374
 20
93.37802997599258
 30
0.0
 11
91.98976440330387
 21
93.37802997599256
 31
0.0
  0
POLYLINE
  5
75
  8
1
  6
CONTINUOUS
 62
     7
 66
     1
 10
0.0
 20
0.0
 30
0.0
  0
VERTEX
  5
E2
  8
1
  6
CONTINUOUS
 62
     7
 10
85.47296385735791
 20
104.3827931700988
 30
0.0
  0
VERTEX
  5
E3
  8
1
  6
CONTINUOUS
 62
     7
 10
85.47875642464427
 20
104.4959755689337
 30
0.0
  0
VERTEX
  5
E4
  8
1
  6
CONTINUOUS
 62
     7
 10
85.49822148655852
 20
104.6095305051053
 30
0.0
  0
VERTEX
  5
E5
  8
1
  6
CONTINUOUS
 62
     7
 10
85.53091962791255
 20
104.7193805129865
 30
0.0
  0
VERTEX
  5
E6
  8
1
  6
CONTINUOUS
 62
     7
 10
85.5751289096282
 20
104.821850119596
 30
0.0
  0
VERTEX
  5
E7
  8
1
  6
CONTINUOUS
 62
     7
 10
85.63211969954021
 20
104.9202144360597
 30
0.0
  0
VERTEX
  5
E8
  8
1
  6
CONTINUOUS
 62
     7
 10
85.71641387789298
 20
105.0294355666775
 30
0.0
  0
VERTEX
  5
E9
  8
1
  6
CONTINUOUS
 62
     7
 10
85.82392882082043
 20
105.132456722651
 30
0.0
  0
VERTEX
  5
EA
  8
1
  6
CONTINUOUS
 62
     7
 10
85.90535532978623
 20
105.1922924828957
 30
0.0
  0
VERTEX
  5
EB
  8
1
  6
CONTINUOUS
 62
     7
 10
85.99484825972554
 20
105.24450742461
 30
0.0
  0
VERTEX
  5
EC
  8
1
  6
CONTINUOUS
 62
     7
 10
86.08818443424714
 20
105.2869065480896
 30
0.0
  0
VERTEX
  5
ED
  8
1
  6
CONTINUOUS
 62
     7
 10
86.21518573543135
 20
105.3280239756785
 30
0.0
  0
SEQEND
  5
146
  8
1
  6
CONTINUOUS
 62
     7
  0
ARC
  5
76
  8
1
  6
CONTINUOUS
 62
     7
 10
86.73243078346627
 20
102.6472964633748
 30
0.0
 40
2.730172601675377
 50
78.31882842680187
 51
100.9209845655995
  0
POLYLINE
  5
77
  8
1
  6
CONTINUOUS
 62
     7
 66
     1
 10
0.0
 20
0.0
 30
0.0
  0
VERTEX
  5
EE
  8
1
  6
CONTINUOUS
 62
     7
 10
87.28519652832856
 20
105.320925545025
 30
0.0
  0
VERTEX
  5
EF
  8
1
  6
CONTINUOUS
 62
     7
 10
87.39102590068036
 20
105.2816291415599
 30
0.0
  0
VERTEX
  5
F0
  8
1
  6
CONTINUOUS
 62
     7
 10
87.49167714239323
 20
105.2290354082201
 30
0.0
  0
VERTEX
  5
F1
  8
1
  6
CONTINUOUS
 62
     7
 10
87.51159809712095
 20
105.2164743949727
 30
0.0
  0
SEQEND
  5
147
  8
1
  6
CONTINUOUS
 62
     7
  0
LINE
  5
78
  8
1
  6
CONTINUOUS
 62
     7
 10
85.47296385735791
 20
104.3827931700988
 30
0.0
 11
85.55679265189998
 21
93.37802997599256
 31
0.0
  0
LINE
  5
79
  8
1
  6
CONTINUOUS
 62
     7
 10
77.61615583283975
 20
93.37802997599258
 30
0.0
 11
85.55679265189998
 21
93.37802997599258
 31
0.0
  0
LINE
  5
7A
  8
1
  6
CONTINUOUS
 62
     7
 10
77.61615583283975
 20
93.37802997599256
 30
0.0
 11
77.69998462738172
 21
104.3827931700988
 31
0.0
  0
LINE
  5
7B
  8
1
  6
CONTINUOUS
 62
     7
 10
71.18318408143587
 20
93.37802997599256
 30
0.0
 11
75.15350249096599
 21
93.37802997599256
 31
0.0
  0
LINE
  5
7C
  8
1
  6
CONTINUOUS
 62
     7
 10
71.18318408143587
 20
93.37802997599256
 30
0.0
 11
71.34989114519875
 21
104.3827931700988
 31
0.0
  0
LINE
  5
7D
  8
1
  6
CONTINUOUS
 62
     7
 10
73.38669922971505
 20
115.3780299759926
 30
0.0
 11
89.78624925502469
 21
115.3780299759926
 31
0.0
  0
LINE
  5
7E
  8
1
  6
CONTINUOUS
 62
     7
 10
75.12380937687254
 20
93.37802997599256
 30
0.0
 11
77.61615583283975
 21
93.37802997599256
 31
0.0
  0
LINE
  5
7F
  8
1
  6
CONTINUOUS
 62
     7
 10
85.5567926519
 20
93.37802997599256
 30
0.0
 11
88.04913910786813
 21
93.37802997599256
 31
0.0
  0
POLYLINE
  5
80
  8
1
  6
CONTINUOUS
 62
     7
 66
     1
 10
0.0
 20
0.0
 30
0.0
  0
VERTEX
  5
F2
  8
1
  6
CONTINUOUS
 62
     7
 10
76.79835550006572
 20
105.3586680357035
 30
0.0
  0
VERTEX
  5
F3
  8
1
  6
CONTINUOUS
 62
     7
 10
76.86798151594309
 20
105.3478556139402
 30
0.0
  0
VERTEX
  5
F4
  8
1
  6
CONTINUOUS
 62
     7
 10
76.92598233806251
 20
105.3358781840935
 30
0.0
  0
VERTEX
  5
F5
  8
1
  6
CONTINUOUS
 62
     7
 10
76.98377659529571
 20
105.320925545025
 30
0.0
  0
VERTEX
  5
F6
  8
1
  6
CONTINUOUS
 62
     7
 10
77.04107500220238
 20
105.302881322319
 30
0.0
  0
VERTEX
  5
F7
  8
1
  6
CONTINUOUS
 62
     7
 10
77.09758827334223
 20
105.2816291415599
 30
0.0
  0
VERTEX
  5
F8
  8
1
  6
CONTINUOUS
 62
     7
 10
77.15302712327495
 20
105.2570526283321
 30
0.0
  0
VERTEX
  5
F9
  8
1
  6
CONTINUOUS
 62
     7
 10
77.20710226656027
 20
105.2290354082201
 30
0.0
  0
VERTEX
  5
FA
  8
1
  6
CONTINUOUS
 62
     7
 10
77.24642765343265
 20
105.2058462853785
 30
0.0
  0
VERTEX
  5
FB
  8
1
  6
CONTINUOUS
 62
     7
 10
77.28486735917566
 20
105.1806878328167
 30
0.0
  0
VERTEX
  5
FC
  8
1
  6
CONTINUOUS
 62
     7
 10
77.32227075055903
 20
105.1536033796183
 30
0.0
  0
VERTEX
  5
FD
  8
1
  6
CONTINUOUS
 62
     7
 10
77.35848719435246
 20
105.1246362548671
 30
0.0
  0
VERTEX
  5
FE
  8
1
  6
CONTINUOUS
 62
     7
 10
77.39475883625278
 20
105.0925486353629
 30
0.0
  0
VERTEX
  5
FF
  8
1
  6
CONTINUOUS
 62
     7
 10
77.42959411534578
 20
105.0584352321549
 30
0.0
  0
VERTEX
  5
100
  8
1
  6
CONTINUOUS
 62
     7
 10
77.46282537921746
 20
105.022406520641
 30
0.0
  0
VERTEX
  5
101
  8
1
  6
CONTINUOUS
 62
     7
 10
77.49428497545377
 20
104.9845729762192
 30
0.0
  0
VERTEX
  5
102
  8
1
  6
CONTINUOUS
 62
     7
 10
77.51918405905631
 20
104.9515453744101
 30
0.0
  0
VERTEX
  5
103
  8
1
  6
CONTINUOUS
 62
     7
 10
77.54274654871664
 20
104.9172957533151
 30
0.0
  0
VERTEX
  5
104
  8
1
  6
CONTINUOUS
 62
     7
 10
77.5648851820378
 20
104.8819200313681
 30
0.0
  0
VERTEX
  5
105
  8
1
  6
CONTINUOUS
 62
     7
 10
77.58551269662293
 20
104.8455141270029
 30
0.0
  0
VERTEX
  5
106
  8
1
  6
CONTINUOUS
 62
     7
 10
77.60522966858275
 20
104.8067615227586
 30
0.0
  0
VERTEX
  5
107
  8
1
  6
CONTINUOUS
 62
     7
 10
77.6232450772328
 20
104.7669730066862
 30
0.0
  0
VERTEX
  5
108
  8
1
  6
CONTINUOUS
 62
     7
 10
77.63948364934555
 20
104.7262825802334
 30
0.0
  0
VERTEX
  5
109
  8
1
  6
CONTINUOUS
 62
     7
 10
77.65387011169348
 20
104.6848242448478
 30
0.0
  0
VERTEX
  5
10A
  8
1
  6
CONTINUOUS
 62
     7
 10
77.66466317752491
 20
104.6488329923214
 30
0.0
  0
VERTEX
  5
10B
  8
1
  6
CONTINUOUS
 62
     7
 10
77.67406546831718
 20
104.6123441792928
 30
0.0
  0
VERTEX
  5
10C
  8
1
  6
CONTINUOUS
 62
     7
 10
77.68204784667256
 20
104.5754532280657
 30
0.0
  0
VERTEX
  5
10D
  8
1
  6
CONTINUOUS
 62
     7
 10
77.68858117519339
 20
104.5382555609439
 30
0.0
  0
VERTEX
  5
10E
  8
1
  6
CONTINUOUS
 62
     7
 10
77.69377777278206
 20
104.499661402705
 30
0.0
  0
VERTEX
  5
10F
  8
1
  6
CONTINUOUS
 62
     7
 10
77.69741735525061
 20
104.4608126312551
 30
0.0
  0
VERTEX
  5
110
  8
1
  6
CONTINUOUS
 62
     7
 10
77.69948971073768
 20
104.4218197269384
 30
0.0
  0
VERTEX
  5
111
  8
1
  6
CONTINUOUS
 62
     7
 10
77.69998462738184
 20
104.3827931700988
 30
0.0
  0
SEQEND
  5
148
  8
1
  6
CONTINUOUS
 62
     7
  0
LINE
  5
81
  8
1
  6
CONTINUOUS
 62
     7
 10
91.98976440330387
 20
93.37802997599256
 30
0.0
 11
93.01180397336638
 21
93.37802997599256
 31
0.0
  0
LINE
  5
82
  8
1
  6
CONTINUOUS
 62
     7
 10
70.16114451137432
 20
93.37802997599256
 30
0.0
 11
71.18318408143587
 21
93.37802997599256
 31
0.0
  0
LINE
  5
83
  8
1
  6
CONTINUOUS
 62
     7
 10
91.90652087686313
 20
105.3749210097752
 30
0.0
 11
91.90650109533183
 21
105.3762397785277
 31
0.0
  0
LINE
  5
84
  8
1
  6
CONTINUOUS
 62
     7
 10
91.90650109533183
 20
105.3762397785277
 30
0.0
 11
91.78602429298633
 21
113.408026601562
 31
0.0
  0
LINE
  5
85
  8
1
  6
CONTINUOUS
 62
     7
 10
71.38692419175341
 20
113.408026601562
 30
0.0
 11
71.26644738940789
 21
105.3762397785277
 31
0.0
  0
ARC
  5
86
  8
1
  6
CONTINUOUS
 62
     7
 10
73.38669922971503
 20
113.3780299759926
 30
0.0
 40
2.000000000000002
 50
89.99999999999969
 51
179.1406277563551
  0
ARC
  5
87
  8
1
  6
CONTINUOUS
 62
     7
 10
89.78624925502469
 20
113.3780299759926
 30
0.0
 40
1.999999999999997
 50
0.8593722436448895
 51
90.0000000000003
  0
LINE
  5
88
  8
1
  6
CONTINUOUS
 62
     7
 10
75.20636562606428
 20
104.3855298683476
 30
0.0
 11
75.12380939441988
 21
93.37803231576339
 31
0.0
  0
LINE
  5
89
  8
1
  6
CONTINUOUS
 62
     7
 10
88.04913908931667
 20
93.3780324495213
 30
0.0
 11
87.96658285335654
 21
104.3855305775378
 31
0.0
  0
ARC
  5
8A
  8
1
  6
CONTINUOUS
 62
     7
 10
77.09313313333277
 20
100.7601826865311
 30
0.0
 40
4.607909754762981
 50
93.66631890044707
 51
108.9401478543349
  0
POLYLINE
  5
8B
  8
1
  6
CONTINUOUS
 62
     7
 66
     1
 10
0.0
 20
0.0
 30
0.0
  0
VERTEX
  5
112
  8
1
  6
CONTINUOUS
 62
     7
 10
75.59749653077114
 20
105.1186116995033
 30
0.0
  0
VERTEX
  5
113
  8
1
  6
CONTINUOUS
 62
     7
 10
75.48231689147475
 20
105.0490161812695
 30
0.0
  0
VERTEX
  5
114
  8
1
  6
CONTINUOUS
 62
     7
 10
75.40366529912954
 20
104.9728593542616
 30
0.0
  0
VERTEX
  5
115
  8
1
  6
CONTINUOUS
 62
     7
 10
75.34205808600395
 20
104.8779390247124
 30
0.0
  0
VERTEX
  5
116
  8
1
  6
CONTINUOUS
 62
     7
 10
75.29882335118909
 20
104.78479928639
 30
0.0
  0
VERTEX
  5
117
  8
1
  6
CONTINUOUS
 62
     7
 10
75.26159033870853
 20
104.6847774212987
 30
0.0
  0
VERTEX
  5
118
  8
1
  6
CONTINUOUS
 62
     7
 10
75.23105745366199
 20
104.578677113965
 30
0.0
  0
VERTEX
  5
119
  8
1
  6
CONTINUOUS
 62
     7
 10
75.20956014138696
 20
104.4502456277477
 30
0.0
  0
VERTEX
  5
11A
  8
1
  6
CONTINUOUS
 62
     7
 10
75.20636562528965
 20
104.385529765064
 30
0.0
  0
SEQEND
  5
149
  8
1
  6
CONTINUOUS
 62
     7
  0
ARC
  5
8C
  8
1
  6
CONTINUOUS
 62
     7
 10
86.96661098326362
 20
104.3780299759926
 30
0.0
 40
0.999999999999992
 50
0.4297102894069699
 51
56.97405119884552
  0
ARC
  5
8D
  8
1
  6
CONTINUOUS
 62
     7
 10
91.84669147969379
 20
104.3780299759926
 30
0.0
 40
1.000000000000005
 50
0.8593722436447527
 51
86.57111507830656
  0
ARC
  5
8E
  8
1
  6
CONTINUOUS
 62
     7
 10
71.32625700504593
 20
104.3780299759926
 30
0.0
 40
0.9999999999999889
 50
93.42888492169335
 51
179.1406277563553
  0
LINE
  5
8F
  8
1
  6
CONTINUOUS
 62
     7
 10
93.01180390117906
 20
93.37803478848087
 30
0.0
 11
92.84657899867462
 21
104.3930282887773
 31
0.0
  0
LINE
  5
90
  8
1
  6
CONTINUOUS
 62
     7
 10
70.32636948606512
 20
104.3930282887773
 30
0.0
 11
70.16114458356067
 21
93.37803478848089
 31
0.0
  0
ENDBLK
  8
0
  0
BLOCK
  8
0
  2
D_FRAME_VIEW_2626
 70
     0
 10
0.0
 20
0.0
 30
0.0
  0
ARC
  5
9A
  8
1
  6
CONTINUOUS
 62
     7
 10
80.66176602418977
 20
142.0103300323826
 30
0.0
 40
12.16940834206738
 50
53.28791847394795
 51
66.71208152604646
  0
LINE
  5
9B
  8
1
  6
CONTINUOUS
 62
     7
 10
87.9365677245528
 20
151.7659314805956
 30
0.0
 11
88.01944599377374
 21
151.9105784258297
 31
0.0
  0
ARC
  5
9C
  8
1
  6
CONTINUOUS
 62
     7
 10
81.58647424236986
 20
143.6119716484459
 30
0.0
 40
10.50000000000001
 50
7.782376060725581
 51
52.2176239392743
  0
LINE
  5
9D
  8
1
  6
CONTINUOUS
 62
     7
 10
91.98976440330387
 20
145.0337852182975
 30
0.0
 11
91.82305733954097
 21
145.0343340043475
 31
0.0
  0
ARC
  5
9E
  8
1
  6
CONTINUOUS
 62
     7
 10
79.74139175955337
 20
143.6119716484465
 30
0.0
 40
12.16510410387602
 50
353.2855326860014
 51
6.714467313993509
  0
LINE
  5
9F
  8
1
  6
CONTINUOUS
 62
     7
 10
91.82305733954084
 20
142.1896092925444
 30
0.0
 11
91.98976440330387
 21
142.1901580785944
 31
0.0
  0
ARC
  5
A0
  8
1
  6
CONTINUOUS
 62
     7
 10
81.58647424236986
 20
143.6119716484459
 30
0.0
 40
10.50000000000002
 50
307.7823760607256
 51
352.2176239392745
  0
LINE
  5
A1
  8
1
  6
CONTINUOUS
 62
     7
 10
88.01944599377374
 20
135.3133648710622
 30
0.0
 11
87.93656772455283
 21
135.4580118162961
 31
0.0
  0
ARC
  5
A2
  8
1
  6
CONTINUOUS
 62
     7
 10
80.66176602419002
 20
145.2136132645111
 30
0.0
 40
12.16940834206886
 50
293.2879184739487
 51
306.7120815260456
  0
LINE
  5
A3
  8
1
  6
CONTINUOUS
 62
     7
 10
85.47296385735791
 20
134.0356494603947
 30
0.0
 11
85.55679265189998
 21
133.8915513012106
 31
0.0
  0
ARC
  5
A4
  8
1
  6
CONTINUOUS
 62
     7
 10
81.58647424236986
 20
143.6119716484459
 30
0.0
 40
10.49999999999999
 50
247.7823760607257
 51
292.2176239392743
  0
LINE
  5
A5
  8
1
  6
CONTINUOUS
 62
     7
 10
77.61615583283975
 20
133.8915513012106
 30
0.0
 11
77.69998462738172
 21
134.0356494603946
 31
0.0
  0
ARC
  5
A6
  8
1
  6
CONTINUOUS
 62
     7
 10
82.51118246054996
 20
145.2136132645092
 30
0.0
 40
12.16940834206738
 50
233.2879184739479
 51
246.7120815260465
  0
LINE
  5
A7
  8
1
  6
CONTINUOUS
 62
     7
 10
75.23638076018693
 20
135.4580118162963
 30
0.0
 11
75.15350249096599
 21
135.3133648710622
 31
0.0
  0
ARC
  5
A8
  8
1
  6
CONTINUOUS
 62
     7
 10
81.58647424236986
 20
143.6119716484459
 30
0.0
 40
10.50000000000001
 50
187.7823760607257
 51
232.2176239392744
  0
LINE
  5
A9
  8
1
  6
CONTINUOUS
 62
     7
 10
71.18318408143587
 20
142.1901580785944
 30
0.0
 11
71.34989114519875
 21
142.1896092925444
 31
0.0
  0
ARC
  5
AA
  8
1
  6
CONTINUOUS
 62
     7
 10
83.43155201904948
 20
143.6119716484453
 30
0.0
 40
12.1650994300178
 50
173.285530094413
 51
186.7144699055809
  0
LINE
  5
AB
  8
1
  6
CONTINUOUS
 62
     7
 10
71.34989114519891
 20
145.0343340043475
 30
0.0
 11
71.18318408143587
 21
145.0337852182975
 31
0.0
  0
ARC
  5
AC
  8
1
  6
CONTINUOUS
 62
     7
 10
81.58647424236986
 20
143.6119716484459
 30
0.0
 40
10.50000000000002
 50
127.7823760607257
 51
172.2176239392743
  0
LINE
  5
AD
  8
1
  6
CONTINUOUS
 62
     7
 10
75.15350249096599
 20
151.9105784258297
 30
0.0
 11
75.2363807601869
 21
151.7659314805957
 31
0.0
  0
ARC
  5
AE
  8
1
  6
CONTINUOUS
 62
     7
 10
82.51118246054898
 20
142.0103300323823
 30
0.0
 40
12.16940834206721
 50
113.2879184739483
 51
126.712081526047
  0
LINE
  5
AF
  8
1
  6
CONTINUOUS
 62
     7
 10
77.69998462738182
 20
153.1882938364972
 30
0.0
 11
77.61615583283974
 21
153.3323919956813
 31
0.0
  0
ARC
  5
B0
  8
1
  6
CONTINUOUS
 62
     7
 10
81.58647424236986
 20
143.6119716484459
 30
0.0
 40
10.50000000000002
 50
67.78237606072562
 51
112.2176239392744
  0
LINE
  5
B1
  8
1
  6
CONTINUOUS
 62
     7
 10
85.5567926519
 20
153.3323919956813
 30
0.0
 11
85.472963857358
 21
153.1882938364973
 31
0.0
  0
ARC
  5
B2
  8
1
  6
CONTINUOUS
 62
     7
 10
76.6238093768716
 20
152.2075593364259
 30
0.0
 40
1.49999999999998
 50
48.58071510117303
 51
191.4192848988271
  0
ARC
  5
B3
  8
1
  6
CONTINUOUS
 62
     7
 10
86.54913910786813
 20
152.2075593364259
 30
0.0
 40
1.500000000000004
 50
348.580715101173
 51
131.419284898827
  0
ARC
  5
B4
  8
1
  6
CONTINUOUS
 62
     7
 10
86.54913910786813
 20
135.016383960466
 30
0.0
 40
1.49999999999998
 50
228.580715101173
 51
11.41928489882696
  0
ARC
  5
B5
  8
1
  6
CONTINUOUS
 62
     7
 10
76.6238093768716
 20
135.016383960466
 30
0.0
 40
1.499999999999991
 50
168.580715101173
 51
311.419284898827
  0
ARC
  5
B6
  8
1
  6
CONTINUOUS
 62
     7
 10
91.51180397336638
 20
143.6119716484459
 30
0.0
 40
1.500000000000007
 50
288.5807151011732
 51
71.41928489882679
  0
ARC
  5
B7
  8
1
  6
CONTINUOUS
 62
     7
 10
71.66114451137334
 20
143.6119716484459
 30
0.0
 40
1.500000000000007
 50
108.580715101173
 51
251.4192848988271
  0
ENDBLK
  8
0
  0
BLOCK
  8
0
  2
D_FRAME_VIEW_2764
 70
     0
 10
0.0
 20
0.0
 30
0.0
  0
LINE
  5
BE
  8
1
  6
CONTINUOUS
 62
     7
 10
129.2014973648141
 20
142.1896092925444
 30
0.0
 11
140.2062605589204
 21
142.1901580785944
 31
0.0
  0
LINE
  5
BF
  8
1
  6
CONTINUOUS
 62
     7
 10
140.2062605589204
 20
145.0337852182975
 30
0.0
 11
129.2014973648141
 21
145.0343340043475
 31
0.0
  0
LINE
  5
C0
  8
1
  6
CONTINUOUS
 62
     7
 10
140.2062605589204
 20
142.1901580785944
 30
0.0
 11
140.2062605589204
 21
145.0337852182975
 31
0.0
  0
POLYLINE
  5
C1
  8
1
  6
CONTINUOUS
 62
     7
 66
     1
 10
0.0
 20
0.0
 30
0.0
  0
VERTEX
  5
11D
  8
1
  6
CONTINUOUS
 62
     7
 10
129.2014973648141
 20
142.1896092925444
 30
0.0
  0
VERTEX
  5
11E
  8
1
  6
CONTINUOUS
 62
     7
 10
129.0977075546382
 20
142.1955806544495
 30
0.0
  0
VERTEX
  5
11F
  8
1
  6
CONTINUOUS
 62
     7
 10
128.9795773119282
 20
142.2172272915049
 30
0.0
  0
VERTEX
  5
120
  8
1
  6
CONTINUOUS
 62
     7
 10
128.8737884083633
 20
142.2509060391
 30
0.0
  0
VERTEX
  5
121
  8
1
  6
CONTINUOUS
 62
     7
 10
128.7621506783065
 20
142.3028657585869
 30
0.0
  0
VERTEX
  5
122
  8
1
  6
CONTINUOUS
 62
     7
 10
128.6563413989273
 20
142.3705352109303
 30
0.0
  0
VERTEX
  5
123
  8
1
  6
CONTINUOUS
 62
     7
 10
128.5743360242351
 20
142.4383543058407
 30
0.0
  0
VERTEX
  5
124
  8
1
  6
CONTINUOUS
 62
     7
 10
128.493280403085
 20
142.522753763044
 30
0.0
  0
VERTEX
  5
125
  8
1
  6
CONTINUOUS
 62
     7
 10
128.4217735160067
 20
142.617190134247
 30
0.0
  0
VERTEX
  5
126
  8
1
  6
CONTINUOUS
 62
     7
 10
128.3586235804802
 20
142.7244267318571
 30
0.0
  0
VERTEX
  5
127
  8
1
  6
CONTINUOUS
 62
     7
 10
128.3073662784896
 20
142.8394352910257
 30
0.0
  0
SEQEND
  5
14A
  8
1
  6
CONTINUOUS
 62
     7
  0
ARC
  5
C2
  8
1
  6
CONTINUOUS
 62
     7
 10
131.292652348429
 20
143.6277254044747
 30
0.0
 40
3.087609791138692
 50
167.2909735749918
 51
194.791810119738
  0
POLYLINE
  5
C3
  8
1
  6
CONTINUOUS
 62
     7
 66
     1
 10
0.0
 20
0.0
 30
0.0
  0
VERTEX
  5
128
  8
1
  6
CONTINUOUS
 62
     7
 10
128.2806893149339
 20
144.3069992131812
 30
0.0
  0
VERTEX
  5
129
  8
1
  6
CONTINUOUS
 62
     7
 10
128.333571540326
 20
144.4475258009992
 30
0.0
  0
VERTEX
  5
12A
  8
1
  6
CONTINUOUS
 62
     7
 10
128.403423623993
 20
144.5784130336508
 30
0.0
  0
VERTEX
  5
12B
  8
1
  6
CONTINUOUS
 62
     7
 10
128.4917749366723
 20
144.6994212543873
 30
0.0
  0
VERTEX
  5
12C
  8
1
  6
CONTINUOUS
 62
     7
 10
128.5616544355457
 20
144.7736555486956
 30
0.0
  0
VERTEX
  5
12D
  8
1
  6
CONTINUOUS
 62
     7
 10
128.6495254326546
 20
144.8483339178158
 30
0.0
  0
VERTEX
  5
12E
  8
1
  6
CONTINUOUS
 62
     7
 10
128.7391859831581
 20
144.9080453151448
 30
0.0
  0
VERTEX
  5
12F
  8
1
  6
CONTINUOUS
 62
     7
 10
128.8372601413182
 20
144.9580081305695
 30
0.0
  0
VERTEX
  5
130
  8
1
  6
CONTINUOUS
 62
     7
 10
128.9534659657736
 20
144.999707906236
 30
0.0
  0
VERTEX
  5
131
  8
1
  6
CONTINUOUS
 62
     7
 10
129.070312041081
 20
145.0247749461448
 30
0.0
  0
VERTEX
  5
132
  8
1
  6
CONTINUOUS
 62
     7
 10
129.1720845347691
 20
145.033856863314
 30
0.0
  0
VERTEX
  5
133
  8
1
  6
CONTINUOUS
 62
     7
 10
129.2014973648141
 20
145.0343340043475
 30
0.0
  0
SEQEND
  5
14B
  8
1
  6
CONTINUOUS
 62
     7
  0
LINE
  5
C4
  8
1
  6
CONTINUOUS
 62
     7
 10
140.2062605589204
 20
133.1119716484459
 30
0.0
 11
140.2062605589204
 21
133.516383960466
 31
0.0
  0
ARC
  5
C5
  8
1
  6
CONTINUOUS
 62
     7
 10
129.1767074464209
 20
153.1220309441512
 30
0.0
 40
1.356326028324277
 50
247.7928797747586
 51
271.0472679584141
  0
POLYLINE
  5
C6
  8
1
  6
CONTINUOUS
 62
     7
 66
     1
 10
0.0
 20
0.0
 30
0.0
  0
VERTEX
  5
134
  8
1
  6
CONTINUOUS
 62
     7
 10
128.6640760988532
 20
151.8663122668191
 30
0.0
  0
VERTEX
  5
135
  8
1
  6
CONTINUOUS
 62
     7
 10
128.5548549682354
 20
151.9202492777364
 30
0.0
  0
VERTEX
  5
136
  8
1
  6
CONTINUOUS
 62
     7
 10
128.451833812262
 20
151.988688007082
 30
0.0
  0
VERTEX
  5
137
  8
1
  6
CONTINUOUS
 62
     7
 10
128.3646661916218
 20
152.0679537336068
 30
0.0
  0
VERTEX
  5
138
  8
1
  6
CONTINUOUS
 62
     7
 10
128.2973839868233
 20
152.1545183029795
 30
0.0
  0
VERTEX
  5
139
  8
1
  6
CONTINUOUS
 62
     7
 10
128.2384984914115
 20
152.2819291809547
 30
0.0
  0
VERTEX
  5
13A
  8
1
  6
CONTINUOUS
 62
     7
 10
128.2119580446899
 20
152.4281266595499
 30
0.0
  0
VERTEX
  5
13B
  8
1
  6
CONTINUOUS
 62
     7
 10
128.2069723160996
 20
152.5578038927427
 30
0.0
  0
VERTEX
  5
13C
  8
1
  6
CONTINUOUS
 62
     7
 10
128.2162175858627
 20
152.7053462142852
 30
0.0
  0
SEQEND
  5
14C
  8
1
  6
CONTINUOUS
 62
     7
  0
LINE
  5
C7
  8
1
  6
CONTINUOUS
 62
     7
 10
129.2014973648141
 20
151.7659314805956
 30
0.0
 11
140.2062605589204
 21
151.9105784258297
 31
0.0
  0
LINE
  5
C8
  8
1
  6
CONTINUOUS
 62
     7
 10
140.2062605589204
 20
135.3133648710622
 30
0.0
 11
129.2014973648141
 21
135.4580118162961
 31
0.0
  0
LINE
  5
C9
  8
1
  6
CONTINUOUS
 62
     7
 10
140.2062605589204
 20
135.3133648710622
 30
0.0
 11
140.2062605589204
 21
142.1901580785944
 31
0.0
  0
LINE
  5
CA
  8
1
  6
CONTINUOUS
 62
     7
 10
140.2062605589204
 20
145.0337852182975
 30
0.0
 11
140.2062605589204
 21
151.9105784258297
 31
0.0
  0
LINE
  5
CB
  8
1
  6
CONTINUOUS
 62
     7
 10
140.2062605589204
 20
153.7075593364259
 30
0.0
 11
140.2062605589204
 21
154.1119716484459
 31
0.0
  0
LINE
  5
CC
  8
1
  6
CONTINUOUS
 62
     7
 10
118.2062605589204
 20
135.4121966357911
 30
0.0
 11
118.2062605589204
 21
143.6119716484459
 31
0.0
  0
LINE
  5
CD
  8
1
  6
CONTINUOUS
 62
     7
 10
118.2062605589204
 20
143.6119716484459
 30
0.0
 11
118.2062605589204
 21
151.8117466611008
 31
0.0
  0
LINE
  5
CE
  8
1
  6
CONTINUOUS
 62
     7
 10
140.2062605589204
 20
151.9105784258297
 30
0.0
 11
140.2062605589204
 21
153.7075593364259
 31
0.0
  0
LINE
  5
CF
  8
1
  6
CONTINUOUS
 62
     7
 10
140.2062605589204
 20
133.5163839604669
 30
0.0
 11
140.2062605589204
 21
135.3133648710622
 31
0.0
  0
POLYLINE
  5
D0
  8
1
  6
CONTINUOUS
 62
     7
 66
     1
 10
0.0
 20
0.0
 30
0.0
  0
VERTEX
  5
13D
  8
1
  6
CONTINUOUS
 62
     7
 10
128.2162244917323
 20
134.5185485126826
 30
0.0
  0
VERTEX
  5
13E
  8
1
  6
CONTINUOUS
 62
     7
 10
128.2069723160996
 20
134.6830739868232
 30
0.0
  0
VERTEX
  5
13F
  8
1
  6
CONTINUOUS
 62
     7
 10
128.2170909190817
 20
134.8503770614704
 30
0.0
  0
VERTEX
  5
140
  8
1
  6
CONTINUOUS
 62
     7
 10
128.2484123508194
 20
134.9716543367568
 30
0.0
  0
VERTEX
  5
141
  8
1
  6
CONTINUOUS
 62
     7
 10
128.302661393353
 20
135.077393140836
 30
0.0
  0
VERTEX
  5
142
  8
1
  6
CONTINUOUS
 62
     7
 10
128.3784442495345
 20
135.1704414430226
 30
0.0
  0
VERTEX
  5
143
  8
1
  6
CONTINUOUS
 62
     7
 10
128.4596542800459
 20
135.2412611128527
 30
0.0
  0
VERTEX
  5
144
  8
1
  6
CONTINUOUS
 62
     7
 10
128.5618840142719
 20
135.3077108703312
 30
0.0
  0
VERTEX
  5
145
  8
1
  6
CONTINUOUS
 62
     7
 10
128.6669947815978
 20
135.3588599509828
 30
0.0
  0
SEQEND
  5
14D
  8
1
  6
CONTINUOUS
 62
     7
  0
ARC
  5
D1
  8
1
  6
CONTINUOUS
 62
     7
 10
129.1737545273634
 20
134.1173064929364
 30
0.0
 40
1.340992329998682
 50
88.81456375770586
 51
112.2036063949357
  0
LINE
  5
D2
  8
1
  6
CONTINUOUS
 62
     7
 10
140.2062605589204
 20
154.1119716484459
 30
0.0
 11
120.1762639333509
 21
153.8115216990624
 31
0.0
  0
LINE
  5
D3
  8
1
  6
CONTINUOUS
 62
     7
 10
120.1762639333509
 20
133.4124215978295
 30
0.0
 11
140.2062605589204
 21
133.1119716484459
 31
0.0
  0
ARC
  5
D4
  8
1
  6
CONTINUOUS
 62
     7
 10
120.2062605589204
 20
135.4121966357911
 30
0.0
 40
2.000000000000002
 50
179.9999999999997
 51
269.1406277563551
  0
ARC
  5
D5
  8
1
  6
CONTINUOUS
 62
     7
 10
120.2062605589204
 20
151.8117466611008
 30
0.0
 40
2.000000000000011
 50
90.8593722436449
 51
180.0000000000003
  0
ARC
  5
D6
  8
1
  6
CONTINUOUS
 62
     7
 10
129.2062605589204
 20
152.5645807733607
 30
0.0
 40
1.000000000000014
 50
90.74425214651995
 51
171.9177534972026
  0
LINE
  5
D7
  8
1
  6
CONTINUOUS
 62
     7
 10
140.2062563523495
 20
153.707559281781
 30
0.0
 11
129.1932707407813
 21
153.564496402114
 31
0.0
  0
LINE
  5
D8
  8
1
  6
CONTINUOUS
 62
     7
 10
129.1932698226205
 20
133.6594469067052
 30
0.0
 11
140.2062564295486
 21
133.5163840141081
 31
0.0
  0
ARC
  5
D9
  8
1
  6
CONTINUOUS
 62
     7
 10
129.2062605589204
 20
134.6593625235312
 30
0.0
 40
0.9999999999999859
 50
188.0937907219535
 51
269.2557478534801
  0
ENDBLK
  8
0
  0
ENDSEC
  0
SECTION
  2
ENTITIES
  0
INSERT
  5
91
  8
1
  6
CONTINUOUS
 62
     7
  2
D_FRAME_VIEW_2823
 10
0.0
 20
0.0
 30
0.0
  0
TEXT
  5
92
  8
1
  6
CONTINUOUS
 62
     7
 10
116.3032031623967
 20
106.9403916809581
 30
0.0
 40
3.0
  1
CD14-C-BM
  0
LINE
  5
93
  8
1
  6
CONTINUOUS
 62
     2
 10
116.3880787407386
 20
106.3824261939005
 30
0.0
 11
131.8244423771022
 21
106.3824261939005
 31
0.0
  0
LINE
  5
94
  8
1
  6
CENTER
 62
     1
 10
81.58647424236986
 20
131.1119716484459
 30
0.0
 11
81.58647424236986
 21
156.1119716484459
 31
0.0
  0
LINE
  5
96
  8
1
  6
CENTER
 62
     1
 10
69.08647424236986
 20
143.6119716484459
 30
0.0
 11
94.08647424236987
 21
143.6119716484459
 31
0.0
  0
INSERT
  5
B8
  8
1
  6
CONTINUOUS
 62
     7
  2
D_FRAME_VIEW_2626
 10
0.0
 20
0.0
 30
0.0
  0
LINE
  5
B9
  8
1
  6
CENTER
 62
     1
 10
81.58647424236986
 20
119.4780299759926
 30
0.0
 11
81.58647424236986
 21
89.47802997599258
 31
0.0
  0
LINE
  5
BA
  8
1
  6
CENTER
 62
     1
 10
114.1062605589204
 20
143.6119716484459
 30
0.0
 11
149.1062605589204
 21
143.6119716484459
 31
0.0
  0
INSERT
  5
DA
  8
1
  6
CONTINUOUS
 62
     7
  2
D_FRAME_VIEW_2764
 10
0.0
 20
0.0
 30
0.0
  0
ENDSEC
  0
EOF
