  0
SECTION
  2
HEADER
  9
$ACADVER
  1
AC1006
  9
$DWGCODEPAGE
  3
ansi_932
  9
$INSBASE
 10
0.0
 20
0.0
 30
0.0
  9
$EXTMIN
 10
63.06631209378795
 20
88.19512696036603
  9
$EXTMAX
 10
148.479020732387
 20
157.3230230239506
  9
$LIMMIN
 10
0.0
 20
0.0
  9
$LIMMAX
 10
12.0
 20
9.0
  9
$ORTHOMODE
 70
     0
  9
$REGENMODE
 70
     1
  9
$FILLMODE
 70
     1
  9
$QTEXTMODE
 70
     0
  9
$MIRRTEXT
 70
     1
  9
$DRAGMODE
 70
     2
  9
$LTSCALE
 40
1.0
  9
$OSMODE
 70
    37
  9
$ATTMODE
 70
     1
  9
$TEXTSIZE
 40
0.2
  9
$TRACEWID
 40
0.05
  9
$TEXTSTYLE
  7
STANDARD
  9
$CLAYER
  8
0
  9
$CELTYPE
  6
BYLAYER
  9
$CECOLOR
 62
   256
  9
$DIMSCALE
 40
1.0
  9
$DIMASZ
 40
3.0
  9
$DIMEXO
 40
0.0625
  9
$DIMDLI
 40
0.38
  9
$DIMRND
 40
0.0
  9
$DIMDLE
 40
0.0
  9
$DIMEXE
 40
1.5
  9
$DIMTP
 40
0.0
  9
$DIMTM
 40
0.0
  9
$DIMTXT
 40
3.0
  9
$DIMCEN
 40
0.09
  9
$DIMTSZ
 40
0.0
  9
$DIMTOL
 70
     0
  9
$DIMLIM
 70
     0
  9
$DIMTIH
 70
     1
  9
$DIMTOH
 70
     1
  9
$DIMSE1
 70
     0
  9
$DIMSE2
 70
     0
  9
$DIMTAD
 70
     1
  9
$DIMZIN
 70
     0
  9
$DIMBLK
  1

  9
$DIMASO
 70
     1
  9
$DIMSHO
 70
     1
  9
$DIMPOST
  1

  9
$DIMAPOST
  1

  9
$DIMALT
 70
     0
  9
$DIMALTD
 70
     2
  9
$DIMALTF
 40
25.4
  9
$DIMLFAC
 40
1.0
  9
$DIMTOFL
 70
     0
  9
$DIMTVP
 40
0.0
  9
$DIMTIX
 70
     0
  9
$DIMSOXD
 70
     0
  9
$DIMSAH
 70
     0
  9
$DIMBLK1
  1

  9
$DIMBLK2
  1

  9
$LUNITS
 70
     2
  9
$LUPREC
 70
     4
  9
$SKETCHINC
 40
0.1
  9
$FILLETRAD
 40
0.5
  9
$AUNITS
 70
     0
  9
$AUPREC
 70
     0
  9
$MENU
  1
.
  9
$ELEVATION
 40
0.0
  9
$THICKNESS
 40
0.0
  9
$LIMCHECK
 70
     0
  9
$CHAMFERA
 40
0.0
  9
$CHAMFERB
 40
0.0
  9
$SKPOLY
 70
     0
  9
$TDCREATE
 40
2460745.6608775
  9
$TDUPDATE
 40
2460745.660877732
  9
$TDINDWG
 40
0.0000000116
  9
$TDUSRTIMER
 40
0.0000000116
  9
$USRTIMER
 70
     1
  9
$ANGBASE
 50
0.0
  9
$ANGDIR
 70
     0
  9
$PDMODE
 70
     0
  9
$PDSIZE
 40
0.0
  9
$PLINEWID
 40
0.0
  9
$COORDS
 70
     1
  9
$SPLFRAME
 70
     0
  9
$SPLINETYPE
 70
     6
  9
$SPLINESEGS
 70
     8
  9
$ATTDIA
 70
     0
  9
$ATTREQ
 70
     1
  9
$HANDLING
 70
     1
  9
$HANDSEED
  5
186
  9
$SURFTAB1
 70
     6
  9
$SURFTAB2
 70
     6
  9
$SURFTYPE
 70
     6
  9
$SURFU
 70
     6
  9
$SURFV
 70
     6
  9
$UCSNAME
  2

  9
$UCSORG
 10
0.0
 20
0.0
 30
0.0
  9
$UCSXDIR
 10
1.0
 20
0.0
 30
0.0
  9
$UCSYDIR
 10
0.0
 20
1.0
 30
0.0
  9
$USERI1
 70
     0
  9
$USERI2
 70
     0
  9
$USERI3
 70
     0
  9
$USERI4
 70
     0
  9
$USERI5
 70
     0
  9
$USERR1
 40
0.0
  9
$USERR2
 40
0.0
  9
$USERR3
 40
0.0
  9
$USERR4
 40
0.0
  9
$USERR5
 40
0.0
  9
$WORLDVIEW
 70
     1
  0
ENDSEC
  0
SECTION
  2
TABLES
  0
TABLE
  2
VPORT
 70
     1
  0
VPORT
  2
*ACTIVE
 70
     0
 10
0.0
 20
0.0
 11
1.0
 21
1.0
 12
105.7726664130875
 22
122.7590749921583
 13
0.0
 23
0.0
 14
0.5
 24
0.5
 15
0.5
 25
0.5
 16
0.0
 26
0.0
 36
1.0
 17
0.0
 27
0.0
 37
0.0
 40
69.12789606358453
 41
1.6
 42
50.0
 43
0.0
 44
0.0
 50
0.0
 51
0.0
 71
     0
 72
   100
 73
     1
 74
     3
 75
     0
 76
     0
 77
     0
 78
     0
  0
ENDTAB
  0
TABLE
  2
LTYPE
 70
     2
  0
LTYPE
  2
CONTINUOUS
 70
     0
  3
Solid line
 72
    65
 73
     0
 40
0.0
  0
LTYPE
  2
CENTER
 70
     0
  3

 72
    65
 73
     0
 40
0.0
  0
ENDTAB
  0
TABLE
  2
LAYER
 70
     2
  0
LAYER
  2
0
 70
     0
 62
     7
  6
CONTINUOUS
  0
LAYER
  2
1
 70
     0
 62
     7
  6
CONTINUOUS
  0
ENDTAB
  0
TABLE
  2
STYLE
 70
     2
  0
STYLE
  2
STANDARD
 70
     0
 40
0.0
 41
1.0
 50
0.0
 71
     0
 42
0.2
  3
txt
  4

  0
STYLE
  2
ＭＳ_ゴシック
 70
     0
 40
0.0
 41
1.0
 50
0.0
 71
     0
 42
0.2
  3
ＭＳ ゴシック.shx
  4

  0
ENDTAB
  0
TABLE
  2
VIEW
 70
     0
  0
ENDTAB
  0
TABLE
  2
UCS
 70
     0
  0
ENDTAB
  0
ENDSEC
  0
SECTION
  2
BLOCKS
  0
BLOCK
  8
0
  2
D_FRAME_VIEW_2849
 70
     0
 10
0.0
 20
0.0
 30
0.0
  0
LINE
  5
71
  8
1
  6
CONTINUOUS
 62
     7
 10
75.32363618579257
 20
90.2926201904729
 30
0.0
 11
75.49663496302699
 21
102.3100725969102
 31
0.0
  0
LINE
  5
72
  8
1
  6
CONTINUOUS
 62
     7
 10
78.03598922454886
 20
102.3100725969102
 30
0.0
 11
78.20898800178327
 21
90.2926201904729
 31
0.0
  0
LINE
  5
73
  8
1
  6
CONTINUOUS
 62
     7
 10
75.32363618579258
 20
90.2926201904729
 30
0.0
 11
78.20898800178327
 21
90.2926201904729
 31
0.0
  0
LINE
  5
74
  8
1
  6
CONTINUOUS
 62
     7
 10
76.70189850248984
 20
103.2926201904729
 30
0.0
 11
76.83072568508601
 21
103.2926201904729
 31
0.0
  0
POLYLINE
  5
75
  8
1
  6
CONTINUOUS
 62
     7
 66
     1
 10
0.0
 20
0.0
 30
0.0
  0
VERTEX
  5
F5
  8
1
  6
CONTINUOUS
 62
     7
 10
76.83072568508601
 20
103.2926201904729
 30
0.0
  0
VERTEX
  5
F6
  8
1
  6
CONTINUOUS
 62
     7
 10
76.93057597218503
 20
103.2919679062566
 30
0.0
  0
VERTEX
  5
F7
  8
1
  6
CONTINUOUS
 62
     7
 10
77.02588297456074
 20
103.2884008604448
 30
0.0
  0
VERTEX
  5
F8
  8
1
  6
CONTINUOUS
 62
     7
 10
77.07355790190354
 20
103.2847912254345
 30
0.0
  0
VERTEX
  5
F9
  8
1
  6
CONTINUOUS
 62
     7
 10
77.1210886214882
 20
103.2796760570055
 30
0.0
  0
VERTEX
  5
FA
  8
1
  6
CONTINUOUS
 62
     7
 10
77.16865351743363
 20
103.2728488146845
 30
0.0
  0
VERTEX
  5
FB
  8
1
  6
CONTINUOUS
 62
     7
 10
77.21598623468955
 20
103.2642004269555
 30
0.0
  0
VERTEX
  5
FC
  8
1
  6
CONTINUOUS
 62
     7
 10
77.2632758171725
 20
103.253566898619
 30
0.0
  0
VERTEX
  5
FD
  8
1
  6
CONTINUOUS
 62
     7
 10
77.31015128084306
 20
103.2409213699988
 30
0.0
  0
VERTEX
  5
FE
  8
1
  6
CONTINUOUS
 62
     7
 10
77.356914425379
 20
103.2260758144219
 30
0.0
  0
VERTEX
  5
FF
  8
1
  6
CONTINUOUS
 62
     7
 10
77.40304732996792
 20
103.2090976463386
 30
0.0
  0
VERTEX
  5
100
  8
1
  6
CONTINUOUS
 62
     7
 10
77.44871274293378
 20
103.1898452508011
 30
0.0
  0
VERTEX
  5
101
  8
1
  6
CONTINUOUS
 62
     7
 10
77.49351282677881
 20
103.1684095989743
 30
0.0
  0
VERTEX
  5
102
  8
1
  6
CONTINUOUS
 62
     7
 10
77.53481464249026
 20
103.1462274906366
 30
0.0
  0
VERTEX
  5
103
  8
1
  6
CONTINUOUS
 62
     7
 10
77.57514089457551
 20
103.1221308411854
 30
0.0
  0
VERTEX
  5
104
  8
1
  6
CONTINUOUS
 62
     7
 10
77.61467817735549
 20
103.0959434223839
 30
0.0
  0
VERTEX
  5
105
  8
1
  6
CONTINUOUS
 62
     7
 10
77.65302527617854
 20
103.0678657848822
 30
0.0
  0
VERTEX
  5
106
  8
1
  6
CONTINUOUS
 62
     7
 10
77.69047666562264
 20
103.0376006421795
 30
0.0
  0
VERTEX
  5
107
  8
1
  6
CONTINUOUS
 62
     7
 10
77.72650818462193
 20
103.0054871771959
 30
0.0
  0
VERTEX
  5
108
  8
1
  6
CONTINUOUS
 62
     7
 10
77.76126965605785
 20
102.9713189321891
 30
0.0
  0
VERTEX
  5
109
  8
1
  6
CONTINUOUS
 62
     7
 10
77.79438651215428
 20
102.9353879608077
 30
0.0
  0
VERTEX
  5
10A
  8
1
  6
CONTINUOUS
 62
     7
 10
77.8213505726643
 20
102.9032843041318
 30
0.0
  0
VERTEX
  5
10B
  8
1
  6
CONTINUOUS
 62
     7
 10
77.84696831963215
 20
102.8699949124215
 30
0.0
  0
VERTEX
  5
10C
  8
1
  6
CONTINUOUS
 62
     7
 10
77.87133620998428
 20
102.8353395500163
 30
0.0
  0
VERTEX
  5
10D
  8
1
  6
CONTINUOUS
 62
     7
 10
77.8941830866453
 20
102.7996577456109
 30
0.0
  0
VERTEX
  5
10E
  8
1
  6
CONTINUOUS
 62
     7
 10
77.91561763818697
 20
102.7627287151508
 30
0.0
  0
VERTEX
  5
10F
  8
1
  6
CONTINUOUS
 62
     7
 10
77.93541566029633
 20
102.7248917381737
 30
0.0
  0
VERTEX
  5
110
  8
1
  6
CONTINUOUS
 62
     7
 10
77.95368661058538
 20
102.6858726746485
 30
0.0
  0
VERTEX
  5
111
  8
1
  6
CONTINUOUS
 62
     7
 10
77.97024077472206
 20
102.6459971740595
 30
0.0
  0
VERTEX
  5
112
  8
1
  6
CONTINUOUS
 62
     7
 10
77.9803644058287
 20
102.6187928691845
 30
0.0
  0
VERTEX
  5
113
  8
1
  6
CONTINUOUS
 62
     7
 10
77.98967686561551
 20
102.5912707734655
 30
0.0
  0
VERTEX
  5
114
  8
1
  6
CONTINUOUS
 62
     7
 10
77.99785013771154
 20
102.5645480879648
 30
0.0
  0
VERTEX
  5
115
  8
1
  6
CONTINUOUS
 62
     7
 10
78.00524846801704
 20
102.5375993897258
 30
0.0
  0
VERTEX
  5
116
  8
1
  6
CONTINUOUS
 62
     7
 10
78.01188587913877
 20
102.5103545803888
 30
0.0
  0
VERTEX
  5
117
  8
1
  6
CONTINUOUS
 62
     7
 10
78.0177301248938
 20
102.4829279969125
 30
0.0
  0
VERTEX
  5
118
  8
1
  6
CONTINUOUS
 62
     7
 10
78.0228357482102
 20
102.4549833774238
 30
0.0
  0
VERTEX
  5
119
  8
1
  6
CONTINUOUS
 62
     7
 10
78.02711708714699
 20
102.4269005101471
 30
0.0
  0
VERTEX
  5
11A
  8
1
  6
CONTINUOUS
 62
     7
 10
78.0305804324036
 20
102.3986042159109
 30
0.0
  0
VERTEX
  5
11B
  8
1
  6
CONTINUOUS
 62
     7
 10
78.03320630288667
 20
102.3702184126802
 30
0.0
  0
VERTEX
  5
11C
  8
1
  6
CONTINUOUS
 62
     7
 10
78.03506668681841
 20
102.3401814719956
 30
0.0
  0
VERTEX
  5
11D
  8
1
  6
CONTINUOUS
 62
     7
 10
78.03598922454886
 20
102.3100725969102
 30
0.0
  0
SEQEND
  5
180
  8
1
  6
CONTINUOUS
 62
     7
  0
POLYLINE
  5
76
  8
1
  6
CONTINUOUS
 62
     7
 66
     1
 10
0.0
 20
0.0
 30
0.0
  0
VERTEX
  5
11E
  8
1
  6
CONTINUOUS
 62
     7
 10
75.49663496302699
 20
102.3100725969102
 30
0.0
  0
VERTEX
  5
11F
  8
1
  6
CONTINUOUS
 62
     7
 10
75.50395885790576
 20
102.4150945718987
 30
0.0
  0
VERTEX
  5
120
  8
1
  6
CONTINUOUS
 62
     7
 10
75.53058536042707
 20
102.5496678485107
 30
0.0
  0
VERTEX
  5
121
  8
1
  6
CONTINUOUS
 62
     7
 10
75.57027614551032
 20
102.6656354795965
 30
0.0
  0
VERTEX
  5
122
  8
1
  6
CONTINUOUS
 62
     7
 10
75.62349995291207
 20
102.7743160292449
 30
0.0
  0
VERTEX
  5
123
  8
1
  6
CONTINUOUS
 62
     7
 10
75.69065527922469
 20
102.8767270879467
 30
0.0
  0
VERTEX
  5
124
  8
1
  6
CONTINUOUS
 62
     7
 10
75.78749996963933
 20
102.9876075455577
 30
0.0
  0
VERTEX
  5
125
  8
1
  6
CONTINUOUS
 62
     7
 10
75.89244024782363
 20
103.0775797532532
 30
0.0
  0
VERTEX
  5
126
  8
1
  6
CONTINUOUS
 62
     7
 10
75.98546549108306
 20
103.1391171552888
 30
0.0
  0
VERTEX
  5
127
  8
1
  6
CONTINUOUS
 62
     7
 10
76.10410627302943
 20
103.1986709407491
 30
0.0
  0
VERTEX
  5
128
  8
1
  6
CONTINUOUS
 62
     7
 10
76.22881142852944
 20
103.2427589431771
 30
0.0
  0
SEQEND
  5
181
  8
1
  6
CONTINUOUS
 62
     7
  0
ARC
  5
77
  8
1
  6
CONTINUOUS
 62
     7
 10
76.6363469367832
 20
101.6453055361837
 30
0.0
 40
1.64861838458833
 50
87.72123224978945
 51
104.31177821443
  0
LINE
  5
78
  8
1
  6
CONTINUOUS
 62
     7
 10
88.46631209378789
 20
90.2926201904729
 30
0.0
 11
87.96579661617363
 21
90.2926201904729
 31
0.0
  0
LINE
  5
79
  8
1
  6
CONTINUOUS
 62
     7
 10
86.74322082063004
 20
103.2926201904729
 30
0.0
 11
86.78701332873364
 21
103.2921415510715
 31
0.0
  0
ARC
  5
7A
  8
1
  6
CONTINUOUS
 62
     7
 10
87.42581755662329
 20
102.3386069682304
 30
0.0
 40
1.396483102050277
 50
153.1409214430589
 51
181.1708074596143
  0
POLYLINE
  5
7B
  8
1
  6
CONTINUOUS
 62
     7
 66
     1
 10
0.0
 20
0.0
 30
0.0
  0
VERTEX
  5
129
  8
1
  6
CONTINUOUS
 62
     7
 10
86.17998644095465
 20
102.9695347656397
 30
0.0
  0
VERTEX
  5
12A
  8
1
  6
CONTINUOUS
 62
     7
 10
86.24855090817428
 20
103.0776271181723
 30
0.0
  0
VERTEX
  5
12B
  8
1
  6
CONTINUOUS
 62
     7
 10
86.3261817681571
 20
103.165387792568
 30
0.0
  0
VERTEX
  5
12C
  8
1
  6
CONTINUOUS
 62
     7
 10
86.42497082837136
 20
103.2387760444515
 30
0.0
  0
VERTEX
  5
12D
  8
1
  6
CONTINUOUS
 62
     7
 10
86.54466128262312
 20
103.2823468267119
 30
0.0
  0
VERTEX
  5
12E
  8
1
  6
CONTINUOUS
 62
     7
 10
86.67880722933197
 20
103.2926201904729
 30
0.0
  0
SEQEND
  5
182
  8
1
  6
CONTINUOUS
 62
     7
  0
LINE
  5
7C
  8
1
  6
CONTINUOUS
 62
     7
 10
86.10014766730168
 20
90.2926201904729
 30
0.0
 11
86.02962600674006
 21
102.3100725969102
 31
0.0
  0
LINE
  5
7D
  8
1
  6
CONTINUOUS
 62
     7
 10
67.50299818083579
 20
102.3100725969102
 30
0.0
 11
67.43247652027416
 21
90.2926201904729
 31
0.0
  0
POLYLINE
  5
7E
  8
1
  6
CONTINUOUS
 62
     7
 66
     1
 10
0.0
 20
0.0
 30
0.0
  0
VERTEX
  5
12F
  8
1
  6
CONTINUOUS
 62
     7
 10
66.85381695824388
 20
103.2926201904729
 30
0.0
  0
VERTEX
  5
130
  8
1
  6
CONTINUOUS
 62
     7
 10
67.00340234275102
 20
103.2796760570055
 30
0.0
  0
VERTEX
  5
131
  8
1
  6
CONTINUOUS
 62
     7
 10
67.10341820595515
 20
103.2411214504522
 30
0.0
  0
VERTEX
  5
132
  8
1
  6
CONTINUOUS
 62
     7
 10
67.2032184155043
 20
103.1684095989743
 30
0.0
  0
VERTEX
  5
133
  8
1
  6
CONTINUOUS
 62
     7
 10
67.29086616320812
 20
103.0683951514081
 30
0.0
  0
VERTEX
  5
134
  8
1
  6
CONTINUOUS
 62
     7
 10
67.35173889139867
 20
102.9711940961728
 30
0.0
  0
SEQEND
  5
183
  8
1
  6
CONTINUOUS
 62
     7
  0
ARC
  5
7F
  8
1
  6
CONTINUOUS
 62
     7
 10
66.10130458199588
 20
102.3372405637136
 30
0.0
 40
1.401956862192628
 50
358.8896182757622
 51
26.88440096224104
  0
LINE
  5
80
  8
1
  6
CONTINUOUS
 62
     7
 10
86.10014766730168
 20
90.2926201904729
 30
0.0
 11
78.20898800178327
 21
90.2926201904729
 31
0.0
  0
LINE
  5
81
  8
1
  6
CONTINUOUS
 62
     7
 10
65.56682757140221
 20
90.2926201904729
 30
0.0
 11
65.06631209378794
 21
90.2926201904729
 31
0.0
  0
LINE
  5
82
  8
1
  6
CONTINUOUS
 62
     7
 10
75.32363618579257
 20
90.2926201904729
 30
0.0
 11
67.43247652027415
 21
90.2926201904729
 31
0.0
  0
LINE
  5
83
  8
1
  6
CONTINUOUS
 62
     7
 10
67.4332565189449
 20
114.2926201904729
 30
0.0
 11
86.09936766863095
 21
114.2926201904729
 31
0.0
  0
LINE
  5
84
  8
1
  6
CONTINUOUS
 62
     7
 10
65.56682757140221
 20
90.2926201904729
 30
0.0
 11
67.43247652027416
 21
90.2926201904729
 31
0.0
  0
LINE
  5
85
  8
1
  6
CONTINUOUS
 62
     7
 10
86.10014766730168
 20
90.2926201904729
 30
0.0
 11
87.96579661617363
 21
90.2926201904729
 31
0.0
  0
LINE
  5
86
  8
1
  6
CONTINUOUS
 62
     7
 10
66.74806312553245
 20
103.292210317318
 30
0.0
 11
66.7894033669458
 21
103.2926201904729
 31
0.0
  0
LINE
  5
87
  8
1
  6
CONTINUOUS
 62
     7
 10
66.78940336694579
 20
103.2926201904729
 30
0.0
 11
66.85381695824387
 21
103.2926201904729
 31
0.0
  0
LINE
  5
88
  8
1
  6
CONTINUOUS
 62
     7
 10
86.67880722933198
 20
103.2926201904729
 30
0.0
 11
86.74322082063006
 21
103.2926201904729
 31
0.0
  0
LINE
  5
89
  8
1
  6
CONTINUOUS
 62
     7
 10
88.46631209378789
 20
90.2926201904729
 30
0.0
 11
88.09908994871016
 21
112.3259488951408
 31
0.0
  0
LINE
  5
8A
  8
1
  6
CONTINUOUS
 62
     7
 10
65.43353423886569
 20
112.3259488951408
 30
0.0
 11
65.06631209378794
 21
90.2926201904729
 31
0.0
  0
ARC
  5
8B
  8
1
  6
CONTINUOUS
 62
     7
 10
67.4332565189449
 20
112.2926201904729
 30
0.0
 40
2.000000000000002
 50
90.0
 51
179.0451587461303
  0
ARC
  5
8C
  8
1
  6
CONTINUOUS
 62
     7
 10
86.09936766863095
 20
112.2926201904729
 30
0.0
 40
2.000000000000004
 50
0.9548412538696928
 51
90.0
  0
LINE
  5
8D
  8
1
  6
CONTINUOUS
 62
     7
 10
65.77659298342833
 20
102.3100725969102
 30
0.0
 11
65.56682757140221
 21
90.2926201904729
 31
0.0
  0
LINE
  5
8E
  8
1
  6
CONTINUOUS
 62
     7
 10
87.96579661617363
 20
90.2926201904729
 30
0.0
 11
87.75603120414752
 21
102.3100725969102
 31
0.0
  0
ARC
  5
8F
  8
1
  6
CONTINUOUS
 62
     7
 10
66.77644067858473
 20
102.2926201904729
 30
0.0
 40
0.999999999999995
 50
91.37716620650505
 51
179.0000000000005
  0
ARC
  5
90
  8
1
  6
CONTINUOUS
 62
     7
 10
86.75618350899111
 20
102.2926201904729
 30
0.0
 40
1.000000000000012
 50
1.000000000000242
 51
90.0
  0
ENDBLK
  8
0
  0
BLOCK
  8
0
  2
D_FRAME_VIEW_2626
 70
     0
 10
0.0
 20
0.0
 30
0.0
  0
ARC
  5
98
  8
1
  6
CONTINUOUS
 62
     7
 10
76.76631209378792
 20
143.6230230239506
 30
0.0
 40
11.69999999999999
 50
157.0829187458976
 51
202.9170812541024
  0
LINE
  5
99
  8
1
  6
CONTINUOUS
 62
     7
 10
66.23332105007486
 20
148.2381513719528
 30
0.0
 11
65.98980061227881
 21
148.178986181056
 31
0.0
  0
LINE
  5
9A
  8
1
  6
CONTINUOUS
 62
     7
 10
66.7894033669458
 20
149.3088155545224
 30
0.0
 11
66.23332105007486
 21
148.2381513719528
 31
0.0
  0
ARC
  5
9B
  8
1
  6
CONTINUOUS
 62
     7
 10
76.76631209378792
 20
143.6230230239506
 30
0.0
 40
11.48333333333333
 50
149.6786084517725
 51
150.3213915482274
  0
LINE
  5
9C
  8
1
  6
CONTINUOUS
 62
     7
 10
67.50299818083579
 20
150.437296671639
 30
0.0
 11
66.85381695824388
 21
149.4203831673486
 31
0.0
  0
LINE
  5
9D
  8
1
  6
CONTINUOUS
 62
     7
 10
67.43247652027416
 20
150.6777741525595
 30
0.0
 11
67.50299818083579
 21
150.437296671639
 31
0.0
  0
ARC
  5
9E
  8
1
  6
CONTINUOUS
 62
     7
 10
76.76631209378792
 20
143.6230230239506
 30
0.0
 40
11.69999999999998
 50
97.08291874589757
 51
142.9170812541024
  0
LINE
  5
9F
  8
1
  6
CONTINUOUS
 62
     7
 10
75.49663496302699
 20
155.0524250196412
 30
0.0
 11
75.32363618579258
 21
155.2337373096648
 31
0.0
  0
LINE
  5
A0
  8
1
  6
CONTINUOUS
 62
     7
 10
76.70189850248984
 20
155.1061756979204
 30
0.0
 11
75.49663496302699
 21
155.0524250196412
 31
0.0
  0
ARC
  5
A1
  8
1
  6
CONTINUOUS
 62
     7
 10
76.76631209378792
 20
143.6230230239506
 30
0.0
 40
11.48333333333335
 50
89.67860845177256
 51
90.32139154822744
  0
LINE
  5
A2
  8
1
  6
CONTINUOUS
 62
     7
 10
78.03598922454886
 20
155.0524250196412
 30
0.0
 11
76.83072568508601
 21
155.1061756979204
 31
0.0
  0
LINE
  5
A3
  8
1
  6
CONTINUOUS
 62
     7
 10
78.20898800178328
 20
155.2337373096648
 30
0.0
 11
78.03598922454886
 21
155.0524250196412
 31
0.0
  0
ARC
  5
A4
  8
1
  6
CONTINUOUS
 62
     7
 10
76.76631209378792
 20
143.6230230239506
 30
0.0
 40
11.69999999999997
 50
37.08291874589759
 51
82.91708125410241
  0
LINE
  5
A5
  8
1
  6
CONTINUOUS
 62
     7
 10
86.02962600674007
 20
150.437296671639
 30
0.0
 11
86.10014766730168
 21
150.6777741525595
 31
0.0
  0
LINE
  5
A6
  8
1
  6
CONTINUOUS
 62
     7
 10
86.67880722933197
 20
149.4203831673486
 30
0.0
 11
86.02962600674007
 21
150.437296671639
 31
0.0
  0
ARC
  5
A7
  8
1
  6
CONTINUOUS
 62
     7
 10
76.76631209378792
 20
143.6230230239506
 30
0.0
 40
11.48333333333333
 50
29.67860845177258
 51
30.32139154822745
  0
LINE
  5
A8
  8
1
  6
CONTINUOUS
 62
     7
 10
87.29930313750098
 20
148.2381513719528
 30
0.0
 11
86.74322082063004
 21
149.3088155545223
 31
0.0
  0
LINE
  5
A9
  8
1
  6
CONTINUOUS
 62
     7
 10
87.54282357529705
 20
148.178986181056
 30
0.0
 11
87.29930313750098
 21
148.2381513719528
 31
0.0
  0
ARC
  5
AA
  8
1
  6
CONTINUOUS
 62
     7
 10
76.76631209378792
 20
143.6230230239506
 30
0.0
 40
11.69999999999999
 50
337.0829187458976
 51
22.91708125410236
  0
LINE
  5
AB
  8
1
  6
CONTINUOUS
 62
     7
 10
87.29930313750098
 20
139.0078946759484
 30
0.0
 11
87.54282357529705
 21
139.0670598668452
 31
0.0
  0
LINE
  5
AC
  8
1
  6
CONTINUOUS
 62
     7
 10
86.74322082063004
 20
137.9372304933788
 30
0.0
 11
87.29930313750098
 21
139.0078946759484
 31
0.0
  0
ARC
  5
AD
  8
1
  6
CONTINUOUS
 62
     7
 10
76.76631209378792
 20
143.6230230239506
 30
0.0
 40
11.48333333333333
 50
329.6786084517726
 51
330.3213915482274
  0
LINE
  5
AE
  8
1
  6
CONTINUOUS
 62
     7
 10
86.02962600674006
 20
136.8087493762622
 30
0.0
 11
86.67880722933197
 21
137.8256628805525
 31
0.0
  0
LINE
  5
AF
  8
1
  6
CONTINUOUS
 62
     7
 10
86.10014766730168
 20
136.5682718953417
 30
0.0
 11
86.02962600674006
 21
136.8087493762622
 31
0.0
  0
ARC
  5
B0
  8
1
  6
CONTINUOUS
 62
     7
 10
76.76631209378792
 20
143.6230230239506
 30
0.0
 40
11.69999999999998
 50
277.0829187458976
 51
322.9170812541024
  0
LINE
  5
B1
  8
1
  6
CONTINUOUS
 62
     7
 10
78.03598922454886
 20
132.19362102826
 30
0.0
 11
78.20898800178327
 21
132.0123087382363
 31
0.0
  0
LINE
  5
B2
  8
1
  6
CONTINUOUS
 62
     7
 10
76.83072568508601
 20
132.1398703499807
 30
0.0
 11
78.03598922454886
 21
132.19362102826
 31
0.0
  0
ARC
  5
B3
  8
1
  6
CONTINUOUS
 62
     7
 10
76.76631209378792
 20
143.6230230239506
 30
0.0
 40
11.48333333333335
 50
269.6786084517726
 51
270.3213915482274
  0
LINE
  5
B4
  8
1
  6
CONTINUOUS
 62
     7
 10
75.49663496302699
 20
132.19362102826
 30
0.0
 11
76.70189850248984
 21
132.1398703499807
 31
0.0
  0
LINE
  5
B5
  8
1
  6
CONTINUOUS
 62
     7
 10
75.32363618579257
 20
132.0123087382363
 30
0.0
 11
75.49663496302699
 21
132.19362102826
 31
0.0
  0
ARC
  5
B6
  8
1
  6
CONTINUOUS
 62
     7
 10
76.76631209378792
 20
143.6230230239506
 30
0.0
 40
11.69999999999997
 50
217.0829187458976
 51
262.9170812541024
  0
LINE
  5
B7
  8
1
  6
CONTINUOUS
 62
     7
 10
67.50299818083579
 20
136.8087493762622
 30
0.0
 11
67.43247652027416
 21
136.5682718953417
 31
0.0
  0
LINE
  5
B8
  8
1
  6
CONTINUOUS
 62
     7
 10
66.85381695824388
 20
137.8256628805525
 30
0.0
 11
67.50299818083579
 21
136.8087493762622
 31
0.0
  0
ARC
  5
B9
  8
1
  6
CONTINUOUS
 62
     7
 10
76.76631209378792
 20
143.6230230239506
 30
0.0
 40
11.48333333333334
 50
209.6786084517726
 51
210.3213915482275
  0
LINE
  5
BA
  8
1
  6
CONTINUOUS
 62
     7
 10
66.23332105007486
 20
139.0078946759484
 30
0.0
 11
66.7894033669458
 21
137.9372304933788
 31
0.0
  0
LINE
  5
BB
  8
1
  6
CONTINUOUS
 62
     7
 10
65.9898006122788
 20
139.0670598668452
 30
0.0
 11
66.23332105007486
 21
139.0078946759484
 31
0.0
  0
ARC
  5
BC
  8
1
  6
CONTINUOUS
 62
     7
 10
67.06682757140221
 20
138.0230230239506
 30
0.0
 40
1.499999999999994
 50
135.8910821186287
 51
284.1089178813712
  0
ARC
  5
BD
  8
1
  6
CONTINUOUS
 62
     7
 10
67.06682757140221
 20
149.2230230239506
 30
0.0
 40
1.500000000000015
 50
75.89108211862872
 51
224.1089178813713
  0
ARC
  5
BE
  8
1
  6
CONTINUOUS
 62
     7
 10
86.46579661617363
 20
149.2230230239506
 30
0.0
 40
1.499999999999994
 50
315.8910821186288
 51
104.1089178813712
  0
ARC
  5
BF
  8
1
  6
CONTINUOUS
 62
     7
 10
76.76631209378792
 20
132.4230230239505
 30
0.0
 40
1.499999999999988
 50
195.8910821186287
 51
344.1089178813713
  0
ARC
  5
C0
  8
1
  6
CONTINUOUS
 62
     7
 10
76.76631209378792
 20
154.8230230239506
 30
0.0
 40
1.499999999999988
 50
15.89108211862873
 51
164.1089178813713
  0
ARC
  5
C1
  8
1
  6
CONTINUOUS
 62
     7
 10
86.46579661617363
 20
138.0230230239506
 30
0.0
 40
1.500000000000015
 50
255.8910821186288
 51
44.10891788137133
  0
ENDBLK
  8
0
  0
BLOCK
  8
0
  2
D_FRAME_VIEW_2795
 70
     0
 10
0.0
 20
0.0
 30
0.0
  0
LINE
  5
CA
  8
1
  6
CONTINUOUS
 62
     7
 10
128.5615683259498
 20
155.0524250196412
 30
0.0
 11
127.579020732387
 21
155.1061756979204
 31
0.0
  0
LINE
  5
CB
  8
1
  6
CONTINUOUS
 62
     7
 10
140.579020732387
 20
155.2337373096648
 30
0.0
 11
128.5615683259498
 21
155.0524250196412
 31
0.0
  0
LINE
  5
CC
  8
1
  6
CONTINUOUS
 62
     7
 10
140.579020732387
 20
155.2337373096649
 30
0.0
 11
140.579020732387
 21
150.7230230239506
 31
0.0
  0
LINE
  5
CD
  8
1
  6
CONTINUOUS
 62
     7
 10
127.579020732387
 20
149.4203831673486
 30
0.0
 11
127.6128173055974
 21
149.7711907113598
 31
0.0
  0
POLYLINE
  5
CE
  8
1
  6
CONTINUOUS
 62
     7
 66
     1
 10
0.0
 20
0.0
 30
0.0
  0
VERTEX
  5
137
  8
1
  6
CONTINUOUS
 62
     7
 10
128.5615683259498
 20
148.2381513719528
 30
0.0
  0
VERTEX
  5
138
  8
1
  6
CONTINUOUS
 62
     7
 10
128.5215541080775
 20
148.2391388320404
 30
0.0
  0
VERTEX
  5
139
  8
1
  6
CONTINUOUS
 62
     7
 10
128.4815971495967
 20
148.2416587714746
 30
0.0
  0
VERTEX
  5
13A
  8
1
  6
CONTINUOUS
 62
     7
 10
128.4418016419041
 20
148.2457013441771
 30
0.0
  0
VERTEX
  5
13B
  8
1
  6
CONTINUOUS
 62
     7
 10
128.4022717763966
 20
148.2512567040696
 30
0.0
  0
VERTEX
  5
13C
  8
1
  6
CONTINUOUS
 62
     7
 10
128.3618990754097
 20
148.2585526580303
 30
0.0
  0
VERTEX
  5
13D
  8
1
  6
CONTINUOUS
 62
     7
 10
128.3218813548235
 20
148.2674340913531
 30
0.0
  0
VERTEX
  5
13E
  8
1
  6
CONTINUOUS
 62
     7
 10
128.2823275107044
 20
148.277870454954
 30
0.0
  0
VERTEX
  5
13F
  8
1
  6
CONTINUOUS
 62
     7
 10
128.2433464391189
 20
148.2898311997489
 30
0.0
  0
VERTEX
  5
140
  8
1
  6
CONTINUOUS
 62
     7
 10
128.2060610237925
 20
148.3029002906159
 30
0.0
  0
VERTEX
  5
141
  8
1
  6
CONTINUOUS
 62
     7
 10
128.1693802707026
 20
148.317376723324
 30
0.0
  0
VERTEX
  5
142
  8
1
  6
CONTINUOUS
 62
     7
 10
128.1333958810042
 20
148.33321610409
 30
0.0
  0
VERTEX
  5
143
  8
1
  6
CONTINUOUS
 62
     7
 10
128.0981995558522
 20
148.3503740391301
 30
0.0
  0
VERTEX
  5
144
  8
1
  6
CONTINUOUS
 62
     7
 10
128.0628540483553
 20
148.3693793815246
 30
0.0
  0
VERTEX
  5
145
  8
1
  6
CONTINUOUS
 62
     7
 10
128.0284015791713
 20
148.3897334915106
 30
0.0
  0
VERTEX
  5
146
  8
1
  6
CONTINUOUS
 62
     7
 10
127.994929591804
 20
148.4113730863745
 30
0.0
  0
VERTEX
  5
147
  8
1
  6
CONTINUOUS
 62
     7
 10
127.9625255297573
 20
148.4342348834029
 30
0.0
  0
VERTEX
  5
148
  8
1
  6
CONTINUOUS
 62
     7
 10
127.9317778663599
 20
148.4578462390226
 30
0.0
  0
VERTEX
  5
149
  8
1
  6
CONTINUOUS
 62
     7
 10
127.9021061572202
 20
148.4825809403785
 30
0.0
  0
VERTEX
  5
14A
  8
1
  6
CONTINUOUS
 62
     7
 10
127.8735786777979
 20
148.5083680548842
 30
0.0
  0
VERTEX
  5
14B
  8
1
  6
CONTINUOUS
 62
     7
 10
127.8462637035524
 20
148.5351366499533
 30
0.0
  0
VERTEX
  5
14C
  8
1
  6
CONTINUOUS
 62
     7
 10
127.8194809583494
 20
148.5636374237857
 30
0.0
  0
VERTEX
  5
14D
  8
1
  6
CONTINUOUS
 62
     7
 10
127.7940138046876
 20
148.5931090180811
 30
0.0
  0
VERTEX
  5
14E
  8
1
  6
CONTINUOUS
 62
     7
 10
127.7699176043453
 20
148.6234662793544
 30
0.0
  0
VERTEX
  5
14F
  8
1
  6
CONTINUOUS
 62
     7
 10
127.7472477191003
 20
148.6546240541201
 30
0.0
  0
VERTEX
  5
150
  8
1
  6
CONTINUOUS
 62
     7
 10
127.7260298375111
 20
148.6865324200672
 30
0.0
  0
VERTEX
  5
151
  8
1
  6
CONTINUOUS
 62
     7
 10
127.7062531302919
 20
148.7191691772554
 30
0.0
  0
VERTEX
  5
152
  8
1
  6
CONTINUOUS
 62
     7
 10
127.6879496983266
 20
148.7524454612019
 30
0.0
  0
VERTEX
  5
153
  8
1
  6
CONTINUOUS
 62
     7
 10
127.6711516424988
 20
148.7862724074238
 30
0.0
  0
VERTEX
  5
154
  8
1
  6
CONTINUOUS
 62
     7
 10
127.6506131750382
 20
148.8333725234131
 30
0.0
  0
VERTEX
  5
155
  8
1
  6
CONTINUOUS
 62
     7
 10
127.6328648784084
 20
148.8813084378275
 30
0.0
  0
VERTEX
  5
156
  8
1
  6
CONTINUOUS
 62
     7
 10
127.6179053474383
 20
148.9298587308921
 30
0.0
  0
VERTEX
  5
157
  8
1
  6
CONTINUOUS
 62
     7
 10
127.6005956881021
 20
149.0049167243861
 30
0.0
  0
VERTEX
  5
158
  8
1
  6
CONTINUOUS
 62
     7
 10
127.5892940961481
 20
149.0807441246074
 30
0.0
  0
VERTEX
  5
159
  8
1
  6
CONTINUOUS
 62
     7
 10
127.5827588723569
 20
149.1569382104447
 30
0.0
  0
VERTEX
  5
15A
  8
1
  6
CONTINUOUS
 62
     7
 10
127.5797483175097
 20
149.2330962607867
 30
0.0
  0
VERTEX
  5
15B
  8
1
  6
CONTINUOUS
 62
     7
 10
127.579020732387
 20
149.3088155545223
 30
0.0
  0
SEQEND
  5
184
  8
1
  6
CONTINUOUS
 62
     7
  0
LINE
  5
CF
  8
1
  6
CONTINUOUS
 62
     7
 10
140.579020732387
 20
148.178986181056
 30
0.0
 11
128.5615683259498
 21
148.2381513719528
 31
0.0
  0
LINE
  5
D0
  8
1
  6
CONTINUOUS
 62
     7
 10
140.579020732387
 20
148.178986181056
 30
0.0
 11
140.579020732387
 21
139.0670598668452
 31
0.0
  0
LINE
  5
D1
  8
1
  6
CONTINUOUS
 62
     7
 10
128.5615683259498
 20
139.0078946759484
 30
0.0
 11
140.579020732387
 21
139.0670598668452
 31
0.0
  0
POLYLINE
  5
D2
  8
1
  6
CONTINUOUS
 62
     7
 66
     1
 10
0.0
 20
0.0
 30
0.0
  0
VERTEX
  5
15C
  8
1
  6
CONTINUOUS
 62
     7
 10
127.579020732387
 20
137.9372304933788
 30
0.0
  0
VERTEX
  5
15D
  8
1
  6
CONTINUOUS
 62
     7
 10
127.5797070409133
 20
138.0216955253592
 30
0.0
  0
VERTEX
  5
15E
  8
1
  6
CONTINUOUS
 62
     7
 10
127.5832698235435
 20
138.1064812235648
 30
0.0
  0
VERTEX
  5
15F
  8
1
  6
CONTINUOUS
 62
     7
 10
127.5919648658544
 20
138.1912347748853
 30
0.0
  0
VERTEX
  5
160
  8
1
  6
CONTINUOUS
 62
     7
 10
127.5988141360958
 20
138.233205137164
 30
0.0
  0
VERTEX
  5
161
  8
1
  6
CONTINUOUS
 62
     7
 10
127.6074791678753
 20
138.2750258576805
 30
0.0
  0
VERTEX
  5
162
  8
1
  6
CONTINUOUS
 62
     7
 10
127.6180257002827
 20
138.3165772883434
 30
0.0
  0
VERTEX
  5
163
  8
1
  6
CONTINUOUS
 62
     7
 10
127.6305194724078
 20
138.3577397810611
 30
0.0
  0
VERTEX
  5
164
  8
1
  6
CONTINUOUS
 62
     7
 10
127.6454912557592
 20
138.3996610200397
 30
0.0
  0
VERTEX
  5
165
  8
1
  6
CONTINUOUS
 62
     7
 10
127.6626153468283
 20
138.4410478157675
 30
0.0
  0
VERTEX
  5
166
  8
1
  6
CONTINUOUS
 62
     7
 10
127.6818694635566
 20
138.4817501122406
 30
0.0
  0
VERTEX
  5
167
  8
1
  6
CONTINUOUS
 62
     7
 10
127.7032313238856
 20
138.5216178534551
 30
0.0
  0
VERTEX
  5
168
  8
1
  6
CONTINUOUS
 62
     7
 10
127.7254591116195
 20
138.558609809652
 30
0.0
  0
VERTEX
  5
169
  8
1
  6
CONTINUOUS
 62
     7
 10
127.74958095438
 20
138.5947417876596
 30
0.0
  0
VERTEX
  5
16A
  8
1
  6
CONTINUOUS
 62
     7
 10
127.7755315937848
 20
138.6298868696679
 30
0.0
  0
VERTEX
  5
16B
  8
1
  6
CONTINUOUS
 62
     7
 10
127.8032457714519
 20
138.6639181378668
 30
0.0
  0
VERTEX
  5
16C
  8
1
  6
CONTINUOUS
 62
     7
 10
127.8338324567104
 20
138.6979686346632
 30
0.0
  0
VERTEX
  5
16D
  8
1
  6
CONTINUOUS
 62
     7
 10
127.8662697333477
 20
138.7307122801811
 30
0.0
  0
VERTEX
  5
16E
  8
1
  6
CONTINUOUS
 62
     7
 10
127.9004468266872
 20
138.7620199506347
 30
0.0
  0
VERTEX
  5
16F
  8
1
  6
CONTINUOUS
 62
     7
 10
127.9362529620523
 20
138.7917625222388
 30
0.0
  0
VERTEX
  5
170
  8
1
  6
CONTINUOUS
 62
     7
 10
127.9683043826218
 20
138.8160303330474
 30
0.0
  0
VERTEX
  5
171
  8
1
  6
CONTINUOUS
 62
     7
 10
128.0015063742287
 20
138.8390748739279
 30
0.0
  0
VERTEX
  5
172
  8
1
  6
CONTINUOUS
 62
     7
 10
128.0357698801493
 20
138.8608267218721
 30
0.0
  0
VERTEX
  5
173
  8
1
  6
CONTINUOUS
 62
     7
 10
128.0710058436598
 20
138.8812164538718
 30
0.0
  0
VERTEX
  5
174
  8
1
  6
CONTINUOUS
 62
     7
 10
128.1083269946781
 20
138.9007801868419
 30
0.0
  0
VERTEX
  5
175
  8
1
  6
CONTINUOUS
 62
     7
 10
128.1466158267378
 20
138.9188400366312
 30
0.0
  0
VERTEX
  5
176
  8
1
  6
CONTINUOUS
 62
     7
 10
128.1857591435437
 20
138.9353373325115
 30
0.0
  0
VERTEX
  5
177
  8
1
  6
CONTINUOUS
 62
     7
 10
128.2256437488004
 20
138.9502134037545
 30
0.0
  0
VERTEX
  5
178
  8
1
  6
CONTINUOUS
 62
     7
 10
128.2653796012595
 20
138.963181656432
 30
0.0
  0
VERTEX
  5
179
  8
1
  6
CONTINUOUS
 62
     7
 10
128.305751735145
 20
138.9745570745878
 30
0.0
  0
VERTEX
  5
17A
  8
1
  6
CONTINUOUS
 62
     7
 10
128.3466432436098
 20
138.9843045325032
 30
0.0
  0
VERTEX
  5
17B
  8
1
  6
CONTINUOUS
 62
     7
 10
128.3879372198066
 20
138.9923889044597
 30
0.0
  0
VERTEX
  5
17C
  8
1
  6
CONTINUOUS
 62
     7
 10
128.4309667440838
 20
138.9989735742028
 30
0.0
  0
VERTEX
  5
17D
  8
1
  6
CONTINUOUS
 62
     7
 10
128.4743385283495
 20
139.0037620064188
 30
0.0
  0
VERTEX
  5
17E
  8
1
  6
CONTINUOUS
 62
     7
 10
128.5179174348795
 20
139.0067403305275
 30
0.0
  0
VERTEX
  5
17F
  8
1
  6
CONTINUOUS
 62
     7
 10
128.5615683259498
 20
139.0078946759484
 30
0.0
  0
SEQEND
  5
185
  8
1
  6
CONTINUOUS
 62
     7
  0
LINE
  5
D3
  8
1
  6
CONTINUOUS
 62
     7
 10
140.579020732387
 20
136.5230230239506
 30
0.0
 11
140.579020732387
 21
132.0123087382363
 31
0.0
  0
LINE
  5
D4
  8
1
  6
CONTINUOUS
 62
     7
 10
128.5615683259498
 20
132.19362102826
 30
0.0
 11
140.579020732387
 21
132.0123087382363
 31
0.0
  0
LINE
  5
D5
  8
1
  6
CONTINUOUS
 62
     7
 10
127.579020732387
 20
132.1398703499807
 30
0.0
 11
128.5615683259498
 21
132.19362102826
 31
0.0
  0
LINE
  5
D6
  8
1
  6
CONTINUOUS
 62
     7
 10
116.579020732387
 20
134.2899674491075
 30
0.0
 11
116.579020732387
 21
143.6230230239506
 31
0.0
  0
LINE
  5
D7
  8
1
  6
CONTINUOUS
 62
     7
 10
116.579020732387
 20
143.6230230239506
 30
0.0
 11
116.579020732387
 21
152.9560785987936
 31
0.0
  0
LINE
  5
D8
  8
1
  6
CONTINUOUS
 62
     7
 10
140.579020732387
 20
136.5230230239506
 30
0.0
 11
140.579020732387
 21
139.0670598668452
 31
0.0
  0
LINE
  5
D9
  8
1
  6
CONTINUOUS
 62
     7
 10
140.579020732387
 20
148.178986181056
 30
0.0
 11
140.579020732387
 21
150.7230230239506
 31
0.0
  0
LINE
  5
DA
  8
1
  6
CONTINUOUS
 62
     7
 10
127.6128310289182
 20
137.4748039060763
 30
0.0
 11
127.5790207323871
 21
137.8256628805525
 31
0.0
  0
LINE
  5
DB
  8
1
  6
CONTINUOUS
 62
     7
 10
127.579020732387
 20
137.8256628805525
 30
0.0
 11
127.579020732387
 21
137.9372304933788
 31
0.0
  0
LINE
  5
DC
  8
1
  6
CONTINUOUS
 62
     7
 10
127.579020732387
 20
149.3088155545224
 30
0.0
 11
127.579020732387
 21
149.4203831673486
 31
0.0
  0
LINE
  5
DD
  8
1
  6
CONTINUOUS
 62
     7
 10
140.579020732387
 20
155.2337373096648
 30
0.0
 11
140.579020732387
 21
156.3230230239506
 31
0.0
  0
LINE
  5
DE
  8
1
  6
CONTINUOUS
 62
     7
 10
140.579020732387
 20
130.9230230239506
 30
0.0
 11
140.579020732387
 21
132.0123087382363
 31
0.0
  0
LINE
  5
DF
  8
1
  6
CONTINUOUS
 62
     7
 10
127.579020732387
 20
132.1326361311331
 30
0.0
 11
127.579020732387
 21
132.1398703499807
 31
0.0
  0
LINE
  5
E0
  8
1
  6
CONTINUOUS
 62
     7
 10
127.579020732387
 20
155.1061756979204
 30
0.0
 11
127.579020732387
 21
155.1134099167681
 31
0.0
  0
LINE
  5
E1
  8
1
  6
CONTINUOUS
 62
     7
 10
127.5790207323871
 20
155.1063563572839
 30
0.0
 11
118.5456920277191
 21
154.9558008788728
 31
0.0
  0
LINE
  5
E2
  8
1
  6
CONTINUOUS
 62
     7
 10
118.5456920277191
 20
132.2902451690283
 30
0.0
 11
127.5790207323871
 21
132.1396896906172
 31
0.0
  0
ARC
  5
E3
  8
1
  6
CONTINUOUS
 62
     7
 10
118.5790207323871
 20
134.2899674491075
 30
0.0
 40
2.000000000000002
 50
180.0
 51
269.0451587461303
  0
ARC
  5
E4
  8
1
  6
CONTINUOUS
 62
     7
 10
118.5790207323871
 20
152.9560785987936
 30
0.0
 40
2.000000000000018
 50
90.9548412538697
 51
180.0
  0
LINE
  5
E5
  8
1
  6
CONTINUOUS
 62
     7
 10
128.5615683259498
 20
136.7327884359767
 30
0.0
 11
140.579020732387
 21
136.5230230239506
 31
0.0
  0
LINE
  5
E6
  8
1
  6
CONTINUOUS
 62
     7
 10
140.579020732387
 20
150.7230230239506
 30
0.0
 11
128.5615683259498
 21
150.5132576119244
 31
0.0
  0
ARC
  5
E7
  8
1
  6
CONTINUOUS
 62
     7
 10
128.579020732387
 20
137.7326361311331
 30
0.0
 40
1.0
 50
194.9417942419572
 51
268.9999999999998
  0
ARC
  5
E8
  8
1
  6
CONTINUOUS
 62
     7
 10
128.579020732387
 20
149.5134099167681
 30
0.0
 40
0.9999999999999831
 50
90.99999999999946
 51
165.0614738514854
  0
LINE
  5
E9
  8
1
  6
CONTINUOUS
 62
     7
 10
140.579020732387
 20
156.3230230239506
 30
0.0
 11
128.5615683259498
 21
156.1132576119245
 31
0.0
  0
LINE
  5
EA
  8
1
  6
CONTINUOUS
 62
     7
 10
128.5615683259498
 20
131.1327884359767
 30
0.0
 11
140.579020732387
 21
130.9230230239506
 31
0.0
  0
ARC
  5
EB
  8
1
  6
CONTINUOUS
 62
     7
 10
128.579020732387
 20
132.1326361311331
 30
0.0
 40
1.000000000000001
 50
180.0
 51
268.9999999999998
  0
ARC
  5
EC
  8
1
  6
CONTINUOUS
 62
     7
 10
128.579020732387
 20
155.1134099167681
 30
0.0
 40
1.000000000000011
 50
91.00000000000026
 51
180.0
  0
ENDBLK
  8
0
  0
ENDSEC
  0
SECTION
  2
ENTITIES
  0
INSERT
  5
91
  8
1
  6
CONTINUOUS
 62
     7
  2
D_FRAME_VIEW_2849
 10
0.0
 20
0.0
 30
0.0
  0
LINE
  5
92
  8
1
  6
CENTER
 62
     1
 10
63.06631209378795
 20
143.6230230239506
 30
0.0
 11
90.4663120937879
 21
143.6230230239506
 31
0.0
  0
LINE
  5
94
  8
1
  6
CENTER
 62
     1
 10
76.76631209378792
 20
129.9230230239506
 30
0.0
 11
76.76631209378792
 21
157.3230230239506
 31
0.0
  0
INSERT
  5
C2
  8
1
  6
CONTINUOUS
 62
     7
  2
D_FRAME_VIEW_2626
 10
0.0
 20
0.0
 30
0.0
  0
LINE
  5
C3
  8
1
  6
CENTER
 62
     1
 10
148.479020732387
 20
143.6230230239506
 30
0.0
 11
113.4790207323871
 21
143.6230230239506
 31
0.0
  0
LINE
  5
C4
  8
1
  6
CENTER
 62
     1
 10
76.76631209378792
 20
117.3926201904729
 30
0.0
 11
76.76631209378792
 21
88.19512696036603
 31
0.0
  0
TEXT
  5
C5
  8
1
  6
CONTINUOUS
 62
     7
 10
115.6759633358633
 20
101.9514430564628
 30
0.0
 40
3.0
  1
CD16-C-BM
  0
LINE
  5
C6
  8
1
  6
CONTINUOUS
 62
     2
 10
115.7608389142052
 20
101.3934775694051
 30
0.0
 11
131.1972025505688
 21
101.3934775694051
 31
0.0
  0
INSERT
  5
ED
  8
1
  6
CONTINUOUS
 62
     7
  2
D_FRAME_VIEW_2795
 10
0.0
 20
0.0
 30
0.0
  0
ENDSEC
  0
EOF
