  0
SECTION
  2
HEADER
  9
$ACADVER
  1
AC1006
  9
$DWGCODEPAGE
  3
ansi_932
  9
$INSBASE
 10
0.0
 20
0.0
 30
0.0
  9
$EXTMIN
 10
71.43478018278232
 20
72.37918527987252
  9
$EXTMAX
 10
176.9580237231021
 20
158.828962692946
  9
$LIMMIN
 10
0.0
 20
0.0
  9
$LIMMAX
 10
12.0
 20
9.0
  9
$ORTHOMODE
 70
     0
  9
$REGENMODE
 70
     1
  9
$FILLMODE
 70
     1
  9
$QTEXTMODE
 70
     0
  9
$MIRRTEXT
 70
     1
  9
$DRAGMODE
 70
     2
  9
$LTSCALE
 40
1.0
  9
$OSMODE
 70
    37
  9
$ATTMODE
 70
     1
  9
$TEXTSIZE
 40
0.2
  9
$TRACEWID
 40
0.05
  9
$TEXTSTYLE
  7
STANDARD
  9
$CLAYER
  8
0
  9
$CELTYPE
  6
BYLAYER
  9
$CECOLOR
 62
   256
  9
$DIMSCALE
 40
1.0
  9
$DIMASZ
 40
3.0
  9
$DIMEXO
 40
0.0625
  9
$DIMDLI
 40
0.38
  9
$DIMRND
 40
0.0
  9
$DIMDLE
 40
0.0
  9
$DIMEXE
 40
1.5
  9
$DIMTP
 40
0.0
  9
$DIMTM
 40
0.0
  9
$DIMTXT
 40
3.0
  9
$DIMCEN
 40
0.09
  9
$DIMTSZ
 40
0.0
  9
$DIMTOL
 70
     0
  9
$DIMLIM
 70
     0
  9
$DIMTIH
 70
     1
  9
$DIMTOH
 70
     1
  9
$DIMSE1
 70
     0
  9
$DIMSE2
 70
     0
  9
$DIMTAD
 70
     1
  9
$DIMZIN
 70
     0
  9
$DIMBLK
  1

  9
$DIMASO
 70
     1
  9
$DIMSHO
 70
     1
  9
$DIMPOST
  1

  9
$DIMAPOST
  1

  9
$DIMALT
 70
     0
  9
$DIMALTD
 70
     2
  9
$DIMALTF
 40
25.4
  9
$DIMLFAC
 40
1.0
  9
$DIMTOFL
 70
     0
  9
$DIMTVP
 40
0.0
  9
$DIMTIX
 70
     0
  9
$DIMSOXD
 70
     0
  9
$DIMSAH
 70
     0
  9
$DIMBLK1
  1

  9
$DIMBLK2
  1

  9
$LUNITS
 70
     2
  9
$LUPREC
 70
     4
  9
$SKETCHINC
 40
0.1
  9
$FILLETRAD
 40
0.5
  9
$AUNITS
 70
     0
  9
$AUPREC
 70
     0
  9
$MENU
  1
.
  9
$ELEVATION
 40
0.0
  9
$THICKNESS
 40
0.0
  9
$LIMCHECK
 70
     0
  9
$CHAMFERA
 40
0.0
  9
$CHAMFERB
 40
0.0
  9
$SKPOLY
 70
     0
  9
$TDCREATE
 40
2460745.66038375
  9
$TDUPDATE
 40
2460745.660383982
  9
$TDINDWG
 40
0.0000000116
  9
$TDUSRTIMER
 40
0.0000000116
  9
$USRTIMER
 70
     1
  9
$ANGBASE
 50
0.0
  9
$ANGDIR
 70
     0
  9
$PDMODE
 70
     0
  9
$PDSIZE
 40
0.0
  9
$PLINEWID
 40
0.0
  9
$COORDS
 70
     1
  9
$SPLFRAME
 70
     0
  9
$SPLINETYPE
 70
     6
  9
$SPLINESEGS
 70
     8
  9
$ATTDIA
 70
     0
  9
$ATTREQ
 70
     1
  9
$HANDLING
 70
     1
  9
$HANDSEED
  5
21B
  9
$SURFTAB1
 70
     6
  9
$SURFTAB2
 70
     6
  9
$SURFTYPE
 70
     6
  9
$SURFU
 70
     6
  9
$SURFV
 70
     6
  9
$UCSNAME
  2

  9
$UCSORG
 10
0.0
 20
0.0
 30
0.0
  9
$UCSXDIR
 10
1.0
 20
0.0
 30
0.0
  9
$UCSYDIR
 10
0.0
 20
1.0
 30
0.0
  9
$USERI1
 70
     0
  9
$USERI2
 70
     0
  9
$USERI3
 70
     0
  9
$USERI4
 70
     0
  9
$USERI5
 70
     0
  9
$USERR1
 40
0.0
  9
$USERR2
 40
0.0
  9
$USERR3
 40
0.0
  9
$USERR4
 40
0.0
  9
$USERR5
 40
0.0
  9
$WORLDVIEW
 70
     1
  0
ENDSEC
  0
SECTION
  2
TABLES
  0
TABLE
  2
VPORT
 70
     1
  0
VPORT
  2
*ACTIVE
 70
     0
 10
0.0
 20
0.0
 11
1.0
 21
1.0
 12
124.1964019529422
 22
115.6040739864092
 13
0.0
 23
0.0
 14
0.5
 24
0.5
 15
0.5
 25
0.5
 16
0.0
 26
0.0
 36
1.0
 17
0.0
 27
0.0
 37
0.0
 40
86.44977741307348
 41
1.6
 42
50.0
 43
0.0
 44
0.0
 50
0.0
 51
0.0
 71
     0
 72
   100
 73
     1
 74
     3
 75
     0
 76
     0
 77
     0
 78
     0
  0
ENDTAB
  0
TABLE
  2
LTYPE
 70
     2
  0
LTYPE
  2
CONTINUOUS
 70
     0
  3
Solid line
 72
    65
 73
     0
 40
0.0
  0
LTYPE
  2
CENTER
 70
     0
  3

 72
    65
 73
     0
 40
0.0
  0
ENDTAB
  0
TABLE
  2
LAYER
 70
     2
  0
LAYER
  2
0
 70
     0
 62
     7
  6
CONTINUOUS
  0
LAYER
  2
1
 70
     0
 62
     7
  6
CONTINUOUS
  0
ENDTAB
  0
TABLE
  2
STYLE
 70
     2
  0
STYLE
  2
STANDARD
 70
     0
 40
0.0
 41
1.0
 50
0.0
 71
     0
 42
0.2
  3
txt
  4

  0
STYLE
  2
ＭＳ_ゴシック
 70
     0
 40
0.0
 41
1.0
 50
0.0
 71
     0
 42
0.2
  3
ＭＳ ゴシック.shx
  4

  0
ENDTAB
  0
TABLE
  2
VIEW
 70
     0
  0
ENDTAB
  0
TABLE
  2
UCS
 70
     0
  0
ENDTAB
  0
ENDSEC
  0
SECTION
  2
BLOCKS
  0
BLOCK
  8
0
  2
D_FRAME_VIEW_2883
 70
     0
 10
0.0
 20
0.0
 30
0.0
  0
LINE
  5
71
  8
1
  6
CONTINUOUS
 62
     7
 10
85.48904642585804
 20
95.03375882581469
 30
0.0
 11
85.54874577834552
 21
78.52918527987251
 31
0.0
  0
LINE
  5
72
  8
1
  6
CONTINUOUS
 62
     7
 10
91.2208145872191
 20
78.52918527987251
 30
0.0
 11
91.28051393970661
 21
95.03375882581469
 31
0.0
  0
LINE
  5
73
  8
1
  6
CONTINUOUS
 62
     7
 10
85.54874577834552
 20
78.52918527987251
 30
0.0
 11
91.2208145872191
 21
78.52918527987251
 31
0.0
  0
POLYLINE
  5
74
  8
1
  6
CONTINUOUS
 62
     7
 66
     1
 10
0.0
 20
0.0
 30
0.0
  0
VERTEX
  5
115
  8
1
  6
CONTINUOUS
 62
     7
 10
85.48904642585804
 20
95.03375882581469
 30
0.0
  0
VERTEX
  5
116
  8
1
  6
CONTINUOUS
 62
     7
 10
85.49573596904166
 20
95.14693297973336
 30
0.0
  0
VERTEX
  5
117
  8
1
  6
CONTINUOUS
 62
     7
 10
85.51698024139773
 20
95.26074419585966
 30
0.0
  0
VERTEX
  5
118
  8
1
  6
CONTINUOUS
 62
     7
 10
85.54898459752945
 20
95.36225791882654
 30
0.0
  0
VERTEX
  5
119
  8
1
  6
CONTINUOUS
 62
     7
 10
85.60020705370596
 20
95.47430836732639
 30
0.0
  0
VERTEX
  5
11A
  8
1
  6
CONTINUOUS
 62
     7
 10
85.66122584763535
 20
95.57273998732975
 30
0.0
  0
VERTEX
  5
11B
  8
1
  6
CONTINUOUS
 62
     7
 10
85.73390469266644
 20
95.66360754781994
 30
0.0
  0
VERTEX
  5
11C
  8
1
  6
CONTINUOUS
 62
     7
 10
85.81770504865626
 20
95.74630555899107
 30
0.0
  0
VERTEX
  5
11D
  8
1
  6
CONTINUOUS
 62
     7
 10
85.91142647605189
 20
95.81963117994377
 30
0.0
  0
VERTEX
  5
11E
  8
1
  6
CONTINUOUS
 62
     7
 10
86.0196806706985
 20
95.88585776061936
 30
0.0
  0
VERTEX
  5
11F
  8
1
  6
CONTINUOUS
 62
     7
 10
86.13603988075415
 20
95.93991170933869
 30
0.0
  0
SEQEND
  5
211
  8
1
  6
CONTINUOUS
 62
     7
  0
ARC
  5
75
  8
1
  6
CONTINUOUS
 62
     7
 10
86.60999840857164
 20
94.72693268267597
 30
0.0
 40
1.30228829573737
 50
89.57576129729618
 51
111.3425390217256
  0
LINE
  5
76
  8
1
  6
CONTINUOUS
 62
     7
 10
86.61964093466312
 20
96.02918527987251
 30
0.0
 11
90.14991943090149
 21
96.02918527987251
 31
0.0
  0
POLYLINE
  5
77
  8
1
  6
CONTINUOUS
 62
     7
 66
     1
 10
0.0
 20
0.0
 30
0.0
  0
VERTEX
  5
120
  8
1
  6
CONTINUOUS
 62
     7
 10
90.14991943090149
 20
96.02918527987251
 30
0.0
  0
VERTEX
  5
121
  8
1
  6
CONTINUOUS
 62
     7
 10
90.21194005370432
 20
96.02786244621217
 30
0.0
  0
VERTEX
  5
122
  8
1
  6
CONTINUOUS
 62
     7
 10
90.2740592732445
 20
96.02382148006062
 30
0.0
  0
VERTEX
  5
123
  8
1
  6
CONTINUOUS
 62
     7
 10
90.33603592461884
 20
96.01697200664432
 30
0.0
  0
VERTEX
  5
124
  8
1
  6
CONTINUOUS
 62
     7
 10
90.3985705427983
 20
96.0070762604745
 30
0.0
  0
VERTEX
  5
125
  8
1
  6
CONTINUOUS
 62
     7
 10
90.46067859685711
 20
95.99412288757216
 30
0.0
  0
VERTEX
  5
126
  8
1
  6
CONTINUOUS
 62
     7
 10
90.5230621057087
 20
95.97778440276471
 30
0.0
  0
VERTEX
  5
127
  8
1
  6
CONTINUOUS
 62
     7
 10
90.55399352273236
 20
95.96837562964966
 30
0.0
  0
VERTEX
  5
128
  8
1
  6
CONTINUOUS
 62
     7
 10
90.58466296446099
 20
95.9581474900196
 30
0.0
  0
VERTEX
  5
129
  8
1
  6
CONTINUOUS
 62
     7
 10
90.61520147951269
 20
95.94703679111514
 30
0.0
  0
VERTEX
  5
12A
  8
1
  6
CONTINUOUS
 62
     7
 10
90.64544642379352
 20
95.93508212555336
 30
0.0
  0
VERTEX
  5
12B
  8
1
  6
CONTINUOUS
 62
     7
 10
90.6865788733113
 20
95.91722492379849
 30
0.0
  0
VERTEX
  5
12C
  8
1
  6
CONTINUOUS
 62
     7
 10
90.72710977506864
 20
95.89771057481055
 30
0.0
  0
VERTEX
  5
12D
  8
1
  6
CONTINUOUS
 62
     7
 10
90.76689936208747
 20
95.8765585317441
 30
0.0
  0
VERTEX
  5
12E
  8
1
  6
CONTINUOUS
 62
     7
 10
90.80626000311393
 20
95.85352604005905
 30
0.0
  0
VERTEX
  5
12F
  8
1
  6
CONTINUOUS
 62
     7
 10
90.8447013861466
 20
95.82881969594953
 30
0.0
  0
VERTEX
  5
130
  8
1
  6
CONTINUOUS
 62
     7
 10
90.88252161011805
 20
95.80216150812919
 30
0.0
  0
VERTEX
  5
131
  8
1
  6
CONTINUOUS
 62
     7
 10
90.91922455557018
 20
95.77381024303452
 30
0.0
  0
VERTEX
  5
132
  8
1
  6
CONTINUOUS
 62
     7
 10
90.9547819359901
 20
95.74372420589796
 30
0.0
  0
VERTEX
  5
133
  8
1
  6
CONTINUOUS
 62
     7
 10
90.97968224818487
 20
95.72093222408128
 30
0.0
  0
VERTEX
  5
134
  8
1
  6
CONTINUOUS
 62
     7
 10
91.00382375376213
 20
95.69731907403289
 30
0.0
  0
VERTEX
  5
135
  8
1
  6
CONTINUOUS
 62
     7
 10
91.02727450863216
 20
95.67278984026767
 30
0.0
  0
VERTEX
  5
136
  8
1
  6
CONTINUOUS
 62
     7
 10
91.04988973905004
 20
95.64746872195889
 30
0.0
  0
VERTEX
  5
137
  8
1
  6
CONTINUOUS
 62
     7
 10
91.0791265508569
 20
95.61194754115454
 30
0.0
  0
VERTEX
  5
138
  8
1
  6
CONTINUOUS
 62
     7
 10
91.10674126211708
 20
95.57498797937144
 30
0.0
  0
VERTEX
  5
139
  8
1
  6
CONTINUOUS
 62
     7
 10
91.13297980741063
 20
95.53611573150602
 30
0.0
  0
VERTEX
  5
13A
  8
1
  6
CONTINUOUS
 62
     7
 10
91.15736161879458
 20
95.4958857113077
 30
0.0
  0
VERTEX
  5
13B
  8
1
  6
CONTINUOUS
 62
     7
 10
91.17984480468805
 20
95.45426881161367
 30
0.0
  0
VERTEX
  5
13C
  8
1
  6
CONTINUOUS
 62
     7
 10
91.19752199609307
 20
95.41755236112309
 30
0.0
  0
VERTEX
  5
13D
  8
1
  6
CONTINUOUS
 62
     7
 10
91.21359555256947
 20
95.38008692916237
 30
0.0
  0
VERTEX
  5
13E
  8
1
  6
CONTINUOUS
 62
     7
 10
91.22812912070304
 20
95.34163285954253
 30
0.0
  0
VERTEX
  5
13F
  8
1
  6
CONTINUOUS
 62
     7
 10
91.24094991339966
 20
95.30256003279828
 30
0.0
  0
VERTEX
  5
140
  8
1
  6
CONTINUOUS
 62
     7
 10
91.25219203307118
 20
95.26227088193204
 30
0.0
  0
VERTEX
  5
141
  8
1
  6
CONTINUOUS
 62
     7
 10
91.26159376115665
 20
95.22150451010891
 30
0.0
  0
VERTEX
  5
142
  8
1
  6
CONTINUOUS
 62
     7
 10
91.2691834171122
 20
95.17998369079261
 30
0.0
  0
VERTEX
  5
143
  8
1
  6
CONTINUOUS
 62
     7
 10
91.27485054750078
 20
95.13815568919462
 30
0.0
  0
VERTEX
  5
144
  8
1
  6
CONTINUOUS
 62
     7
 10
91.2773852447901
 20
95.1121692492201
 30
0.0
  0
VERTEX
  5
145
  8
1
  6
CONTINUOUS
 62
     7
 10
91.27917522239791
 20
95.0861226989874
 30
0.0
  0
VERTEX
  5
146
  8
1
  6
CONTINUOUS
 62
     7
 10
91.28022072794866
 20
95.05994858297407
 30
0.0
  0
VERTEX
  5
147
  8
1
  6
CONTINUOUS
 62
     7
 10
91.28051393970661
 20
95.03375882581469
 30
0.0
  0
SEQEND
  5
212
  8
1
  6
CONTINUOUS
 62
     7
  0
ARC
  5
78
  8
1
  6
CONTINUOUS
 62
     7
 10
105.6701430386975
 20
95.18643738432444
 30
0.0
 40
3.093599650300637
 50
166.218946459445
 51
182.8288702902471
  0
POLYLINE
  5
79
  8
1
  6
CONTINUOUS
 62
     7
 66
     1
 10
0.0
 20
0.0
 30
0.0
  0
VERTEX
  5
148
  8
1
  6
CONTINUOUS
 62
     7
 10
102.6655985179313
 20
95.92337090851352
 30
0.0
  0
VERTEX
  5
149
  8
1
  6
CONTINUOUS
 62
     7
 10
102.7103316147663
 20
96.01427629214041
 30
0.0
  0
VERTEX
  5
14A
  8
1
  6
CONTINUOUS
 62
     7
 10
102.7366401122391
 20
96.02918527987252
 30
0.0
  0
SEQEND
  5
213
  8
1
  6
CONTINUOUS
 62
     7
  0
LINE
  5
7A
  8
1
  6
CONTINUOUS
 62
     7
 10
102.5803132611674
 20
95.03375882581469
 30
0.0
 11
103.0633158337541
 21
78.52918527987251
 31
0.0
  0
POLYLINE
  5
7B
  8
1
  6
CONTINUOUS
 62
     7
 66
     1
 10
0.0
 20
0.0
 30
0.0
  0
VERTEX
  5
14B
  8
1
  6
CONTINUOUS
 62
     7
 10
96.37494490903443
 20
95.03375882581469
 30
0.0
  0
VERTEX
  5
14C
  8
1
  6
CONTINUOUS
 62
     7
 10
96.37475010353099
 20
95.07159906086436
 30
0.0
  0
VERTEX
  5
14D
  8
1
  6
CONTINUOUS
 62
     7
 10
96.37589421708785
 20
95.10941952110183
 30
0.0
  0
VERTEX
  5
14E
  8
1
  6
CONTINUOUS
 62
     7
 10
96.37837101244456
 20
95.14711881167065
 30
0.0
  0
VERTEX
  5
14F
  8
1
  6
CONTINUOUS
 62
     7
 10
96.38217425234062
 20
95.18459553771439
 30
0.0
  0
VERTEX
  5
150
  8
1
  6
CONTINUOUS
 62
     7
 10
96.38747671869685
 20
95.222928509465
 30
0.0
  0
VERTEX
  5
151
  8
1
  6
CONTINUOUS
 62
     7
 10
96.39416862220943
 20
95.26095438500738
 30
0.0
  0
VERTEX
  5
152
  8
1
  6
CONTINUOUS
 62
     7
 10
96.40222175160356
 20
95.29856912811364
 30
0.0
  0
VERTEX
  5
153
  8
1
  6
CONTINUOUS
 62
     7
 10
96.41160789560445
 20
95.33566870255598
 30
0.0
  0
VERTEX
  5
154
  8
1
  6
CONTINUOUS
 62
     7
 10
96.4219802911131
 20
95.37115286969194
 30
0.0
  0
VERTEX
  5
155
  8
1
  6
CONTINUOUS
 62
     7
 10
96.43357227295527
 20
95.40609474278484
 30
0.0
  0
VERTEX
  5
156
  8
1
  6
CONTINUOUS
 62
     7
 10
96.44634209191706
 20
95.44041171336137
 30
0.0
  0
VERTEX
  5
157
  8
1
  6
CONTINUOUS
 62
     7
 10
96.46024799878457
 20
95.47402117294824
 30
0.0
  0
VERTEX
  5
158
  8
1
  6
CONTINUOUS
 62
     7
 10
96.4756979095641
 20
95.50779052605229
 30
0.0
  0
VERTEX
  5
159
  8
1
  6
CONTINUOUS
 62
     7
 10
96.49229495072848
 20
95.54076812238605
 30
0.0
  0
VERTEX
  5
15A
  8
1
  6
CONTINUOUS
 62
     7
 10
96.50998222608139
 20
95.57288199133394
 30
0.0
  0
VERTEX
  5
15B
  8
1
  6
CONTINUOUS
 62
     7
 10
96.5287028394266
 20
95.60406016228039
 30
0.0
  0
VERTEX
  5
15C
  8
1
  6
CONTINUOUS
 62
     7
 10
96.55562607213443
 20
95.64469310036291
 30
0.0
  0
VERTEX
  5
15D
  8
1
  6
CONTINUOUS
 62
     7
 10
96.58435243334866
 20
95.68358840622754
 30
0.0
  0
VERTEX
  5
15E
  8
1
  6
CONTINUOUS
 62
     7
 10
96.61472469745435
 20
95.72063797349611
 30
0.0
  0
VERTEX
  5
15F
  8
1
  6
CONTINUOUS
 62
     7
 10
96.6465856388365
 20
95.75573369579044
 30
0.0
  0
VERTEX
  5
160
  8
1
  6
CONTINUOUS
 62
     7
 10
96.67977803188013
 20
95.7887674667324
 30
0.0
  0
VERTEX
  5
161
  8
1
  6
CONTINUOUS
 62
     7
 10
96.71414465097024
 20
95.81963117994377
 30
0.0
  0
VERTEX
  5
162
  8
1
  6
CONTINUOUS
 62
     7
 10
96.75293837532071
 20
95.85085145205838
 30
0.0
  0
VERTEX
  5
163
  8
1
  6
CONTINUOUS
 62
     7
 10
96.79304331388884
 20
95.87959151861521
 30
0.0
  0
VERTEX
  5
164
  8
1
  6
CONTINUOUS
 62
     7
 10
96.83427477039022
 20
95.9058159194017
 30
0.0
  0
VERTEX
  5
165
  8
1
  6
CONTINUOUS
 62
     7
 10
96.87644804854045
 20
95.92948919420517
 30
0.0
  0
VERTEX
  5
166
  8
1
  6
CONTINUOUS
 62
     7
 10
96.91937845205514
 20
95.95057588281306
 30
0.0
  0
VERTEX
  5
167
  8
1
  6
CONTINUOUS
 62
     7
 10
96.96288128464988
 20
95.96904052501272
 30
0.0
  0
VERTEX
  5
168
  8
1
  6
CONTINUOUS
 62
     7
 10
97.01547130170762
 20
95.98769184873436
 30
0.0
  0
VERTEX
  5
169
  8
1
  6
CONTINUOUS
 62
     7
 10
97.06879644824656
 20
96.0028046901756
 30
0.0
  0
VERTEX
  5
16A
  8
1
  6
CONTINUOUS
 62
     7
 10
97.12263109427884
 20
96.01444475167321
 30
0.0
  0
VERTEX
  5
16B
  8
1
  6
CONTINUOUS
 62
     7
 10
97.17674960981662
 20
96.02267773556403
 30
0.0
  0
VERTEX
  5
16C
  8
1
  6
CONTINUOUS
 62
     7
 10
97.23092636487199
 20
96.02756934418485
 30
0.0
  0
VERTEX
  5
16D
  8
1
  6
CONTINUOUS
 62
     7
 10
97.28493572945712
 20
96.02918527987251
 30
0.0
  0
SEQEND
  5
214
  8
1
  6
CONTINUOUS
 62
     7
  0
LINE
  5
7C
  8
1
  6
CONTINUOUS
 62
     7
 10
96.37494490903443
 20
95.03375882581469
 30
0.0
 11
96.75869312041738
 21
78.52918527987251
 31
0.0
  0
LINE
  5
7D
  8
1
  6
CONTINUOUS
 62
     7
 10
80.01086724514727
 20
78.52918527987251
 30
0.0
 11
80.39461545653026
 21
95.03375882581469
 31
0.0
  0
POLYLINE
  5
7E
  8
1
  6
CONTINUOUS
 62
     7
 66
     1
 10
0.0
 20
0.0
 30
0.0
  0
VERTEX
  5
16E
  8
1
  6
CONTINUOUS
 62
     7
 10
79.48462463610745
 20
96.02918527987251
 30
0.0
  0
VERTEX
  5
16F
  8
1
  6
CONTINUOUS
 62
     7
 10
79.53416486083448
 20
96.02784404999241
 30
0.0
  0
VERTEX
  5
170
  8
1
  6
CONTINUOUS
 62
     7
 10
79.58378126568627
 20
96.02377705216755
 30
0.0
  0
VERTEX
  5
171
  8
1
  6
CONTINUOUS
 62
     7
 10
79.63331568260422
 20
96.01691932412113
 30
0.0
  0
VERTEX
  5
172
  8
1
  6
CONTINUOUS
 62
     7
 10
79.6826099435338
 20
96.0072059035763
 30
0.0
  0
VERTEX
  5
173
  8
1
  6
CONTINUOUS
 62
     7
 10
79.73341327087442
 20
95.99402439293624
 30
0.0
  0
VERTEX
  5
174
  8
1
  6
CONTINUOUS
 62
     7
 10
79.78379911427045
 20
95.97761991453459
 30
0.0
  0
VERTEX
  5
175
  8
1
  6
CONTINUOUS
 62
     7
 10
79.83353587621872
 20
95.95797748614807
 30
0.0
  0
VERTEX
  5
176
  8
1
  6
CONTINUOUS
 62
     7
 10
79.882391959216
 20
95.93508212555336
 30
0.0
  0
VERTEX
  5
177
  8
1
  6
CONTINUOUS
 62
     7
 10
79.91587991132799
 20
95.91715663556462
 30
0.0
  0
VERTEX
  5
178
  8
1
  6
CONTINUOUS
 62
     7
 10
79.94884720802861
 20
95.89760950876507
 30
0.0
  0
VERTEX
  5
179
  8
1
  6
CONTINUOUS
 62
     7
 10
79.98120133835467
 20
95.87646039619403
 30
0.0
  0
VERTEX
  5
17A
  8
1
  6
CONTINUOUS
 62
     7
 10
80.01284979134297
 20
95.85372894889079
 30
0.0
  0
VERTEX
  5
17B
  8
1
  6
CONTINUOUS
 62
     7
 10
80.04458906416951
 20
95.82870669979181
 30
0.0
  0
VERTEX
  5
17C
  8
1
  6
CONTINUOUS
 62
     7
 10
80.07548744153358
 20
95.80199788240843
 30
0.0
  0
VERTEX
  5
17D
  8
1
  6
CONTINUOUS
 62
     7
 10
80.10543639440263
 20
95.77365341251803
 30
0.0
  0
VERTEX
  5
17E
  8
1
  6
CONTINUOUS
 62
     7
 10
80.13432739374413
 20
95.74372420589796
 30
0.0
  0
VERTEX
  5
17F
  8
1
  6
CONTINUOUS
 62
     7
 10
80.16140365393294
 20
95.7130393773445
 30
0.0
  0
VERTEX
  5
180
  8
1
  6
CONTINUOUS
 62
     7
 10
80.18737631062366
 20
95.68086187278853
 30
0.0
  0
VERTEX
  5
181
  8
1
  6
CONTINUOUS
 62
     7
 10
80.21214459487875
 20
95.64727173518662
 30
0.0
  0
VERTEX
  5
182
  8
1
  6
CONTINUOUS
 62
     7
 10
80.23560773776065
 20
95.61234900749537
 30
0.0
  0
VERTEX
  5
183
  8
1
  6
CONTINUOUS
 62
     7
 10
80.25848159737049
 20
95.57477597139678
 30
0.0
  0
VERTEX
  5
184
  8
1
  6
CONTINUOUS
 62
     7
 10
80.27984827364959
 20
95.53581886691435
 30
0.0
  0
VERTEX
  5
185
  8
1
  6
CONTINUOUS
 62
     7
 10
80.29960740891396
 20
95.49560678375201
 30
0.0
  0
VERTEX
  5
186
  8
1
  6
CONTINUOUS
 62
     7
 10
80.3176586454796
 20
95.45426881161367
 30
0.0
  0
VERTEX
  5
187
  8
1
  6
CONTINUOUS
 62
     7
 10
80.33187161429285
 20
95.41757880036394
 30
0.0
  0
VERTEX
  5
188
  8
1
  6
CONTINUOUS
 62
     7
 10
80.34473941814446
 20
95.38010376213218
 30
0.0
  0
VERTEX
  5
189
  8
1
  6
CONTINUOUS
 62
     7
 10
80.35621302301449
 20
95.3419504359152
 30
0.0
  0
VERTEX
  5
18A
  8
1
  6
CONTINUOUS
 62
     7
 10
80.36624339488291
 20
95.30322556070976
 30
0.0
  0
VERTEX
  5
18B
  8
1
  6
CONTINUOUS
 62
     7
 10
80.37506704901267
 20
95.26261969542082
 30
0.0
  0
VERTEX
  5
18C
  8
1
  6
CONTINUOUS
 62
     7
 10
80.38230432032267
 20
95.22148287235389
 30
0.0
  0
VERTEX
  5
18D
  8
1
  6
CONTINUOUS
 62
     7
 10
80.38792631072829
 20
95.17994992558609
 30
0.0
  0
VERTEX
  5
18E
  8
1
  6
CONTINUOUS
 62
     7
 10
80.3919041221449
 20
95.13815568919462
 30
0.0
  0
VERTEX
  5
18F
  8
1
  6
CONTINUOUS
 62
     7
 10
80.39394091331356
 20
95.10343735522181
 30
0.0
  0
VERTEX
  5
190
  8
1
  6
CONTINUOUS
 62
     7
 10
80.39484550029442
 20
95.06861190713282
 30
0.0
  0
VERTEX
  5
191
  8
1
  6
CONTINUOUS
 62
     7
 10
80.39461545653026
 20
95.03375882581469
 30
0.0
  0
SEQEND
  5
215
  8
1
  6
CONTINUOUS
 62
     7
  0
LINE
  5
7F
  8
1
  6
CONTINUOUS
 62
     7
 10
73.7062445318105
 20
78.52918527987251
 30
0.0
 11
74.18924710439727
 21
95.03375882581469
 31
0.0
  0
LINE
  5
80
  8
1
  6
CONTINUOUS
 62
     7
 10
74.03292025332543
 20
96.02918527987251
 30
0.0
 11
74.09992120344234
 21
95.93508212555336
 31
0.0
  0
ARC
  5
81
  8
1
  6
CONTINUOUS
 62
     7
 10
71.18244901015507
 20
95.19085723312303
 30
0.0
 40
3.010899315672538
 50
357.0091444932203
 51
14.31052095079258
  0
LINE
  5
82
  8
1
  6
CONTINUOUS
 62
     7
 10
73.7062445318105
 20
78.52918527987251
 30
0.0
 11
75.69719208956911
 21
78.52918527987251
 31
0.0
  0
LINE
  5
83
  8
1
  6
CONTINUOUS
 62
     7
 10
80.01086724514727
 20
78.52918527987251
 30
0.0
 11
85.54874577834552
 21
78.52918527987251
 31
0.0
  0
LINE
  5
84
  8
1
  6
CONTINUOUS
 62
     7
 10
91.2208145872191
 20
78.52918527987251
 30
0.0
 11
96.75869312041738
 21
78.52918527987251
 31
0.0
  0
LINE
  5
85
  8
1
  6
CONTINUOUS
 62
     7
 10
101.0723682759953
 20
78.52918527987251
 30
0.0
 11
103.0633158337541
 21
78.52918527987251
 31
0.0
  0
LINE
  5
86
  8
1
  6
CONTINUOUS
 62
     7
 10
76.63575999077757
 20
106.0291852798725
 30
0.0
 11
100.1338003747871
 21
106.0291852798725
 31
0.0
  0
LINE
  5
87
  8
1
  6
CONTINUOUS
 62
     7
 10
96.75869312041738
 20
78.52918527987251
 30
0.0
 11
101.0723682759965
 21
78.52918527987251
 31
0.0
  0
LINE
  5
88
  8
1
  6
CONTINUOUS
 62
     7
 10
75.69719208956911
 20
78.52918527987251
 30
0.0
 11
80.01086724514727
 21
78.52918527987251
 31
0.0
  0
LINE
  5
89
  8
1
  6
CONTINUOUS
 62
     7
 10
76.90144573327623
 20
96.02918527987251
 30
0.0
 11
79.4846246361075
 21
96.02918527987251
 31
0.0
  0
LINE
  5
8A
  8
1
  6
CONTINUOUS
 62
     7
 10
97.28493572945712
 20
96.02918527987251
 30
0.0
 11
99.86797959761024
 21
96.02918527987251
 31
0.0
  0
LINE
  5
8B
  8
1
  6
CONTINUOUS
 62
     7
 10
72.97336482795288
 20
96.02918527987252
 30
0.0
 11
74.03292025332536
 21
96.02918527987252
 31
0.0
  0
LINE
  5
8C
  8
1
  6
CONTINUOUS
 62
     7
 10
102.7366401122391
 20
96.02918527987252
 30
0.0
 11
103.7961955376117
 21
96.02918527987251
 31
0.0
  0
LINE
  5
8D
  8
1
  6
CONTINUOUS
 62
     7
 10
71.6844617146758
 20
78.52918527987251
 30
0.0
 11
73.7062445318105
 21
78.52918527987251
 31
0.0
  0
LINE
  5
8E
  8
1
  6
CONTINUOUS
 62
     7
 10
103.0633158337541
 20
78.52918527987251
 30
0.0
 11
105.0850986508899
 21
78.52918527987251
 31
0.0
  0
LINE
  5
8F
  8
1
  6
CONTINUOUS
 62
     7
 10
102.8447801827823
 20
96.02918527987251
 30
0.0
 11
102.6328209506508
 21
103.5991578559967
 31
0.0
  0
LINE
  5
90
  8
1
  6
CONTINUOUS
 62
     7
 10
74.13673941491379
 20
103.5991578559967
 30
0.0
 11
73.92478018278231
 21
96.02918527987251
 31
0.0
  0
ARC
  5
91
  8
1
  6
CONTINUOUS
 62
     7
 10
76.63575999077757
 20
103.5291852798725
 30
0.0
 40
2.500000000000002
 50
90.00000000000009
 51
178.3961372288451
  0
ARC
  5
92
  8
1
  6
CONTINUOUS
 62
     7
 10
100.1338003747871
 20
103.5291852798725
 30
0.0
 40
2.499999999999996
 50
1.60386277115492
 51
89.99999999999991
  0
LINE
  5
93
  8
1
  6
CONTINUOUS
 62
     7
 10
101.0723681328626
 20
78.52919684683255
 30
0.0
 11
100.8680380133045
 21
95.04156406286197
 31
0.0
  0
LINE
  5
94
  8
1
  6
CONTINUOUS
 62
     7
 10
75.90152229101746
 20
95.0415591137038
 30
0.0
 11
75.69719223037623
 21
78.52919665888261
 31
0.0
  0
ARC
  5
95
  8
1
  6
CONTINUOUS
 62
     7
 10
76.90144573220508
 20
95.02918527987251
 30
0.0
 40
1.000000000000001
 50
90.0
 51
179.2910370861975
  0
ARC
  5
96
  8
1
  6
CONTINUOUS
 62
     7
 10
99.86811463335955
 20
95.02918527987251
 30
0.0
 40
0.9999999999999978
 50
0.7089629138024575
 51
90.0
  0
ARC
  5
97
  8
1
  6
CONTINUOUS
 62
     7
 10
72.97336482795288
 20
95.02918527987251
 30
0.0
 40
1.000000000000001
 50
90.00000000000009
 51
178.99742619624
  0
ARC
  5
98
  8
1
  6
CONTINUOUS
 62
     7
 10
103.7961955376117
 20
95.02918527987251
 30
0.0
 40
1.000000000000006
 50
1.002573803760018
 51
89.9999999999999
  0
LINE
  5
99
  8
1
  6
CONTINUOUS
 62
     7
 10
71.97351791779096
 20
95.04668260080035
 30
0.0
 11
71.68446199857317
 21
78.52920150264053
 31
0.0
  0
LINE
  5
9A
  8
1
  6
CONTINUOUS
 62
     7
 10
105.0850983669914
 20
78.52920150264053
 30
0.0
 11
104.7960424477737
 21
95.04668260080035
 31
0.0
  0
ENDBLK
  8
0
  0
BLOCK
  8
0
  2
D_FRAME_VIEW_2814
 70
     0
 10
0.0
 20
0.0
 30
0.0
  0
LINE
  5
9F
  8
1
  6
CONTINUOUS
 62
     7
 10
149.30345017716
 20
138.9832289360217
 30
0.0
 11
165.8080237231022
 21
139.0429282885092
 31
0.0
  0
LINE
  5
A0
  8
1
  6
CONTINUOUS
 62
     7
 10
165.8080237231022
 20
144.7149970973828
 30
0.0
 11
149.30345017716
 21
144.7746964498703
 31
0.0
  0
LINE
  5
A1
  8
1
  6
CONTINUOUS
 62
     7
 10
165.8080237231022
 20
139.0429282885092
 30
0.0
 11
165.8080237231022
 21
144.7149970973828
 31
0.0
  0
POLYLINE
  5
A2
  8
1
  6
CONTINUOUS
 62
     7
 66
     1
 10
0.0
 20
0.0
 30
0.0
  0
VERTEX
  5
192
  8
1
  6
CONTINUOUS
 62
     7
 10
149.30345017716
 20
138.9832289360217
 30
0.0
  0
VERTEX
  5
193
  8
1
  6
CONTINUOUS
 62
     7
 10
149.1902760232413
 20
138.9899184792053
 30
0.0
  0
VERTEX
  5
194
  8
1
  6
CONTINUOUS
 62
     7
 10
149.076464807115
 20
139.0111627515614
 30
0.0
  0
VERTEX
  5
195
  8
1
  6
CONTINUOUS
 62
     7
 10
148.9749510841481
 20
139.0431671076931
 30
0.0
  0
VERTEX
  5
196
  8
1
  6
CONTINUOUS
 62
     7
 10
148.8629006356483
 20
139.0943895638697
 30
0.0
  0
VERTEX
  5
197
  8
1
  6
CONTINUOUS
 62
     7
 10
148.7644690156449
 20
139.155408357799
 30
0.0
  0
VERTEX
  5
198
  8
1
  6
CONTINUOUS
 62
     7
 10
148.6736014551547
 20
139.2280872028302
 30
0.0
  0
VERTEX
  5
199
  8
1
  6
CONTINUOUS
 62
     7
 10
148.5909034439836
 20
139.31188755882
 30
0.0
  0
VERTEX
  5
19A
  8
1
  6
CONTINUOUS
 62
     7
 10
148.5175778230309
 20
139.4056089862156
 30
0.0
  0
VERTEX
  5
19B
  8
1
  6
CONTINUOUS
 62
     7
 10
148.4513512423553
 20
139.5138631808622
 30
0.0
  0
VERTEX
  5
19C
  8
1
  6
CONTINUOUS
 62
     7
 10
148.397297293636
 20
139.6302223909179
 30
0.0
  0
SEQEND
  5
216
  8
1
  6
CONTINUOUS
 62
     7
  0
ARC
  5
A3
  8
1
  6
CONTINUOUS
 62
     7
 10
149.6102763202987
 20
140.1041809187353
 30
0.0
 40
1.302288295737383
 50
179.5757612972962
 51
201.3425390217253
  0
LINE
  5
A4
  8
1
  6
CONTINUOUS
 62
     7
 10
148.3080237231022
 20
140.1138234448268
 30
0.0
 11
148.3080237231022
 21
143.6441019410652
 31
0.0
  0
POLYLINE
  5
A5
  8
1
  6
CONTINUOUS
 62
     7
 66
     1
 10
0.0
 20
0.0
 30
0.0
  0
VERTEX
  5
19D
  8
1
  6
CONTINUOUS
 62
     7
 10
148.3080237231022
 20
143.6441019410652
 30
0.0
  0
VERTEX
  5
19E
  8
1
  6
CONTINUOUS
 62
     7
 10
148.3093465567625
 20
143.706122563868
 30
0.0
  0
VERTEX
  5
19F
  8
1
  6
CONTINUOUS
 62
     7
 10
148.3133875229141
 20
143.7682417834082
 30
0.0
  0
VERTEX
  5
1A0
  8
1
  6
CONTINUOUS
 62
     7
 10
148.3202369963304
 20
143.8302184347825
 30
0.0
  0
VERTEX
  5
1A1
  8
1
  6
CONTINUOUS
 62
     7
 10
148.3301327425002
 20
143.892753052962
 30
0.0
  0
VERTEX
  5
1A2
  8
1
  6
CONTINUOUS
 62
     7
 10
148.3430861154025
 20
143.9548611070208
 30
0.0
  0
VERTEX
  5
1A3
  8
1
  6
CONTINUOUS
 62
     7
 10
148.35942460021
 20
144.0172446158724
 30
0.0
  0
VERTEX
  5
1A4
  8
1
  6
CONTINUOUS
 62
     7
 10
148.368833373325
 20
144.048176032896
 30
0.0
  0
VERTEX
  5
1A5
  8
1
  6
CONTINUOUS
 62
     7
 10
148.3790615129551
 20
144.0788454746247
 30
0.0
  0
VERTEX
  5
1A6
  8
1
  6
CONTINUOUS
 62
     7
 10
148.3901722118595
 20
144.1093839896764
 30
0.0
  0
VERTEX
  5
1A7
  8
1
  6
CONTINUOUS
 62
     7
 10
148.4021268774213
 20
144.1396289339572
 30
0.0
  0
VERTEX
  5
1A8
  8
1
  6
CONTINUOUS
 62
     7
 10
148.4199840791762
 20
144.180761383475
 30
0.0
  0
VERTEX
  5
1A9
  8
1
  6
CONTINUOUS
 62
     7
 10
148.4394984281641
 20
144.2212922852323
 30
0.0
  0
VERTEX
  5
1AA
  8
1
  6
CONTINUOUS
 62
     7
 10
148.4606504712306
 20
144.2610818722511
 30
0.0
  0
VERTEX
  5
1AB
  8
1
  6
CONTINUOUS
 62
     7
 10
148.4836829629156
 20
144.3004425132776
 30
0.0
  0
VERTEX
  5
1AC
  8
1
  6
CONTINUOUS
 62
     7
 10
148.5083893070251
 20
144.3388838963103
 30
0.0
  0
VERTEX
  5
1AD
  8
1
  6
CONTINUOUS
 62
     7
 10
148.5350474948455
 20
144.3767041202817
 30
0.0
  0
VERTEX
  5
1AE
  8
1
  6
CONTINUOUS
 62
     7
 10
148.5633987599402
 20
144.4134070657338
 30
0.0
  0
VERTEX
  5
1AF
  8
1
  6
CONTINUOUS
 62
     7
 10
148.5934847970767
 20
144.4489644461538
 30
0.0
  0
VERTEX
  5
1B0
  8
1
  6
CONTINUOUS
 62
     7
 10
148.6162767788934
 20
144.4738647583486
 30
0.0
  0
VERTEX
  5
1B1
  8
1
  6
CONTINUOUS
 62
     7
 10
148.6398899289418
 20
144.4980062639258
 30
0.0
  0
VERTEX
  5
1B2
  8
1
  6
CONTINUOUS
 62
     7
 10
148.664419162707
 20
144.5214570187959
 30
0.0
  0
VERTEX
  5
1B3
  8
1
  6
CONTINUOUS
 62
     7
 10
148.6897402810158
 20
144.5440722492137
 30
0.0
  0
VERTEX
  5
1B4
  8
1
  6
CONTINUOUS
 62
     7
 10
148.7252614618201
 20
144.5733090610206
 30
0.0
  0
VERTEX
  5
1B5
  8
1
  6
CONTINUOUS
 62
     7
 10
148.7622210236032
 20
144.6009237722808
 30
0.0
  0
VERTEX
  5
1B6
  8
1
  6
CONTINUOUS
 62
     7
 10
148.8010932714687
 20
144.6271623175743
 30
0.0
  0
VERTEX
  5
1B7
  8
1
  6
CONTINUOUS
 62
     7
 10
148.841323291667
 20
144.6515441289582
 30
0.0
  0
VERTEX
  5
1B8
  8
1
  6
CONTINUOUS
 62
     7
 10
148.882940191361
 20
144.6740273148517
 30
0.0
  0
VERTEX
  5
1B9
  8
1
  6
CONTINUOUS
 62
     7
 10
148.9196566418516
 20
144.6917045062568
 30
0.0
  0
VERTEX
  5
1BA
  8
1
  6
CONTINUOUS
 62
     7
 10
148.9571220738123
 20
144.7077780627332
 30
0.0
  0
VERTEX
  5
1BB
  8
1
  6
CONTINUOUS
 62
     7
 10
148.9955761434321
 20
144.7223116308667
 30
0.0
  0
VERTEX
  5
1BC
  8
1
  6
CONTINUOUS
 62
     7
 10
149.0346489701764
 20
144.7351324235634
 30
0.0
  0
VERTEX
  5
1BD
  8
1
  6
CONTINUOUS
 62
     7
 10
149.0749381210426
 20
144.7463745432349
 30
0.0
  0
VERTEX
  5
1BE
  8
1
  6
CONTINUOUS
 62
     7
 10
149.1157044928658
 20
144.7557762713203
 30
0.0
  0
VERTEX
  5
1BF
  8
1
  6
CONTINUOUS
 62
     7
 10
149.157225312182
 20
144.7633659272759
 30
0.0
  0
VERTEX
  5
1C0
  8
1
  6
CONTINUOUS
 62
     7
 10
149.19905331378
 20
144.7690330576645
 30
0.0
  0
VERTEX
  5
1C1
  8
1
  6
CONTINUOUS
 62
     7
 10
149.2250397537546
 20
144.7715677549538
 30
0.0
  0
VERTEX
  5
1C2
  8
1
  6
CONTINUOUS
 62
     7
 10
149.2510863039873
 20
144.7733577325616
 30
0.0
  0
VERTEX
  5
1C3
  8
1
  6
CONTINUOUS
 62
     7
 10
149.2772604200006
 20
144.7744032381124
 30
0.0
  0
VERTEX
  5
1C4
  8
1
  6
CONTINUOUS
 62
     7
 10
149.30345017716
 20
144.7746964498703
 30
0.0
  0
SEQEND
  5
217
  8
1
  6
CONTINUOUS
 62
     7
  0
POLYLINE
  5
A6
  8
1
  6
CONTINUOUS
 62
     7
 66
     1
 10
0.0
 20
0.0
 30
0.0
  0
VERTEX
  5
1C5
  8
1
  6
CONTINUOUS
 62
     7
 10
149.30345017716
 20
149.8691274191981
 30
0.0
  0
VERTEX
  5
1C6
  8
1
  6
CONTINUOUS
 62
     7
 10
149.2656099421103
 20
149.8689326136947
 30
0.0
  0
VERTEX
  5
1C7
  8
1
  6
CONTINUOUS
 62
     7
 10
149.2277894818728
 20
149.8700767272516
 30
0.0
  0
VERTEX
  5
1C8
  8
1
  6
CONTINUOUS
 62
     7
 10
149.190090191304
 20
149.8725535226083
 30
0.0
  0
VERTEX
  5
1C9
  8
1
  6
CONTINUOUS
 62
     7
 10
149.1526134652603
 20
149.8763567625043
 30
0.0
  0
VERTEX
  5
1CA
  8
1
  6
CONTINUOUS
 62
     7
 10
149.1142804935097
 20
149.8816592288605
 30
0.0
  0
VERTEX
  5
1CB
  8
1
  6
CONTINUOUS
 62
     7
 10
149.0762546179673
 20
149.8883511323731
 30
0.0
  0
VERTEX
  5
1CC
  8
1
  6
CONTINUOUS
 62
     7
 10
149.038639874861
 20
149.8964042617673
 30
0.0
  0
VERTEX
  5
1CD
  8
1
  6
CONTINUOUS
 62
     7
 10
149.0015403004187
 20
149.9057904057682
 30
0.0
  0
VERTEX
  5
1CE
  8
1
  6
CONTINUOUS
 62
     7
 10
148.9660561332827
 20
149.9161628012768
 30
0.0
  0
VERTEX
  5
1CF
  8
1
  6
CONTINUOUS
 62
     7
 10
148.9311142601898
 20
149.927754783119
 30
0.0
  0
VERTEX
  5
1D0
  8
1
  6
CONTINUOUS
 62
     7
 10
148.8967972896133
 20
149.9405246020807
 30
0.0
  0
VERTEX
  5
1D1
  8
1
  6
CONTINUOUS
 62
     7
 10
148.8631878300264
 20
149.9544305089482
 30
0.0
  0
VERTEX
  5
1D2
  8
1
  6
CONTINUOUS
 62
     7
 10
148.8294184769224
 20
149.9698804197278
 30
0.0
  0
VERTEX
  5
1D3
  8
1
  6
CONTINUOUS
 62
     7
 10
148.7964408805886
 20
149.9864774608922
 30
0.0
  0
VERTEX
  5
1D4
  8
1
  6
CONTINUOUS
 62
     7
 10
148.7643270116407
 20
150.0041647362451
 30
0.0
  0
VERTEX
  5
1D5
  8
1
  6
CONTINUOUS
 62
     7
 10
148.7331488406943
 20
150.0228853495903
 30
0.0
  0
VERTEX
  5
1D6
  8
1
  6
CONTINUOUS
 62
     7
 10
148.6925159026117
 20
150.0498085822981
 30
0.0
  0
VERTEX
  5
1D7
  8
1
  6
CONTINUOUS
 62
     7
 10
148.6536205967471
 20
150.0785349435124
 30
0.0
  0
VERTEX
  5
1D8
  8
1
  6
CONTINUOUS
 62
     7
 10
148.6165710294786
 20
150.108907207618
 30
0.0
  0
VERTEX
  5
1D9
  8
1
  6
CONTINUOUS
 62
     7
 10
148.5814753071842
 20
150.1407681490002
 30
0.0
  0
VERTEX
  5
1DA
  8
1
  6
CONTINUOUS
 62
     7
 10
148.5484415362423
 20
150.1739605420438
 30
0.0
  0
VERTEX
  5
1DB
  8
1
  6
CONTINUOUS
 62
     7
 10
148.5175778230309
 20
150.208327161134
 30
0.0
  0
VERTEX
  5
1DC
  8
1
  6
CONTINUOUS
 62
     7
 10
148.4863575509163
 20
150.2471208854844
 30
0.0
  0
VERTEX
  5
1DD
  8
1
  6
CONTINUOUS
 62
     7
 10
148.4576174843594
 20
150.2872258240525
 30
0.0
  0
VERTEX
  5
1DE
  8
1
  6
CONTINUOUS
 62
     7
 10
148.431393083573
 20
150.3284572805539
 30
0.0
  0
VERTEX
  5
1DF
  8
1
  6
CONTINUOUS
 62
     7
 10
148.4077198087695
 20
150.3706305587041
 30
0.0
  0
VERTEX
  5
1E0
  8
1
  6
CONTINUOUS
 62
     7
 10
148.3866331201616
 20
150.4135609622188
 30
0.0
  0
VERTEX
  5
1E1
  8
1
  6
CONTINUOUS
 62
     7
 10
148.368168477962
 20
150.4570637948136
 30
0.0
  0
VERTEX
  5
1E2
  8
1
  6
CONTINUOUS
 62
     7
 10
148.3495171542403
 20
150.5096538118713
 30
0.0
  0
VERTEX
  5
1E3
  8
1
  6
CONTINUOUS
 62
     7
 10
148.3344043127991
 20
150.5629789584102
 30
0.0
  0
VERTEX
  5
1E4
  8
1
  6
CONTINUOUS
 62
     7
 10
148.3227642513015
 20
150.6168136044425
 30
0.0
  0
VERTEX
  5
1E5
  8
1
  6
CONTINUOUS
 62
     7
 10
148.3145312674106
 20
150.6709321199803
 30
0.0
  0
VERTEX
  5
1E6
  8
1
  6
CONTINUOUS
 62
     7
 10
148.3096396587898
 20
150.7251088750357
 30
0.0
  0
VERTEX
  5
1E7
  8
1
  6
CONTINUOUS
 62
     7
 10
148.3080237231022
 20
150.7791182396208
 30
0.0
  0
SEQEND
  5
218
  8
1
  6
CONTINUOUS
 62
     7
  0
LINE
  5
A7
  8
1
  6
CONTINUOUS
 62
     7
 10
149.30345017716
 20
149.8691274191981
 30
0.0
 11
165.8080237231022
 21
150.2528756305811
 31
0.0
  0
LINE
  5
A8
  8
1
  6
CONTINUOUS
 62
     7
 10
165.8080237231022
 20
133.5050497553109
 30
0.0
 11
149.30345017716
 21
133.8887979666939
 31
0.0
  0
POLYLINE
  5
A9
  8
1
  6
CONTINUOUS
 62
     7
 66
     1
 10
0.0
 20
0.0
 30
0.0
  0
VERTEX
  5
1E8
  8
1
  6
CONTINUOUS
 62
     7
 10
148.3080237231022
 20
132.9788071462711
 30
0.0
  0
VERTEX
  5
1E9
  8
1
  6
CONTINUOUS
 62
     7
 10
148.3093649529823
 20
133.0283473709982
 30
0.0
  0
VERTEX
  5
1EA
  8
1
  6
CONTINUOUS
 62
     7
 10
148.3134319508071
 20
133.07796377585
 30
0.0
  0
VERTEX
  5
1EB
  8
1
  6
CONTINUOUS
 62
     7
 10
148.3202896788536
 20
133.1274981927679
 30
0.0
  0
VERTEX
  5
1EC
  8
1
  6
CONTINUOUS
 62
     7
 10
148.3300030993984
 20
133.1767924536975
 30
0.0
  0
VERTEX
  5
1ED
  8
1
  6
CONTINUOUS
 62
     7
 10
148.3431846100385
 20
133.2275957810381
 30
0.0
  0
VERTEX
  5
1EE
  8
1
  6
CONTINUOUS
 62
     7
 10
148.3595890884401
 20
133.2779816244341
 30
0.0
  0
VERTEX
  5
1EF
  8
1
  6
CONTINUOUS
 62
     7
 10
148.3792315168266
 20
133.3277183863824
 30
0.0
  0
VERTEX
  5
1F0
  8
1
  6
CONTINUOUS
 62
     7
 10
148.4021268774213
 20
133.3765744693797
 30
0.0
  0
VERTEX
  5
1F1
  8
1
  6
CONTINUOUS
 62
     7
 10
148.4200523674101
 20
133.4100624214917
 30
0.0
  0
VERTEX
  5
1F2
  8
1
  6
CONTINUOUS
 62
     7
 10
148.4395994942096
 20
133.4430297181923
 30
0.0
  0
VERTEX
  5
1F3
  8
1
  6
CONTINUOUS
 62
     7
 10
148.4607486067806
 20
133.4753838485184
 30
0.0
  0
VERTEX
  5
1F4
  8
1
  6
CONTINUOUS
 62
     7
 10
148.4834800540839
 20
133.5070323015067
 30
0.0
  0
VERTEX
  5
1F5
  8
1
  6
CONTINUOUS
 62
     7
 10
148.5085023031829
 20
133.5387715743332
 30
0.0
  0
VERTEX
  5
1F6
  8
1
  6
CONTINUOUS
 62
     7
 10
148.5352111205663
 20
133.5696699516973
 30
0.0
  0
VERTEX
  5
1F7
  8
1
  6
CONTINUOUS
 62
     7
 10
148.5635555904566
 20
133.5996189045663
 30
0.0
  0
VERTEX
  5
1F8
  8
1
  6
CONTINUOUS
 62
     7
 10
148.5934847970767
 20
133.6285099039078
 30
0.0
  0
VERTEX
  5
1F9
  8
1
  6
CONTINUOUS
 62
     7
 10
148.6241696256301
 20
133.6555861640966
 30
0.0
  0
VERTEX
  5
1FA
  8
1
  6
CONTINUOUS
 62
     7
 10
148.6563471301861
 20
133.6815588207874
 30
0.0
  0
VERTEX
  5
1FB
  8
1
  6
CONTINUOUS
 62
     7
 10
148.689937267788
 20
133.7063271050424
 30
0.0
  0
VERTEX
  5
1FC
  8
1
  6
CONTINUOUS
 62
     7
 10
148.7248599954793
 20
133.7297902479243
 30
0.0
  0
VERTEX
  5
1FD
  8
1
  6
CONTINUOUS
 62
     7
 10
148.7624330315779
 20
133.7526641075342
 30
0.0
  0
VERTEX
  5
1FE
  8
1
  6
CONTINUOUS
 62
     7
 10
148.8013901360603
 20
133.7740307838133
 30
0.0
  0
VERTEX
  5
1FF
  8
1
  6
CONTINUOUS
 62
     7
 10
148.8416022192227
 20
133.7937899190777
 30
0.0
  0
VERTEX
  5
200
  8
1
  6
CONTINUOUS
 62
     7
 10
148.882940191361
 20
133.8118411556433
 30
0.0
  0
VERTEX
  5
201
  8
1
  6
CONTINUOUS
 62
     7
 10
148.9196302026107
 20
133.8260541244565
 30
0.0
  0
VERTEX
  5
202
  8
1
  6
CONTINUOUS
 62
     7
 10
148.9571052408425
 20
133.8389219283081
 30
0.0
  0
VERTEX
  5
203
  8
1
  6
CONTINUOUS
 62
     7
 10
148.9952585670595
 20
133.8503955331782
 30
0.0
  0
VERTEX
  5
204
  8
1
  6
CONTINUOUS
 62
     7
 10
149.0339834422649
 20
133.8604259050466
 30
0.0
  0
VERTEX
  5
205
  8
1
  6
CONTINUOUS
 62
     7
 10
149.0745893075539
 20
133.8692495591764
 30
0.0
  0
VERTEX
  5
206
  8
1
  6
CONTINUOUS
 62
     7
 10
149.1157261306208
 20
133.8764868304864
 30
0.0
  0
VERTEX
  5
207
  8
1
  6
CONTINUOUS
 62
     7
 10
149.1572590773886
 20
133.882108820892
 30
0.0
  0
VERTEX
  5
208
  8
1
  6
CONTINUOUS
 62
     7
 10
149.19905331378
 20
133.8860866323086
 30
0.0
  0
VERTEX
  5
209
  8
1
  6
CONTINUOUS
 62
     7
 10
149.2337716477529
 20
133.8881234234773
 30
0.0
  0
VERTEX
  5
20A
  8
1
  6
CONTINUOUS
 62
     7
 10
149.2685970958418
 20
133.8890280104581
 30
0.0
  0
VERTEX
  5
20B
  8
1
  6
CONTINUOUS
 62
     7
 10
149.30345017716
 20
133.8887979666939
 30
0.0
  0
SEQEND
  5
219
  8
1
  6
CONTINUOUS
 62
     7
  0
LINE
  5
AA
  8
1
  6
CONTINUOUS
 62
     7
 10
165.8080237231022
 20
127.2004270419742
 30
0.0
 11
149.30345017716
 21
127.6834296145609
 31
0.0
  0
LINE
  5
AB
  8
1
  6
CONTINUOUS
 62
     7
 10
148.3080237231022
 20
127.5271027634891
 30
0.0
 11
148.3901765637754
 21
127.5896905032128
 31
0.0
  0
ARC
  5
AC
  8
1
  6
CONTINUOUS
 62
     7
 10
149.1449459192237
 20
124.7319390724693
 30
0.0
 40
2.955743564628123
 50
86.92599064235054
 51
104.7947309988704
  0
ARC
  5
AD
  8
1
  6
CONTINUOUS
 62
     7
 10
149.1502453565914
 20
159.1387657924223
 30
0.0
 40
3.068097534173852
 50
255.9945036172553
 51
272.8622433229541
  0
POLYLINE
  5
AE
  8
1
  6
CONTINUOUS
 62
     7
 66
     1
 10
0.0
 20
0.0
 30
0.0
  0
VERTEX
  5
20C
  8
1
  6
CONTINUOUS
 62
     7
 10
148.4077198087695
 20
156.1618750839758
 30
0.0
  0
VERTEX
  5
20D
  8
1
  6
CONTINUOUS
 62
     7
 10
148.3145312674106
 20
156.2136360526613
 30
0.0
  0
VERTEX
  5
20E
  8
1
  6
CONTINUOUS
 62
     7
 10
148.3080237231022
 20
156.2308226224028
 30
0.0
  0
SEQEND
  5
21A
  8
1
  6
CONTINUOUS
 62
     7
  0
LINE
  5
AF
  8
1
  6
CONTINUOUS
 62
     7
 10
149.30345017716
 20
156.0744957713311
 30
0.0
 11
165.8080237231022
 21
156.5574983439178
 31
0.0
  0
LINE
  5
B0
  8
1
  6
CONTINUOUS
 62
     7
 10
165.8080237231022
 20
127.2004270419742
 30
0.0
 11
165.8080237231022
 21
129.1913745997328
 31
0.0
  0
LINE
  5
B1
  8
1
  6
CONTINUOUS
 62
     7
 10
165.8080237231022
 20
133.505049755311
 30
0.0
 11
165.8080237231022
 21
139.0429282885092
 31
0.0
  0
LINE
  5
B2
  8
1
  6
CONTINUOUS
 62
     7
 10
165.8080237231022
 20
144.7149970973828
 30
0.0
 11
165.8080237231022
 21
150.2528756305811
 31
0.0
  0
LINE
  5
B3
  8
1
  6
CONTINUOUS
 62
     7
 10
165.8080237231022
 20
154.566550786159
 30
0.0
 11
165.8080237231022
 21
156.5574983439178
 31
0.0
  0
LINE
  5
B4
  8
1
  6
CONTINUOUS
 62
     7
 10
138.3080237231022
 20
130.1299425009413
 30
0.0
 11
138.3080237231022
 21
141.878962692946
 31
0.0
  0
LINE
  5
B5
  8
1
  6
CONTINUOUS
 62
     7
 10
138.3080237231022
 20
141.878962692946
 30
0.0
 11
138.3080237231022
 21
153.6279828849507
 31
0.0
  0
LINE
  5
B6
  8
1
  6
CONTINUOUS
 62
     7
 10
165.8080237231022
 20
129.1913745997328
 30
0.0
 11
165.8080237231022
 21
133.5050497553109
 31
0.0
  0
LINE
  5
B7
  8
1
  6
CONTINUOUS
 62
     7
 10
165.8080237231022
 20
150.2528756305811
 30
0.0
 11
165.8080237231022
 21
154.5665507861601
 31
0.0
  0
LINE
  5
B8
  8
1
  6
CONTINUOUS
 62
     7
 10
148.3080237231022
 20
130.3956282447592
 30
0.0
 11
148.3080237231022
 21
132.9788071462712
 31
0.0
  0
LINE
  5
B9
  8
1
  6
CONTINUOUS
 62
     7
 10
148.3080237231022
 20
150.7791182396208
 30
0.0
 11
148.3080237231022
 21
153.3621621077739
 31
0.0
  0
LINE
  5
BA
  8
1
  6
CONTINUOUS
 62
     7
 10
148.3080237231022
 20
126.4675473381166
 30
0.0
 11
148.3080237231022
 21
127.5271027634891
 31
0.0
  0
LINE
  5
BB
  8
1
  6
CONTINUOUS
 62
     7
 10
148.3080237231022
 20
156.2308226224028
 30
0.0
 11
148.3080237231022
 21
157.2903780477754
 31
0.0
  0
LINE
  5
BC
  8
1
  6
CONTINUOUS
 62
     7
 10
165.8080237231022
 20
125.1786442248395
 30
0.0
 11
165.8080237231022
 21
127.2004270419742
 31
0.0
  0
LINE
  5
BD
  8
1
  6
CONTINUOUS
 62
     7
 10
165.8080237231022
 20
156.5574983439178
 30
0.0
 11
165.8080237231022
 21
158.5792811610536
 31
0.0
  0
LINE
  5
BE
  8
1
  6
CONTINUOUS
 62
     7
 10
148.3080237231022
 20
156.338962692946
 30
0.0
 11
140.738051146978
 21
156.1270034608145
 31
0.0
  0
LINE
  5
BF
  8
1
  6
CONTINUOUS
 62
     7
 10
140.738051146978
 20
127.6309219250775
 30
0.0
 11
148.3080237231022
 21
127.418962692946
 31
0.0
  0
ARC
  5
C0
  8
1
  6
CONTINUOUS
 62
     7
 10
140.8080237231022
 20
130.1299425009413
 30
0.0
 40
2.500000000000002
 50
180.0000000000001
 51
268.3961372288451
  0
ARC
  5
C1
  8
1
  6
CONTINUOUS
 62
     7
 10
140.8080237231022
 20
153.6279828849507
 30
0.0
 40
2.500000000000011
 50
91.60386277115492
 51
179.9999999999999
  0
LINE
  5
C2
  8
1
  6
CONTINUOUS
 62
     7
 10
149.2956491544463
 20
129.3957048102741
 30
0.0
 11
165.808012344092
 21
129.1913747405399
 31
0.0
  0
LINE
  5
C3
  8
1
  6
CONTINUOUS
 62
     7
 10
165.8080121561421
 20
154.5665506430263
 30
0.0
 11
149.2956449165267
 21
154.3622205231763
 31
0.0
  0
ARC
  5
C4
  8
1
  6
CONTINUOUS
 62
     7
 10
149.3080237231021
 20
130.3956282423688
 30
0.0
 40
1.000000000000001
 50
180.0
 51
269.2910370861975
  0
ARC
  5
C5
  8
1
  6
CONTINUOUS
 62
     7
 10
149.3080237231022
 20
153.3622971435232
 30
0.0
 40
1.000000000000027
 50
90.70896291380683
 51
180.0
  0
ARC
  5
C6
  8
1
  6
CONTINUOUS
 62
     7
 10
149.3080237231022
 20
126.4675473381166
 30
0.0
 40
1.000000000000001
 50
180.0000000000001
 51
268.99742619624
  0
ARC
  5
C7
  8
1
  6
CONTINUOUS
 62
     7
 10
149.3080237231021
 20
157.2903780477754
 30
0.0
 40
0.9999999999999916
 50
91.00257380376001
 51
179.9999999999999
  0
LINE
  5
C8
  8
1
  6
CONTINUOUS
 62
     7
 10
149.2905264021743
 20
125.4677004279547
 30
0.0
 11
165.8080075003341
 21
125.1786445087369
 31
0.0
  0
LINE
  5
C9
  8
1
  6
CONTINUOUS
 62
     7
 10
165.8080075003341
 20
158.5792808771551
 30
0.0
 11
149.2905264021743
 21
158.2902249579373
 31
0.0
  0
ENDBLK
  8
0
  0
BLOCK
  8
0
  2
D_FRAME_VIEW_2626
 70
     0
 10
0.0
 20
0.0
 30
0.0
  0
LINE
  5
D1
  8
1
  6
CONTINUOUS
 62
     7
 10
97.28493572945716
 20
153.275402103788
 30
0.0
 11
96.37494490903437
 21
153.964313371262
 31
0.0
  0
ARC
  5
D2
  8
1
  6
CONTINUOUS
 62
     7
 10
88.38478018278234
 20
141.878962692946
 30
0.0
 40
14.45999999999999
 50
37.98838860371832
 51
52.01161139628155
  0
LINE
  5
D3
  8
1
  6
CONTINUOUS
 62
     7
 10
100.4701308610983
 20
149.8691274191981
 30
0.0
 11
99.78121959362433
 21
150.7791182396208
 31
0.0
  0
LINE
  5
D4
  8
1
  6
CONTINUOUS
 62
     7
 10
100.4701308610983
 20
149.8691274191981
 30
0.0
 11
100.7694514385286
 21
150.2528756305811
 31
0.0
  0
ARC
  5
D5
  8
1
  6
CONTINUOUS
 62
     7
 10
88.38478018278231
 20
141.878962692946
 30
0.0
 40
14.95
 50
10.93535280730651
 51
34.06464719269343
  0
LINE
  5
D6
  8
1
  6
CONTINUOUS
 62
     7
 10
103.0633158337541
 20
144.7149970973828
 30
0.0
 11
102.5803132611674
 21
144.7746964498703
 31
0.0
  0
LINE
  5
D7
  8
1
  6
CONTINUOUS
 62
     7
 10
102.7366401122392
 20
143.6441019410652
 30
0.0
 11
102.5803132611674
 21
144.7746964498703
 31
0.0
  0
ARC
  5
D8
  8
1
  6
CONTINUOUS
 62
     7
 10
88.38478018278235
 20
141.878962692946
 30
0.0
 40
14.45999999999999
 50
352.9883886037183
 51
7.011611396281637
  0
LINE
  5
D9
  8
1
  6
CONTINUOUS
 62
     7
 10
102.5803132611674
 20
138.9832289360217
 30
0.0
 11
102.7366401122391
 21
140.1138234448268
 31
0.0
  0
LINE
  5
DA
  8
1
  6
CONTINUOUS
 62
     7
 10
102.5803132611674
 20
138.9832289360217
 30
0.0
 11
103.0633158337541
 21
139.0429282885092
 31
0.0
  0
ARC
  5
DB
  8
1
  6
CONTINUOUS
 62
     7
 10
88.38478018278231
 20
141.878962692946
 30
0.0
 40
14.94999999999999
 50
325.9353528073066
 51
349.0646471926934
  0
LINE
  5
DC
  8
1
  6
CONTINUOUS
 62
     7
 10
100.7694514385286
 20
133.5050497553109
 30
0.0
 11
100.4701308610983
 21
133.8887979666939
 31
0.0
  0
LINE
  5
DD
  8
1
  6
CONTINUOUS
 62
     7
 10
99.78121959362434
 20
132.9788071462711
 30
0.0
 11
100.4701308610983
 21
133.8887979666939
 31
0.0
  0
ARC
  5
DE
  8
1
  6
CONTINUOUS
 62
     7
 10
88.38478018278234
 20
141.878962692946
 30
0.0
 40
14.46
 50
307.9883886037183
 51
322.0116113962816
  0
LINE
  5
DF
  8
1
  6
CONTINUOUS
 62
     7
 10
96.37494490903443
 20
129.79361201463
 30
0.0
 11
97.28493572945712
 21
130.482523282104
 31
0.0
  0
LINE
  5
E0
  8
1
  6
CONTINUOUS
 62
     7
 10
96.37494490903443
 20
129.79361201463
 30
0.0
 11
96.75869312041738
 21
129.4942914371997
 31
0.0
  0
ARC
  5
E1
  8
1
  6
CONTINUOUS
 62
     7
 10
88.38478018278231
 20
141.878962692946
 30
0.0
 40
14.95
 50
280.9353528073066
 51
304.0646471926934
  0
LINE
  5
E2
  8
1
  6
CONTINUOUS
 62
     7
 10
91.2208145872191
 20
127.2004270419742
 30
0.0
 11
91.28051393970661
 21
127.6834296145609
 31
0.0
  0
LINE
  5
E3
  8
1
  6
CONTINUOUS
 62
     7
 10
90.14991943090149
 20
127.5271027634891
 30
0.0
 11
91.28051393970661
 21
127.6834296145609
 31
0.0
  0
ARC
  5
E4
  8
1
  6
CONTINUOUS
 62
     7
 10
88.38478018278231
 20
141.878962692946
 30
0.0
 40
14.45999999999999
 50
262.9883886037183
 51
277.0116113962816
  0
LINE
  5
E5
  8
1
  6
CONTINUOUS
 62
     7
 10
85.48904642585804
 20
127.6834296145609
 30
0.0
 11
86.61964093466312
 21
127.5271027634892
 31
0.0
  0
LINE
  5
E6
  8
1
  6
CONTINUOUS
 62
     7
 10
85.48904642585804
 20
127.6834296145609
 30
0.0
 11
85.54874577834552
 21
127.2004270419742
 31
0.0
  0
ARC
  5
E7
  8
1
  6
CONTINUOUS
 62
     7
 10
88.38478018278231
 20
141.878962692946
 30
0.0
 40
14.94999999999999
 50
235.9353528073066
 51
259.0646471926934
  0
LINE
  5
E8
  8
1
  6
CONTINUOUS
 62
     7
 10
80.01086724514727
 20
129.4942914371997
 30
0.0
 11
80.39461545653026
 21
129.79361201463
 31
0.0
  0
LINE
  5
E9
  8
1
  6
CONTINUOUS
 62
     7
 10
79.48462463610745
 20
130.482523282104
 30
0.0
 11
80.39461545653026
 21
129.79361201463
 31
0.0
  0
ARC
  5
EA
  8
1
  6
CONTINUOUS
 62
     7
 10
88.38478018278228
 20
141.878962692946
 30
0.0
 40
14.45999999999999
 50
217.9883886037183
 51
232.0116113962815
  0
LINE
  5
EB
  8
1
  6
CONTINUOUS
 62
     7
 10
76.2994295044663
 20
133.8887979666939
 30
0.0
 11
76.98834077194029
 21
132.9788071462712
 31
0.0
  0
LINE
  5
EC
  8
1
  6
CONTINUOUS
 62
     7
 10
76.2994295044663
 20
133.8887979666939
 30
0.0
 11
76.00010892703604
 21
133.5050497553109
 31
0.0
  0
ARC
  5
ED
  8
1
  6
CONTINUOUS
 62
     7
 10
88.38478018278231
 20
141.878962692946
 30
0.0
 40
14.94999999999998
 50
190.9353528073065
 51
214.0646471926934
  0
LINE
  5
EE
  8
1
  6
CONTINUOUS
 62
     7
 10
73.7062445318105
 20
139.0429282885092
 30
0.0
 11
74.18924710439727
 21
138.9832289360217
 31
0.0
  0
LINE
  5
EF
  8
1
  6
CONTINUOUS
 62
     7
 10
74.03292025332543
 20
140.1138234448268
 30
0.0
 11
74.18924710439727
 21
138.9832289360217
 31
0.0
  0
ARC
  5
F0
  8
1
  6
CONTINUOUS
 62
     7
 10
88.38478018278228
 20
141.878962692946
 30
0.0
 40
14.45999999999999
 50
172.9883886037183
 51
187.0116113962816
  0
LINE
  5
F1
  8
1
  6
CONTINUOUS
 62
     7
 10
74.1892471043972
 20
144.7746964498703
 30
0.0
 11
74.03292025332546
 21
143.6441019410652
 31
0.0
  0
LINE
  5
F2
  8
1
  6
CONTINUOUS
 62
     7
 10
74.1892471043972
 20
144.7746964498703
 30
0.0
 11
73.7062445318105
 21
144.7149970973828
 31
0.0
  0
ARC
  5
F3
  8
1
  6
CONTINUOUS
 62
     7
 10
88.38478018278231
 20
141.878962692946
 30
0.0
 40
14.94999999999999
 50
145.9353528073066
 51
169.0646471926935
  0
LINE
  5
F4
  8
1
  6
CONTINUOUS
 62
     7
 10
76.00010892703604
 20
150.2528756305811
 30
0.0
 11
76.29942950446633
 21
149.8691274191981
 31
0.0
  0
LINE
  5
F5
  8
1
  6
CONTINUOUS
 62
     7
 10
76.98834077194027
 20
150.7791182396208
 30
0.0
 11
76.29942950446633
 21
149.8691274191981
 31
0.0
  0
ARC
  5
F6
  8
1
  6
CONTINUOUS
 62
     7
 10
88.38478018278228
 20
141.878962692946
 30
0.0
 40
14.45999999999997
 50
127.9883886037183
 51
142.0116113962816
  0
LINE
  5
F7
  8
1
  6
CONTINUOUS
 62
     7
 10
80.3946154565302
 20
153.964313371262
 30
0.0
 11
79.4846246361075
 21
153.275402103788
 31
0.0
  0
LINE
  5
F8
  8
1
  6
CONTINUOUS
 62
     7
 10
80.3946154565302
 20
153.964313371262
 30
0.0
 11
80.01086724514725
 21
154.2636339486923
 31
0.0
  0
ARC
  5
F9
  8
1
  6
CONTINUOUS
 62
     7
 10
88.38478018278231
 20
141.878962692946
 30
0.0
 40
14.95
 50
100.9353528073066
 51
124.0646471926935
  0
LINE
  5
FA
  8
1
  6
CONTINUOUS
 62
     7
 10
85.54874577834552
 20
156.5574983439178
 30
0.0
 11
85.489046425858
 21
156.074495771331
 31
0.0
  0
LINE
  5
FB
  8
1
  6
CONTINUOUS
 62
     7
 10
86.61964093466314
 20
156.2308226224029
 30
0.0
 11
85.489046425858
 21
156.074495771331
 31
0.0
  0
ARC
  5
FC
  8
1
  6
CONTINUOUS
 62
     7
 10
88.38478018278231
 20
141.878962692946
 30
0.0
 40
14.45999999999999
 50
82.9883886037183
 51
97.01161139628167
  0
LINE
  5
FD
  8
1
  6
CONTINUOUS
 62
     7
 10
91.28051393970658
 20
156.0744957713311
 30
0.0
 11
90.1499194309015
 21
156.2308226224028
 31
0.0
  0
LINE
  5
FE
  8
1
  6
CONTINUOUS
 62
     7
 10
91.28051393970658
 20
156.0744957713311
 30
0.0
 11
91.2208145872191
 21
156.5574983439178
 31
0.0
  0
ARC
  5
FF
  8
1
  6
CONTINUOUS
 62
     7
 10
88.38478018278231
 20
141.878962692946
 30
0.0
 40
14.94999999999999
 50
55.93535280730656
 51
79.06464719269349
  0
LINE
  5
100
  8
1
  6
CONTINUOUS
 62
     7
 10
96.75869312041738
 20
154.2636339486923
 30
0.0
 11
96.37494490903437
 21
153.964313371262
 31
0.0
  0
ARC
  5
101
  8
1
  6
CONTINUOUS
 62
     7
 10
88.38478018278231
 20
155.5792811610536
 30
0.0
 40
3.000000000000004
 50
19.0305583299563
 51
160.9694416700437
  0
ARC
  5
102
  8
1
  6
CONTINUOUS
 62
     7
 10
74.68446171467474
 20
141.878962692946
 30
0.0
 40
2.999999999999986
 50
109.0305583299563
 51
250.9694416700438
  0
ARC
  5
103
  8
1
  6
CONTINUOUS
 62
     7
 10
102.0850986508899
 20
141.878962692946
 30
0.0
 40
2.999999999999986
 50
289.0305583299562
 51
70.9694416700438
  0
ARC
  5
104
  8
1
  6
CONTINUOUS
 62
     7
 10
88.38478018278231
 20
128.1786442248384
 30
0.0
 40
3.000000000000004
 50
199.0305583299563
 51
340.9694416700438
  0
ARC
  5
105
  8
1
  6
CONTINUOUS
 62
     7
 10
78.69719208956816
 20
151.5665507861601
 30
0.0
 40
2.999999999999998
 50
64.03055832995625
 51
205.9694416700438
  0
ARC
  5
106
  8
1
  6
CONTINUOUS
 62
     7
 10
98.07236827599647
 20
151.5665507861601
 30
0.0
 40
2.999999999999998
 50
334.0305583299562
 51
115.9694416700437
  0
ARC
  5
107
  8
1
  6
CONTINUOUS
 62
     7
 10
98.07236827599647
 20
132.1913745997319
 30
0.0
 40
2.999999999999998
 50
244.0305583299562
 51
25.96944167004375
  0
ARC
  5
108
  8
1
  6
CONTINUOUS
 62
     7
 10
78.69719208956816
 20
132.1913745997319
 30
0.0
 40
2.999999999999998
 50
154.0305583299562
 51
295.9694416700439
  0
ENDBLK
  8
0
  0
ENDSEC
  0
SECTION
  2
ENTITIES
  0
INSERT
  5
9B
  8
1
  6
CONTINUOUS
 62
     7
  2
D_FRAME_VIEW_2883
 10
0.0
 20
0.0
 30
0.0
  0
INSERT
  5
CA
  8
1
  6
CONTINUOUS
 62
     7
  2
D_FRAME_VIEW_2814
 10
0.0
 20
0.0
 30
0.0
  0
LINE
  5
CB
  8
1
  6
CENTER
 62
     1
 10
88.38478018278231
 20
124.928962692946
 30
0.0
 11
88.38478018278231
 21
158.828962692946
 31
0.0
  0
LINE
  5
CD
  8
1
  6
CENTER
 62
     1
 10
71.43478018278232
 20
141.878962692946
 30
0.0
 11
105.3347801827823
 21
141.878962692946
 31
0.0
  0
INSERT
  5
109
  8
1
  6
CONTINUOUS
 62
     7
  2
D_FRAME_VIEW_2626
 10
0.0
 20
0.0
 30
0.0
  0
LINE
  5
10A
  8
1
  6
CENTER
 62
     1
 10
88.38478018278231
 20
112.3791852798725
 30
0.0
 11
88.38478018278231
 21
72.37918527987252
 31
0.0
  0
LINE
  5
10B
  8
1
  6
CENTER
 62
     1
 10
176.9580237231021
 20
141.878962692946
 30
0.0
 11
131.9580237231022
 21
141.878962692946
 31
0.0
  0
TEXT
  5
10C
  8
1
  6
CONTINUOUS
 62
     7
 10
134.1549663265785
 20
95.20738272545819
 30
0.0
 40
3.0
  1
CD22-C-BM
  0
LINE
  5
10D
  8
1
  6
CONTINUOUS
 62
     2
 10
134.2398419049203
 20
94.64941723840055
 30
0.0
 11
149.676205541284
 21
94.64941723840055
 31
0.0
  0
ENDSEC
  0
EOF
