  0
SECTION
  2
HEADER
  9
$ACADVER
  1
AC1006
  9
$DWGCODEPAGE
  3
ansi_932
  9
$INSBASE
 10
0.0
 20
0.0
 30
0.0
  9
$EXTMIN
 10
64.8481457803235
 20
62.50939054764829
  9
$EXTMAX
 10
175.5713819010791
 20
156.926817638215
  9
$LIMMIN
 10
0.0
 20
0.0
  9
$LIMMAX
 10
12.0
 20
9.0
  9
$ORTHOMODE
 70
     0
  9
$REGENMODE
 70
     1
  9
$FILLMODE
 70
     1
  9
$QTEXTMODE
 70
     0
  9
$MIRRTEXT
 70
     1
  9
$DRAGMODE
 70
     2
  9
$LTSCALE
 40
1.0
  9
$OSMODE
 70
    37
  9
$ATTMODE
 70
     1
  9
$TEXTSIZE
 40
0.2
  9
$TRACEWID
 40
0.05
  9
$TEXTSTYLE
  7
STANDARD
  9
$CLAYER
  8
0
  9
$CELTYPE
  6
BYLAYER
  9
$CECOLOR
 62
   256
  9
$DIMSCALE
 40
1.0
  9
$DIMASZ
 40
3.0
  9
$DIMEXO
 40
0.0625
  9
$DIMDLI
 40
0.38
  9
$DIMRND
 40
0.0
  9
$DIMDLE
 40
0.0
  9
$DIMEXE
 40
1.5
  9
$DIMTP
 40
0.0
  9
$DIMTM
 40
0.0
  9
$DIMTXT
 40
3.0
  9
$DIMCEN
 40
0.09
  9
$DIMTSZ
 40
0.0
  9
$DIMTOL
 70
     0
  9
$DIMLIM
 70
     0
  9
$DIMTIH
 70
     1
  9
$DIMTOH
 70
     1
  9
$DIMSE1
 70
     0
  9
$DIMSE2
 70
     0
  9
$DIMTAD
 70
     1
  9
$DIMZIN
 70
     0
  9
$DIMBLK
  1

  9
$DIMASO
 70
     1
  9
$DIMSHO
 70
     1
  9
$DIMPOST
  1

  9
$DIMAPOST
  1

  9
$DIMALT
 70
     0
  9
$DIMALTD
 70
     2
  9
$DIMALTF
 40
25.4
  9
$DIMLFAC
 40
1.0
  9
$DIMTOFL
 70
     0
  9
$DIMTVP
 40
0.0
  9
$DIMTIX
 70
     0
  9
$DIMSOXD
 70
     0
  9
$DIMSAH
 70
     0
  9
$DIMBLK1
  1

  9
$DIMBLK2
  1

  9
$LUNITS
 70
     2
  9
$LUPREC
 70
     4
  9
$SKETCHINC
 40
0.1
  9
$FILLETRAD
 40
0.5
  9
$AUNITS
 70
     0
  9
$AUPREC
 70
     0
  9
$MENU
  1
.
  9
$ELEVATION
 40
0.0
  9
$THICKNESS
 40
0.0
  9
$LIMCHECK
 70
     0
  9
$CHAMFERA
 40
0.0
  9
$CHAMFERB
 40
0.0
  9
$SKPOLY
 70
     0
  9
$TDCREATE
 40
2460745.660623611
  9
$TDUPDATE
 40
2460745.660623842
  9
$TDINDWG
 40
0.0000000116
  9
$TDUSRTIMER
 40
0.0000000116
  9
$USRTIMER
 70
     1
  9
$ANGBASE
 50
0.0
  9
$ANGDIR
 70
     0
  9
$PDMODE
 70
     0
  9
$PDSIZE
 40
0.0
  9
$PLINEWID
 40
0.0
  9
$COORDS
 70
     1
  9
$SPLFRAME
 70
     0
  9
$SPLINETYPE
 70
     6
  9
$SPLINESEGS
 70
     8
  9
$ATTDIA
 70
     0
  9
$ATTREQ
 70
     1
  9
$HANDLING
 70
     1
  9
$HANDSEED
  5
1DA
  9
$SURFTAB1
 70
     6
  9
$SURFTAB2
 70
     6
  9
$SURFTYPE
 70
     6
  9
$SURFU
 70
     6
  9
$SURFV
 70
     6
  9
$UCSNAME
  2

  9
$UCSORG
 10
0.0
 20
0.0
 30
0.0
  9
$UCSXDIR
 10
1.0
 20
0.0
 30
0.0
  9
$UCSYDIR
 10
0.0
 20
1.0
 30
0.0
  9
$USERI1
 70
     0
  9
$USERI2
 70
     0
  9
$USERI3
 70
     0
  9
$USERI4
 70
     0
  9
$USERI5
 70
     0
  9
$USERR1
 40
0.0
  9
$USERR2
 40
0.0
  9
$USERR3
 40
0.0
  9
$USERR4
 40
0.0
  9
$USERR5
 40
0.0
  9
$WORLDVIEW
 70
     1
  0
ENDSEC
  0
SECTION
  2
TABLES
  0
TABLE
  2
VPORT
 70
     1
  0
VPORT
  2
*ACTIVE
 70
     0
 10
0.0
 20
0.0
 11
1.0
 21
1.0
 12
120.2097638407013
 22
109.7181040929317
 13
0.0
 23
0.0
 14
0.5
 24
0.5
 15
0.5
 25
0.5
 16
0.0
 26
0.0
 36
1.0
 17
0.0
 27
0.0
 37
0.0
 40
94.41742709056675
 41
1.6
 42
50.0
 43
0.0
 44
0.0
 50
0.0
 51
0.0
 71
     0
 72
   100
 73
     1
 74
     3
 75
     0
 76
     0
 77
     0
 78
     0
  0
ENDTAB
  0
TABLE
  2
LTYPE
 70
     2
  0
LTYPE
  2
CONTINUOUS
 70
     0
  3
Solid line
 72
    65
 73
     0
 40
0.0
  0
LTYPE
  2
CENTER
 70
     0
  3

 72
    65
 73
     0
 40
0.0
  0
ENDTAB
  0
TABLE
  2
LAYER
 70
     2
  0
LAYER
  2
0
 70
     0
 62
     7
  6
CONTINUOUS
  0
LAYER
  2
1
 70
     0
 62
     7
  6
CONTINUOUS
  0
ENDTAB
  0
TABLE
  2
STYLE
 70
     2
  0
STYLE
  2
STANDARD
 70
     0
 40
0.0
 41
1.0
 50
0.0
 71
     0
 42
0.2
  3
txt
  4

  0
STYLE
  2
ＭＳ_ゴシック
 70
     0
 40
0.0
 41
1.0
 50
0.0
 71
     0
 42
0.2
  3
ＭＳ ゴシック.shx
  4

  0
ENDTAB
  0
TABLE
  2
VIEW
 70
     0
  0
ENDTAB
  0
TABLE
  2
UCS
 70
     0
  0
ENDTAB
  0
ENDSEC
  0
SECTION
  2
BLOCKS
  0
BLOCK
  8
0
  2
D_FRAME_VIEW_2818
 70
     0
 10
0.0
 20
0.0
 30
0.0
  0
LINE
  5
71
  8
1
  6
CONTINUOUS
 62
     7
 10
167.1713819010792
 20
133.52769743388
 30
0.0
 11
167.1713819010792
 21
139.32593784255
 31
0.0
  0
LINE
  5
72
  8
1
  6
CONTINUOUS
 62
     7
 10
167.1713819010792
 20
133.52769743388
 30
0.0
 11
147.6485824889921
 21
133.7748534530952
 31
0.0
  0
LINE
  5
73
  8
1
  6
CONTINUOUS
 62
     7
 10
147.6485824889921
 20
139.0787818233348
 30
0.0
 11
167.1713819010792
 21
139.3259378425501
 31
0.0
  0
LINE
  5
74
  8
1
  6
CONTINUOUS
 62
     7
 10
146.6713819010791
 20
135.1434228629689
 30
0.0
 11
146.6713819010791
 21
137.7102124134611
 31
0.0
  0
ARC
  5
75
  8
1
  6
CONTINUOUS
 62
     7
 10
148.390040593628
 20
137.7750936245196
 30
0.0
 40
1.719882924219551
 50
152.1387970365857
 51
182.16195055817
  0
POLYLINE
  5
76
  8
1
  6
CONTINUOUS
 62
     7
 66
     1
 10
0.0
 20
0.0
 30
0.0
  0
VERTEX
  5
120
  8
1
  6
CONTINUOUS
 62
     7
 10
146.8695225773536
 20
138.5788487086137
 30
0.0
  0
VERTEX
  5
121
  8
1
  6
CONTINUOUS
 62
     7
 10
146.9470229303158
 20
138.6973460170056
 30
0.0
  0
VERTEX
  5
122
  8
1
  6
CONTINUOUS
 62
     7
 10
147.0380831426951
 20
138.8041626175027
 30
0.0
  0
VERTEX
  5
123
  8
1
  6
CONTINUOUS
 62
     7
 10
147.1436964935497
 20
138.8980790592753
 30
0.0
  0
VERTEX
  5
124
  8
1
  6
CONTINUOUS
 62
     7
 10
147.2444015086177
 20
138.965299193563
 30
0.0
  0
VERTEX
  5
125
  8
1
  6
CONTINUOUS
 62
     7
 10
147.3475808029502
 20
139.0160053954892
 30
0.0
  0
VERTEX
  5
126
  8
1
  6
CONTINUOUS
 62
     7
 10
147.4543708573325
 20
139.0518822647184
 30
0.0
  0
VERTEX
  5
127
  8
1
  6
CONTINUOUS
 62
     7
 10
147.5786083173766
 20
139.0745461992257
 30
0.0
  0
VERTEX
  5
128
  8
1
  6
CONTINUOUS
 62
     7
 10
147.6485824889921
 20
139.0787818233348
 30
0.0
  0
SEQEND
  5
1D1
  8
1
  6
CONTINUOUS
 62
     7
  0
POLYLINE
  5
77
  8
1
  6
CONTINUOUS
 62
     7
 66
     1
 10
0.0
 20
0.0
 30
0.0
  0
VERTEX
  5
129
  8
1
  6
CONTINUOUS
 62
     7
 10
147.6485824889921
 20
133.7748534530952
 30
0.0
  0
VERTEX
  5
12A
  8
1
  6
CONTINUOUS
 62
     7
 10
147.5435307523516
 20
133.7834986335968
 30
0.0
  0
VERTEX
  5
12B
  8
1
  6
CONTINUOUS
 62
     7
 10
147.4207875849194
 20
133.8113338820619
 30
0.0
  0
VERTEX
  5
12C
  8
1
  6
CONTINUOUS
 62
     7
 10
147.3205538142693
 20
133.8493021172883
 30
0.0
  0
VERTEX
  5
12D
  8
1
  6
CONTINUOUS
 62
     7
 10
147.2115572698535
 20
133.908174934586
 30
0.0
  0
VERTEX
  5
12E
  8
1
  6
CONTINUOUS
 62
     7
 10
147.1236793222213
 20
133.9713268933759
 30
0.0
  0
VERTEX
  5
12F
  8
1
  6
CONTINUOUS
 62
     7
 10
147.0414419816661
 20
134.0460448252524
 30
0.0
  0
VERTEX
  5
130
  8
1
  6
CONTINUOUS
 62
     7
 10
146.9671244242474
 20
134.1301656127319
 30
0.0
  0
SEQEND
  5
1D2
  8
1
  6
CONTINUOUS
 62
     7
  0
ARC
  5
78
  8
1
  6
CONTINUOUS
 62
     7
 10
148.2425145011638
 20
135.0522059205968
 30
0.0
 40
1.573778312731694
 50
176.6772470721768
 51
215.8649608551699
  0
ARC
  5
79
  8
1
  6
CONTINUOUS
 62
     7
 10
147.5217637019636
 20
158.0209421571946
 30
0.0
 40
3.646133935306741
 50
257.9811460018991
 51
271.9932474374034
  0
POLYLINE
  5
7A
  8
1
  6
CONTINUOUS
 62
     7
 66
     1
 10
0.0
 20
0.0
 30
0.0
  0
VERTEX
  5
131
  8
1
  6
CONTINUOUS
 62
     7
 10
146.7625162777044
 20
154.4547346445909
 30
0.0
  0
VERTEX
  5
132
  8
1
  6
CONTINUOUS
 62
     7
 10
146.6729992667986
 20
154.501719927318
 30
0.0
  0
VERTEX
  5
133
  8
1
  6
CONTINUOUS
 62
     7
 10
146.6713819010791
 20
154.5086016868037
 30
0.0
  0
SEQEND
  5
1D3
  8
1
  6
CONTINUOUS
 62
     7
  0
LINE
  5
7B
  8
1
  6
CONTINUOUS
 62
     7
 10
167.1713819010792
 20
154.6982462096436
 30
0.0
 11
147.6485824889921
 21
154.3770143767011
 31
0.0
  0
LINE
  5
7C
  8
1
  6
CONTINUOUS
 62
     7
 10
146.6713819010792
 20
150.1200669034364
 30
0.0
 11
146.6818723974067
 21
150.2724456236062
 31
0.0
  0
POLYLINE
  5
7D
  8
1
  6
CONTINUOUS
 62
     7
 66
     1
 10
0.0
 20
0.0
 30
0.0
  0
VERTEX
  5
134
  8
1
  6
CONTINUOUS
 62
     7
 10
147.6485824889921
 20
147.2443016168691
 30
0.0
  0
VERTEX
  5
135
  8
1
  6
CONTINUOUS
 62
     7
 10
147.613414956424
 20
147.2449627240605
 30
0.0
  0
VERTEX
  5
136
  8
1
  6
CONTINUOUS
 62
     7
 10
147.5783041799637
 20
147.2468572040088
 30
0.0
  0
VERTEX
  5
137
  8
1
  6
CONTINUOUS
 62
     7
 10
147.5433491314623
 20
147.2499740083749
 30
0.0
  0
VERTEX
  5
138
  8
1
  6
CONTINUOUS
 62
     7
 10
147.5086487827707
 20
147.2543020888196
 30
0.0
  0
VERTEX
  5
139
  8
1
  6
CONTINUOUS
 62
     7
 10
147.4731571869897
 20
147.2600297017852
 30
0.0
  0
VERTEX
  5
13A
  8
1
  6
CONTINUOUS
 62
     7
 10
147.4380032407104
 20
147.2670189465719
 30
0.0
  0
VERTEX
  5
13B
  8
1
  6
CONTINUOUS
 62
     7
 10
147.4032837561319
 20
147.2752354837555
 30
0.0
  0
VERTEX
  5
13C
  8
1
  6
CONTINUOUS
 62
     7
 10
147.3690955454529
 20
147.2846449739117
 30
0.0
  0
VERTEX
  5
13D
  8
1
  6
CONTINUOUS
 62
     7
 10
147.3365041674499
 20
147.2948819181325
 30
0.0
  0
VERTEX
  5
13E
  8
1
  6
CONTINUOUS
 62
     7
 10
147.3044578349631
 20
147.3061926906363
 30
0.0
  0
VERTEX
  5
13F
  8
1
  6
CONTINUOUS
 62
     7
 10
147.273026585708
 20
147.318532024437
 30
0.0
  0
VERTEX
  5
140
  8
1
  6
CONTINUOUS
 62
     7
 10
147.2422804574001
 20
147.3318546525483
 30
0.0
  0
VERTEX
  5
141
  8
1
  6
CONTINUOUS
 62
     7
 10
147.2013411407912
 20
147.3516353383051
 30
0.0
  0
VERTEX
  5
142
  8
1
  6
CONTINUOUS
 62
     7
 10
147.1617650947335
 20
147.3731173684277
 30
0.0
  0
VERTEX
  5
143
  8
1
  6
CONTINUOUS
 62
     7
 10
147.1236793222213
 20
147.3961677361537
 30
0.0
  0
VERTEX
  5
144
  8
1
  6
CONTINUOUS
 62
     7
 10
147.0858143011444
 20
147.4216418248765
 30
0.0
  0
VERTEX
  5
145
  8
1
  6
CONTINUOUS
 62
     7
 10
147.0495754172839
 20
147.4486534124106
 30
0.0
  0
VERTEX
  5
146
  8
1
  6
CONTINUOUS
 62
     7
 10
147.0150240511526
 20
147.4770581690027
 30
0.0
  0
VERTEX
  5
147
  8
1
  6
CONTINUOUS
 62
     7
 10
146.9822215832631
 20
147.5067117648997
 30
0.0
  0
VERTEX
  5
148
  8
1
  6
CONTINUOUS
 62
     7
 10
146.9512293941279
 20
147.5374698703485
 30
0.0
  0
VERTEX
  5
149
  8
1
  6
CONTINUOUS
 62
     7
 10
146.9221088642597
 20
147.5691881555958
 30
0.0
  0
VERTEX
  5
14A
  8
1
  6
CONTINUOUS
 62
     7
 10
146.8926340340539
 20
147.6045526880202
 30
0.0
  0
VERTEX
  5
14B
  8
1
  6
CONTINUOUS
 62
     7
 10
146.8652083542832
 20
147.6409154397284
 30
0.0
  0
VERTEX
  5
14C
  8
1
  6
CONTINUOUS
 62
     7
 10
146.8398290841254
 20
147.6781310358667
 30
0.0
  0
VERTEX
  5
14D
  8
1
  6
CONTINUOUS
 62
     7
 10
146.816493482758
 20
147.716054101581
 30
0.0
  0
VERTEX
  5
14E
  8
1
  6
CONTINUOUS
 62
     7
 10
146.787713602865
 20
147.7690871034747
 30
0.0
  0
VERTEX
  5
14F
  8
1
  6
CONTINUOUS
 62
     7
 10
146.7625162777044
 20
147.8231342525848
 30
0.0
  0
VERTEX
  5
150
  8
1
  6
CONTINUOUS
 62
     7
 10
146.7407960323192
 20
147.8779171753243
 30
0.0
  0
VERTEX
  5
151
  8
1
  6
CONTINUOUS
 62
     7
 10
146.7180321359209
 20
147.9481772652428
 30
0.0
  0
VERTEX
  5
152
  8
1
  6
CONTINUOUS
 62
     7
 10
146.700243476681
 20
148.0191773910911
 30
0.0
  0
VERTEX
  5
153
  8
1
  6
CONTINUOUS
 62
     7
 10
146.6870570890882
 20
148.0906422705004
 30
0.0
  0
VERTEX
  5
154
  8
1
  6
CONTINUOUS
 62
     7
 10
146.6781000076312
 20
148.162296621102
 30
0.0
  0
VERTEX
  5
155
  8
1
  6
CONTINUOUS
 62
     7
 10
146.6729992667986
 20
148.233865160527
 30
0.0
  0
VERTEX
  5
156
  8
1
  6
CONTINUOUS
 62
     7
 10
146.6713819010791
 20
148.3050726064069
 30
0.0
  0
SEQEND
  5
1D4
  8
1
  6
CONTINUOUS
 62
     7
  0
LINE
  5
7E
  8
1
  6
CONTINUOUS
 62
     7
 10
167.1713819010792
 20
147.2966811270776
 30
0.0
 11
147.6485824889921
 21
147.2443016168691
 31
0.0
  0
LINE
  5
7F
  8
1
  6
CONTINUOUS
 62
     7
 10
147.6485824889921
 20
125.6093336595609
 30
0.0
 11
167.1713819010792
 21
125.5569541493525
 31
0.0
  0
POLYLINE
  5
80
  8
1
  6
CONTINUOUS
 62
     7
 66
     1
 10
0.0
 20
0.0
 30
0.0
  0
VERTEX
  5
157
  8
1
  6
CONTINUOUS
 62
     7
 10
146.6713819010791
 20
124.5485626700231
 30
0.0
  0
VERTEX
  5
158
  8
1
  6
CONTINUOUS
 62
     7
 10
146.6739010916477
 20
124.6376391648128
 30
0.0
  0
VERTEX
  5
159
  8
1
  6
CONTINUOUS
 62
     7
 10
146.6819744593473
 20
124.7269955649574
 30
0.0
  0
VERTEX
  5
15A
  8
1
  6
CONTINUOUS
 62
     7
 10
146.6963756981689
 20
124.8162230470419
 30
0.0
  0
VERTEX
  5
15B
  8
1
  6
CONTINUOUS
 62
     7
 10
146.7088272091365
 20
124.8713123576884
 30
0.0
  0
VERTEX
  5
15C
  8
1
  6
CONTINUOUS
 62
     7
 10
146.724202330565
 20
124.9262001309148
 30
0.0
  0
VERTEX
  5
15D
  8
1
  6
CONTINUOUS
 62
     7
 10
146.7426368249976
 20
124.9806759355337
 30
0.0
  0
VERTEX
  5
15E
  8
1
  6
CONTINUOUS
 62
     7
 10
146.7642664549774
 20
125.0345293403579
 30
0.0
  0
VERTEX
  5
15F
  8
1
  6
CONTINUOUS
 62
     7
 10
146.7892269830474
 20
125.0875499142002
 30
0.0
  0
VERTEX
  5
160
  8
1
  6
CONTINUOUS
 62
     7
 10
146.8135432284168
 20
125.1324471177619
 30
0.0
  0
VERTEX
  5
161
  8
1
  6
CONTINUOUS
 62
     7
 10
146.8406098553643
 20
125.1766134529834
 30
0.0
  0
VERTEX
  5
162
  8
1
  6
CONTINUOUS
 62
     7
 10
146.8704256133193
 20
125.2198187299957
 30
0.0
  0
VERTEX
  5
163
  8
1
  6
CONTINUOUS
 62
     7
 10
146.9029892517111
 20
125.2618327589298
 30
0.0
  0
VERTEX
  5
164
  8
1
  6
CONTINUOUS
 62
     7
 10
146.9382995199688
 20
125.3024253499166
 30
0.0
  0
VERTEX
  5
165
  8
1
  6
CONTINUOUS
 62
     7
 10
146.9763551675217
 20
125.3413663130869
 30
0.0
  0
VERTEX
  5
166
  8
1
  6
CONTINUOUS
 62
     7
 10
147.006535484022
 20
125.3692259507364
 30
0.0
  0
VERTEX
  5
167
  8
1
  6
CONTINUOUS
 62
     7
 10
147.0382937475667
 20
125.3960513523582
 30
0.0
  0
VERTEX
  5
168
  8
1
  6
CONTINUOUS
 62
     7
 10
147.071571540063
 20
125.4217225310716
 30
0.0
  0
VERTEX
  5
169
  8
1
  6
CONTINUOUS
 62
     7
 10
147.1063104434184
 20
125.4461194999963
 30
0.0
  0
VERTEX
  5
16A
  8
1
  6
CONTINUOUS
 62
     7
 10
147.1362825225427
 20
125.4653614317346
 30
0.0
  0
VERTEX
  5
16B
  8
1
  6
CONTINUOUS
 62
     7
 10
147.1672752263537
 20
125.4836446382943
 30
0.0
  0
VERTEX
  5
16C
  8
1
  6
CONTINUOUS
 62
     7
 10
147.1992217830981
 20
125.5008998685088
 30
0.0
  0
VERTEX
  5
16D
  8
1
  6
CONTINUOUS
 62
     7
 10
147.2320554210227
 20
125.5170578712117
 30
0.0
  0
VERTEX
  5
16E
  8
1
  6
CONTINUOUS
 62
     7
 10
147.2657093683741
 20
125.5320493952366
 30
0.0
  0
VERTEX
  5
16F
  8
1
  6
CONTINUOUS
 62
     7
 10
147.3016711111141
 20
125.5463989985324
 30
0.0
  0
VERTEX
  5
170
  8
1
  6
CONTINUOUS
 62
     7
 10
147.3384933702401
 20
125.5594078206742
 30
0.0
  0
VERTEX
  5
171
  8
1
  6
CONTINUOUS
 62
     7
 10
147.3760621802637
 20
125.5710117734558
 30
0.0
  0
VERTEX
  5
172
  8
1
  6
CONTINUOUS
 62
     7
 10
147.4142635756968
 20
125.5811467686708
 30
0.0
  0
VERTEX
  5
173
  8
1
  6
CONTINUOUS
 62
     7
 10
147.4546134173735
 20
125.5900823392957
 30
0.0
  0
VERTEX
  5
174
  8
1
  6
CONTINUOUS
 62
     7
 10
147.4955604505517
 20
125.5973639613127
 30
0.0
  0
VERTEX
  5
175
  8
1
  6
CONTINUOUS
 62
     7
 10
147.5369452317225
 20
125.6029517575607
 30
0.0
  0
VERTEX
  5
176
  8
1
  6
CONTINUOUS
 62
     7
 10
147.5786083173767
 20
125.6068058508792
 30
0.0
  0
VERTEX
  5
177
  8
1
  6
CONTINUOUS
 62
     7
 10
147.6135509521351
 20
125.6086805007975
 30
0.0
  0
VERTEX
  5
178
  8
1
  6
CONTINUOUS
 62
     7
 10
147.6485824889921
 20
125.6093336595609
 30
0.0
  0
SEQEND
  5
1D5
  8
1
  6
CONTINUOUS
 62
     7
  0
LINE
  5
81
  8
1
  6
CONTINUOUS
 62
     7
 10
147.6485824889921
 20
118.4766208997289
 30
0.0
 11
167.1713819010792
 21
118.1553890667864
 31
0.0
  0
LINE
  5
82
  8
1
  6
CONTINUOUS
 62
     7
 10
146.6713819010791
 20
118.3450335896263
 30
0.0
 11
146.7582892473117
 21
118.3976239112584
 31
0.0
  0
ARC
  5
83
  8
1
  6
CONTINUOUS
 62
     7
 10
147.5250670802161
 20
114.8123501203899
 30
0.0
 40
3.666351919895656
 50
88.06940219738107
 51
102.0719107539426
  0
LINE
  5
84
  8
1
  6
CONTINUOUS
 62
     7
 10
167.1713819010792
 20
118.1553890667864
 30
0.0
 11
167.1713819010792
 21
121.0524489674504
 31
0.0
  0
LINE
  5
85
  8
1
  6
CONTINUOUS
 62
     7
 10
167.1713819010792
 20
125.5569541493525
 30
0.0
 11
167.1713819010792
 21
133.52769743388
 31
0.0
  0
LINE
  5
86
  8
1
  6
CONTINUOUS
 62
     7
 10
167.1713819010792
 20
139.3259378425501
 30
0.0
 11
167.1713819010792
 21
147.2966811270776
 31
0.0
  0
LINE
  5
87
  8
1
  6
CONTINUOUS
 62
     7
 10
167.1713819010792
 20
151.8011863089796
 30
0.0
 11
167.1713819010792
 21
154.6982462096436
 31
0.0
  0
LINE
  5
88
  8
1
  6
CONTINUOUS
 62
     7
 10
134.1713819010792
 20
121.4727680104641
 30
0.0
 11
134.1713819010792
 21
151.3808672659659
 31
0.0
  0
LINE
  5
89
  8
1
  6
CONTINUOUS
 62
     7
 10
167.1713819010792
 20
121.0524489674504
 30
0.0
 11
167.1713819010792
 21
125.5569541493525
 31
0.0
  0
LINE
  5
8A
  8
1
  6
CONTINUOUS
 62
     7
 10
167.1713819010792
 20
147.2966811270776
 30
0.0
 11
167.1713819010792
 21
151.8011863089795
 31
0.0
  0
LINE
  5
8B
  8
1
  6
CONTINUOUS
 62
     7
 10
146.6818728438606
 20
122.581186594924
 30
0.0
 11
146.6713819010791
 21
122.7335683729913
 31
0.0
  0
LINE
  5
8C
  8
1
  6
CONTINUOUS
 62
     7
 10
146.6713819010791
 20
122.7335683729913
 30
0.0
 11
146.6713819010791
 21
124.5485626700231
 31
0.0
  0
LINE
  5
8D
  8
1
  6
CONTINUOUS
 62
     7
 10
146.6713819010791
 20
148.3050726064069
 30
0.0
 11
146.6713819010791
 21
150.1200669034363
 31
0.0
  0
LINE
  5
8E
  8
1
  6
CONTINUOUS
 62
     7
 10
167.1713819010792
 20
115.926817638215
 30
0.0
 11
167.1713819010792
 21
118.1553890667864
 31
0.0
  0
LINE
  5
8F
  8
1
  6
CONTINUOUS
 62
     7
 10
167.1713819010792
 20
154.6982462096436
 30
0.0
 11
167.1713819010792
 21
156.9268176382148
 31
0.0
  0
LINE
  5
90
  8
1
  6
CONTINUOUS
 62
     7
 10
146.6713819010792
 20
117.8800451330212
 30
0.0
 11
146.6713819010792
 21
118.1614201853866
 31
0.0
  0
LINE
  5
91
  8
1
  6
CONTINUOUS
 62
     7
 10
146.6713819010792
 20
118.1614201853866
 30
0.0
 11
146.6713819010792
 21
118.3450335896266
 31
0.0
  0
LINE
  5
92
  8
1
  6
CONTINUOUS
 62
     7
 10
146.6713819010792
 20
154.5086016868037
 30
0.0
 11
146.6713819010792
 21
154.662591975913
 31
0.0
  0
LINE
  5
93
  8
1
  6
CONTINUOUS
 62
     7
 10
146.6713819010792
 20
154.662591975913
 30
0.0
 11
146.6713819010792
 21
154.9744090649578
 31
0.0
  0
LINE
  5
94
  8
1
  6
CONTINUOUS
 62
     7
 10
146.6713819010791
 20
154.5540903654877
 30
0.0
 11
137.1168454600767
 21
154.3803715211059
 31
0.0
  0
LINE
  5
95
  8
1
  6
CONTINUOUS
 62
     7
 10
137.1168454600767
 20
118.4732637553242
 30
0.0
 11
146.6713819010791
 21
118.2995449109423
 31
0.0
  0
ARC
  5
96
  8
1
  6
CONTINUOUS
 62
     7
 10
137.1713819010792
 20
121.4727680104641
 30
0.0
 40
3.000000000000003
 50
180.0
 51
268.9583733239908
  0
ARC
  5
97
  8
1
  6
CONTINUOUS
 62
     7
 10
137.1713819010792
 20
151.3808672659659
 30
0.0
 40
3.000000000000009
 50
91.04162667600919
 51
180.0
  0
LINE
  5
98
  8
1
  6
CONTINUOUS
 62
     7
 10
147.6369061178761
 20
121.7262519085835
 30
0.0
 11
167.1713772533776
 21
121.0524491277637
 31
0.0
  0
LINE
  5
99
  8
1
  6
CONTINUOUS
 62
     7
 10
167.171377474711
 20
151.8011861563008
 30
0.0
 11
147.6369023534175
 21
151.127383237999
 31
0.0
  0
ARC
  5
9A
  8
1
  6
CONTINUOUS
 62
     7
 10
147.6713819010792
 20
122.7256574420799
 30
0.0
 40
1.000000000000006
 50
188.3059874640175
 51
268.0244791134527
  0
ARC
  5
9B
  8
1
  6
CONTINUOUS
 62
     7
 10
147.6713819010792
 20
150.1279778343501
 30
0.0
 40
1.000000000000022
 50
91.97552088654739
 51
171.6935991842799
  0
LINE
  5
9C
  8
1
  6
CONTINUOUS
 62
     7
 10
147.6226593473658
 20
116.8804138603474
 30
0.0
 11
167.1713754923406
 21
115.9268179508364
 31
0.0
  0
LINE
  5
9D
  8
1
  6
CONTINUOUS
 62
     7
 10
167.1713754923406
 20
156.9268173255936
 30
0.0
 11
147.6226593473658
 21
155.9732214160827
 31
0.0
  0
ARC
  5
9E
  8
1
  6
CONTINUOUS
 62
     7
 10
147.6713819010792
 20
117.8792262114723
 30
0.0
 40
1.000000000000001
 50
180.0
 51
267.2072976342868
  0
ARC
  5
9F
  8
1
  6
CONTINUOUS
 62
     7
 10
147.6713819010791
 20
154.9744090649578
 30
0.0
 40
0.999999999999998
 50
92.79270236571328
 51
180.0
  0
ENDBLK
  8
0
  0
BLOCK
  8
0
  2
D_FRAME_VIEW_2887
 70
     0
 10
0.0
 20
0.0
 30
0.0
  0
LINE
  5
A4
  8
1
  6
CONTINUOUS
 62
     7
 10
82.44902557598849
 20
70.90939054764827
 30
0.0
 11
88.24726598465854
 21
70.90939054764827
 31
0.0
  0
LINE
  5
A5
  8
1
  6
CONTINUOUS
 62
     7
 10
82.44902557598849
 20
70.90939054764827
 30
0.0
 11
82.6961815952037
 21
90.43218995973534
 31
0.0
  0
LINE
  5
A6
  8
1
  6
CONTINUOUS
 62
     7
 10
88.00010996544333
 20
90.43218995973534
 30
0.0
 11
88.24726598465855
 21
70.90939054764827
 31
0.0
  0
LINE
  5
A7
  8
1
  6
CONTINUOUS
 62
     7
 10
84.06475100507743
 20
91.40939054764829
 30
0.0
 11
86.6315405555696
 21
91.40939054764829
 31
0.0
  0
ARC
  5
A8
  8
1
  6
CONTINUOUS
 62
     7
 10
86.69642176662809
 20
89.6907318550995
 30
0.0
 40
1.719882924219537
 50
62.13879703658552
 51
92.16195055817
  0
POLYLINE
  5
A9
  8
1
  6
CONTINUOUS
 62
     7
 66
     1
 10
0.0
 20
0.0
 30
0.0
  0
VERTEX
  5
179
  8
1
  6
CONTINUOUS
 62
     7
 10
87.5001768507222
 20
91.21124987137382
 30
0.0
  0
VERTEX
  5
17A
  8
1
  6
CONTINUOUS
 62
     7
 10
87.61867415911412
 20
91.13374951841163
 30
0.0
  0
VERTEX
  5
17B
  8
1
  6
CONTINUOUS
 62
     7
 10
87.72549075961116
 20
91.04268930603234
 30
0.0
  0
VERTEX
  5
17C
  8
1
  6
CONTINUOUS
 62
     7
 10
87.81940720138375
 20
90.93707595517775
 30
0.0
  0
VERTEX
  5
17D
  8
1
  6
CONTINUOUS
 62
     7
 10
87.88662733567149
 20
90.83637094010972
 30
0.0
  0
VERTEX
  5
17E
  8
1
  6
CONTINUOUS
 62
     7
 10
87.93733353759768
 20
90.73319164577727
 30
0.0
  0
VERTEX
  5
17F
  8
1
  6
CONTINUOUS
 62
     7
 10
87.97321040682688
 20
90.62640159139491
 30
0.0
  0
VERTEX
  5
180
  8
1
  6
CONTINUOUS
 62
     7
 10
87.99587434133419
 20
90.50216413135078
 30
0.0
  0
VERTEX
  5
181
  8
1
  6
CONTINUOUS
 62
     7
 10
88.00010996544333
 20
90.43218995973534
 30
0.0
  0
SEQEND
  5
1D6
  8
1
  6
CONTINUOUS
 62
     7
  0
POLYLINE
  5
AA
  8
1
  6
CONTINUOUS
 62
     7
 66
     1
 10
0.0
 20
0.0
 30
0.0
  0
VERTEX
  5
182
  8
1
  6
CONTINUOUS
 62
     7
 10
82.6961815952037
 20
90.43218995973534
 30
0.0
  0
VERTEX
  5
183
  8
1
  6
CONTINUOUS
 62
     7
 10
82.70482677570529
 20
90.53724169637583
 30
0.0
  0
VERTEX
  5
184
  8
1
  6
CONTINUOUS
 62
     7
 10
82.73266202417037
 20
90.65998486380808
 30
0.0
  0
VERTEX
  5
185
  8
1
  6
CONTINUOUS
 62
     7
 10
82.77063025939685
 20
90.7602186344582
 30
0.0
  0
VERTEX
  5
186
  8
1
  6
CONTINUOUS
 62
     7
 10
82.8295030766945
 20
90.86921517887396
 30
0.0
  0
VERTEX
  5
187
  8
1
  6
CONTINUOUS
 62
     7
 10
82.8926550354844
 20
90.95709312650615
 30
0.0
  0
VERTEX
  5
188
  8
1
  6
CONTINUOUS
 62
     7
 10
82.96737296736086
 20
91.03933046706133
 30
0.0
  0
VERTEX
  5
189
  8
1
  6
CONTINUOUS
 62
     7
 10
83.05149375484044
 20
91.11364802448007
 30
0.0
  0
SEQEND
  5
1D7
  8
1
  6
CONTINUOUS
 62
     7
  0
ARC
  5
AB
  8
1
  6
CONTINUOUS
 62
     7
 10
83.97353406270531
 20
89.83825794756368
 30
0.0
 40
1.573778312731619
 50
86.6772470721761
 51
125.8649608551713
  0
ARC
  5
AC
  8
1
  6
CONTINUOUS
 62
     7
 10
106.91446258894
 20
90.55943853706837
 30
0.0
 40
3.618358268888348
 50
167.8019353609828
 51
182.0153643021575
  0
LINE
  5
AD
  8
1
  6
CONTINUOUS
 62
     7
 10
103.3777958790944
 20
91.3239678991617
 30
0.0
 11
103.4299298289122
 21
91.40939054764829
 31
0.0
  0
LINE
  5
AE
  8
1
  6
CONTINUOUS
 62
     7
 10
103.6195743517521
 20
70.90939054764827
 30
0.0
 11
103.2983425188096
 21
90.43218995973534
 31
0.0
  0
LINE
  5
AF
  8
1
  6
CONTINUOUS
 62
     7
 10
99.0413950455472
 20
91.40939054764829
 30
0.0
 11
99.19377376571435
 21
91.3989000513208
 31
0.0
  0
POLYLINE
  5
B0
  8
1
  6
CONTINUOUS
 62
     7
 66
     1
 10
0.0
 20
0.0
 30
0.0
  0
VERTEX
  5
18A
  8
1
  6
CONTINUOUS
 62
     7
 10
96.16562975897763
 20
90.43218995973534
 30
0.0
  0
VERTEX
  5
18B
  8
1
  6
CONTINUOUS
 62
     7
 10
96.16629086616904
 20
90.46735749230345
 30
0.0
  0
VERTEX
  5
18C
  8
1
  6
CONTINUOUS
 62
     7
 10
96.16818534611728
 20
90.50246826876372
 30
0.0
  0
VERTEX
  5
18D
  8
1
  6
CONTINUOUS
 62
     7
 10
96.17130215048334
 20
90.53742331726517
 30
0.0
  0
VERTEX
  5
18E
  8
1
  6
CONTINUOUS
 62
     7
 10
96.17563023092812
 20
90.57212366595672
 30
0.0
  0
VERTEX
  5
18F
  8
1
  6
CONTINUOUS
 62
     7
 10
96.18135784389375
 20
90.60761526173776
 30
0.0
  0
VERTEX
  5
190
  8
1
  6
CONTINUOUS
 62
     7
 10
96.18834708868043
 20
90.64276920801701
 30
0.0
  0
VERTEX
  5
191
  8
1
  6
CONTINUOUS
 62
     7
 10
96.19656362586396
 20
90.67748869259557
 30
0.0
  0
VERTEX
  5
192
  8
1
  6
CONTINUOUS
 62
     7
 10
96.20597311602022
 20
90.71167690327455
 30
0.0
  0
VERTEX
  5
193
  8
1
  6
CONTINUOUS
 62
     7
 10
96.21621006024098
 20
90.74426828127751
 30
0.0
  0
VERTEX
  5
194
  8
1
  6
CONTINUOUS
 62
     7
 10
96.2275208327448
 20
90.77631461376434
 30
0.0
  0
VERTEX
  5
195
  8
1
  6
CONTINUOUS
 62
     7
 10
96.23986016654547
 20
90.80774586301946
 30
0.0
  0
VERTEX
  5
196
  8
1
  6
CONTINUOUS
 62
     7
 10
96.25318279465678
 20
90.83849199132733
 30
0.0
  0
VERTEX
  5
197
  8
1
  6
CONTINUOUS
 62
     7
 10
96.27296348041362
 20
90.87943130793623
 30
0.0
  0
VERTEX
  5
198
  8
1
  6
CONTINUOUS
 62
     7
 10
96.29444551053618
 20
90.91900735399398
 30
0.0
  0
VERTEX
  5
199
  8
1
  6
CONTINUOUS
 62
     7
 10
96.31749587826222
 20
90.95709312650615
 30
0.0
  0
VERTEX
  5
19A
  8
1
  6
CONTINUOUS
 62
     7
 10
96.34296996698502
 20
90.99495814758306
 30
0.0
  0
VERTEX
  5
19B
  8
1
  6
CONTINUOUS
 62
     7
 10
96.36998155451907
 20
91.0311970314435
 30
0.0
  0
VERTEX
  5
19C
  8
1
  6
CONTINUOUS
 62
     7
 10
96.39838631111121
 20
91.06574839757481
 30
0.0
  0
VERTEX
  5
19D
  8
1
  6
CONTINUOUS
 62
     7
 10
96.42803990700824
 20
91.09855086546436
 30
0.0
  0
VERTEX
  5
19E
  8
1
  6
CONTINUOUS
 62
     7
 10
96.458798012457
 20
91.12954305459955
 30
0.0
  0
VERTEX
  5
19F
  8
1
  6
CONTINUOUS
 62
     7
 10
96.49051629770429
 20
91.1586635844677
 30
0.0
  0
VERTEX
  5
1A0
  8
1
  6
CONTINUOUS
 62
     7
 10
96.52588083012867
 20
91.18813841467357
 30
0.0
  0
VERTEX
  5
1A1
  8
1
  6
CONTINUOUS
 62
     7
 10
96.56224358183694
 20
91.21556409444422
 30
0.0
  0
VERTEX
  5
1A2
  8
1
  6
CONTINUOUS
 62
     7
 10
96.59945917797519
 20
91.24094336460205
 30
0.0
  0
VERTEX
  5
1A3
  8
1
  6
CONTINUOUS
 62
     7
 10
96.63738224368949
 20
91.26427896596944
 30
0.0
  0
VERTEX
  5
1A4
  8
1
  6
CONTINUOUS
 62
     7
 10
96.6904152455832
 20
91.29305884586245
 30
0.0
  0
VERTEX
  5
1A5
  8
1
  6
CONTINUOUS
 62
     7
 10
96.74446239469329
 20
91.31825617102298
 30
0.0
  0
VERTEX
  5
1A6
  8
1
  6
CONTINUOUS
 62
     7
 10
96.7992453174328
 20
91.33997641640823
 30
0.0
  0
VERTEX
  5
1A7
  8
1
  6
CONTINUOUS
 62
     7
 10
96.86950540735135
 20
91.36274031280654
 30
0.0
  0
VERTEX
  5
1A8
  8
1
  6
CONTINUOUS
 62
     7
 10
96.94050553319963
 20
91.38052897204642
 30
0.0
  0
VERTEX
  5
1A9
  8
1
  6
CONTINUOUS
 62
     7
 10
97.01197041260892
 20
91.39371535963922
 30
0.0
  0
VERTEX
  5
1AA
  8
1
  6
CONTINUOUS
 62
     7
 10
97.08362476321047
 20
91.40267244109624
 30
0.0
  0
VERTEX
  5
1AB
  8
1
  6
CONTINUOUS
 62
     7
 10
97.15519330263555
 20
91.40777318192882
 30
0.0
  0
VERTEX
  5
1AC
  8
1
  6
CONTINUOUS
 62
     7
 10
97.22640074851542
 20
91.40939054764829
 30
0.0
  0
SEQEND
  5
1D8
  8
1
  6
CONTINUOUS
 62
     7
  0
LINE
  5
B1
  8
1
  6
CONTINUOUS
 62
     7
 10
96.21800926918607
 20
70.90939054764827
 30
0.0
 11
96.16562975897763
 21
90.43218995973534
 31
0.0
  0
LINE
  5
B2
  8
1
  6
CONTINUOUS
 62
     7
 10
74.5306618016694
 20
90.43218995973534
 30
0.0
 11
74.47828229146097
 21
70.90939054764827
 31
0.0
  0
POLYLINE
  5
B3
  8
1
  6
CONTINUOUS
 62
     7
 66
     1
 10
0.0
 20
0.0
 30
0.0
  0
VERTEX
  5
1AD
  8
1
  6
CONTINUOUS
 62
     7
 10
73.46989081213161
 20
91.40939054764829
 30
0.0
  0
VERTEX
  5
1AE
  8
1
  6
CONTINUOUS
 62
     7
 10
73.55896730692129
 20
91.40687135707974
 30
0.0
  0
VERTEX
  5
1AF
  8
1
  6
CONTINUOUS
 62
     7
 10
73.64832370706596
 20
91.39879798938016
 30
0.0
  0
VERTEX
  5
1B0
  8
1
  6
CONTINUOUS
 62
     7
 10
73.73755118915037
 20
91.38439675055857
 30
0.0
  0
VERTEX
  5
1B1
  8
1
  6
CONTINUOUS
 62
     7
 10
73.79264049979695
 20
91.37194523959099
 30
0.0
  0
VERTEX
  5
1B2
  8
1
  6
CONTINUOUS
 62
     7
 10
73.84752827302331
 20
91.35657011816244
 30
0.0
  0
VERTEX
  5
1B3
  8
1
  6
CONTINUOUS
 62
     7
 10
73.90200407764223
 20
91.33813562372981
 30
0.0
  0
VERTEX
  5
1B4
  8
1
  6
CONTINUOUS
 62
     7
 10
73.95585748246644
 20
91.31650599375004
 30
0.0
  0
VERTEX
  5
1B5
  8
1
  6
CONTINUOUS
 62
     7
 10
74.00887805630873
 20
91.29154546568
 30
0.0
  0
VERTEX
  5
1B6
  8
1
  6
CONTINUOUS
 62
     7
 10
74.05377525987039
 20
91.26722922031063
 30
0.0
  0
VERTEX
  5
1B7
  8
1
  6
CONTINUOUS
 62
     7
 10
74.09794159509192
 20
91.24016259336308
 30
0.0
  0
VERTEX
  5
1B8
  8
1
  6
CONTINUOUS
 62
     7
 10
74.14114687210426
 20
91.21034683540809
 30
0.0
  0
VERTEX
  5
1B9
  8
1
  6
CONTINUOUS
 62
     7
 10
74.18316090103833
 20
91.17778319701637
 30
0.0
  0
VERTEX
  5
1BA
  8
1
  6
CONTINUOUS
 62
     7
 10
74.22375349202508
 20
91.14247292875866
 30
0.0
  0
VERTEX
  5
1BB
  8
1
  6
CONTINUOUS
 62
     7
 10
74.26269445519542
 20
91.10441728120567
 30
0.0
  0
VERTEX
  5
1BC
  8
1
  6
CONTINUOUS
 62
     7
 10
74.29055409284491
 20
91.07423696470545
 30
0.0
  0
VERTEX
  5
1BD
  8
1
  6
CONTINUOUS
 62
     7
 10
74.31737949446668
 20
91.04247870116077
 30
0.0
  0
VERTEX
  5
1BE
  8
1
  6
CONTINUOUS
 62
     7
 10
74.34305067318013
 20
91.00920090866441
 30
0.0
  0
VERTEX
  5
1BF
  8
1
  6
CONTINUOUS
 62
     7
 10
74.36744764210476
 20
90.97446200530908
 30
0.0
  0
VERTEX
  5
1C0
  8
1
  6
CONTINUOUS
 62
     7
 10
74.38668957384309
 20
90.94448992618474
 30
0.0
  0
VERTEX
  5
1C1
  8
1
  6
CONTINUOUS
 62
     7
 10
74.40497278040276
 20
90.91349722237373
 30
0.0
  0
VERTEX
  5
1C2
  8
1
  6
CONTINUOUS
 62
     7
 10
74.42222801061727
 20
90.88155066562932
 30
0.0
  0
VERTEX
  5
1C3
  8
1
  6
CONTINUOUS
 62
     7
 10
74.43838601332023
 20
90.84871702770475
 30
0.0
  0
VERTEX
  5
1C4
  8
1
  6
CONTINUOUS
 62
     7
 10
74.45337753734513
 20
90.81506308035331
 30
0.0
  0
VERTEX
  5
1C5
  8
1
  6
CONTINUOUS
 62
     7
 10
74.46772714064092
 20
90.77910133761337
 30
0.0
  0
VERTEX
  5
1C6
  8
1
  6
CONTINUOUS
 62
     7
 10
74.48073596278275
 20
90.74227907848736
 30
0.0
  0
VERTEX
  5
1C7
  8
1
  6
CONTINUOUS
 62
     7
 10
74.49233991556432
 20
90.70471026846367
 30
0.0
  0
VERTEX
  5
1C8
  8
1
  6
CONTINUOUS
 62
     7
 10
74.50247491077937
 20
90.66650887303065
 30
0.0
  0
VERTEX
  5
1C9
  8
1
  6
CONTINUOUS
 62
     7
 10
74.51141048140427
 20
90.62615903135391
 30
0.0
  0
VERTEX
  5
1CA
  8
1
  6
CONTINUOUS
 62
     7
 10
74.51869210342116
 20
90.58521199817568
 30
0.0
  0
VERTEX
  5
1CB
  8
1
  6
CONTINUOUS
 62
     7
 10
74.52427989966924
 20
90.54382721700496
 30
0.0
  0
VERTEX
  5
1CC
  8
1
  6
CONTINUOUS
 62
     7
 10
74.52813399298772
 20
90.50216413135074
 30
0.0
  0
VERTEX
  5
1CD
  8
1
  6
CONTINUOUS
 62
     7
 10
74.53000864290598
 20
90.46722149659234
 30
0.0
  0
VERTEX
  5
1CE
  8
1
  6
CONTINUOUS
 62
     7
 10
74.5306618016694
 20
90.43218995973534
 30
0.0
  0
SEQEND
  5
1D9
  8
1
  6
CONTINUOUS
 62
     7
  0
LINE
  5
B4
  8
1
  6
CONTINUOUS
 62
     7
 10
67.39794904183738
 20
90.43218995973534
 30
0.0
 11
67.07671720889493
 21
70.90939054764827
 31
0.0
  0
LINE
  5
B5
  8
1
  6
CONTINUOUS
 62
     7
 10
67.26636173173483
 20
91.40939054764829
 30
0.0
 11
67.32074815255645
 21
91.31650599375004
 31
0.0
  0
ARC
  5
B6
  8
1
  6
CONTINUOUS
 62
     7
 10
63.68298333627463
 20
90.55340087576546
 30
0.0
 40
3.716942598382732
 50
358.1312314540884
 51
11.84732596699149
  0
LINE
  5
B7
  8
1
  6
CONTINUOUS
 62
     7
 10
67.07671720889493
 20
70.90939054764827
 30
0.0
 11
69.97377710955918
 21
70.90939054764827
 31
0.0
  0
LINE
  5
B8
  8
1
  6
CONTINUOUS
 62
     7
 10
74.47828229146097
 20
70.90939054764827
 30
0.0
 11
82.44902557598849
 21
70.90939054764827
 31
0.0
  0
LINE
  5
B9
  8
1
  6
CONTINUOUS
 62
     7
 10
88.24726598465855
 20
70.90939054764827
 30
0.0
 11
96.21800926918607
 21
70.90939054764827
 31
0.0
  0
LINE
  5
BA
  8
1
  6
CONTINUOUS
 62
     7
 10
100.7225144510881
 20
70.90939054764827
 30
0.0
 11
103.6195743517521
 21
70.90939054764827
 31
0.0
  0
LINE
  5
BB
  8
1
  6
CONTINUOUS
 62
     7
 10
70.39409615257264
 20
103.9093905476483
 30
0.0
 11
85.3481457803235
 21
103.9093905476483
 31
0.0
  0
LINE
  5
BC
  8
1
  6
CONTINUOUS
 62
     7
 10
85.3481457803235
 20
103.9093905476483
 30
0.0
 11
100.3021954080744
 21
103.9093905476483
 31
0.0
  0
LINE
  5
BD
  8
1
  6
CONTINUOUS
 62
     7
 10
69.97377710955892
 20
70.90939054764827
 30
0.0
 11
74.47828229146097
 21
70.90939054764827
 31
0.0
  0
LINE
  5
BE
  8
1
  6
CONTINUOUS
 62
     7
 10
96.21800926918606
 20
70.90939054764827
 30
0.0
 11
100.722514451088
 21
70.90939054764827
 31
0.0
  0
LINE
  5
BF
  8
1
  6
CONTINUOUS
 62
     7
 10
71.5025147370325
 20
91.39889960486681
 30
0.0
 11
71.65489651509982
 21
91.40939054764834
 31
0.0
  0
LINE
  5
C0
  8
1
  6
CONTINUOUS
 62
     7
 10
71.65489651509982
 20
91.40939054764829
 30
0.0
 11
73.46989081213161
 21
91.40939054764829
 31
0.0
  0
LINE
  5
C1
  8
1
  6
CONTINUOUS
 62
     7
 10
97.22640074851542
 20
91.40939054764829
 30
0.0
 11
99.0413950455472
 21
91.40939054764829
 31
0.0
  0
LINE
  5
C2
  8
1
  6
CONTINUOUS
 62
     7
 10
64.84814578032352
 20
70.90939054764827
 30
0.0
 11
67.07671720889493
 21
70.90939054764827
 31
0.0
  0
LINE
  5
C3
  8
1
  6
CONTINUOUS
 62
     7
 10
103.6195743517521
 20
70.90939054764827
 30
0.0
 11
105.8481457803233
 21
70.90939054764827
 31
0.0
  0
LINE
  5
C4
  8
1
  6
CONTINUOUS
 62
     7
 10
66.80055435358078
 20
91.40939054764829
 30
0.0
 11
67.08246858368587
 21
91.40939054764829
 31
0.0
  0
LINE
  5
C5
  8
1
  6
CONTINUOUS
 62
     7
 10
67.08246858368587
 20
91.40939054764829
 30
0.0
 11
67.26636173173507
 21
91.40939054764829
 31
0.0
  0
LINE
  5
C6
  8
1
  6
CONTINUOUS
 62
     7
 10
103.4299298289122
 20
91.40939054764829
 30
0.0
 11
103.4997589101839
 21
91.40939054764829
 31
0.0
  0
LINE
  5
C7
  8
1
  6
CONTINUOUS
 62
     7
 10
103.4997589101839
 20
91.40939054764829
 30
0.0
 11
103.53428854638
 21
91.40939054764829
 31
0.0
  0
LINE
  5
C8
  8
1
  6
CONTINUOUS
 62
     7
 10
103.53428854638
 20
91.40939054764829
 30
0.0
 11
103.8957372070662
 21
91.40939054764829
 31
0.0
  0
LINE
  5
C9
  8
1
  6
CONTINUOUS
 62
     7
 10
103.4754185075962
 20
91.40939054764829
 30
0.0
 11
103.3016996632144
 21
100.9639269886508
 31
0.0
  0
LINE
  5
CA
  8
1
  6
CONTINUOUS
 62
     7
 10
67.39459189743266
 20
100.9639269886508
 30
0.0
 11
67.2208730530508
 21
91.40939054764829
 31
0.0
  0
ARC
  5
CB
  8
1
  6
CONTINUOUS
 62
     7
 10
70.39409615257264
 20
100.9093905476483
 30
0.0
 40
3.000000000000003
 50
90.0
 51
178.9583733239908
  0
ARC
  5
CC
  8
1
  6
CONTINUOUS
 62
     7
 10
100.3021954080744
 20
100.9093905476483
 30
0.0
 40
3.000000000000009
 50
1.041626676009202
 51
90.0
  0
LINE
  5
CD
  8
1
  6
CONTINUOUS
 62
     7
 10
70.64757997448838
 20
90.4438641216042
 30
0.0
 11
69.97377726987217
 21
70.90939519534983
 31
0.0
  0
LINE
  5
CE
  8
1
  6
CONTINUOUS
 62
     7
 10
100.7225142984093
 20
70.90939497401645
 30
0.0
 11
100.0487114022426
 21
90.44386945358303
 31
0.0
  0
ARC
  5
CF
  8
1
  6
CONTINUOUS
 62
     7
 10
71.64698558418837
 20
90.40939054764827
 30
0.0
 40
0.9999999999999925
 50
98.3059874640174
 51
178.0244791134527
  0
ARC
  5
D0
  8
1
  6
CONTINUOUS
 62
     7
 10
99.04930597645864
 20
90.40939054764827
 30
0.0
 40
1.000000000000007
 50
1.975520886547388
 51
81.69359918433095
  0
LINE
  5
D1
  8
1
  6
CONTINUOUS
 62
     7
 10
65.80174200245587
 20
90.45811310136169
 30
0.0
 11
64.84814609294492
 21
70.90939695638684
 31
0.0
  0
LINE
  5
D2
  8
1
  6
CONTINUOUS
 62
     7
 10
105.8481454677021
 20
70.90939695638684
 30
0.0
 11
104.8945495581912
 21
90.45811310136169
 31
0.0
  0
ARC
  5
D3
  8
1
  6
CONTINUOUS
 62
     7
 10
66.80055435358078
 20
90.40939054764827
 30
0.0
 40
1.000000000000001
 50
90.0
 51
177.2072976342867
  0
ARC
  5
D4
  8
1
  6
CONTINUOUS
 62
     7
 10
103.8957372070662
 20
90.40939054764827
 30
0.0
 40
1.000000000000012
 50
2.792702365713349
 51
90.00000000000009
  0
ENDBLK
  8
0
  0
BLOCK
  8
0
  2
D_FRAME_VIEW_2626
 70
     0
 10
0.0
 20
0.0
 30
0.0
  0
LINE
  5
E0
  8
1
  6
CONTINUOUS
 62
     7
 10
82.6961815952037
 20
154.3770143767011
 30
0.0
 11
82.44902557598847
 21
154.6982462096436
 31
0.0
  0
LINE
  5
E1
  8
1
  6
CONTINUOUS
 62
     7
 10
84.06475100507743
 20
154.5086016868037
 30
0.0
 11
82.6961815952037
 21
154.3770143767011
 31
0.0
  0
ARC
  5
E2
  8
1
  6
CONTINUOUS
 62
     7
 10
85.3481457803235
 20
136.426817638215
 30
0.0
 40
18.12727272727271
 50
85.9401132696387
 51
94.05988673036126
  0
LINE
  5
E3
  8
1
  6
CONTINUOUS
 62
     7
 10
88.00010996544333
 20
154.3770143767011
 30
0.0
 11
86.6315405555696
 21
154.5086016868037
 31
0.0
  0
LINE
  5
E4
  8
1
  6
CONTINUOUS
 62
     7
 10
88.24726598465854
 20
154.6982462096436
 30
0.0
 11
88.00010996544333
 21
154.3770143767011
 31
0.0
  0
ARC
  5
E5
  8
1
  6
CONTINUOUS
 62
     7
 10
85.3481457803235
 20
136.426817638215
 30
0.0
 40
18.50000000000001
 50
54.01593773402455
 51
80.98406226597545
  0
LINE
  5
E6
  8
1
  6
CONTINUOUS
 62
     7
 10
96.16562975897763
 20
150.9947453343933
 30
0.0
 11
96.21800926918606
 21
151.396656238998
 31
0.0
  0
LINE
  5
E7
  8
1
  6
CONTINUOUS
 62
     7
 10
97.22640074851813
 20
150.1200669034363
 30
0.0
 11
96.16562975897763
 21
150.9947453343933
 31
0.0
  0
ARC
  5
E8
  8
1
  6
CONTINUOUS
 62
     7
 10
85.3481457803235
 20
136.426817638215
 30
0.0
 40
18.1272727272727
 50
40.94011326963858
 51
49.05988673034995
  0
LINE
  5
E9
  8
1
  6
CONTINUOUS
 62
     7
 10
99.91607347650178
 20
147.2443016168691
 30
0.0
 11
99.0413950455472
 21
148.3050726064069
 31
0.0
  0
LINE
  5
EA
  8
1
  6
CONTINUOUS
 62
     7
 10
100.3179843811065
 20
147.2966811270776
 30
0.0
 11
99.91607347650178
 21
147.2443016168691
 31
0.0
  0
ARC
  5
EB
  8
1
  6
CONTINUOUS
 62
     7
 10
85.3481457803235
 20
136.426817638215
 30
0.0
 40
18.50000000000001
 50
9.01593773402455
 51
35.9840622659755
  0
LINE
  5
EC
  8
1
  6
CONTINUOUS
 62
     7
 10
103.2983425188096
 20
139.0787818233348
 30
0.0
 11
103.6195743517521
 21
139.3259378425501
 31
0.0
  0
LINE
  5
ED
  8
1
  6
CONTINUOUS
 62
     7
 10
103.4299298289122
 20
137.7102124134611
 30
0.0
 11
103.2983425188096
 21
139.0787818233348
 31
0.0
  0
ARC
  5
EE
  8
1
  6
CONTINUOUS
 62
     7
 10
85.3481457803235
 20
136.426817638215
 30
0.0
 40
18.12727272727271
 50
355.9401132696387
 51
4.059886730361256
  0
LINE
  5
EF
  8
1
  6
CONTINUOUS
 62
     7
 10
103.2983425188096
 20
133.7748534530952
 30
0.0
 11
103.4299298289122
 21
135.1434228629689
 31
0.0
  0
LINE
  5
F0
  8
1
  6
CONTINUOUS
 62
     7
 10
103.6195743517521
 20
133.52769743388
 30
0.0
 11
103.2983425188096
 21
133.7748534530952
 31
0.0
  0
ARC
  5
F1
  8
1
  6
CONTINUOUS
 62
     7
 10
85.3481457803235
 20
136.426817638215
 30
0.0
 40
18.50000000000001
 50
324.0159377340245
 51
350.9840622659754
  0
LINE
  5
F2
  8
1
  6
CONTINUOUS
 62
     7
 10
99.91607347650178
 20
125.6093336595609
 30
0.0
 11
100.3179843811065
 21
125.5569541493525
 31
0.0
  0
LINE
  5
F3
  8
1
  6
CONTINUOUS
 62
     7
 10
99.0413950455472
 20
124.5485626700231
 30
0.0
 11
99.91607347650178
 21
125.6093336595609
 31
0.0
  0
ARC
  5
F4
  8
1
  6
CONTINUOUS
 62
     7
 10
85.3481457803235
 20
136.426817638215
 30
0.0
 40
18.12727272727271
 50
310.9401132696387
 51
319.0598867303613
  0
LINE
  5
F5
  8
1
  6
CONTINUOUS
 62
     7
 10
96.16562975897763
 20
121.8588899420368
 30
0.0
 11
97.22640074851542
 21
122.7335683729913
 31
0.0
  0
LINE
  5
F6
  8
1
  6
CONTINUOUS
 62
     7
 10
96.21800926918607
 20
121.456979037432
 30
0.0
 11
96.16562975897763
 21
121.8588899420368
 31
0.0
  0
ARC
  5
F7
  8
1
  6
CONTINUOUS
 62
     7
 10
85.3481457803235
 20
136.426817638215
 30
0.0
 40
18.50000000000001
 50
279.0159377340245
 51
305.9840622659755
  0
LINE
  5
F8
  8
1
  6
CONTINUOUS
 62
     7
 10
88.00010996544333
 20
118.4766208997289
 30
0.0
 11
88.24726598465855
 21
118.1553890667864
 31
0.0
  0
LINE
  5
F9
  8
1
  6
CONTINUOUS
 62
     7
 10
86.6315405555696
 20
118.3450335896263
 30
0.0
 11
88.00010996544333
 21
118.4766208997289
 31
0.0
  0
ARC
  5
FA
  8
1
  6
CONTINUOUS
 62
     7
 10
85.3481457803235
 20
136.426817638215
 30
0.0
 40
18.12727272727271
 50
265.9401132696387
 51
274.0598867303613
  0
LINE
  5
FB
  8
1
  6
CONTINUOUS
 62
     7
 10
82.6961815952037
 20
118.4766208997289
 30
0.0
 11
84.06475100507743
 21
118.3450335896263
 31
0.0
  0
LINE
  5
FC
  8
1
  6
CONTINUOUS
 62
     7
 10
82.44902557598849
 20
118.1553890667864
 30
0.0
 11
82.6961815952037
 21
118.4766208997289
 31
0.0
  0
ARC
  5
FD
  8
1
  6
CONTINUOUS
 62
     7
 10
85.3481457803235
 20
136.426817638215
 30
0.0
 40
18.50000000000001
 50
234.0159377340246
 51
260.9840622659755
  0
LINE
  5
FE
  8
1
  6
CONTINUOUS
 62
     7
 10
74.5306618016694
 20
121.8588899420368
 30
0.0
 11
74.47828229146097
 21
121.456979037432
 31
0.0
  0
LINE
  5
FF
  8
1
  6
CONTINUOUS
 62
     7
 10
73.46989081213161
 20
122.7335683729913
 30
0.0
 11
74.5306618016694
 21
121.8588899420368
 31
0.0
  0
ARC
  5
100
  8
1
  6
CONTINUOUS
 62
     7
 10
85.3481457803235
 20
136.426817638215
 30
0.0
 40
18.12727272727271
 50
220.9401132696386
 51
229.0598867303613
  0
LINE
  5
101
  8
1
  6
CONTINUOUS
 62
     7
 10
70.78021808414525
 20
125.6093336595609
 30
0.0
 11
71.65489651509982
 21
124.5485626700231
 31
0.0
  0
LINE
  5
102
  8
1
  6
CONTINUOUS
 62
     7
 10
70.37830717954051
 20
125.5569541493525
 30
0.0
 11
70.78021808414525
 21
125.6093336595609
 31
0.0
  0
ARC
  5
103
  8
1
  6
CONTINUOUS
 62
     7
 10
85.3481457803235
 20
136.426817638215
 30
0.0
 40
18.5
 50
189.0159377340245
 51
215.9840622659755
  0
LINE
  5
104
  8
1
  6
CONTINUOUS
 62
     7
 10
67.39794904183738
 20
133.7748534530952
 30
0.0
 11
67.07671720889493
 21
133.52769743388
 31
0.0
  0
LINE
  5
105
  8
1
  6
CONTINUOUS
 62
     7
 10
67.26636173173483
 20
135.1434228629689
 30
0.0
 11
67.39794904183738
 21
133.7748534530952
 31
0.0
  0
ARC
  5
106
  8
1
  6
CONTINUOUS
 62
     7
 10
85.3481457803235
 20
136.426817638215
 30
0.0
 40
18.12727272727271
 50
175.9401132696387
 51
184.0598867303613
  0
LINE
  5
107
  8
1
  6
CONTINUOUS
 62
     7
 10
67.39794904183739
 20
139.0787818233348
 30
0.0
 11
67.26636173173483
 21
137.7102124134611
 31
0.0
  0
LINE
  5
108
  8
1
  6
CONTINUOUS
 62
     7
 10
67.07671720889493
 20
139.32593784255
 30
0.0
 11
67.39794904183739
 21
139.0787818233348
 31
0.0
  0
ARC
  5
109
  8
1
  6
CONTINUOUS
 62
     7
 10
85.3481457803235
 20
136.426817638215
 30
0.0
 40
18.50000000000001
 50
144.0159377340246
 51
170.9840622659755
  0
LINE
  5
10A
  8
1
  6
CONTINUOUS
 62
     7
 10
70.78021808414525
 20
147.2443016168691
 30
0.0
 11
70.3783071795405
 21
147.2966811270776
 31
0.0
  0
LINE
  5
10B
  8
1
  6
CONTINUOUS
 62
     7
 10
71.65489651510217
 20
148.3050726064096
 30
0.0
 11
70.78021808414525
 21
147.2443016168691
 31
0.0
  0
ARC
  5
10C
  8
1
  6
CONTINUOUS
 62
     7
 10
85.3481457803235
 20
136.426817638215
 30
0.0
 40
18.12727272727271
 50
130.9401132696388
 51
139.05988673035
  0
LINE
  5
10D
  8
1
  6
CONTINUOUS
 62
     7
 10
74.53066180166941
 20
150.9947453343933
 30
0.0
 11
73.46989081213161
 21
150.1200669034387
 31
0.0
  0
LINE
  5
10E
  8
1
  6
CONTINUOUS
 62
     7
 10
74.47828229146096
 20
151.396656238998
 30
0.0
 11
74.53066180166941
 21
150.9947453343933
 31
0.0
  0
ARC
  5
10F
  8
1
  6
CONTINUOUS
 62
     7
 10
85.3481457803235
 20
136.426817638215
 30
0.0
 40
18.50000000000001
 50
99.01593773402456
 51
125.9840622659755
  0
ARC
  5
110
  8
1
  6
CONTINUOUS
 62
     7
 10
85.3481457803235
 20
153.926817638215
 30
0.0
 40
2.999999999999992
 50
14.90059668783002
 51
165.0994033121699
  0
ARC
  5
111
  8
1
  6
CONTINUOUS
 62
     7
 10
67.8481457803235
 20
136.426817638215
 30
0.0
 40
3.000000000000009
 50
104.90059668783
 51
255.0994033121699
  0
ARC
  5
112
  8
1
  6
CONTINUOUS
 62
     7
 10
102.8481457803235
 20
136.426817638215
 30
0.0
 40
2.999999999999983
 50
284.9005966878301
 51
75.09940331216995
  0
ARC
  5
113
  8
1
  6
CONTINUOUS
 62
     7
 10
85.3481457803235
 20
118.926817638215
 30
0.0
 40
2.999999999999996
 50
194.9005966878301
 51
345.0994033121701
  0
ARC
  5
114
  8
1
  6
CONTINUOUS
 62
     7
 10
97.72251445108809
 20
148.8011863089796
 30
0.0
 40
3.000000000000002
 50
329.90059668783
 51
120.09940331217
  0
ARC
  5
115
  8
1
  6
CONTINUOUS
 62
     7
 10
72.97377710955894
 20
124.0524489674504
 30
0.0
 40
3.000000000000002
 50
149.90059668783
 51
300.0994033121701
  0
ARC
  5
116
  8
1
  6
CONTINUOUS
 62
     7
 10
72.97377710955894
 20
148.8011863089796
 30
0.0
 40
3.000000000000002
 50
59.90059668783002
 51
210.0994033121699
  0
ARC
  5
117
  8
1
  6
CONTINUOUS
 62
     7
 10
97.72251445108809
 20
124.0524489674504
 30
0.0
 40
3.000000000000002
 50
239.90059668783
 51
30.09940331216996
  0
ENDBLK
  8
0
  0
ENDSEC
  0
SECTION
  2
ENTITIES
  0
INSERT
  5
A0
  8
1
  6
CONTINUOUS
 62
     7
  2
D_FRAME_VIEW_2818
 10
0.0
 20
0.0
 30
0.0
  0
INSERT
  5
D5
  8
1
  6
CONTINUOUS
 62
     7
  2
D_FRAME_VIEW_2887
 10
0.0
 20
0.0
 30
0.0
  0
LINE
  5
D6
  8
1
  6
CENTER
 62
     1
 10
85.3481457803235
 20
115.926817638215
 30
0.0
 11
85.3481457803235
 21
156.926817638215
 31
0.0
  0
LINE
  5
D8
  8
1
  6
CENTER
 62
     1
 10
64.8481457803235
 20
136.426817638215
 30
0.0
 11
105.8481457803235
 21
136.426817638215
 31
0.0
  0
LINE
  5
D9
  8
1
  6
CENTER
 62
     1
 10
125.5713819010792
 20
136.426817638215
 30
0.0
 11
175.5713819010791
 21
136.426817638215
 31
0.0
  0
LINE
  5
DA
  8
1
  6
CENTER
 62
     1
 10
85.3481457803235
 20
107.5093905476483
 30
0.0
 11
85.3481457803235
 21
62.50939054764829
 31
0.0
  0
TEXT
  5
DB
  8
1
  6
CONTINUOUS
 62
     7
 10
132.7683245045554
 20
94.7552376707272
 30
0.0
 40
3.0
  1
CD28-C-BM
  0
LINE
  5
DC
  8
1
  6
CONTINUOUS
 62
     2
 10
132.8532000828973
 20
94.19727218366955
 30
0.0
 11
148.289563719261
 21
94.19727218366955
 31
0.0
  0
INSERT
  5
118
  8
1
  6
CONTINUOUS
 62
     7
  2
D_FRAME_VIEW_2626
 10
0.0
 20
0.0
 30
0.0
  0
ENDSEC
  0
EOF
