  0
SECTION
  2
HEADER
  9
$ACADVER
  1
AC1006
  9
$DWGCODEPAGE
  3
ansi_932
  9
$INSBASE
 10
0.0
 20
0.0
 30
0.0
  9
$EXTMIN
 10
317.4237324185
 20
377.4876829997
  9
$EXTMAX
 10
412.53312617882
 20
589.4647897413
  9
$LIMMIN
 10
0.0
 20
0.0
  9
$LIMMAX
 10
12.0
 20
9.0
  9
$ORTHOMODE
 70
     0
  9
$REGENMODE
 70
     1
  9
$FILLMODE
 70
     1
  9
$QTEXTMODE
 70
     0
  9
$MIRRTEXT
 70
     1
  9
$DRAGMODE
 70
     2
  9
$LTSCALE
 40
1.0
  9
$OSMODE
 70
    37
  9
$ATTMODE
 70
     1
  9
$TEXTSIZE
 40
0.2
  9
$TRACEWID
 40
0.05
  9
$TEXTSTYLE
  7
STANDARD
  9
$CLAYER
  8
0
  9
$CELTYPE
  6
BYLAYER
  9
$CECOLOR
 62
   256
  9
$DIMSCALE
 40
1.0
  9
$DIMASZ
 40
3.0
  9
$DIMEXO
 40
0.0625
  9
$DIMDLI
 40
0.38
  9
$DIMRND
 40
0.0
  9
$DIMDLE
 40
0.0
  9
$DIMEXE
 40
1.5
  9
$DIMTP
 40
0.0
  9
$DIMTM
 40
0.0
  9
$DIMTXT
 40
3.5
  9
$DIMCEN
 40
0.09
  9
$DIMTSZ
 40
0.0
  9
$DIMTOL
 70
     0
  9
$DIMLIM
 70
     0
  9
$DIMTIH
 70
     1
  9
$DIMTOH
 70
     1
  9
$DIMSE1
 70
     0
  9
$DIMSE2
 70
     0
  9
$DIMTAD
 70
     1
  9
$DIMZIN
 70
     0
  9
$DIMBLK
  1

  9
$DIMASO
 70
     1
  9
$DIMSHO
 70
     1
  9
$DIMPOST
  1

  9
$DIMAPOST
  1

  9
$DIMALT
 70
     0
  9
$DIMALTD
 70
     2
  9
$DIMALTF
 40
25.4
  9
$DIMLFAC
 40
1.0
  9
$DIMTOFL
 70
     0
  9
$DIMTVP
 40
0.0
  9
$DIMTIX
 70
     0
  9
$DIMSOXD
 70
     0
  9
$DIMSAH
 70
     0
  9
$DIMBLK1
  1

  9
$DIMBLK2
  1

  9
$LUNITS
 70
     2
  9
$LUPREC
 70
     4
  9
$SKETCHINC
 40
0.1
  9
$FILLETRAD
 40
0.5
  9
$AUNITS
 70
     0
  9
$AUPREC
 70
     0
  9
$MENU
  1
.
  9
$ELEVATION
 40
0.0
  9
$THICKNESS
 40
0.0
  9
$LIMCHECK
 70
     0
  9
$CHAMFERA
 40
0.0
  9
$CHAMFERB
 40
0.0
  9
$SKPOLY
 70
     0
  9
$TDCREATE
 40
2460745.668136991
  9
$TDUPDATE
 40
2460745.668137153
  9
$TDINDWG
 40
0.0000000116
  9
$TDUSRTIMER
 40
0.0000000116
  9
$USRTIMER
 70
     1
  9
$ANGBASE
 50
0.0
  9
$ANGDIR
 70
     0
  9
$PDMODE
 70
     0
  9
$PDSIZE
 40
0.0
  9
$PLINEWID
 40
0.0
  9
$COORDS
 70
     1
  9
$SPLFRAME
 70
     0
  9
$SPLINETYPE
 70
     6
  9
$SPLINESEGS
 70
     8
  9
$ATTDIA
 70
     0
  9
$ATTREQ
 70
     1
  9
$HANDLING
 70
     1
  9
$HANDSEED
  5
B5
  9
$SURFTAB1
 70
     6
  9
$SURFTAB2
 70
     6
  9
$SURFTYPE
 70
     6
  9
$SURFU
 70
     6
  9
$SURFV
 70
     6
  9
$UCSNAME
  2

  9
$UCSORG
 10
0.0
 20
0.0
 30
0.0
  9
$UCSXDIR
 10
1.0
 20
0.0
 30
0.0
  9
$UCSYDIR
 10
0.0
 20
1.0
 30
0.0
  9
$USERI1
 70
     0
  9
$USERI2
 70
     0
  9
$USERI3
 70
     0
  9
$USERI4
 70
     0
  9
$USERI5
 70
     0
  9
$USERR1
 40
0.0
  9
$USERR2
 40
0.0
  9
$USERR3
 40
0.0
  9
$USERR4
 40
0.0
  9
$USERR5
 40
0.0
  9
$WORLDVIEW
 70
     1
  0
ENDSEC
  0
SECTION
  2
TABLES
  0
TABLE
  2
VPORT
 70
     1
  0
VPORT
  2
*ACTIVE
 70
     0
 10
0.0
 20
0.0
 11
1.0
 21
1.0
 12
364.97842929866
 22
483.4762363705
 13
0.0
 23
0.0
 14
0.5
 24
0.5
 15
0.5
 25
0.5
 16
0.0
 26
0.0
 36
1.0
 17
0.0
 27
0.0
 37
0.0
 40
211.9771067416
 41
1.6
 42
50.0
 43
0.0
 44
0.0
 50
0.0
 51
0.0
 71
     0
 72
   100
 73
     1
 74
     3
 75
     0
 76
     0
 77
     0
 78
     0
  0
ENDTAB
  0
TABLE
  2
LTYPE
 70
     2
  0
LTYPE
  2
CONTINUOUS
 70
     0
  3
Solid line
 72
    65
 73
     0
 40
0.0
  0
LTYPE
  2
CENTER
 70
     0
  3

 72
    65
 73
     0
 40
0.0
  0
ENDTAB
  0
TABLE
  2
LAYER
 70
     2
  0
LAYER
  2
0
 70
     0
 62
     7
  6
CONTINUOUS
  0
LAYER
  2
1
 70
     0
 62
     7
  6
CONTINUOUS
  0
ENDTAB
  0
TABLE
  2
STYLE
 70
     2
  0
STYLE
  2
STANDARD
 70
     0
 40
0.0
 41
1.0
 50
0.0
 71
     0
 42
0.2
  3
txt
  4

  0
STYLE
  2
ＭＳ_ゴシック
 70
     0
 40
0.0
 41
1.0
 50
0.0
 71
     0
 42
0.2
  3
ＭＳ ゴシック.shx
  4

  0
ENDTAB
  0
TABLE
  2
VIEW
 70
     0
  0
ENDTAB
  0
TABLE
  2
UCS
 70
     0
  0
ENDTAB
  0
ENDSEC
  0
SECTION
  2
BLOCKS
  0
ENDSEC
  0
SECTION
  2
ENTITIES
  0
TEXT
  5
70
  8
1
  6
CONTINUOUS
 62
     7
 10
385.1276385937743
 20
378.4805429090909
 30
0.0
 40
3.5
  1
ＣＤ３６－Ｃ－ＢＭ
 41
0.751701
 51
14.999825
  0
LINE
  5
71
  8
1
  6
CENTER
 62
     7
 10
344.8737324185
 20
432.3876829997
 30
0.0
 11
344.8737324185
 21
377.4876829997
 31
0.0
  0
ARC
  5
73
  8
1
  6
CONTINUOUS
 62
     7
 10
334.2987324185
 20
386.6212457097
 30
0.0
 40
2.5
 50
178.4817903931
 51
301.5182096069
  0
LINE
  5
74
  8
1
  6
CONTINUOUS
 62
     7
 10
344.3737324185
 20
384.2937371559
 30
0.0
 11
344.8737324185
 21
384.7876829997
 31
0.0
  0
ARC
  5
75
  8
1
  6
CONTINUOUS
 62
     7
 10
344.8737324185
 20
404.9376829997
 30
0.0
 40
22.45
 50
185.617144976
 51
234.382855024
  0
ARC
  5
76
  8
1
  6
CONTINUOUS
 62
     7
 10
344.8737324185
 20
404.9376829997
 30
0.0
 40
22.45
 50
125.617144976
 51
174.382855024
  0
ARC
  5
77
  8
1
  6
CONTINUOUS
 62
     7
 10
323.7237324185
 20
404.9376829997
 30
0.0
 40
2.5
 50
118.4817903931
 51
241.5182096069
  0
ARC
  5
78
  8
1
  6
CONTINUOUS
 62
     7
 10
334.2987324185
 20
580.3312270313
 30
0.0
 40
2.5
 50
58.4817903931
 51
181.5182096069
  0
ARC
  5
79
  8
1
  6
CONTINUOUS
 62
     7
 10
323.7237324185
 20
562.0147897413
 30
0.0
 40
2.5
 50
118.4817903931
 51
241.5182096069
  0
LINE
  5
7A
  8
1
  6
CONTINUOUS
 62
     7
 10
362.3241443048
 20
415.0126829997
 30
0.0
 11
362.5019139536
 21
415.6926686235
 31
0.0
  0
LINE
  5
7B
  8
1
  6
CONTINUOUS
 62
     7
 10
368.5237324185
 20
462.3876829997
 30
0.0
 11
368.2376634388
 21
481.9357299456
 31
0.0
  0
CIRCLE
  5
7C
  8
1
  6
CONTINUOUS
 62
     7
 10
344.8737324185
 20
562.0147897413
 30
0.0
 40
18.8935812189
  0
LINE
  5
7D
  8
1
  6
CONTINUOUS
 62
     7
 10
322.9804723854
 20
500.4315807384
 30
0.0
 11
322.4237324185
 21
462.3876829997
 31
0.0
  0
LINE
  5
7E
  8
1
  6
CONTINUOUS
 62
     7
 10
363.7673136374
 20
503.3876829997
 30
0.0
 11
325.9801511997
 21
503.3876829997
 31
0.0
  0
ARC
  5
7F
  8
1
  6
CONTINUOUS
 62
     7
 10
323.0096408053
 20
481.9137810762
 30
0.0
 40
1.5
 50
100.7035526535
 51
179.1615850256
  0
LINE
  5
80
  8
1
  6
CONTINUOUS
 62
     7
 10
331.7996100311
 20
462.3876829997
 30
0.0
 11
331.7996100311
 21
481.484659903
 31
0.0
  0
CIRCLE
  5
81
  8
1
  6
CONTINUOUS
 62
     7
 10
344.8737324185
 20
562.0147897413
 30
0.0
 40
22.45
  0
ARC
  5
82
  8
1
  6
CONTINUOUS
 62
     7
 10
366.7378240317
 20
481.9137810762
 30
0.0
 40
1.5
 50
0.8384149744
 51
79.29644734649999
  0
ARC
  5
83
  8
1
  6
CONTINUOUS
 62
     7
 10
355.4487324185
 20
580.3312270313
 30
0.0
 40
2.5
 50
358.4817903931
 51
121.5182096069
  0
LINE
  5
84
  8
1
  6
CENTER
 62
     7
 10
344.8737324185
 20
534.5647897413
 30
0.0
 11
344.8737324185
 21
589.4647897413
 31
0.0
  0
LINE
  5
85
  8
1
  6
CONTINUOUS
 62
     7
 10
335.6056562245
 20
481.484659903
 30
0.0
 11
335.6056562245
 21
462.3876829997
 31
0.0
  0
LINE
  5
86
  8
1
  6
CONTINUOUS
 62
     7
 10
366.7669924516
 20
500.4315807384
 30
0.0
 11
367.3237324185
 21
462.3876829997
 31
0.0
  0
LINE
  5
87
  8
1
  6
CENTER
 62
     7
 10
344.8737324185
 20
457.3876829997
 30
0.0
 11
344.8737324185
 21
508.3876829997
 31
0.0
  0
ARC
  5
88
  8
1
  6
CONTINUOUS
 62
     7
 10
331.024309774
 20
389.2104457212
 30
0.0
 40
0.5
 50
283.1636802022001
 51
356.8698976457999
  0
LINE
  5
89
  8
1
  6
CONTINUOUS
 62
     7
 10
327.4233205323
 20
415.0126829997
 30
0.0
 11
326.7455508835
 21
414.8266432197
 31
0.0
  0
ARC
  5
8A
  8
1
  6
CONTINUOUS
 62
     7
 10
325.9801511997
 20
500.3876829997
 30
0.0
 40
3.0
 50
90.0
 51
179.1615850256
  0
LINE
  5
8B
  8
1
  6
CONTINUOUS
 62
     7
 10
345.3737324185
 20
425.5816288434
 30
0.0
 11
344.8737324185
 21
425.0876829997
 31
0.0
  0
ARC
  5
8C
  8
1
  6
CONTINUOUS
 62
     7
 10
333.7026331278
 20
481.484659903
 30
0.0
 40
1.9030230967
 50
0.0
 51
180.0
  0
ARC
  5
8D
  8
1
  6
CONTINUOUS
 62
     7
 10
366.0237324185
 20
562.0147897413
 30
0.0
 40
2.5
 50
298.4817903931
 51
61.51820960689997
  0
LINE
  5
8E
  8
1
  6
CONTINUOUS
 62
     7
 10
363.0019139536
 20
414.8266432197
 30
0.0
 11
362.3241443048
 21
415.0126829997
 31
0.0
  0
ARC
  5
8F
  8
1
  6
CONTINUOUS
 62
     7
 10
356.0448317093
 20
481.484659903
 30
0.0
 40
1.9030230967
 50
0.0
 51
180.0
  0
LINE
  5
90
  8
1
  6
CONTINUOUS
 62
     7
 10
357.947854806
 20
462.3876829997
 30
0.0
 11
357.947854806
 21
481.484659903
 31
0.0
  0
LINE
  5
91
  8
1
  6
CONTINUOUS
 62
     7
 10
327.4233205323
 20
394.8626829997
 30
0.0
 11
327.2455508835
 21
394.1826973759
 31
0.0
  0
LINE
  5
92
  8
1
  6
CONTINUOUS
 62
     7
 10
321.2237324185
 20
462.3876829997
 30
0.0
 11
368.5237324185
 21
462.3876829997
 31
0.0
  0
LINE
  5
93
  8
1
  6
CONTINUOUS
 62
     7
 10
354.1418086126
 20
481.484659903
 30
0.0
 11
354.1418086126
 21
462.3876829997
 31
0.0
  0
LINE
  5
94
  8
1
  6
CONTINUOUS
 62
     7
 10
362.5019139536
 20
394.1826973759
 30
0.0
 11
362.3241443048
 21
394.8626829997
 31
0.0
  0
ARC
  5
95
  8
1
  6
CONTINUOUS
 62
     7
 10
365.4186307553
 20
400.8073498011
 30
0.0
 40
0.5
 50
43.1636802022
 51
116.8698976459
  0
LINE
  5
96
  8
1
  6
CONTINUOUS
 62
     7
 10
321.2237324185
 20
462.3876829997
 30
0.0
 11
321.5098013982
 21
481.9357299456
 31
0.0
  0
ARC
  5
97
  8
1
  6
CONTINUOUS
 62
     7
 10
363.7673136374
 20
500.3876829997
 30
0.0
 40
3.0
 50
0.8384149744
 51
90.0
  0
LINE
  5
98
  8
1
  6
CONTINUOUS
 62
     7
 10
327.2455508835
 20
415.6926686235
 30
0.0
 11
327.4233205323
 21
415.0126829997
 31
0.0
  0
LINE
  5
99
  8
1
  6
CONTINUOUS
 62
     7
 10
344.8737324185
 20
384.7876829997
 30
0.0
 11
345.3737324185
 21
384.2937371559
 31
0.0
  0
LINE
  5
9A
  8
1
  6
CONTINUOUS
 62
     7
 10
362.3241443048
 20
394.8626829997
 30
0.0
 11
363.0019139536
 21
395.0487227797
 31
0.0
  0
ARC
  5
9B
  8
1
  6
CONTINUOUS
 62
     7
 10
324.3288340818
 20
400.8073498011
 30
0.0
 40
0.5
 50
63.1301023541
 51
136.8363197978
  0
LINE
  5
9C
  8
1
  6
CONTINUOUS
 62
     7
 10
326.7455508835
 20
395.0487227797
 30
0.0
 11
327.4233205323
 21
394.8626829997
 31
0.0
  0
LINE
  5
9D
  8
1
  6
CONTINUOUS
 62
     7
 10
344.8737324185
 20
425.0876829997
 30
0.0
 11
344.3737324185
 21
425.5816288435
 31
0.0
  0
ARC
  5
9E
  8
1
  6
CONTINUOUS
 62
     7
 10
358.723155063
 20
389.2104457212
 30
0.0
 40
0.5
 50
183.1301023541
 51
256.8363197977999
  0
LINE
  5
9F
  8
1
  6
CENTER
 62
     7
 10
317.4237324185
 20
562.0147897413
 30
0.0
 11
378.3337324186
 21
562.0147897413
 31
0.0
  0
ARC
  5
A0
  8
1
  6
CONTINUOUS
 62
     7
 10
355.4487324185
 20
543.6983524512
 30
0.0
 40
2.5
 50
238.4817903931
 51
1.518209606899973
  0
ARC
  5
A1
  8
1
  6
CONTINUOUS
 62
     7
 10
334.2987324185
 20
543.6983524512
 30
0.0
 40
2.5
 50
178.4817903931
 51
301.5182096069
  0
LINE
  5
A2
  8
1
  6
CENTER
 62
     7
 10
317.4237324185
 20
404.9376829997
 30
0.0
 11
378.3337324186
 21
404.9376829997
 31
0.0
  0
ARC
  5
A3
  8
1
  6
CONTINUOUS
 62
     7
 10
334.2987324185
 20
423.2541202897
 30
0.0
 40
2.5
 50
58.4817903931
 51
181.5182096069
  0
ARC
  5
A4
  8
1
  6
CONTINUOUS
 62
     7
 10
355.4487324185
 20
423.2541202897
 30
0.0
 40
2.5
 50
358.4817903931
 51
121.5182096069
  0
ARC
  5
A5
  8
1
  6
CONTINUOUS
 62
     7
 10
366.0237324185
 20
404.9376829997
 30
0.0
 40
2.5
 50
298.4817903931
 51
61.51820960689997
  0
ARC
  5
A6
  8
1
  6
CONTINUOUS
 62
     7
 10
344.8737324185
 20
404.9376829997
 30
0.0
 40
22.45
 50
305.617144976
 51
354.382855024
  0
ARC
  5
A7
  8
1
  6
CONTINUOUS
 62
     7
 10
355.4487324185
 20
386.6212457097
 30
0.0
 40
2.5
 50
238.4817903931
 51
1.518209606899973
  0
ARC
  5
A8
  8
1
  6
CONTINUOUS
 62
     7
 10
344.8737324185
 20
404.9376829997
 30
0.0
 40
22.45
 50
245.617144976
 51
294.382855024
  0
CIRCLE
  5
A9
  8
1
  6
CONTINUOUS
 62
     7
 10
344.8737324185
 20
404.9376829997
 30
0.0
 40
19.15
  0
ARC
  5
AA
  8
1
  6
CONTINUOUS
 62
     7
 10
344.8737324185
 20
404.9376829997
 30
0.0
 40
22.45
 50
5.617144975999999
 51
54.382855024
  0
CIRCLE
  5
AB
  8
1
  6
CONTINUOUS
 62
     7
 10
344.8737324185
 20
404.9376829997
 30
0.0
 40
21.25
  0
CIRCLE
  5
AC
  8
1
  6
CONTINUOUS
 62
     7
 10
344.8737324185
 20
404.9376829997
 30
0.0
 40
20.65
  0
ARC
  5
AD
  8
1
  6
CONTINUOUS
 62
     7
 10
344.8737324185
 20
404.9376829997
 30
0.0
 40
22.45
 50
65.617144976
 51
114.382855024
  0
ENDSEC
  0
EOF
