  0
SECTION
  2
HEADER
  9
$ACADVER
  1
AC1004
  9
$INSBASE
 10
0.0
 20
0.0
  9
$EXTMIN
 10
-164.1666666666667
 20
194.4371212121212
  9
$EXTMAX
 10
-69.82121212121213
 20
328.675
  9
$LIMMIN
 10
0.0
 20
0.0
  9
$LIMMAX
 10
12.0
 20
9.0
  9
$ORTHOMODE
 70
     0
  9
$REGENMODE
 70
     1
  9
$FILLMODE
 70
     1
  9
$QTEXTMODE
 70
     0
  9
$DRAGMODE
 70
     2
  9
$LTSCALE
 40
1.0
  9
$OSMODE
 70
    37
  9
$ATTMODE
 70
     1
  9
$TEXTSIZE
 40
0.2
  9
$TRACEWID
 40
0.05
  9
$TEXTSTYLE
  7
STANDARD
  9
$CLAYER
  8
0
  9
$CELTYPE
  6
BYLAYER
  9
$CECOLOR
 62
   256
  9
$DIMSCALE
 40
1.0
  9
$DIMASZ
 40
3.0
  9
$DIMEXO
 40
0.0625
  9
$DIMDLI
 40
0.38
  9
$DIMRND
 40
0.0
  9
$DIMDLE
 40
0.0
  9
$DIMEXE
 40
1.5
  9
$DIMTP
 40
0.0
  9
$DIMTM
 40
0.0
  9
$DIMTXT
 40
3.0
  9
$DIMCEN
 40
0.09
  9
$DIMTSZ
 40
0.0
  9
$DIMTOL
 70
     0
  9
$DIMLIM
 70
     0
  9
$DIMTIH
 70
     1
  9
$DIMTOH
 70
     1
  9
$DIMSE1
 70
     0
  9
$DIMSE2
 70
     0
  9
$DIMTAD
 70
     1
  9
$DIMZIN
 70
     0
  9
$DIMBLK
  1

  9
$DIMASO
 70
     1
  9
$DIMSHO
 70
     1
  9
$DIMPOST
  1

  9
$DIMAPOST
  1

  9
$DIMALT
 70
     0
  9
$DIMALTD
 70
     2
  9
$DIMALTF
 40
25.4
  9
$DIMLFAC
 40
1.0
  9
$DIMTOFL
 70
     0
  9
$DIMTVP
 40
0.0
  9
$DIMTIX
 70
     0
  9
$DIMSOXD
 70
     0
  9
$DIMSAH
 70
     0
  9
$DIMBLK1
  1

  9
$DIMBLK2
  1

  9
$LUNITS
 70
     2
  9
$LUPREC
 70
     4
  9
$SKETCHINC
 40
0.1
  9
$FILLETRAD
 40
0.5
  9
$AUNITS
 70
     0
  9
$AUPREC
 70
     0
  9
$MENU
  1
.
  9
$ELEVATION
 40
0.0
  9
$THICKNESS
 40
0.0
  9
$LIMCHECK
 70
     0
  9
$CHAMFERA
 40
0.0
  9
$CHAMFERB
 40
0.0
  9
$SKPOLY
 70
     0
  9
$TDCREATE
 40
2459093.442220463
  9
$TDUPDATE
 40
2459093.442220949
  9
$TDINDWG
 40
0.0000000116
  9
$TDUSRTIMER
 40
0.0000000116
  9
$USRTIMER
 70
     1
  9
$ANGBASE
 50
0.0
  9
$ANGDIR
 70
     0
  9
$PDMODE
 70
     0
  9
$PDSIZE
 40
0.0
  9
$PLINEWID
 40
0.0
  9
$COORDS
 70
     1
  9
$SPLFRAME
 70
     0
  9
$SPLINETYPE
 70
     6
  9
$SPLINESEGS
 70
     8
  9
$ATTDIA
 70
     0
  9
$ATTREQ
 70
     1
  9
$SURFTAB1
 70
     6
  9
$SURFTAB2
 70
     6
  9
$SURFTYPE
 70
     6
  9
$SURFU
 70
     6
  9
$SURFV
 70
     6
  9
$UCSNAME
  2

  9
$UCSORG
 10
0.0
 20
0.0
 30
0.0
  9
$UCSXDIR
 10
1.0
 20
0.0
 30
0.0
  9
$UCSYDIR
 10
0.0
 20
1.0
 30
0.0
  9
$USERI1
 70
     0
  9
$USERI2
 70
     0
  9
$USERI3
 70
     0
  9
$USERI4
 70
     0
  9
$USERI5
 70
     0
  9
$USERR1
 40
0.0
  9
$USERR2
 40
0.0
  9
$USERR3
 40
0.0
  9
$USERR4
 40
0.0
  9
$USERR5
 40
0.0
  9
$WORLDVIEW
 70
     1
  0
ENDSEC
  0
SECTION
  2
TABLES
  0
TABLE
  2
LTYPE
 70
     2
  0
LTYPE
  2
CONTINUOUS
 70
     0
  3
Solid line
 72
    65
 73
     0
 40
0.0
  0
LTYPE
  2
CENTER
 70
     0
  3

 72
    65
 73
     0
 40
0.0
  0
ENDTAB
  0
TABLE
  2
LAYER
 70
     2
  0
LAYER
  2
0
 70
     0
 62
     7
  6
CONTINUOUS
  0
LAYER
  2
1
 70
     0
 62
     7
  6
CONTINUOUS
  0
ENDTAB
  0
TABLE
  2
STYLE
 70
     2
  0
STYLE
  2
STANDARD
 70
     0
 40
0.0
 41
1.0
 50
0.0
 71
     0
 42
0.2
  3
txt
  4

  0
STYLE
  2
ＭＳ_ゴシック
 70
     0
 40
0.0
 41
1.0
 50
0.0
 71
     0
 42
0.2
  3
ＭＳ ゴシック.shx
  4

  0
ENDTAB
  0
TABLE
  2
VIEW
 70
     0
  0
ENDTAB
  0
ENDSEC
  0
SECTION
  2
BLOCKS
  0
BLOCK
  8
0
  2
D_FRAME_VIEW_1658
 70
     0
 10
0.0
 20
0.0
  0
LINE
  8
1
  6
CONTINUOUS
 62
     7
 10
-162.7828608322974
 20
305.8249999999999
 11
-149.5998541519829
 21
303.3637297011703
  0
LINE
  8
1
  6
CONTINUOUS
 62
     7
 10
-162.7828608322974
 20
325.825
 11
-162.7828608322974
 21
305.8249999999999
  0
LINE
  8
1
  6
CONTINUOUS
 62
     7
 10
-149.5998541519829
 20
328.2862702988297
 11
-162.7828608322974
 21
325.825
  0
LINE
  8
1
  6
CONTINUOUS
 62
     7
 10
-149.5998541519829
 20
303.3637297011703
 11
-149.1843229176852
 21
303.325
  0
POLYLINE
  8
1
  6
CONTINUOUS
 62
     7
 66
     1
 70
     1
  0
VERTEX
  8
1
  6
CONTINUOUS
 62
     7
 10
-149.1843229176852
 20
327.6639506153788
  0
VERTEX
  8
1
  6
CONTINUOUS
 62
     7
 10
-150.160429393284
 20
327.4364684989844
  0
VERTEX
  8
1
  6
CONTINUOUS
 62
     7
 10
-151.0990246444323
 20
326.7627641599605
  0
VERTEX
  8
1
  6
CONTINUOUS
 62
     7
 10
-151.9640389819989
 20
325.668727678238
  0
VERTEX
  8
1
  6
CONTINUOUS
 62
     7
 10
-152.7222303900966
 20
324.196402262267
  0
VERTEX
  8
1
  6
CONTINUOUS
 62
     7
 10
-153.3444619981109
 20
322.4023685520936
  0
VERTEX
  8
1
  6
CONTINUOUS
 62
     7
 10
-153.8068217942974
 20
320.355570257094
  0
VERTEX
  8
1
  6
CONTINUOUS
 62
     7
 10
-154.0915415509828
 20
318.1346646878873
  0
VERTEX
  8
1
  6
CONTINUOUS
 62
     7
 10
-154.1876796475906
 20
315.825
  0
VERTEX
  8
1
  6
CONTINUOUS
 62
     7
 10
-154.0915415509828
 20
313.5153353121127
  0
VERTEX
  8
1
  6
CONTINUOUS
 62
     7
 10
-153.8068217942974
 20
311.294429742906
  0
VERTEX
  8
1
  6
CONTINUOUS
 62
     7
 10
-153.3444619981109
 20
309.2476314479064
  0
VERTEX
  8
1
  6
CONTINUOUS
 62
     7
 10
-152.7222303900966
 20
307.4535977377329
  0
VERTEX
  8
1
  6
CONTINUOUS
 62
     7
 10
-151.9640389819989
 20
305.9812723217619
  0
VERTEX
  8
1
  6
CONTINUOUS
 62
     7
 10
-151.0990246444323
 20
304.8872358400395
  0
VERTEX
  8
1
  6
CONTINUOUS
 62
     7
 10
-150.160429393284
 20
304.2135315010156
  0
VERTEX
  8
1
  6
CONTINUOUS
 62
     7
 10
-149.1843229176852
 20
303.9860493846211
  0
VERTEX
  8
1
  6
CONTINUOUS
 62
     7
 10
-148.2082164420864
 20
304.2135315010156
  0
VERTEX
  8
1
  6
CONTINUOUS
 62
     7
 10
-147.269621190938
 20
304.8872358400395
  0
VERTEX
  8
1
  6
CONTINUOUS
 62
     7
 10
-146.4046068533714
 20
305.9812723217619
  0
VERTEX
  8
1
  6
CONTINUOUS
 62
     7
 10
-145.6464154452737
 20
307.4535977377329
  0
VERTEX
  8
1
  6
CONTINUOUS
 62
     7
 10
-145.0241838372594
 20
309.2476314479064
  0
VERTEX
  8
1
  6
CONTINUOUS
 62
     7
 10
-144.561824041073
 20
311.294429742906
  0
VERTEX
  8
1
  6
CONTINUOUS
 62
     7
 10
-144.2771042843875
 20
313.5153353121127
  0
VERTEX
  8
1
  6
CONTINUOUS
 62
     7
 10
-144.1809661877797
 20
315.825
  0
VERTEX
  8
1
  6
CONTINUOUS
 62
     7
 10
-144.2771042843875
 20
318.1346646878873
  0
VERTEX
  8
1
  6
CONTINUOUS
 62
     7
 10
-144.561824041073
 20
320.355570257094
  0
VERTEX
  8
1
  6
CONTINUOUS
 62
     7
 10
-145.0241838372594
 20
322.4023685520936
  0
VERTEX
  8
1
  6
CONTINUOUS
 62
     7
 10
-145.6464154452737
 20
324.196402262267
  0
VERTEX
  8
1
  6
CONTINUOUS
 62
     7
 10
-146.4046068533714
 20
325.668727678238
  0
VERTEX
  8
1
  6
CONTINUOUS
 62
     7
 10
-147.269621190938
 20
326.7627641599605
  0
VERTEX
  8
1
  6
CONTINUOUS
 62
     7
 10
-148.2082164420864
 20
327.4364684989844
  0
SEQEND
  8
1
  6
CONTINUOUS
 62
     7
  0
POLYLINE
  8
1
  6
CONTINUOUS
 62
     7
 66
     1
  0
VERTEX
  8
1
  6
CONTINUOUS
 62
     7
 10
-123.807704880659
 20
303.325
  0
VERTEX
  8
1
  6
CONTINUOUS
 62
     7
 10
-122.5388743398902
 20
303.6909099367374
  0
VERTEX
  8
1
  6
CONTINUOUS
 62
     7
 10
-121.3443282315859
 20
304.767217333861
  0
SEQEND
  8
1
  6
CONTINUOUS
 62
     7
  0
LINE
  8
1
  6
CONTINUOUS
 62
     7
 10
-149.1843229176852
 20
328.325
 11
-149.5998541519829
 21
328.2862702988297
  0
POLYLINE
  8
1
  6
CONTINUOUS
 62
     7
 66
     1
  0
VERTEX
  8
1
  6
CONTINUOUS
 62
     7
 10
-149.1843229176852
 20
303.325
  0
VERTEX
  8
1
  6
CONTINUOUS
 62
     7
 10
-148.1537137580241
 20
303.5651839949596
  0
VERTEX
  8
1
  6
CONTINUOUS
 62
     7
 10
-147.1627103303964
 20
304.2765058436089
  0
VERTEX
  8
1
  6
CONTINUOUS
 62
     7
 10
-146.2493963407649
 20
305.4316298462182
  0
VERTEX
  8
1
  6
CONTINUOUS
 62
     7
 10
-145.4488699335587
 20
306.9861652351681
  0
VERTEX
  8
1
  6
CONTINUOUS
 62
     7
 10
-144.7918948896662
 20
308.880372087255
  0
VERTEX
  8
1
  6
CONTINUOUS
 62
     7
 10
-144.3037183915885
 20
311.0414570954364
  0
VERTEX
  8
1
  6
CONTINUOUS
 62
     7
 10
-144.0031007883742
 20
313.3863709747984
  0
VERTEX
  8
1
  6
CONTINUOUS
 62
     7
 10
-143.9015946459264
 20
315.825
  0
VERTEX
  8
1
  6
CONTINUOUS
 62
     7
 10
-144.0031007883742
 20
318.2636290252016
  0
VERTEX
  8
1
  6
CONTINUOUS
 62
     7
 10
-144.3037183915885
 20
320.6085429045636
  0
VERTEX
  8
1
  6
CONTINUOUS
 62
     7
 10
-144.7918948896662
 20
322.769627912745
  0
VERTEX
  8
1
  6
CONTINUOUS
 62
     7
 10
-145.4488699335587
 20
324.6638347648318
  0
VERTEX
  8
1
  6
CONTINUOUS
 62
     7
 10
-146.2493963407649
 20
326.2183701537818
  0
VERTEX
  8
1
  6
CONTINUOUS
 62
     7
 10
-147.1627103303964
 20
327.3734941563911
  0
VERTEX
  8
1
  6
CONTINUOUS
 62
     7
 10
-148.1537137580241
 20
328.0848160050404
  0
VERTEX
  8
1
  6
CONTINUOUS
 62
     7
 10
-149.1843229176852
 20
328.325
  0
SEQEND
  8
1
  6
CONTINUOUS
 62
     7
  0
POLYLINE
  8
1
  6
CONTINUOUS
 62
     7
 66
     1
  0
VERTEX
  8
1
  6
CONTINUOUS
 62
     7
 10
-128.7485384401058
 20
303.3290514842657
  0
VERTEX
  8
1
  6
CONTINUOUS
 62
     7
 10
-127.8719361853891
 20
303.5560884111356
  0
VERTEX
  8
1
  6
CONTINUOUS
 62
     7
 10
-127.0235081364052
 20
304.125
  0
SEQEND
  8
1
  6
CONTINUOUS
 62
     7
  0
LINE
  8
1
  6
CONTINUOUS
 62
     7
 10
-130.415041478555
 20
303.9107345334607
 11
-128.8674941581669
 21
303.9107345334607
  0
POLYLINE
  8
1
  6
CONTINUOUS
 62
     7
 66
     1
  0
VERTEX
  8
1
  6
CONTINUOUS
 62
     7
 10
-127.5071976617011
 20
304.5515799333121
  0
VERTEX
  8
1
  6
CONTINUOUS
 62
     7
 10
-127.4724575060082
 20
304.5512194535787
  0
VERTEX
  8
1
  6
CONTINUOUS
 62
     7
 10
-127.4383823552819
 20
304.5501425526167
  0
VERTEX
  8
1
  6
CONTINUOUS
 62
     7
 10
-127.4050629825977
 20
304.5483560377834
  0
VERTEX
  8
1
  6
CONTINUOUS
 62
     7
 10
-127.372590161031
 20
304.5458667164364
  0
VERTEX
  8
1
  6
CONTINUOUS
 62
     7
 10
-127.340045789217
 20
304.5425705491036
  0
VERTEX
  8
1
  6
CONTINUOUS
 62
     7
 10
-127.308455211207
 20
304.5385457866118
  0
VERTEX
  8
1
  6
CONTINUOUS
 62
     7
 10
-127.2778990232654
 20
304.5338133449104
  0
VERTEX
  8
1
  6
CONTINUOUS
 62
     7
 10
-127.2484578216563
 20
304.5283941399488
  0
VERTEX
  8
1
  6
CONTINUOUS
 62
     7
 10
-127.2209860698188
 20
304.5224929859683
  0
VERTEX
  8
1
  6
CONTINUOUS
 62
     7
 10
-127.1945954440319
 20
304.5159751900898
  0
VERTEX
  8
1
  6
CONTINUOUS
 62
     7
 10
-127.1693394663915
 20
304.5088684165008
  0
VERTEX
  8
1
  6
CONTINUOUS
 62
     7
 10
-127.1452716589931
 20
304.501200329389
  0
VERTEX
  8
1
  6
CONTINUOUS
 62
     7
 10
-127.1218093789826
 20
304.4927601223212
  0
VERTEX
  8
1
  6
CONTINUOUS
 62
     7
 10
-127.0996143518503
 20
304.483766397281
  0
VERTEX
  8
1
  6
CONTINUOUS
 62
     7
 10
-127.0787244157109
 20
304.474253817574
  0
VERTEX
  8
1
  6
CONTINUOUS
 62
     7
 10
-127.0591774086791
 20
304.4642570465055
  0
VERTEX
  8
1
  6
CONTINUOUS
 62
     7
 10
-127.0345629025588
 20
304.4497830706694
  0
VERTEX
  8
1
  6
CONTINUOUS
 62
     7
 10
-127.0124670005266
 20
304.4344651753348
  0
VERTEX
  8
1
  6
CONTINUOUS
 62
     7
 10
-126.9929289214408
 20
304.418395028702
  0
VERTEX
  8
1
  6
CONTINUOUS
 62
     7
 10
-126.97598788416
 20
304.4016642989709
  0
VERTEX
  8
1
  6
CONTINUOUS
 62
     7
 10
-126.9616831075428
 20
304.3843646543417
  0
VERTEX
  8
1
  6
CONTINUOUS
 62
     7
 10
-126.9500538104476
 20
304.3665877630142
  0
VERTEX
  8
1
  6
CONTINUOUS
 62
     7
 10
-126.9425784967819
 20
304.3518547662406
  0
VERTEX
  8
1
  6
CONTINUOUS
 62
     7
 10
-126.9368186682591
 20
304.3368466691147
  0
VERTEX
  8
1
  6
CONTINUOUS
 62
     7
 10
-126.9327749965289
 20
304.3216082520427
  0
VERTEX
  8
1
  6
CONTINUOUS
 62
     7
 10
-126.930448153241
 20
304.3061842954311
  0
VERTEX
  8
1
  6
CONTINUOUS
 62
     7
 10
-126.9298159234569
 20
304.2927668596078
  0
SEQEND
  8
1
  6
CONTINUOUS
 62
     7
  0
LINE
  8
1
  6
CONTINUOUS
 62
     7
 10
-127.5071976617011
 20
304.5515799333122
 11
-132.4012597116991
 21
304.5515799333122
  0
ARC
  8
1
  6
CONTINUOUS
 62
     7
 10
-132.3702455479668
 20
302.1716673024158
 40
2.380114705019881
 50
90.74661568793181
 51
124.8462281829412
  0
LINE
  8
1
  6
CONTINUOUS
 62
     7
 10
-133.8992330651726
 20
303.9822807176729
 11
-133.7301857604763
 21
304.125
  0
LINE
  8
1
  6
CONTINUOUS
 62
     7
 10
-133.8992330651726
 20
303.9822807176729
 11
-128.7251250822567
 21
303.9822807176729
  0
LINE
  8
1
  6
CONTINUOUS
 62
     7
 10
-128.8674941581669
 20
303.9107345334607
 11
-128.4657534498168
 21
303.8871339383937
  0
POLYLINE
  8
1
  6
CONTINUOUS
 62
     7
 66
     1
  0
VERTEX
  8
1
  6
CONTINUOUS
 62
     7
 10
-121.3443282315859
 20
326.882782666139
  0
VERTEX
  8
1
  6
CONTINUOUS
 62
     7
 10
-122.5388743398902
 20
327.9590900632626
  0
VERTEX
  8
1
  6
CONTINUOUS
 62
     7
 10
-123.807704880659
 20
328.325
  0
SEQEND
  8
1
  6
CONTINUOUS
 62
     7
  0
POLYLINE
  8
1
  6
CONTINUOUS
 62
     7
 66
     1
  0
VERTEX
  8
1
  6
CONTINUOUS
 62
     7
 10
-121.3443282315859
 20
304.767217333861
  0
VERTEX
  8
1
  6
CONTINUOUS
 62
     7
 10
-120.4756649859896
 20
306.1250948843036
  0
VERTEX
  8
1
  6
CONTINUOUS
 62
     7
 10
-119.7364156871307
 20
307.8597095218408
  0
VERTEX
  8
1
  6
CONTINUOUS
 62
     7
 10
-119.1552922269471
 20
309.903690106448
  0
VERTEX
  8
1
  6
CONTINUOUS
 62
     7
 10
-118.7548650076253
 20
312.177649955231
  0
VERTEX
  8
1
  6
CONTINUOUS
 62
     7
 10
-118.5506863239973
 20
314.5932701620372
  0
VERTEX
  8
1
  6
CONTINUOUS
 62
     7
 10
-118.5506863239973
 20
317.0567298379627
  0
VERTEX
  8
1
  6
CONTINUOUS
 62
     7
 10
-118.7548650076253
 20
319.472350044769
  0
VERTEX
  8
1
  6
CONTINUOUS
 62
     7
 10
-119.1552922269471
 20
321.7463098935519
  0
VERTEX
  8
1
  6
CONTINUOUS
 62
     7
 10
-119.7364156871307
 20
323.7902904781591
  0
VERTEX
  8
1
  6
CONTINUOUS
 62
     7
 10
-120.4756649859896
 20
325.5249051156965
  0
VERTEX
  8
1
  6
CONTINUOUS
 62
     7
 10
-121.3443282315859
 20
326.882782666139
  0
SEQEND
  8
1
  6
CONTINUOUS
 62
     7
  0
POLYLINE
  8
1
  6
CONTINUOUS
 62
     7
 66
     1
  0
VERTEX
  8
1
  6
CONTINUOUS
 62
     7
 10
-120.1740861006531
 20
306.2268446457914
  0
VERTEX
  8
1
  6
CONTINUOUS
 62
     7
 10
-119.4200864034755
 20
307.4054823595754
  0
VERTEX
  8
1
  6
CONTINUOUS
 62
     7
 10
-118.778418012066
 20
308.9111278649578
  0
VERTEX
  8
1
  6
CONTINUOUS
 62
     7
 10
-118.2740028486266
 20
310.6853030123969
  0
VERTEX
  8
1
  6
CONTINUOUS
 62
     7
 10
-117.9264320222553
 20
312.6591001611405
  0
VERTEX
  8
1
  6
CONTINUOUS
 62
     7
 10
-117.7492049248662
 20
314.7558585006483
  0
VERTEX
  8
1
  6
CONTINUOUS
 62
     7
 10
-117.7492049248662
 20
316.8941414993516
  0
VERTEX
  8
1
  6
CONTINUOUS
 62
     7
 10
-117.9264320222553
 20
318.9908998388595
  0
VERTEX
  8
1
  6
CONTINUOUS
 62
     7
 10
-118.2740028486266
 20
320.9646969876031
  0
VERTEX
  8
1
  6
CONTINUOUS
 62
     7
 10
-118.778418012066
 20
322.7388721350421
  0
VERTEX
  8
1
  6
CONTINUOUS
 62
     7
 10
-119.4200864034755
 20
324.2445176404245
  0
VERTEX
  8
1
  6
CONTINUOUS
 62
     7
 10
-120.1740861006531
 20
325.4231553542086
  0
SEQEND
  8
1
  6
CONTINUOUS
 62
     7
  0
LINE
  8
1
  6
CONTINUOUS
 62
     7
 10
-128.6468433365924
 20
304.3923173088834
 11
-128.5726431224124
 21
304.5513402725637
  0
LINE
  8
1
  6
CONTINUOUS
 62
     7
 10
-128.7251250822567
 20
303.9822807176729
 11
-128.6468433365924
 21
304.3923173088834
  0
ARC
  8
1
  6
CONTINUOUS
 62
     7
 10
-115.3605382968624
 20
321.4644614414826
 40
5.276467917553397
 50
15.10529513050585
 51
80.93310358882978
  0
ARC
  8
1
  6
CONTINUOUS
 62
     7
 10
-127.4276056911804
 20
315.9437747097421
 40
18.49481989065503
 50
332.021845514291
 51
21.89118344774306
  0
ARC
  8
1
  6
CONTINUOUS
 62
     7
 10
-114.9185124720979
 20
309.2780158242894
 40
4.320606404652095
 50
275.1719321407513
 51
332.2639469385617
  0
LINE
  8
1
  6
CONTINUOUS
 62
     7
 10
-126.9298159234569
 20
304.2927668596078
 11
-127.0235081364051
 21
304.125
  0
POLYLINE
  8
1
  6
CONTINUOUS
 62
     7
 66
     1
  0
VERTEX
  8
1
  6
CONTINUOUS
 62
     7
 10
-130.4150414785551
 20
303.9107345334607
  0
VERTEX
  8
1
  6
CONTINUOUS
 62
     7
 10
-130.4910523491726
 20
303.8335538646912
  0
VERTEX
  8
1
  6
CONTINUOUS
 62
     7
 10
-130.559254135225
 20
303.7228191660346
  0
VERTEX
  8
1
  6
CONTINUOUS
 62
     7
 10
-130.617034339244
 20
303.5827721756715
  0
VERTEX
  8
1
  6
CONTINUOUS
 62
     7
 10
-130.662179666748
 20
303.4187774511732
  0
VERTEX
  8
1
  6
CONTINUOUS
 62
     7
 10
-130.6929608073972
 20
303.2371168779174
  0
VERTEX
  8
1
  6
CONTINUOUS
 62
     7
 10
-130.708198676938
 20
303.0447490388852
  0
SEQEND
  8
1
  6
CONTINUOUS
 62
     7
  0
POLYLINE
  8
1
  6
CONTINUOUS
 62
     7
 66
     1
  0
VERTEX
  8
1
  6
CONTINUOUS
 62
     7
 10
-128.8674941581669
 20
303.9107345334607
  0
VERTEX
  8
1
  6
CONTINUOUS
 62
     7
 10
-128.9435050287845
 20
303.8335538646912
  0
VERTEX
  8
1
  6
CONTINUOUS
 62
     7
 10
-129.0117068148368
 20
303.7228191660346
  0
VERTEX
  8
1
  6
CONTINUOUS
 62
     7
 10
-129.0694870188558
 20
303.5827721756715
  0
VERTEX
  8
1
  6
CONTINUOUS
 62
     7
 10
-129.1146323463598
 20
303.4187774511731
  0
VERTEX
  8
1
  6
CONTINUOUS
 62
     7
 10
-129.1454134870091
 20
303.2371168779173
  0
VERTEX
  8
1
  6
CONTINUOUS
 62
     7
 10
-129.1606513565498
 20
303.0447490388852
  0
SEQEND
  8
1
  6
CONTINUOUS
 62
     7
  0
LINE
  8
1
  6
CONTINUOUS
 62
     7
 10
-128.3729000609131
 20
304.3891672748327
 11
-128.3670868957717
 21
304.4017719199861
  0
LINE
  8
1
  6
CONTINUOUS
 62
     7
 10
-128.4673812535012
 20
303.8743645274407
 11
-128.4657534498242
 21
303.8871339383928
  0
LINE
  8
1
  6
CONTINUOUS
 62
     7
 10
-128.5419702355442
 20
303.7523467171753
 11
-128.4673812535012
 21
303.8743645274407
  0
LINE
  8
1
  6
CONTINUOUS
 62
     7
 10
-130.708198676938
 20
303.0447490388852
 11
-130.6472742500082
 21
297.2552541505047
  0
POLYLINE
  8
1
  6
CONTINUOUS
 62
     7
 66
     1
  0
VERTEX
  8
1
  6
CONTINUOUS
 62
     7
 10
-130.1197533775462
 20
296.7814221286261
  0
VERTEX
  8
1
  6
CONTINUOUS
 62
     7
 10
-130.0982379684729
 20
296.7819849256633
  0
VERTEX
  8
1
  6
CONTINUOUS
 62
     7
 10
-130.0767293765727
 20
296.7836720498127
  0
VERTEX
  8
1
  6
CONTINUOUS
 62
     7
 10
-130.0552760217329
 20
296.7864797030405
  0
VERTEX
  8
1
  6
CONTINUOUS
 62
     7
 10
-130.0339261994916
 20
296.790401564791
  0
VERTEX
  8
1
  6
CONTINUOUS
 62
     7
 10
-130.0127279723157
 20
296.7954288062155
  0
VERTEX
  8
1
  6
CONTINUOUS
 62
     7
 10
-129.9917290614028
 20
296.8015501100477
  0
VERTEX
  8
1
  6
CONTINUOUS
 62
     7
 10
-129.9709767392524
 20
296.808751696081
  0
VERTEX
  8
1
  6
CONTINUOUS
 62
     7
 10
-129.9505177232462
 20
296.8170173521902
  0
VERTEX
  8
1
  6
CONTINUOUS
 62
     7
 10
-129.9303980704784
 20
296.8263284708282
  0
VERTEX
  8
1
  6
CONTINUOUS
 62
     7
 10
-129.9106630740732
 20
296.8366640909152
  0
VERTEX
  8
1
  6
CONTINUOUS
 62
     7
 10
-129.8913571612203
 20
296.8480009450257
  0
VERTEX
  8
1
  6
CONTINUOUS
 62
     7
 10
-129.872523793162
 20
296.860313511768
  0
VERTEX
  8
1
  6
CONTINUOUS
 62
     7
 10
-129.8542053673533
 20
296.8735740732379
  0
VERTEX
  8
1
  6
CONTINUOUS
 62
     7
 10
-129.8364431220173
 20
296.8877527774164
  0
VERTEX
  8
1
  6
CONTINUOUS
 62
     7
 10
-129.8192770433102
 20
296.9028177053729
  0
VERTEX
  8
1
  6
CONTINUOUS
 62
     7
 10
-129.8027457753049
 20
296.91873494312
  0
VERTEX
  8
1
  6
CONTINUOUS
 62
     7
 10
-129.786886532996
 20
296.9354686579608
  0
VERTEX
  8
1
  6
CONTINUOUS
 62
     7
 10
-129.7717350185218
 20
296.9529811791546
  0
VERTEX
  8
1
  6
CONTINUOUS
 62
     7
 10
-129.7573253407922
 20
296.9712330827214
  0
VERTEX
  8
1
  6
CONTINUOUS
 62
     7
 10
-129.743689938703
 20
296.9901832801922
  0
VERTEX
  8
1
  6
CONTINUOUS
 62
     7
 10
-129.7308595081096
 20
297.009789111107
  0
VERTEX
  8
1
  6
CONTINUOUS
 62
     7
 10
-129.7188629327254
 20
297.0300064390516
  0
VERTEX
  8
1
  6
CONTINUOUS
 62
     7
 10
-129.7077272190987
 20
297.050789751017
  0
VERTEX
  8
1
  6
CONTINUOUS
 62
     7
 10
-129.6974774358161
 20
297.0720922598574
  0
VERTEX
  8
1
  6
CONTINUOUS
 62
     7
 10
-129.6881366570682
 20
297.0938660096176
  0
VERTEX
  8
1
  6
CONTINUOUS
 62
     7
 10
-129.6797259107053
 20
297.1160619834901
  0
VERTEX
  8
1
  6
CONTINUOUS
 62
     7
 10
-129.6722641309002
 20
297.1386302141616
  0
VERTEX
  8
1
  6
CONTINUOUS
 62
     7
 10
-129.6657681155229
 20
297.1615198962986
  0
VERTEX
  8
1
  6
CONTINUOUS
 62
     7
 10
-129.6602524883264
 20
297.1846795009201
  0
VERTEX
  8
1
  6
CONTINUOUS
 62
     7
 10
-129.6557296660253
 20
297.2080568913984
  0
VERTEX
  8
1
  6
CONTINUOUS
 62
     7
 10
-129.6522098303434
 20
297.2315994408294
  0
VERTEX
  8
1
  6
CONTINUOUS
 62
     7
 10
-129.6497009050932
 20
297.2552541505047
  0
SEQEND
  8
1
  6
CONTINUOUS
 62
     7
  0
LINE
  8
1
  6
CONTINUOUS
 62
     7
 10
-130.2122609987484
 20
296.7814221286261
 11
-130.1197533775462
 21
296.7814221286261
  0
POLYLINE
  8
1
  6
CONTINUOUS
 62
     7
 66
     1
  0
VERTEX
  8
1
  6
CONTINUOUS
 62
     7
 10
-130.6472742500082
 20
297.2552541505047
  0
VERTEX
  8
1
  6
CONTINUOUS
 62
     7
 10
-130.6465145577484
 20
297.2315994408294
  0
VERTEX
  8
1
  6
CONTINUOUS
 62
     7
 10
-130.6447356609623
 20
297.2080568913984
  0
VERTEX
  8
1
  6
CONTINUOUS
 62
     7
 10
-130.6419415642813
 20
297.1846795009201
  0
VERTEX
  8
1
  6
CONTINUOUS
 62
     7
 10
-130.6381385577428
 20
297.1615198962986
  0
VERTEX
  8
1
  6
CONTINUOUS
 62
     7
 10
-130.63333520263
 20
297.1386302141616
  0
VERTEX
  8
1
  6
CONTINUOUS
 62
     7
 10
-130.627542312199
 20
297.1160619834901
  0
VERTEX
  8
1
  6
CONTINUOUS
 62
     7
 10
-130.620772927336
 20
297.0938660096176
  0
VERTEX
  8
1
  6
CONTINUOUS
 62
     7
 10
-130.6130422872001
 20
297.0720922598574
  0
VERTEX
  8
1
  6
CONTINUOUS
 62
     7
 10
-130.6043677949168
 20
297.050789751017
  0
VERTEX
  8
1
  6
CONTINUOUS
 62
     7
 10
-130.5947689784002
 20
297.0300064390516
  0
VERTEX
  8
1
  6
CONTINUOUS
 62
     7
 10
-130.5842674463923
 20
297.009789111107
  0
VERTEX
  8
1
  6
CONTINUOUS
 62
     7
 10
-130.5728868398175
 20
296.9901832801922
  0
VERTEX
  8
1
  6
CONTINUOUS
 62
     7
 10
-130.5606527785625
 20
296.9712330827214
  0
VERTEX
  8
1
  6
CONTINUOUS
 62
     7
 10
-130.5475928038009
 20
296.9529811791546
  0
VERTEX
  8
1
  6
CONTINUOUS
 62
     7
 10
-130.5337363159933
 20
296.9354686579607
  0
VERTEX
  8
1
  6
CONTINUOUS
 62
     7
 10
-130.5191145087006
 20
296.91873494312
  0
VERTEX
  8
1
  6
CONTINUOUS
 62
     7
 10
-130.5037602983622
 20
296.9028177053729
  0
VERTEX
  8
1
  6
CONTINUOUS
 62
     7
 10
-130.4877082501945
 20
296.8877527774164
  0
VERTEX
  8
1
  6
CONTINUOUS
 62
     7
 10
-130.4709945003781
 20
296.8735740732379
  0
VERTEX
  8
1
  6
CONTINUOUS
 62
     7
 10
-130.4536566747083
 20
296.860313511768
  0
VERTEX
  8
1
  6
CONTINUOUS
 62
     7
 10
-130.435733803893
 20
296.8480009450257
  0
VERTEX
  8
1
  6
CONTINUOUS
 62
     7
 10
-130.4172662356864
 20
296.8366640909152
  0
VERTEX
  8
1
  6
CONTINUOUS
 62
     7
 10
-130.3982955440594
 20
296.8263284708282
  0
VERTEX
  8
1
  6
CONTINUOUS
 62
     7
 10
-130.3788644356079
 20
296.8170173521902
  0
VERTEX
  8
1
  6
CONTINUOUS
 62
     7
 10
-130.3590166534131
 20
296.808751696081
  0
VERTEX
  8
1
  6
CONTINUOUS
 62
     7
 10
-130.3387968785671
 20
296.8015501100477
  0
VERTEX
  8
1
  6
CONTINUOUS
 62
     7
 10
-130.3182506295872
 20
296.7954288062155
  0
VERTEX
  8
1
  6
CONTINUOUS
 62
     7
 10
-130.2974241599458
 20
296.790401564791
  0
VERTEX
  8
1
  6
CONTINUOUS
 62
     7
 10
-130.2763643539445
 20
296.7864797030405
  0
VERTEX
  8
1
  6
CONTINUOUS
 62
     7
 10
-130.255118621169
 20
296.7836720498127
  0
VERTEX
  8
1
  6
CONTINUOUS
 62
     7
 10
-130.233734789761
 20
296.7819849256633
  0
VERTEX
  8
1
  6
CONTINUOUS
 62
     7
 10
-130.2122609987484
 20
296.7814221286261
  0
SEQEND
  8
1
  6
CONTINUOUS
 62
     7
  0
LINE
  8
1
  6
CONTINUOUS
 62
     7
 10
-129.6497009050931
 20
297.2552541505047
 11
-129.1606513565498
 21
303.0447490388852
  0
LINE
  8
1
  6
CONTINUOUS
 62
     7
 10
-128.5419702355442
 20
303.7523467171753
 11
-128.8662981784432
 21
302.9542097842655
  0
LINE
  8
1
  6
CONTINUOUS
 62
     7
 10
-130.4227660345799
 20
296.3249999999999
 11
-132.1485990553414
 21
296.3249999999999
  0
LINE
  8
1
  6
CONTINUOUS
 62
     7
 10
-130.3302584133776
 20
296.3249999999999
 11
-130.4227660345799
 21
296.3249999999999
  0
LINE
  8
1
  6
CONTINUOUS
 62
     7
 10
-130.3302584133776
 20
296.3249999999999
 11
-130.2912969815104
 21
296.333572596464
  0
ARC
  8
1
  6
CONTINUOUS
 62
     7
 10
-108.4004725010359
 20
315.825
 40
10.84999999999999
 50
270.0120919613971
 51
89.98790803860324
  0
LINE
  8
1
  6
CONTINUOUS
 62
     7
 10
-132.2392657254199
 20
296.3300062815851
 11
-132.1485990553414
 21
296.3249999999999
  0
ARC
  8
1
  6
CONTINUOUS
 62
     7
 10
-108.4004725010359
 20
315.825
 40
12.85000000000003
 50
239.5852733070624
 51
270.0
  0
ARC
  8
1
  6
CONTINUOUS
 62
     7
 10
-108.4004725010359
 20
315.825
 40
12.85
 50
270.0
 51
120.4147266929376
  0
LINE
  8
1
  6
CONTINUOUS
 62
     7
 10
-114.9058548879521
 20
326.9066289416313
 11
-114.9058548879521
 21
326.6750862663515
  0
LINE
  8
1
  6
CONTINUOUS
 62
     7
 10
-114.9058548879521
 20
304.9745742000126
 11
-114.9058548879521
 21
304.7433710583687
  0
LINE
  8
1
  6
CONTINUOUS
 62
     7
 10
-128.7514022969525
 20
303.3249999999999
 11
-123.807704880659
 21
303.3249999999999
  0
LINE
  8
1
  6
CONTINUOUS
 62
     7
 10
-123.807704880659
 20
328.325
 11
-149.1843229176851
 21
328.325
  0
LINE
  8
1
  6
CONTINUOUS
 62
     7
 10
-121.3443282315859
 20
304.767217333861
 11
-120.1740861006531
 21
306.2268446457913
  0
LINE
  8
1
  6
CONTINUOUS
 62
     7
 10
-120.1740861006531
 20
325.4231553542086
 11
-121.3443282315859
 21
326.8827826661389
  0
LINE
  8
1
  6
CONTINUOUS
 62
     7
 10
-121.1777404814076
 20
304.9749999999999
 11
-114.5290326653879
 21
304.9749999999999
  0
LINE
  8
1
  6
CONTINUOUS
 62
     7
 10
-114.5290326653879
 20
326.675
 11
-121.1777404814076
 21
326.675
  0
LINE
  8
1
  6
CONTINUOUS
 62
     7
 10
-128.3728739396878
 20
304.389141483558
 11
-128.2978914501776
 21
304.5503647455438
  0
LINE
  8
1
  6
CONTINUOUS
 62
     7
 10
-128.4618040033922
 20
303.9036882997387
 11
-128.3670861985341
 21
304.4017752505512
  0
LINE
  8
1
  6
CONTINUOUS
 62
     7
 10
-128.8942668641994
 20
302.7936589579946
 11
-128.8663092978332
 21
302.9541583823819
  0
LINE
  8
1
  6
CONTINUOUS
 62
     7
 10
-129.3619803255649
 20
297.256745964811
 11
-128.8942599541154
 21
302.7937405449389
  0
POLYLINE
  8
1
  6
CONTINUOUS
 62
     7
 66
     1
  0
VERTEX
  8
1
  6
CONTINUOUS
 62
     7
 10
-130.2912971894364
 20
296.3335725041673
  0
VERTEX
  8
1
  6
CONTINUOUS
 62
     7
 10
-130.2505553181842
 20
296.3352917242229
  0
VERTEX
  8
1
  6
CONTINUOUS
 62
     7
 10
-130.2110868772182
 20
296.3387801450681
  0
VERTEX
  8
1
  6
CONTINUOUS
 62
     7
 10
-130.1729479222857
 20
296.3438698444912
  0
VERTEX
  8
1
  6
CONTINUOUS
 62
     7
 10
-130.136182581866
 20
296.3503966970575
  0
VERTEX
  8
1
  6
CONTINUOUS
 62
     7
 10
-130.1008240065889
 20
296.3582010941689
  0
VERTEX
  8
1
  6
CONTINUOUS
 62
     7
 10
-130.0668953098804
 20
296.367128539802
  0
VERTEX
  8
1
  6
CONTINUOUS
 62
     7
 10
-130.0280874377262
 20
296.3791146619913
  0
VERTEX
  8
1
  6
CONTINUOUS
 62
     7
 10
-129.9913670660041
 20
296.3922579771149
  0
VERTEX
  8
1
  6
CONTINUOUS
 62
     7
 10
-129.956728071354
 20
296.4063256481386
  0
VERTEX
  8
1
  6
CONTINUOUS
 62
     7
 10
-129.9241515209303
 20
296.4210983365489
  0
VERTEX
  8
1
  6
CONTINUOUS
 62
     7
 10
-129.8936076246653
 20
296.4363704301585
  0
VERTEX
  8
1
  6
CONTINUOUS
 62
     7
 10
-129.861763425447
 20
296.4538317124409
  0
VERTEX
  8
1
  6
CONTINUOUS
 62
     7
 10
-129.8323548380926
 20
296.4714299692491
  0
VERTEX
  8
1
  6
CONTINUOUS
 62
     7
 10
-129.8053078743179
 20
296.4889370622171
  0
VERTEX
  8
1
  6
CONTINUOUS
 62
     7
 10
-129.7805423744017
 20
296.5061452831339
  0
VERTEX
  8
1
  6
CONTINUOUS
 62
     7
 10
-129.7579743174344
 20
296.5228665725734
  0
VERTEX
  8
1
  6
CONTINUOUS
 62
     7
 10
-129.7316007024584
 20
296.5437470522903
  0
VERTEX
  8
1
  6
CONTINUOUS
 62
     7
 10
-129.7086564519383
 20
296.5631695649459
  0
VERTEX
  8
1
  6
CONTINUOUS
 62
     7
 10
-129.6870471726274
 20
296.5826105746171
  0
VERTEX
  8
1
  6
CONTINUOUS
 62
     7
 10
-129.6692249053294
 20
296.5995432828413
  0
VERTEX
  8
1
  6
CONTINUOUS
 62
     7
 10
-129.6503401648141
 20
296.6184409878347
  0
VERTEX
  8
1
  6
CONTINUOUS
 62
     7
 10
-129.6305197513814
 20
296.6394179908647
  0
VERTEX
  8
1
  6
CONTINUOUS
 62
     7
 10
-129.6099060131686
 20
296.6625905263384
  0
VERTEX
  8
1
  6
CONTINUOUS
 62
     7
 10
-129.588657850511
 20
296.6880748114725
  0
VERTEX
  8
1
  6
CONTINUOUS
 62
     7
 10
-129.5673421984715
 20
296.7154645545536
  0
VERTEX
  8
1
  6
CONTINUOUS
 62
     7
 10
-129.5457690732851
 20
296.7452979101481
  0
VERTEX
  8
1
  6
CONTINUOUS
 62
     7
 10
-129.5241406640988
 20
296.7776718190596
  0
VERTEX
  8
1
  6
CONTINUOUS
 62
     7
 10
-129.5026775269308
 20
296.812673787325
  0
VERTEX
  8
1
  6
CONTINUOUS
 62
     7
 10
-129.4866733471026
 20
296.8409865914146
  0
VERTEX
  8
1
  6
CONTINUOUS
 62
     7
 10
-129.4710122562326
 20
296.8708780485542
  0
VERTEX
  8
1
  6
CONTINUOUS
 62
     7
 10
-129.4558117565043
 20
296.9023691279842
  0
VERTEX
  8
1
  6
CONTINUOUS
 62
     7
 10
-129.4411955036681
 20
296.9354739840026
  0
VERTEX
  8
1
  6
CONTINUOUS
 62
     7
 10
-129.4272931729965
 20
296.9701990396883
  0
VERTEX
  8
1
  6
CONTINUOUS
 62
     7
 10
-129.4142402540178
 20
297.0065420352152
  0
VERTEX
  8
1
  6
CONTINUOUS
 62
     7
 10
-129.4021777661597
 20
297.0444910450187
  0
VERTEX
  8
1
  6
CONTINUOUS
 62
     7
 10
-129.3912518871897
 20
297.084023469131
  0
VERTEX
  8
1
  6
CONTINUOUS
 62
     7
 10
-129.3816134861418
 20
297.125105005163
  0
VERTEX
  8
1
  6
CONTINUOUS
 62
     7
 10
-129.3734175523013
 20
297.167688608701
  0
VERTEX
  8
1
  6
CONTINUOUS
 62
     7
 10
-129.3668225117917
 20
297.2117134513067
  0
VERTEX
  8
1
  6
CONTINUOUS
 62
     7
 10
-129.3619894233906
 20
297.2571038868504
  0
SEQEND
  8
1
  6
CONTINUOUS
 62
     7
  0
LINE
  8
1
  6
CONTINUOUS
 62
     7
 10
-108.3959239482479
 20
326.6746951312912
 11
-114.5268705011725
 21
326.6747117099015
  0
LINE
  8
1
  6
CONTINUOUS
 62
     7
 10
-114.5268705011724
 20
304.9752882900984
 11
-108.3959239482478
 21
304.9753048687087
  0
LINE
  8
1
  6
CONTINUOUS
 62
     7
 10
-133.8131613610164
 20
303.3250819110225
 11
-133.5846081052877
 21
302.7938661104614
  0
POLYLINE
  8
1
  6
CONTINUOUS
 62
     7
 66
     1
  0
VERTEX
  8
1
  6
CONTINUOUS
 62
     7
 10
-133.1168680453283
 20
297.2571038868504
  0
VERTEX
  8
1
  6
CONTINUOUS
 62
     7
 10
-133.112810140004
 20
297.2178412792852
  0
VERTEX
  8
1
  6
CONTINUOUS
 62
     7
 10
-133.1074621917475
 20
297.1798281754005
  0
VERTEX
  8
1
  6
CONTINUOUS
 62
     7
 10
-133.1009523274724
 20
297.1431090951847
  0
VERTEX
  8
1
  6
CONTINUOUS
 62
     7
 10
-133.0934055393683
 20
297.1077185249974
  0
VERTEX
  8
1
  6
CONTINUOUS
 62
     7
 10
-133.0849432448789
 20
297.0736817125894
  0
VERTEX
  8
1
  6
CONTINUOUS
 62
     7
 10
-133.0756829226151
 20
297.0410154531201
  0
VERTEX
  8
1
  6
CONTINUOUS
 62
     7
 10
-133.0638982319115
 20
297.0042874193855
  0
VERTEX
  8
1
  6
CONTINUOUS
 62
     7
 10
-133.0513395595809
 20
296.9694781553146
  0
VERTEX
  8
1
  6
CONTINUOUS
 62
     7
 10
-133.0381753217712
 20
296.9365786255843
  0
VERTEX
  8
1
  6
CONTINUOUS
 62
     7
 10
-133.0245647027913
 20
296.9055696610968
  0
VERTEX
  8
1
  6
CONTINUOUS
 62
     7
 10
-133.0064670373238
 20
296.8680737267856
  0
VERTEX
  8
1
  6
CONTINUOUS
 62
     7
 10
-132.9881728941402
 20
296.8336403710894
  0
VERTEX
  8
1
  6
CONTINUOUS
 62
     7
 10
-132.9699605171608
 20
296.8021754491544
  0
VERTEX
  8
1
  6
CONTINUOUS
 62
     7
 10
-132.952082418462
 20
296.7735736672675
  0
VERTEX
  8
1
  6
CONTINUOUS
 62
     7
 10
-132.9347662632061
 20
296.7477226435028
  0
VERTEX
  8
1
  6
CONTINUOUS
 62
     7
 10
-132.9182159412666
 20
296.7245065603315
  0
VERTEX
  8
1
  6
CONTINUOUS
 62
     7
 10
-132.9008352918844
 20
296.7015142531013
  0
VERTEX
  8
1
  6
CONTINUOUS
 62
     7
 10
-132.8852280954722
 20
296.6819557398056
  0
VERTEX
  8
1
  6
CONTINUOUS
 62
     7
 10
-132.8677455118599
 20
296.6611589866212
  0
VERTEX
  8
1
  6
CONTINUOUS
 62
     7
 10
-132.8482561966222
 20
296.6392418392424
  0
VERTEX
  8
1
  6
CONTINUOUS
 62
     7
 10
-132.8266224117037
 20
296.6163407434318
  0
VERTEX
  8
1
  6
CONTINUOUS
 62
     7
 10
-132.8027019540892
 20
296.5926128082127
  0
VERTEX
  8
1
  6
CONTINUOUS
 62
     7
 10
-132.7768431425014
 20
296.5686776880476
  0
VERTEX
  8
1
  6
CONTINUOUS
 62
     7
 10
-132.7485028979211
 20
296.5443121038132
  0
VERTEX
  8
1
  6
CONTINUOUS
 62
     7
 10
-132.71754801046
 20
296.5197346428004
  0
VERTEX
  8
1
  6
CONTINUOUS
 62
     7
 10
-132.6838516500069
 20
296.4951904661277
  0
VERTEX
  8
1
  6
CONTINUOUS
 62
     7
 10
-132.6564269880602
 20
296.4767846575336
  0
VERTEX
  8
1
  6
CONTINUOUS
 62
     7
 10
-132.6273159449694
 20
296.458684038154
  0
VERTEX
  8
1
  6
CONTINUOUS
 62
     7
 10
-132.5964785943278
 20
296.4410283290871
  0
VERTEX
  8
1
  6
CONTINUOUS
 62
     7
 10
-132.5638819270651
 20
296.423967195975
  0
VERTEX
  8
1
  6
CONTINUOUS
 62
     7
 10
-132.5295011362197
 20
296.4076602571905
  0
VERTEX
  8
1
  6
CONTINUOUS
 62
     7
 10
-132.4933209876052
 20
296.3922769660119
  0
VERTEX
  8
1
  6
CONTINUOUS
 62
     7
 10
-132.4608737697054
 20
296.3799618885406
  0
VERTEX
  8
1
  6
CONTINUOUS
 62
     7
 10
-132.4271059052122
 20
296.368574894688
  0
VERTEX
  8
1
  6
CONTINUOUS
 62
     7
 10
-132.3920295343752
 20
296.3582387468711
  0
VERTEX
  8
1
  6
CONTINUOUS
 62
     7
 10
-132.3556650736965
 20
296.3490804981846
  0
VERTEX
  8
1
  6
CONTINUOUS
 62
     7
 10
-132.318041997348
 20
296.3412310338622
  0
VERTEX
  8
1
  6
CONTINUOUS
 62
     7
 10
-132.2791996321638
 20
296.3348245106173
  0
VERTEX
  8
1
  6
CONTINUOUS
 62
     7
 10
-132.2447718767155
 20
296.3305641947823
  0
SEQEND
  8
1
  6
CONTINUOUS
 62
     7
  0
LINE
  8
1
  6
CONTINUOUS
 62
     7
 10
-132.2447718767155
 20
296.3305641947823
 11
-132.2391879591865
 21
296.3299976845847
  0
LINE
  8
1
  6
CONTINUOUS
 62
     7
 10
-133.5845994773251
 20
302.7937637801445
 11
-133.116877143154
 21
297.256745964811
  0
ENDBLK
  8
0
  0
BLOCK
  8
0
  2
D_FRAME_VIEW_1490
 70
     0
 10
0.0
 20
0.0
  0
LINE
  8
1
  6
CONTINUOUS
 62
     7
 10
-95.5504725010359
 20
212.3993777683528
 11
-114.9058548879521
 21
212.3993777683528
  0
LINE
  8
1
  6
CONTINUOUS
 62
     7
 10
-97.5504725010359
 20
214.3993777683528
 11
-114.9058548879521
 21
214.3993777683528
  0
LINE
  8
1
  6
CONTINUOUS
 62
     7
 10
-114.9058548879522
 20
214.3993777683528
 11
-114.9058548879522
 21
212.3993777683528
  0
ARC
  8
1
  6
CONTINUOUS
 62
     7
 10
-134.5688939371328
 20
229.1825250096118
 40
16.48524449993356
 50
140.7452687808316
 51
153.2634534518488
  0
LINE
  8
1
  6
CONTINUOUS
 62
     7
 10
-160.5761049943725
 20
212.3993777683528
 11
-149.2916120108655
 21
236.5990510659251
  0
LINE
  8
1
  6
CONTINUOUS
 62
     7
 10
-162.7828608322974
 20
212.3993777683528
 11
-160.5761049943725
 21
212.3993777683528
  0
LINE
  8
1
  6
CONTINUOUS
 62
     7
 10
-162.7828608322974
 20
212.3993777683528
 11
-149.5998541519829
 21
240.6704268274111
  0
LINE
  8
1
  6
CONTINUOUS
 62
     7
 10
-129.0904331524177
 20
218.3993777683528
 11
-118.5249766089002
 21
241.0570724442691
  0
LINE
  8
1
  6
CONTINUOUS
 62
     7
 10
-149.5998541519829
 20
240.6704268274111
 11
-143.9015946459264
 21
252.8903837730086
  0
LINE
  8
1
  6
CONTINUOUS
 62
     9
 10
-137.2801791590982
 20
231.5970313607935
 11
-132.1060711761823
 21
229.1843051842388
  0
LINE
  8
1
  6
CONTINUOUS
 62
     7
 10
-137.4492264637944
 20
231.2345082459788
 11
-137.2801791590982
 21
231.5970313607935
  0
POLYLINE
  8
1
  6
CONTINUOUS
 62
     7
 66
     1
  0
VERTEX
  8
1
  6
CONTINUOUS
 62
     7
 10
-136.9655369384986
 20
229.9055821972015
  0
VERTEX
  8
1
  6
CONTINUOUS
 62
     7
 10
-137.0832710139015
 20
229.9705711595726
  0
VERTEX
  8
1
  6
CONTINUOUS
 62
     7
 10
-137.1911213062353
 20
230.0504552322968
  0
VERTEX
  8
1
  6
CONTINUOUS
 62
     7
 10
-137.2861215756928
 20
230.1429015895118
  0
VERTEX
  8
1
  6
CONTINUOUS
 62
     7
 10
-137.3675819130063
 20
230.2463586392363
  0
VERTEX
  8
1
  6
CONTINUOUS
 62
     7
 10
-137.4381716976407
 20
230.3663754865831
  0
VERTEX
  8
1
  6
CONTINUOUS
 62
     7
 10
-137.4798056787588
 20
230.462440076548
  0
VERTEX
  8
1
  6
CONTINUOUS
 62
     7
 10
-137.5110514926567
 20
230.561531793049
  0
VERTEX
  8
1
  6
CONTINUOUS
 62
     7
 10
-137.5373176023645
 20
230.7066413333573
  0
VERTEX
  8
1
  6
CONTINUOUS
 62
     7
 10
-137.5421363908425
 20
230.8502266503815
  0
SEQEND
  8
1
  6
CONTINUOUS
 62
     7
  0
ARC
  8
1
  6
CONTINUOUS
 62
     7
 10
-136.5413357147274
 20
230.8116299068789
 40
1.001544657976583
 50
155.0247867446128
 51
177.7914332362876
  0
LINE
  8
1
  6
CONTINUOUS
 62
     7
 10
-136.9655369384986
 20
229.9055821972015
 11
-132.0714748885006
 21
227.6234435838017
  0
ARC
  8
1
  6
CONTINUOUS
 62
     7
 10
-131.6491074041617
 20
228.5300087081921
 40
1.000336045069883
 50
293.5279502593244
 51
334.9927119199504
  0
POLYLINE
  8
1
  6
CONTINUOUS
 62
     7
 66
     1
  0
VERTEX
  8
1
  6
CONTINUOUS
 62
     7
 10
-131.2497768707612
 20
227.6128351541904
  0
VERTEX
  8
1
  6
CONTINUOUS
 62
     7
 10
-131.3774437114268
 20
227.5674082313493
  0
VERTEX
  8
1
  6
CONTINUOUS
 62
     7
 10
-131.5119081060737
 20
227.5392467393889
  0
VERTEX
  8
1
  6
CONTINUOUS
 62
     7
 10
-131.6461707788654
 20
227.5297823456495
  0
VERTEX
  8
1
  6
CONTINUOUS
 62
     7
 10
-131.7750608641742
 20
227.5378911189665
  0
VERTEX
  8
1
  6
CONTINUOUS
 62
     7
 10
-131.9028213982746
 20
227.5625659100764
  0
VERTEX
  8
1
  6
CONTINUOUS
 62
     7
 10
-132.0298919290323
 20
227.6051942041917
  0
VERTEX
  8
1
  6
CONTINUOUS
 62
     7
 10
-132.0714748885006
 20
227.6234435838017
  0
SEQEND
  8
1
  6
CONTINUOUS
 62
     7
  0
LINE
  8
1
  6
CONTINUOUS
 62
     7
 10
-130.7425488397233
 20
228.1071331090977
 11
-127.0235081364052
 21
236.0826416350202
  0
POLYLINE
  8
1
  6
CONTINUOUS
 62
     7
 66
     1
  0
VERTEX
  8
1
  6
CONTINUOUS
 62
     7
 10
-127.5071976617011
 20
237.4115676837975
  0
VERTEX
  8
1
  6
CONTINUOUS
 62
     7
 10
-127.3894635862981
 20
237.3465787214263
  0
VERTEX
  8
1
  6
CONTINUOUS
 62
     7
 10
-127.2816132939643
 20
237.2666946487022
  0
VERTEX
  8
1
  6
CONTINUOUS
 62
     7
 10
-127.1866130245068
 20
237.1742482914872
  0
VERTEX
  8
1
  6
CONTINUOUS
 62
     7
 10
-127.1051526871933
 20
237.0707912417627
  0
VERTEX
  8
1
  6
CONTINUOUS
 62
     7
 10
-127.0345629025589
 20
236.9507743944158
  0
VERTEX
  8
1
  6
CONTINUOUS
 62
     7
 10
-126.9929289214408
 20
236.854709804451
  0
VERTEX
  8
1
  6
CONTINUOUS
 62
     7
 10
-126.9616831075428
 20
236.75561808795
  0
VERTEX
  8
1
  6
CONTINUOUS
 62
     7
 10
-126.935416997835
 20
236.6105085476417
  0
VERTEX
  8
1
  6
CONTINUOUS
 62
     7
 10
-126.9305982093571
 20
236.4669232306175
  0
SEQEND
  8
1
  6
CONTINUOUS
 62
     7
  0
ARC
  8
1
  6
CONTINUOUS
 62
     7
 10
-127.9313988854703
 20
236.5055199741198
 40
1.001544657974705
 50
335.0247867445833
 51
357.7914332363005
  0
LINE
  8
1
  6
CONTINUOUS
 62
     7
 10
-127.5071976617011
 20
237.4115676837975
 11
-132.4012597116991
 21
239.6937062971973
  0
ARC
  8
1
  6
CONTINUOUS
 62
     7
 10
-132.8236271960378
 20
238.7871411728067
 40
1.000336045070134
 50
113.5279502593272
 51
154.992711919943
  0
POLYLINE
  8
1
  6
CONTINUOUS
 62
     7
 66
     1
  0
VERTEX
  8
1
  6
CONTINUOUS
 62
     7
 10
-133.2229577294384
 20
239.7043147268086
  0
VERTEX
  8
1
  6
CONTINUOUS
 62
     7
 10
-133.0952908887728
 20
239.7497416496497
  0
VERTEX
  8
1
  6
CONTINUOUS
 62
     7
 10
-132.9608264941259
 20
239.77790314161
  0
VERTEX
  8
1
  6
CONTINUOUS
 62
     7
 10
-132.8265638213342
 20
239.7873675353495
  0
VERTEX
  8
1
  6
CONTINUOUS
 62
     7
 10
-132.6976737360254
 20
239.7792587620324
  0
VERTEX
  8
1
  6
CONTINUOUS
 62
     7
 10
-132.5699132019249
 20
239.7545839709225
  0
VERTEX
  8
1
  6
CONTINUOUS
 62
     7
 10
-132.4428426711673
 20
239.7119556768073
  0
VERTEX
  8
1
  6
CONTINUOUS
 62
     7
 10
-132.4012597116991
 20
239.6937062971973
  0
SEQEND
  8
1
  6
CONTINUOUS
 62
     7
  0
LINE
  8
1
  6
CONTINUOUS
 62
     7
 10
-133.7301857604763
 20
239.2100167719013
 11
-133.8992330651726
 21
238.8474936570867
  0
LINE
  8
1
  6
CONTINUOUS
 62
     9
 10
-133.8992330651726
 20
238.8474936570867
 11
-128.7251250822567
 21
236.434767480532
  0
LINE
  8
1
  6
CONTINUOUS
 62
     7
 10
-126.8977051719351
 20
219.1974654850912
 11
-117.7268888921619
 21
238.8643444637865
  0
LINE
  8
1
  6
CONTINUOUS
 62
     7
 10
-131.260894007013
 20
228.4152592605238
 11
-127.5927323135595
 21
236.2816573976829
  0
LINE
  8
1
  6
CONTINUOUS
 62
     7
 10
-134.2648906629367
 20
229.3083925504806
 11
-133.0866951290203
 21
228.7589789685792
  0
LINE
  8
1
  6
CONTINUOUS
 62
     7
 10
-137.5426074352112
 20
230.8368376539089
 11
-134.2648906629367
 21
229.3083925504806
  0
LINE
  8
1
  6
CONTINUOUS
 62
     7
 10
-133.0866951290203
 20
228.7589789685793
 11
-131.8129078430695
 21
228.1649866218091
  0
LINE
  8
1
  6
CONTINUOUS
 62
     7
 10
-130.2078439371159
 20
238.0087573310731
 11
-133.4855765446366
 21
239.5371684754674
  0
LINE
  8
1
  6
CONTINUOUS
 62
     7
 10
-129.0296392250806
 20
237.4593634314722
 11
-130.2078439371159
 21
238.0087573310731
  0
LINE
  8
1
  6
CONTINUOUS
 62
     7
 10
-127.7558400036001
 20
236.8653966805281
 11
-129.0296392250806
 21
237.4593634314722
  0
POLYLINE
  8
1
  6
CONTINUOUS
 62
     7
 66
     1
  0
VERTEX
  8
1
  6
CONTINUOUS
 62
     7
 10
-127.7558400036001
 20
236.8653966805281
  0
VERTEX
  8
1
  6
CONTINUOUS
 62
     7
 10
-127.7406721885355
 20
236.8579453227803
  0
VERTEX
  8
1
  6
CONTINUOUS
 62
     7
 10
-127.725778593906
 20
236.849860439436
  0
VERTEX
  8
1
  6
CONTINUOUS
 62
     7
 10
-127.7112149456783
 20
236.8411619986404
  0
VERTEX
  8
1
  6
CONTINUOUS
 62
     7
 10
-127.6970369698195
 20
236.8318699685387
  0
VERTEX
  8
1
  6
CONTINUOUS
 62
     7
 10
-127.6833003922966
 20
236.8220043172762
  0
VERTEX
  8
1
  6
CONTINUOUS
 62
     7
 10
-127.6700609390764
 20
236.8115850129979
  0
VERTEX
  8
1
  6
CONTINUOUS
 62
     7
 10
-127.657374336126
 20
236.800632023849
  0
VERTEX
  8
1
  6
CONTINUOUS
 62
     7
 10
-127.6452247689241
 20
236.7891033784365
  0
VERTEX
  8
1
  6
CONTINUOUS
 62
     7
 10
-127.6336331740529
 20
236.7770247915846
  0
VERTEX
  8
1
  6
CONTINUOUS
 62
     7
 10
-127.6226320205914
 20
236.7644468314047
  0
VERTEX
  8
1
  6
CONTINUOUS
 62
     7
 10
-127.6122537776182
 20
236.7514200660079
  0
VERTEX
  8
1
  6
CONTINUOUS
 62
     7
 10
-127.602530914212
 20
236.7379950635056
  0
VERTEX
  8
1
  6
CONTINUOUS
 62
     7
 10
-127.5934958994517
 20
236.724222392009
  0
VERTEX
  8
1
  6
CONTINUOUS
 62
     7
 10
-127.585181202416
 20
236.7101526196294
  0
VERTEX
  8
1
  6
CONTINUOUS
 62
     7
 10
-127.5766269311521
 20
236.6938760121483
  0
VERTEX
  8
1
  6
CONTINUOUS
 62
     7
 10
-127.5689405167895
 20
236.677234445708
  0
VERTEX
  8
1
  6
CONTINUOUS
 62
     7
 10
-127.5621166733161
 20
236.6602945864642
  0
VERTEX
  8
1
  6
CONTINUOUS
 62
     7
 10
-127.5561501147198
 20
236.6431231005728
  0
VERTEX
  8
1
  6
CONTINUOUS
 62
     7
 10
-127.5510355549884
 20
236.6257866541895
  0
VERTEX
  8
1
  6
CONTINUOUS
 62
     7
 10
-127.54676770811
 20
236.6083519134702
  0
VERTEX
  8
1
  6
CONTINUOUS
 62
     7
 10
-127.5425683759046
 20
236.5863491483802
  0
VERTEX
  8
1
  6
CONTINUOUS
 62
     7
 10
-127.539588645437
 20
236.5641996043474
  0
VERTEX
  8
1
  6
CONTINUOUS
 62
     7
 10
-127.5377799372612
 20
236.541971670627
  0
VERTEX
  8
1
  6
CONTINUOUS
 62
     7
 10
-127.5370936719308
 20
236.519733736474
  0
VERTEX
  8
1
  6
CONTINUOUS
 62
     7
 10
-127.5374812699998
 20
236.4975541911434
  0
VERTEX
  8
1
  6
CONTINUOUS
 62
     7
 10
-127.538894152022
 20
236.4755014238904
  0
VERTEX
  8
1
  6
CONTINUOUS
 62
     7
 10
-127.5412837385512
 20
236.4536438239701
  0
VERTEX
  8
1
  6
CONTINUOUS
 62
     7
 10
-127.5460553571361
 20
236.4240180063816
  0
VERTEX
  8
1
  6
CONTINUOUS
 62
     7
 10
-127.5524743303513
 20
236.3946836636855
  0
VERTEX
  8
1
  6
CONTINUOUS
 62
     7
 10
-127.560446085399
 20
236.3657106136748
  0
VERTEX
  8
1
  6
CONTINUOUS
 62
     7
 10
-127.5698760494814
 20
236.3371686741421
  0
VERTEX
  8
1
  6
CONTINUOUS
 62
     7
 10
-127.5806696498008
 20
236.3091276628805
  0
VERTEX
  8
1
  6
CONTINUOUS
 62
     7
 10
-127.5927323135595
 20
236.2816573976829
  0
SEQEND
  8
1
  6
CONTINUOUS
 62
     7
  0
POLYLINE
  8
1
  6
CONTINUOUS
 62
     7
 66
     1
  0
VERTEX
  8
1
  6
CONTINUOUS
 62
     7
 10
-131.260894007013
 20
228.4152592605238
  0
VERTEX
  8
1
  6
CONTINUOUS
 62
     7
 10
-131.2737338950175
 20
228.3892289146288
  0
VERTEX
  8
1
  6
CONTINUOUS
 62
     7
 10
-131.2877715720028
 20
228.3637222870007
  0
VERTEX
  8
1
  6
CONTINUOUS
 62
     7
 10
-131.3030099156067
 20
228.338857135696
  0
VERTEX
  8
1
  6
CONTINUOUS
 62
     7
 10
-131.3194518034666
 20
228.3147512187718
  0
VERTEX
  8
1
  6
CONTINUOUS
 62
     7
 10
-131.3371001132204
 20
228.2915222942845
  0
VERTEX
  8
1
  6
CONTINUOUS
 62
     7
 10
-131.3559577225055
 20
228.2692881202912
  0
VERTEX
  8
1
  6
CONTINUOUS
 62
     7
 10
-131.3760275089598
 20
228.2481664548484
  0
VERTEX
  8
1
  6
CONTINUOUS
 62
     7
 10
-131.3973123502209
 20
228.228275056013
  0
VERTEX
  8
1
  6
CONTINUOUS
 62
     7
 10
-131.4144730951288
 20
228.2139280479369
  0
VERTEX
  8
1
  6
CONTINUOUS
 62
     7
 10
-131.4324395791187
 20
228.2003757512379
  0
VERTEX
  8
1
  6
CONTINUOUS
 62
     7
 10
-131.4511726967591
 20
228.187711685333
  0
VERTEX
  8
1
  6
CONTINUOUS
 62
     7
 10
-131.4706333426188
 20
228.1760293696392
  0
VERTEX
  8
1
  6
CONTINUOUS
 62
     7
 10
-131.4907824112663
 20
228.1654223235736
  0
VERTEX
  8
1
  6
CONTINUOUS
 62
     7
 10
-131.5115807972703
 20
228.1559840665533
  0
VERTEX
  8
1
  6
CONTINUOUS
 62
     7
 10
-131.5270242997361
 20
228.1499360489545
  0
VERTEX
  8
1
  6
CONTINUOUS
 62
     7
 10
-131.5428444972548
 20
228.1445505922403
  0
VERTEX
  8
1
  6
CONTINUOUS
 62
     7
 10
-131.5589931668045
 20
228.1398585871966
  0
VERTEX
  8
1
  6
CONTINUOUS
 62
     7
 10
-131.5754220853633
 20
228.1358909246092
  0
VERTEX
  8
1
  6
CONTINUOUS
 62
     7
 10
-131.5920830299093
 20
228.1326784952642
  0
VERTEX
  8
1
  6
CONTINUOUS
 62
     7
 10
-131.6089277774204
 20
228.1302521899474
  0
VERTEX
  8
1
  6
CONTINUOUS
 62
     7
 10
-131.6259081048749
 20
228.1286428994449
  0
VERTEX
  8
1
  6
CONTINUOUS
 62
     7
 10
-131.6431018784261
 20
228.1278759618577
  0
VERTEX
  8
1
  6
CONTINUOUS
 62
     7
 10
-131.6604468755573
 20
228.1279585687321
  0
VERTEX
  8
1
  6
CONTINUOUS
 62
     7
 10
-131.6778734021509
 20
228.1288812041481
  0
VERTEX
  8
1
  6
CONTINUOUS
 62
     7
 10
-131.6953117640896
 20
228.1306343521858
  0
VERTEX
  8
1
  6
CONTINUOUS
 62
     7
 10
-131.712692267256
 20
228.1332084969254
  0
VERTEX
  8
1
  6
CONTINUOUS
 62
     7
 10
-131.7299452175326
 20
228.1365941224469
  0
VERTEX
  8
1
  6
CONTINUOUS
 62
     7
 10
-131.7470009208021
 20
228.1407817128304
  0
VERTEX
  8
1
  6
CONTINUOUS
 62
     7
 10
-131.763823316703
 20
228.1457469704675
  0
VERTEX
  8
1
  6
CONTINUOUS
 62
     7
 10
-131.7804491506188
 20
228.1514622286691
  0
VERTEX
  8
1
  6
CONTINUOUS
 62
     7
 10
-131.7968276001931
 20
228.157888456196
  0
VERTEX
  8
1
  6
CONTINUOUS
 62
     7
 10
-131.8129078430695
 20
228.1649866218091
  0
SEQEND
  8
1
  6
CONTINUOUS
 62
     7
  0
LINE
  8
1
  6
CONTINUOUS
 62
     7
 10
-107.6920391977876
 20
208.9993777683495
 11
-107.6625421242448
 21
209.1993777683528
  0
POLYLINE
  8
1
  6
CONTINUOUS
 62
     7
 66
     1
  0
VERTEX
  8
1
  6
CONTINUOUS
 62
     7
 10
-109.10890580429
 20
208.9993777683529
  0
VERTEX
  8
1
  6
CONTINUOUS
 62
     7
 10
-109.0962374710455
 20
208.9598302484933
  0
VERTEX
  8
1
  6
CONTINUOUS
 62
     7
 10
-109.0821715466277
 20
208.9207427195625
  0
VERTEX
  8
1
  6
CONTINUOUS
 62
     7
 10
-109.0667155569056
 20
208.8822300646199
  0
VERTEX
  8
1
  6
CONTINUOUS
 62
     7
 10
-109.0474623439095
 20
208.8393082148501
  0
VERTEX
  8
1
  6
CONTINUOUS
 62
     7
 10
-109.0263110430543
 20
208.797197642165
  0
VERTEX
  8
1
  6
CONTINUOUS
 62
     7
 10
-109.0032859401748
 20
208.7560848223578
  0
VERTEX
  8
1
  6
CONTINUOUS
 62
     7
 10
-108.978411321106
 20
208.7161562312222
  0
VERTEX
  8
1
  6
CONTINUOUS
 62
     7
 10
-108.9517114716829
 20
208.6775983445514
  0
VERTEX
  8
1
  6
CONTINUOUS
 62
     7
 10
-108.9232106777402
 20
208.640597638139
  0
VERTEX
  8
1
  6
CONTINUOUS
 62
     7
 10
-108.892933225113
 20
208.6053405877783
  0
VERTEX
  8
1
  6
CONTINUOUS
 62
     7
 10
-108.8686430423544
 20
208.5797176085161
  0
VERTEX
  8
1
  6
CONTINUOUS
 62
     7
 10
-108.8432005530188
 20
208.5551305628699
  0
VERTEX
  8
1
  6
CONTINUOUS
 62
     7
 10
-108.8166534470825
 20
208.5316852563066
  0
VERTEX
  8
1
  6
CONTINUOUS
 62
     7
 10
-108.7890494145217
 20
208.5094874942932
  0
VERTEX
  8
1
  6
CONTINUOUS
 62
     7
 10
-108.7604361453127
 20
208.4886430822966
  0
VERTEX
  8
1
  6
CONTINUOUS
 62
     7
 10
-108.7308613294316
 20
208.4692578257839
  0
VERTEX
  8
1
  6
CONTINUOUS
 62
     7
 10
-108.7003726568548
 20
208.4514375302219
  0
VERTEX
  8
1
  6
CONTINUOUS
 62
     7
 10
-108.6747448290137
 20
208.4380788882694
  0
VERTEX
  8
1
  6
CONTINUOUS
 62
     7
 10
-108.6484348015859
 20
208.4258121651097
  0
VERTEX
  8
1
  6
CONTINUOUS
 62
     7
 10
-108.62152128322
 20
208.4146928916539
  0
VERTEX
  8
1
  6
CONTINUOUS
 62
     7
 10
-108.5940829825648
 20
208.4047765988131
  0
VERTEX
  8
1
  6
CONTINUOUS
 62
     7
 10
-108.5661986082688
 20
208.3961188174981
  0
VERTEX
  8
1
  6
CONTINUOUS
 62
     7
 10
-108.5379468689808
 20
208.38877507862
  0
VERTEX
  8
1
  6
CONTINUOUS
 62
     7
 10
-108.5094064733495
 20
208.3828009130897
  0
VERTEX
  8
1
  6
CONTINUOUS
 62
     7
 10
-108.4840737530754
 20
208.378713411278
  0
VERTEX
  8
1
  6
CONTINUOUS
 62
     7
 10
-108.4584840248683
 20
208.3757130697154
  0
VERTEX
  8
1
  6
CONTINUOUS
 62
     7
 10
-108.4327185785117
 20
208.3738014079143
  0
VERTEX
  8
1
  6
CONTINUOUS
 62
     7
 10
-108.4068587037889
 20
208.3729799453872
  0
VERTEX
  8
1
  6
CONTINUOUS
 62
     7
 10
-108.3809856904837
 20
208.3732502016465
  0
VERTEX
  8
1
  6
CONTINUOUS
 62
     7
 10
-108.3551808283795
 20
208.3746136962046
  0
VERTEX
  8
1
  6
CONTINUOUS
 62
     7
 10
-108.3295254072598
 20
208.3770719485739
  0
VERTEX
  8
1
  6
CONTINUOUS
 62
     7
 10
-108.3041007169081
 20
208.380626478267
  0
VERTEX
  8
1
  6
CONTINUOUS
 62
     7
 10
-108.2733511971934
 20
208.3864492272507
  0
VERTEX
  8
1
  6
CONTINUOUS
 62
     7
 10
-108.2429111365462
 20
208.3938541476203
  0
VERTEX
  8
1
  6
CONTINUOUS
 62
     7
 10
-108.2128852641687
 20
208.4027760517748
  0
VERTEX
  8
1
  6
CONTINUOUS
 62
     7
 10
-108.183378309263
 20
208.413149752113
  0
VERTEX
  8
1
  6
CONTINUOUS
 62
     7
 10
-108.1544950010311
 20
208.424910061034
  0
VERTEX
  8
1
  6
CONTINUOUS
 62
     7
 10
-108.1263400686754
 20
208.4379917909366
  0
VERTEX
  8
1
  6
CONTINUOUS
 62
     7
 10
-108.0966804261791
 20
208.453604411196
  0
VERTEX
  8
1
  6
CONTINUOUS
 62
     7
 10
-108.0678139660001
 20
208.4706816821559
  0
VERTEX
  8
1
  6
CONTINUOUS
 62
     7
 10
-108.0397943862461
 20
208.4891298185529
  0
VERTEX
  8
1
  6
CONTINUOUS
 62
     7
 10
-108.0126753850253
 20
208.5088550351236
  0
VERTEX
  8
1
  6
CONTINUOUS
 62
     7
 10
-107.9865106604455
 20
208.5297635466044
  0
VERTEX
  8
1
  6
CONTINUOUS
 62
     7
 10
-107.9613539106148
 20
208.5517615677318
  0
VERTEX
  8
1
  6
CONTINUOUS
 62
     7
 10
-107.9323629527498
 20
208.5796481487912
  0
VERTEX
  8
1
  6
CONTINUOUS
 62
     7
 10
-107.904709043061
 20
208.60902965549
  0
VERTEX
  8
1
  6
CONTINUOUS
 62
     7
 10
-107.878419273186
 20
208.6397731172071
  0
VERTEX
  8
1
  6
CONTINUOUS
 62
     7
 10
-107.8535207347622
 20
208.6717455633211
  0
VERTEX
  8
1
  6
CONTINUOUS
 62
     7
 10
-107.8300405194272
 20
208.704814023211
  0
VERTEX
  8
1
  6
CONTINUOUS
 62
     7
 10
-107.8080057188185
 20
208.7388455262556
  0
VERTEX
  8
1
  6
CONTINUOUS
 62
     7
 10
-107.7840689312885
 20
208.7797298843151
  0
VERTEX
  8
1
  6
CONTINUOUS
 62
     7
 10
-107.7619562485781
 20
208.8218678310261
  0
VERTEX
  8
1
  6
CONTINUOUS
 62
     7
 10
-107.7416823022801
 20
208.8650804795868
  0
VERTEX
  8
1
  6
CONTINUOUS
 62
     7
 10
-107.7232617239872
 20
208.9091889431954
  0
VERTEX
  8
1
  6
CONTINUOUS
 62
     7
 10
-107.7067091452921
 20
208.9540143350503
  0
VERTEX
  8
1
  6
CONTINUOUS
 62
     7
 10
-107.6920391977876
 20
208.9993777683495
  0
SEQEND
  8
1
  6
CONTINUOUS
 62
     7
  0
LINE
  8
1
  6
CONTINUOUS
 62
     7
 10
-109.138402877827
 20
209.1993777683529
 11
-109.10890580429
 21
208.9993777683529
  0
LINE
  8
1
  6
CONTINUOUS
 62
     7
 10
-107.6625421242448
 20
209.1993777683529
 11
-107.6625421242448
 21
212.3993777683529
  0
LINE
  8
1
  6
CONTINUOUS
 62
     7
 10
-109.138402877827
 20
212.3993777683528
 11
-109.138402877827
 21
209.1993777683528
  0
LINE
  8
1
  6
CONTINUOUS
 62
     7
 10
-108.9415202223511
 20
234.7676597733387
 11
-120.1165451084248
 21
216.0353586163015
  0
POLYLINE
  8
1
  6
CONTINUOUS
 62
     7
 66
     1
  0
VERTEX
  8
1
  6
CONTINUOUS
 62
     7
 10
-115.4058548879522
 20
216.4993777683529
  0
VERTEX
  8
1
  6
CONTINUOUS
 62
     7
 10
-115.3800181634751
 20
216.4986948069851
  0
VERTEX
  8
1
  6
CONTINUOUS
 62
     7
 10
-115.3538939030613
 20
216.4966271110922
  0
VERTEX
  8
1
  6
CONTINUOUS
 62
     7
 10
-115.3275831419864
 20
216.49314646299
  0
VERTEX
  8
1
  6
CONTINUOUS
 62
     7
 10
-115.3011869155263
 20
216.4882246449941
  0
VERTEX
  8
1
  6
CONTINUOUS
 62
     7
 10
-115.2748062589566
 20
216.4818334394205
  0
VERTEX
  8
1
  6
CONTINUOUS
 62
     7
 10
-115.2485422075532
 20
216.4739446285846
  0
VERTEX
  8
1
  6
CONTINUOUS
 62
     7
 10
-115.2224957965917
 20
216.4645299948024
  0
VERTEX
  8
1
  6
CONTINUOUS
 62
     7
 10
-115.196768061348
 20
216.4535613203895
  0
VERTEX
  8
1
  6
CONTINUOUS
 62
     7
 10
-115.1772370608735
 20
216.444039681023
  0
VERTEX
  8
1
  6
CONTINUOUS
 62
     7
 10
-115.1578938624993
 20
216.4335305428165
  0
VERTEX
  8
1
  6
CONTINUOUS
 62
     7
 10
-115.1388133368526
 20
216.4220486281985
  0
VERTEX
  8
1
  6
CONTINUOUS
 62
     7
 10
-115.1200703545606
 20
216.4096086595978
  0
VERTEX
  8
1
  6
CONTINUOUS
 62
     7
 10
-115.1017397862505
 20
216.3962253594432
  0
VERTEX
  8
1
  6
CONTINUOUS
 62
     7
 10
-115.0838965025496
 20
216.3819134501632
  0
VERTEX
  8
1
  6
CONTINUOUS
 62
     7
 10
-115.0666153740851
 20
216.3666876541866
  0
VERTEX
  8
1
  6
CONTINUOUS
 62
     7
 10
-115.0518854719745
 20
216.3524930239816
  0
VERTEX
  8
1
  6
CONTINUOUS
 62
     7
 10
-115.0376009717259
 20
216.3375259399257
  0
VERTEX
  8
1
  6
CONTINUOUS
 62
     7
 10
-115.0238184040084
 20
216.321834114246
  0
VERTEX
  8
1
  6
CONTINUOUS
 62
     7
 10
-115.010594299491
 20
216.3054652591695
  0
VERTEX
  8
1
  6
CONTINUOUS
 62
     7
 10
-114.9979851888429
 20
216.2884670869229
  0
VERTEX
  8
1
  6
CONTINUOUS
 62
     7
 10
-114.9860476027331
 20
216.2708873097334
  0
VERTEX
  8
1
  6
CONTINUOUS
 62
     7
 10
-114.9748380718307
 20
216.2527736398277
  0
VERTEX
  8
1
  6
CONTINUOUS
 62
     7
 10
-114.9644131268047
 20
216.234173789433
  0
VERTEX
  8
1
  6
CONTINUOUS
 62
     7
 10
-114.9547966927746
 20
216.2150905038655
  0
VERTEX
  8
1
  6
CONTINUOUS
 62
     7
 10
-114.9459645730669
 20
216.1954912271782
  0
VERTEX
  8
1
  6
CONTINUOUS
 62
     7
 10
-114.9379467157143
 20
216.1754564527049
  0
VERTEX
  8
1
  6
CONTINUOUS
 62
     7
 10
-114.9307730687497
 20
216.1550666737793
  0
VERTEX
  8
1
  6
CONTINUOUS
 62
     7
 10
-114.9244735802059
 20
216.1344023837354
  0
VERTEX
  8
1
  6
CONTINUOUS
 62
     7
 10
-114.9190781981158
 20
216.1135440759068
  0
VERTEX
  8
1
  6
CONTINUOUS
 62
     7
 10
-114.9146168705122
 20
216.0925722436273
  0
VERTEX
  8
1
  6
CONTINUOUS
 62
     7
 10
-114.9114567912748
 20
216.073990374162
  0
VERTEX
  8
1
  6
CONTINUOUS
 62
     7
 10
-114.9090027154685
 20
216.0553248040243
  0
VERTEX
  8
1
  6
CONTINUOUS
 62
     7
 10
-114.9072524810249
 20
216.0366307210917
  0
VERTEX
  8
1
  6
CONTINUOUS
 62
     7
 10
-114.9062039258756
 20
216.0179633132419
  0
VERTEX
  8
1
  6
CONTINUOUS
 62
     7
 10
-114.9058548879522
 20
215.9993777683529
  0
SEQEND
  8
1
  6
CONTINUOUS
 62
     7
  0
LINE
  8
1
  6
CONTINUOUS
 62
     7
 10
-115.4058548879522
 20
216.4993777683529
 11
-115.5952222423358
 21
216.4993777683529
  0
POLYLINE
  8
1
  6
CONTINUOUS
 62
     7
 66
     1
  0
VERTEX
  8
1
  6
CONTINUOUS
 62
     7
 10
-116.0281843813533
 20
215.9993777683529
  0
VERTEX
  8
1
  6
CONTINUOUS
 62
     7
 10
-116.0285690472471
 20
216.0232652068858
  0
VERTEX
  8
1
  6
CONTINUOUS
 62
     7
 10
-116.0279367335889
 20
216.0469397096342
  0
VERTEX
  8
1
  6
CONTINUOUS
 62
     7
 10
-116.0263227799825
 20
216.0703277679774
  0
VERTEX
  8
1
  6
CONTINUOUS
 62
     7
 10
-116.0237625260318
 20
216.0933558732946
  0
VERTEX
  8
1
  6
CONTINUOUS
 62
     7
 10
-116.0202913113407
 20
216.1159505169652
  0
VERTEX
  8
1
  6
CONTINUOUS
 62
     7
 10
-116.0159444755132
 20
216.1380381903685
  0
VERTEX
  8
1
  6
CONTINUOUS
 62
     7
 10
-116.0107573581531
 20
216.1595453848838
  0
VERTEX
  8
1
  6
CONTINUOUS
 62
     7
 10
-116.0037223976929
 20
216.1837811400083
  0
VERTEX
  8
1
  6
CONTINUOUS
 62
     7
 10
-115.9956247201804
 20
216.2073272521729
  0
VERTEX
  8
1
  6
CONTINUOUS
 62
     7
 10
-115.9865175798634
 20
216.2301360016483
  0
VERTEX
  8
1
  6
CONTINUOUS
 62
     7
 10
-115.9764542309898
 20
216.2521596687049
  0
VERTEX
  8
1
  6
CONTINUOUS
 62
     7
 10
-115.9654879278072
 20
216.2733505336135
  0
VERTEX
  8
1
  6
CONTINUOUS
 62
     7
 10
-115.9536719245636
 20
216.2936608766444
  0
VERTEX
  8
1
  6
CONTINUOUS
 62
     7
 10
-115.9386220187101
 20
216.3165694864867
  0
VERTEX
  8
1
  6
CONTINUOUS
 62
     7
 10
-115.9224186487432
 20
216.3383190868916
  0
VERTEX
  8
1
  6
CONTINUOUS
 62
     7
 10
-115.9051308083587
 20
216.3588602743056
  0
VERTEX
  8
1
  6
CONTINUOUS
 62
     7
 10
-115.8868274912525
 20
216.3781436451751
  0
VERTEX
  8
1
  6
CONTINUOUS
 62
     7
 10
-115.8675776911204
 20
216.3961197959466
  0
VERTEX
  8
1
  6
CONTINUOUS
 62
     7
 10
-115.8474504016582
 20
216.4127393230664
  0
VERTEX
  8
1
  6
CONTINUOUS
 62
     7
 10
-115.8266891627327
 20
216.4278358236465
  0
VERTEX
  8
1
  6
CONTINUOUS
 62
     7
 10
-115.8050448055527
 20
216.4416258840259
  0
VERTEX
  8
1
  6
CONTINUOUS
 62
     7
 10
-115.7825886345926
 20
216.4540598792794
  0
VERTEX
  8
1
  6
CONTINUOUS
 62
     7
 10
-115.759391954327
 20
216.4650881844825
  0
VERTEX
  8
1
  6
CONTINUOUS
 62
     7
 10
-115.7355260692304
 20
216.47466117471
  0
VERTEX
  8
1
  6
CONTINUOUS
 62
     7
 10
-115.7110622837775
 20
216.482729225037
  0
VERTEX
  8
1
  6
CONTINUOUS
 62
     7
 10
-115.6860719024426
 20
216.4892427105387
  0
VERTEX
  8
1
  6
CONTINUOUS
 62
     7
 10
-115.66387921062
 20
216.4936286869272
  0
VERTEX
  8
1
  6
CONTINUOUS
 62
     7
 10
-115.6412965989579
 20
216.4968012382058
  0
VERTEX
  8
1
  6
CONTINUOUS
 62
     7
 10
-115.6183892240114
 20
216.4987282901044
  0
VERTEX
  8
1
  6
CONTINUOUS
 62
     7
 10
-115.5952222423358
 20
216.4993777683529
  0
SEQEND
  8
1
  6
CONTINUOUS
 62
     7
  0
LINE
  8
1
  6
CONTINUOUS
 62
     7
 10
-115.9948288506306
 20
214.7134449143453
 11
-116.0281843813533
 21
215.9993777683529
  0
LINE
  8
1
  6
CONTINUOUS
 62
     7
 10
-114.9058548879522
 20
215.9993777683529
 11
-114.9058548879522
 21
214.7260042615884
  0
LINE
  8
1
  6
CONTINUOUS
 62
     7
 10
-114.9058548879522
 20
214.7291932097029
 11
-114.9058548879522
 21
214.3993777683528
  0
LINE
  8
1
  6
CONTINUOUS
 62
     7
 10
-102.710276702262
 20
207.4993777683529
 11
-114.0906682998094
 21
207.4993777683529
  0
LINE
  8
1
  6
CONTINUOUS
 62
     7
 10
-114.9058548879522
 20
208.9993777683529
 11
-114.9058548879522
 21
207.5248582931294
  0
LINE
  8
1
  6
CONTINUOUS
 62
     7
 10
-114.9058548879522
 20
212.3993777683528
 11
-114.9058548879522
 21
208.9993777683529
  0
ARC
  8
1
  6
CONTINUOUS
 62
     7
 10
-108.9318705463391
 20
212.5610729637212
 40
7.397151454024244
 50
167.3948699000889
 51
181.2525348804899
  0
POLYLINE
  8
1
  6
CONTINUOUS
 62
     7
 66
     1
  0
VERTEX
  8
1
  6
CONTINUOUS
 62
     7
 10
-116.1507301314083
 20
214.175357921474
  0
VERTEX
  8
1
  6
CONTINUOUS
 62
     7
 10
-116.1014562522451
 20
214.2991921060236
  0
VERTEX
  8
1
  6
CONTINUOUS
 62
     7
 10
-116.0261937828732
 20
214.3911022855724
  0
VERTEX
  8
1
  6
CONTINUOUS
 62
     7
 10
-115.9949064666408
 20
214.3993777683528
  0
SEQEND
  8
1
  6
CONTINUOUS
 62
     7
  0
LINE
  8
1
  6
CONTINUOUS
 62
     7
 10
-116.3272545321486
 20
212.3993777683528
 11
-121.2504725010359
 21
212.3993777683528
  0
LINE
  8
1
  6
CONTINUOUS
 62
     7
 10
-115.9949064666408
 20
214.3993777683528
 11
-119.2504725010359
 21
214.3993777683528
  0
LINE
  8
1
  6
CONTINUOUS
 62
     7
 10
-115.6939515011393
 20
207.85644918978
 11
-115.7199519560056
 21
207.5154835692384
  0
LINE
  8
1
  6
CONTINUOUS
 62
     7
 10
-115.7199519225149
 20
207.5154832592055
 11
-115.7229705047652
 21
207.4993777683529
  0
LINE
  8
1
  6
CONTINUOUS
 62
     7
 10
-115.8280405044158
 20
207.5630959635156
 11
-115.8280405044185
 21
207.6081664139675
  0
LINE
  8
1
  6
CONTINUOUS
 62
     7
 10
-115.8280405044185
 20
207.6081664139675
 11
-115.8687286754416
 21
207.7210848074458
  0
ARC
  8
1
  6
CONTINUOUS
 62
     7
 10
-110.5157949621057
 20
208.8948362577927
 40
5.480108740395544
 50
178.9069284977318
 51
192.3676570781361
  0
LINE
  8
1
  6
CONTINUOUS
 62
     7
 10
-115.9949064666408
 20
208.9993777683529
 11
-115.9949064666408
 21
212.3993777683529
  0
LINE
  8
1
  6
CONTINUOUS
 62
     7
 10
-115.9949064666408
 20
212.3993777683528
 11
-116.3272545321486
 21
212.3993777683528
  0
LINE
  8
1
  6
CONTINUOUS
 62
     7
 10
-115.9949064666408
 20
214.3993777683528
 11
-115.9949064666408
 21
214.717019020394
  0
LINE
  8
1
  6
CONTINUOUS
 62
     7
 10
-115.6939515011393
 20
215.9993777683529
 11
-115.6939515011393
 21
207.85644918978
  0
POLYLINE
  8
1
  6
CONTINUOUS
 62
     7
 66
     1
  0
VERTEX
  8
1
  6
CONTINUOUS
 62
     7
 10
-115.3290951861284
 20
216.4934505850266
  0
VERTEX
  8
1
  6
CONTINUOUS
 62
     7
 10
-115.3557575040933
 20
216.4876973050206
  0
VERTEX
  8
1
  6
CONTINUOUS
 62
     7
 10
-115.3821408602163
 20
216.4800019206983
  0
VERTEX
  8
1
  6
CONTINUOUS
 62
     7
 10
-115.4081508561126
 20
216.47036752055
  0
VERTEX
  8
1
  6
CONTINUOUS
 62
     7
 10
-115.4336930933981
 20
216.4587971930662
  0
VERTEX
  8
1
  6
CONTINUOUS
 62
     7
 10
-115.458673173688
 20
216.4452940267374
  0
VERTEX
  8
1
  6
CONTINUOUS
 62
     7
 10
-115.482996698598
 20
216.4298611100539
  0
VERTEX
  8
1
  6
CONTINUOUS
 62
     7
 10
-115.5009599357052
 20
216.416861016938
  0
VERTEX
  8
1
  6
CONTINUOUS
 62
     7
 10
-115.518551435107
 20
216.4026692335163
  0
VERTEX
  8
1
  6
CONTINUOUS
 62
     7
 10
-115.535705284196
 20
216.3872890593144
  0
VERTEX
  8
1
  6
CONTINUOUS
 62
     7
 10
-115.5523555703646
 20
216.3707237938581
  0
VERTEX
  8
1
  6
CONTINUOUS
 62
     7
 10
-115.568436381005
 20
216.3529767366732
  0
VERTEX
  8
1
  6
CONTINUOUS
 62
     7
 10
-115.5838818035098
 20
216.3340511872854
  0
VERTEX
  8
1
  6
CONTINUOUS
 62
     7
 10
-115.5986259252713
 20
216.3139504452205
  0
VERTEX
  8
1
  6
CONTINUOUS
 62
     7
 10
-115.6090872240749
 20
216.2982499937749
  0
VERTEX
  8
1
  6
CONTINUOUS
 62
     7
 10
-115.6191437008168
 20
216.2818236012221
  0
VERTEX
  8
1
  6
CONTINUOUS
 62
     7
 10
-115.6287497411884
 20
216.2646993335299
  0
VERTEX
  8
1
  6
CONTINUOUS
 62
     7
 10
-115.6378597308813
 20
216.2469052566663
  0
VERTEX
  8
1
  6
CONTINUOUS
 62
     7
 10
-115.646428055587
 20
216.2284694365991
  0
VERTEX
  8
1
  6
CONTINUOUS
 62
     7
 10
-115.6544091009969
 20
216.2094199392963
  0
VERTEX
  8
1
  6
CONTINUOUS
 62
     7
 10
-115.6617572528024
 20
216.1897848307255
  0
VERTEX
  8
1
  6
CONTINUOUS
 62
     7
 10
-115.6672572941755
 20
216.1733271320634
  0
VERTEX
  8
1
  6
CONTINUOUS
 62
     7
 10
-115.6723105832688
 20
216.1564359665338
  0
VERTEX
  8
1
  6
CONTINUOUS
 62
     7
 10
-115.676892071926
 20
216.1391621352361
  0
VERTEX
  8
1
  6
CONTINUOUS
 62
     7
 10
-115.6809767119908
 20
216.1215564392696
  0
VERTEX
  8
1
  6
CONTINUOUS
 62
     7
 10
-115.6845394553069
 20
216.1036696797335
  0
VERTEX
  8
1
  6
CONTINUOUS
 62
     7
 10
-115.6875552537182
 20
216.0855526577273
  0
VERTEX
  8
1
  6
CONTINUOUS
 62
     7
 10
-115.6899990590683
 20
216.0672561743502
  0
VERTEX
  8
1
  6
CONTINUOUS
 62
     7
 10
-115.6917185665956
 20
216.0504292802989
  0
VERTEX
  8
1
  6
CONTINUOUS
 62
     7
 10
-115.6929547809515
 20
216.0334695515726
  0
VERTEX
  8
1
  6
CONTINUOUS
 62
     7
 10
-115.6937012448836
 20
216.0164335327358
  0
VERTEX
  8
1
  6
CONTINUOUS
 62
     7
 10
-115.6939515011393
 20
215.9993777683529
  0
SEQEND
  8
1
  6
CONTINUOUS
 62
     7
  0
ARC
  8
1
  6
CONTINUOUS
 62
     7
 10
-99.26038849039402
 20
210.0054107663813
 40
1.810950710255917
 50
340.9425209928781
 51
359.8091245872881
  0
ARC
  8
1
  6
CONTINUOUS
 62
     7
 10
-100.5331173231748
 20
210.8564534366813
 40
3.314687710346531
 50
263.1812189104414
 51
334.2058970694812
  0
POLYLINE
  8
1
  6
CONTINUOUS
 62
     7
 66
     1
  0
VERTEX
  8
1
  6
CONTINUOUS
 62
     7
 10
-100.9266683651189
 20
207.5652116961665
  0
VERTEX
  8
1
  6
CONTINUOUS
 62
     7
 10
-101.4145362305778
 20
207.5325343806686
  0
VERTEX
  8
1
  6
CONTINUOUS
 62
     7
 10
-101.9019498729737
 20
207.5143931455557
  0
SEQEND
  8
1
  6
CONTINUOUS
 62
     7
  0
LINE
  8
1
  6
CONTINUOUS
 62
     9
 10
-96.55047250103593
 20
209.9993777683529
 11
-97.4494478293255
 21
209.9993777683529
  0
LINE
  8
1
  6
CONTINUOUS
 62
     7
 10
-99.05047250103588
 20
207.4993777683529
 11
-102.710276702262
 21
207.4993777683529
  0
LINE
  8
1
  6
CONTINUOUS
 62
     7
 10
-101.9019498729737
 20
207.5143931455557
 11
-102.710276702262
 21
207.4993777683529
  0
LINE
  8
1
  6
CONTINUOUS
 62
     7
 10
-114.0906682998095
 20
207.4993777683529
 11
-114.9058548879521
 21
207.4993777683529
  0
LINE
  8
1
  6
CONTINUOUS
 62
     9
 10
-119.3514971727462
 20
209.9993777683529
 11
-120.2504725010359
 21
209.9993777683529
  0
ARC
  8
1
  6
CONTINUOUS
 62
     7
 10
-116.2227034408875
 20
210.8996602359136
 40
3.359824396790219
 50
204.3394026500195
 51
276.7458429792348
  0
ARC
  8
1
  6
CONTINUOUS
 62
     7
 10
-117.5748429781768
 20
210.0003269325414
 40
1.776654448111323
 50
180.0306098378983
 51
195.8549830577556
  0
LINE
  8
1
  6
CONTINUOUS
 62
     7
 10
-115.7229705047652
 20
207.4993777683529
 11
-117.7504725010359
 21
207.4993777683529
  0
LINE
  8
1
  6
CONTINUOUS
 62
     7
 10
-160.5761049943725
 20
212.3993777683528
 11
-160.0244160348912
 21
212.3993777683528
  0
LINE
  8
1
  6
CONTINUOUS
 62
     7
 10
-151.7490816426725
 20
212.3993777683528
 11
-146.2346194294865
 21
224.2251801474188
  0
LINE
  8
1
  6
CONTINUOUS
 62
     7
 10
-160.0244160348912
 20
212.3993777683528
 11
-151.7490816426725
 21
212.3993777683528
  0
ARC
  8
1
  6
CONTINUOUS
 62
     7
 10
-97.5504725010359
 20
212.3993777683528
 40
2.000000000000002
 50
0.0
 51
90.0
  0
LINE
  8
1
  6
CONTINUOUS
 62
     7
 10
-143.5913577450041
 20
225.161269956204
 11
-129.0904331524177
 21
218.3993777683528
  0
LINE
  8
1
  6
CONTINUOUS
 62
     7
 10
-118.5249766089002
 20
241.0570724442691
 11
-143.9015946459264
 21
252.8903837730087
  0
LINE
  8
1
  6
CONTINUOUS
 62
     7
 10
-129.0904331524177
 20
218.3993777683528
 11
-126.8977051719351
 21
219.1974654850912
  0
LINE
  8
1
  6
CONTINUOUS
 62
     7
 10
-117.7268888921619
 20
238.8643444637865
 11
-118.5249766089002
 21
241.0570724442691
  0
ARC
  8
1
  6
CONTINUOUS
 62
     7
 10
-128.8387666053843
 20
210.1540436541338
 40
31.65012657305989
 50
8.671980437670204
 51
51.04849005484108
  0
ARC
  8
1
  6
CONTINUOUS
 62
     7
 10
-120.7506043963839
 20
214.6758472916081
 40
1.500677765721275
 50
0.0021357762777257
 51
64.9939919888061
  0
LINE
  8
1
  6
CONTINUOUS
 62
     7
 10
-126.8977051719352
 20
219.1974654850912
 11
-120.1165451084249
 21
216.0353586163015
  0
LINE
  8
1
  6
CONTINUOUS
 62
     7
 10
-108.891515959354
 20
234.7443424025628
 11
-108.9415202223511
 21
234.7676597733387
  0
LINE
  8
1
  6
CONTINUOUS
 62
     7
 10
-108.9415202223511
 20
234.7676597733387
 11
-117.726888892162
 21
238.8643444637865
  0
LINE
  8
1
  6
CONTINUOUS
 62
     7
 10
-97.55047250103587
 20
214.3993777683528
 11
-97.55047250103587
 21
214.9761673040938
  0
LINE
  8
1
  6
CONTINUOUS
 62
     9
 10
-97.55047250103587
 20
209.9993777683529
 11
-97.55047250103587
 21
212.3993777683528
  0
ARC
  8
1
  6
CONTINUOUS
 62
     7
 10
-119.2504725010359
 20
212.3993777683528
 40
2.000000000000002
 50
89.99999999999982
 51
180.0
  0
LINE
  8
1
  6
CONTINUOUS
 62
     7
 10
-119.2504725010359
 20
214.6758969357465
 11
-119.2504725010359
 21
214.3993777683528
  0
LINE
  8
1
  6
CONTINUOUS
 62
     9
 10
-119.2504725010359
 20
212.3993777683528
 11
-119.2504725010359
 21
209.9993777683529
  0
ARC
  8
1
  6
CONTINUOUS
 62
     7
 10
-99.05047250103593
 20
209.9993777683529
 40
2.499999999999999
 50
270.0000000000013
 51
0.0
  0
ARC
  8
1
  6
CONTINUOUS
 62
     7
 10
-117.7504725010359
 20
209.9993777683529
 40
2.500000000000002
 50
180.0
 51
269.9999999999989
  0
ARC
  8
1
  6
CONTINUOUS
 62
     7
 10
-144.4365942684855
 20
223.3486543821307
 40
2.0
 50
65.00000000000036
 51
155.0
  0
ENDBLK
  8
0
  0
ENDSEC
  0
SECTION
  2
ENTITIES
  0
LINE
  8
1
  6
CONTINUOUS
 62
     7
 10
-97.55047250103587
 20
212.3993777683528
 11
-97.55047250103587
 21
209.9993777683529
  0
LINE
  8
1
  6
CONTINUOUS
 62
     7
 10
-97.55047250103587
 20
209.9993777683529
 11
-96.55047250103593
 21
209.9993777683529
  0
LINE
  8
1
  6
CONTINUOUS
 62
     7
 10
-119.2504725010359
 20
209.9993777683529
 11
-120.2504725010359
 21
209.9993777683529
  0
TEXT
  8
1
  6
CONTINUOUS
 62
     7
 10
-83.5969967904631
 20
194.9950866991789
 40
3.0
  1
%%UCDE-16FD
  0
LINE
  8
1
  6
CONTINUOUS
 62
     2
 10
-83.51212121212122
 20
194.4371212121212
 11
-69.82121212121213
 21
194.4371212121212
  0
INSERT
  8
1
  6
CONTINUOUS
 62
     7
  2
D_FRAME_VIEW_1658
 10
0.0
 20
0.0
 30
0.0
  0
LINE
  8
1
  6
CONTINUOUS
 62
     7
 10
-149.1843229176851
 20
303.3249999999999
 11
-133.8131261191602
 21
303.3249999999999
  0
LINE
  8
1
  6
CONTINUOUS
 62
     7
 10
-132.1060711761823
 20
229.1843051842388
 11
-132.0945941535057
 21
229.178953360672
  0
ARC
  8
1
  6
CONTINUOUS
 62
     7
 10
-131.8832850226354
 20
229.6321072541903
 40
0.5000000000000205
 50
245.0000000000029
 51
336.0511021694843
  0
POLYLINE
  8
1
  6
CONTINUOUS
 62
     7
 66
     1
  0
VERTEX
  8
1
  6
CONTINUOUS
 62
     7
 10
-128.4757558378766
 20
235.7566754595803
  0
VERTEX
  8
1
  6
CONTINUOUS
 62
     7
 10
-129.4760722308078
 20
233.6768588015118
  0
VERTEX
  8
1
  6
CONTINUOUS
 62
     7
 10
-130.4760900806073
 20
231.5323136019837
  0
VERTEX
  8
1
  6
CONTINUOUS
 62
     7
 10
-131.4263310910844
 20
229.4291464095918
  0
SEQEND
  8
1
  6
CONTINUOUS
 62
     7
  0
ARC
  8
1
  6
CONTINUOUS
 62
     7
 10
-128.9249571904505
 20
235.9762617634468
 40
0.4999999999999977
 50
333.9488978305154
 51
64.99999999999869
  0
LINE
  8
1
  6
CONTINUOUS
 62
     7
 10
-128.7136480595802
 20
236.4294156569651
 11
-133.8992330651726
 21
238.8474936570867
  0
LINE
  8
1
  6
CENTER
 62
     1
 10
-108.4004725010359
 20
222.543714656719
 11
-150.9969384917584
 21
242.406772958532
  0
LINE
  8
1
  6
CENTER
 62
     1
 10
-108.4004725010359
 20
222.543714656719
 11
-108.4004725010359
 21
205.0
  0
LINE
  8
1
  6
CENTER
 62
     1
 10
-89.16666666666667
 20
315.825
 11
-164.1666666666667
 21
315.825
  0
INSERT
  8
1
  6
CONTINUOUS
 62
     7
  2
D_FRAME_VIEW_1490
 10
0.0
 20
0.0
 30
0.0
  0
ENDSEC
  0
EOF
