  0
SECTION
  2
HEADER
  9
$ACADVER
  1
AC1004
  9
$INSBASE
 10
0.0
 20
0.0
  9
$EXTMIN
 10
-183.3333333333333
 20
125.2704545454545
  9
$EXTMAX
 10
-53.90757575757575
 20
260.3333333333334
  9
$LIMMIN
 10
0.0
 20
0.0
  9
$LIMMAX
 10
12.0
 20
9.0
  9
$ORTHOMODE
 70
     0
  9
$REGENMODE
 70
     1
  9
$FILLMODE
 70
     1
  9
$QTEXTMODE
 70
     0
  9
$DRAGMODE
 70
     2
  9
$LTSCALE
 40
1.0
  9
$OSMODE
 70
    37
  9
$ATTMODE
 70
     1
  9
$TEXTSIZE
 40
0.2
  9
$TRACEWID
 40
0.05
  9
$TEXTSTYLE
  7
STANDARD
  9
$CLAYER
  8
0
  9
$CELTYPE
  6
BYLAYER
  9
$CECOLOR
 62
   256
  9
$DIMSCALE
 40
1.0
  9
$DIMASZ
 40
3.0
  9
$DIMEXO
 40
0.0625
  9
$DIMDLI
 40
0.38
  9
$DIMRND
 40
0.0
  9
$DIMDLE
 40
0.0
  9
$DIMEXE
 40
1.5
  9
$DIMTP
 40
0.0
  9
$DIMTM
 40
0.0
  9
$DIMTXT
 40
3.0
  9
$DIMCEN
 40
0.09
  9
$DIMTSZ
 40
0.0
  9
$DIMTOL
 70
     0
  9
$DIMLIM
 70
     0
  9
$DIMTIH
 70
     1
  9
$DIMTOH
 70
     1
  9
$DIMSE1
 70
     0
  9
$DIMSE2
 70
     0
  9
$DIMTAD
 70
     1
  9
$DIMZIN
 70
     0
  9
$DIMBLK
  1

  9
$DIMASO
 70
     1
  9
$DIMSHO
 70
     1
  9
$DIMPOST
  1

  9
$DIMAPOST
  1

  9
$DIMALT
 70
     0
  9
$DIMALTD
 70
     2
  9
$DIMALTF
 40
25.4
  9
$DIMLFAC
 40
1.0
  9
$DIMTOFL
 70
     0
  9
$DIMTVP
 40
0.0
  9
$DIMTIX
 70
     0
  9
$DIMSOXD
 70
     0
  9
$DIMSAH
 70
     0
  9
$DIMBLK1
  1

  9
$DIMBLK2
  1

  9
$LUNITS
 70
     2
  9
$LUPREC
 70
     4
  9
$SKETCHINC
 40
0.1
  9
$FILLETRAD
 40
0.5
  9
$AUNITS
 70
     0
  9
$AUPREC
 70
     0
  9
$MENU
  1
.
  9
$ELEVATION
 40
0.0
  9
$THICKNESS
 40
0.0
  9
$LIMCHECK
 70
     0
  9
$CHAMFERA
 40
0.0
  9
$CHAMFERB
 40
0.0
  9
$SKPOLY
 70
     0
  9
$TDCREATE
 40
2459093.456513264
  9
$TDUPDATE
 40
2459093.456513484
  9
$TDINDWG
 40
0.0000000116
  9
$TDUSRTIMER
 40
0.0000000116
  9
$USRTIMER
 70
     1
  9
$ANGBASE
 50
0.0
  9
$ANGDIR
 70
     0
  9
$PDMODE
 70
     0
  9
$PDSIZE
 40
0.0
  9
$PLINEWID
 40
0.0
  9
$COORDS
 70
     1
  9
$SPLFRAME
 70
     0
  9
$SPLINETYPE
 70
     6
  9
$SPLINESEGS
 70
     8
  9
$ATTDIA
 70
     0
  9
$ATTREQ
 70
     1
  9
$SURFTAB1
 70
     6
  9
$SURFTAB2
 70
     6
  9
$SURFTYPE
 70
     6
  9
$SURFU
 70
     6
  9
$SURFV
 70
     6
  9
$UCSNAME
  2

  9
$UCSORG
 10
0.0
 20
0.0
 30
0.0
  9
$UCSXDIR
 10
1.0
 20
0.0
 30
0.0
  9
$UCSYDIR
 10
0.0
 20
1.0
 30
0.0
  9
$USERI1
 70
     0
  9
$USERI2
 70
     0
  9
$USERI3
 70
     0
  9
$USERI4
 70
     0
  9
$USERI5
 70
     0
  9
$USERR1
 40
0.0
  9
$USERR2
 40
0.0
  9
$USERR3
 40
0.0
  9
$USERR4
 40
0.0
  9
$USERR5
 40
0.0
  9
$WORLDVIEW
 70
     1
  0
ENDSEC
  0
SECTION
  2
TABLES
  0
TABLE
  2
LTYPE
 70
     2
  0
LTYPE
  2
CONTINUOUS
 70
     0
  3
Solid line
 72
    65
 73
     0
 40
0.0
  0
LTYPE
  2
CENTER
 70
     0
  3

 72
    65
 73
     0
 40
0.0
  0
ENDTAB
  0
TABLE
  2
LAYER
 70
     2
  0
LAYER
  2
0
 70
     0
 62
     7
  6
CONTINUOUS
  0
LAYER
  2
1
 70
     0
 62
     7
  6
CONTINUOUS
  0
ENDTAB
  0
TABLE
  2
STYLE
 70
     2
  0
STYLE
  2
STANDARD
 70
     0
 40
0.0
 41
1.0
 50
0.0
 71
     0
 42
0.2
  3
txt
  4

  0
STYLE
  2
ＭＳ_ゴシック
 70
     0
 40
0.0
 41
1.0
 50
0.0
 71
     0
 42
0.2
  3
ＭＳ ゴシック.shx
  4

  0
ENDTAB
  0
TABLE
  2
VIEW
 70
     0
  0
ENDTAB
  0
ENDSEC
  0
SECTION
  2
BLOCKS
  0
BLOCK
  8
0
  2
D_FRAME_VIEW_1490
 70
     0
 10
0.0
 20
0.0
  0
LINE
  8
0
  6
CONTINUOUS
 62
     7
 10
-116.6333333333333
 20
139.2870247272391
 11
-116.6333333333333
 21
141.7870247272391
  0
LINE
  8
0
  6
CONTINUOUS
 62
     7
 10
-130.0333333333333
 20
141.7870247272391
 11
-130.0333333333333
 21
139.2870247272391
  0
LINE
  8
1
  6
CONTINUOUS
 62
     7
 10
-116.6333333333333
 20
141.7870247272391
 11
-130.0333333333333
 21
141.7870247272391
  0
LINE
  8
1
  6
CONTINUOUS
 62
     7
 10
-116.6333333333333
 20
139.2870247272391
 11
-130.0333333333333
 21
139.2870247272391
  0
LINE
  8
0
  6
CONTINUOUS
 62
     7
 10
-116.6333333333334
 20
134.0252318313109
 11
-116.6333333333333
 21
133.9908922972206
  0
LINE
  8
0
  6
CONTINUOUS
 62
     7
 10
-130.0333333333333
 20
133.9908922972206
 11
-130.0333333333333
 21
134.0252318313108
  0
LINE
  8
0
  6
CONTINUOUS
 62
     7
 10
-130.0333333333333
 20
136.7870247272391
 11
-130.0333333333333
 21
134.0752418313108
  0
LINE
  8
0
  6
CONTINUOUS
 62
     7
 10
-130.0333333333333
 20
134.0752418313108
 11
-130.0333333333333
 21
134.0252318313108
  0
LINE
  8
0
  6
CONTINUOUS
 62
     7
 10
-116.6333333333334
 20
134.0252318313109
 11
-116.6333333333334
 21
134.0752418313109
  0
LINE
  8
0
  6
CONTINUOUS
 62
     7
 10
-116.6333333333334
 20
134.0752418313109
 11
-116.6333333333334
 21
136.7870247272391
  0
LINE
  8
1
  6
CONTINUOUS
 62
     7
 10
-107.4333333333333
 20
139.2870247272391
 11
-115.1333333333333
 21
139.2870247272391
  0
LINE
  8
1
  6
CONTINUOUS
 62
     7
 10
-109.9333333333333
 20
141.7870247272391
 11
-115.1333333333333
 21
141.7870247272391
  0
LINE
  8
0
  6
CONTINUOUS
 62
     7
 10
-115.1333333333333
 20
141.7870247272391
 11
-115.1333333333333
 21
139.2870247272391
  0
LINE
  8
1
  6
CONTINUOUS
 62
     7
 10
-131.5333333333333
 20
141.7870247272391
 11
-136.7333333333333
 21
141.7870247272391
  0
LINE
  8
1
  6
CONTINUOUS
 62
     7
 10
-131.5333333333333
 20
139.2870247272391
 11
-139.2333333333333
 21
139.2870247272391
  0
LINE
  8
0
  6
CONTINUOUS
 62
     7
 10
-131.5333333333333
 20
139.2870247272391
 11
-131.5333333333333
 21
141.7870247272391
  0
LINE
  8
0
  6
CONTINUOUS
 62
     7
 10
-116.6333333333334
 20
136.7870247272391
 11
-116.6333333333333
 21
139.2870247272391
  0
LINE
  8
0
  6
CONTINUOUS
 62
     7
 10
-130.0333333333333
 20
139.2870247272391
 11
-130.0333333333333
 21
136.7870247272391
  0
ARC
  8
1
  6
CONTINUOUS
 62
     7
 10
-130.7833333333334
 20
142.537024727239
 40
0.7500000000000562
 50
0.0000000000042064
 51
89.9999999999958
  0
ARC
  8
1
  6
CONTINUOUS
 62
     7
 10
-130.7832369654578
 20
142.5369283593636
 40
0.7500963740659241
 50
90.0073610175375
 51
179.9926389824625
  0
ARC
  8
1
  6
CONTINUOUS
 62
     7
 10
-115.883423193712
 20
142.5369348668604
 40
0.75008986576128
 50
0.0068640048217503
 51
89.99313599517824
  0
ARC
  8
1
  6
CONTINUOUS
 62
     7
 10
-115.8833061175672
 20
142.5369975114729
 40
0.7500272162599637
 50
90.00207905593959
 51
179.9979209440594
  0
LINE
  8
0
  6
CONTINUOUS
 62
     7
 10
-131.5333333333333
 20
142.5370247272391
 11
-131.5333333333333
 21
141.7870247272391
  0
LINE
  8
0
  6
CONTINUOUS
 62
     7
 10
-115.1333333333333
 20
141.7870247272391
 11
-115.1333333333333
 21
142.5370247272391
  0
LINE
  8
0
  6
CONTINUOUS
 62
     7
 10
-116.6333333333333
 20
142.5370247272391
 11
-116.6333333333333
 21
141.7870247272391
  0
LINE
  8
0
  6
CONTINUOUS
 62
     7
 10
-130.0333333333333
 20
141.7870247272391
 11
-130.0333333333333
 21
142.5370247272391
  0
LINE
  8
1
  6
CONTINUOUS
 62
     7
 10
-116.6333333333333
 20
133.2870247272391
 11
-130.0333333333333
 21
133.2870247272391
  0
LINE
  8
0
  6
CONTINUOUS
 62
     7
 10
-116.6333333333333
 20
133.2870247272391
 11
-116.6333333333333
 21
133.8908098638264
  0
LINE
  8
0
  6
CONTINUOUS
 62
     7
 10
-116.6333333333333
 20
133.8908098638264
 11
-116.6333333333333
 21
133.9908922972206
  0
LINE
  8
0
  6
CONTINUOUS
 62
     7
 10
-130.0333333333333
 20
133.9908922972206
 11
-130.0333333333333
 21
133.8907629172476
  0
LINE
  8
0
  6
CONTINUOUS
 62
     7
 10
-130.0333333333333
 20
133.8907629172476
 11
-130.0333333333333
 21
133.2870247272391
  0
LINE
  8
0
  6
CONTINUOUS
 62
     7
 10
-72.18690347797873
 20
139.2870247272391
 11
-69.74535430045582
 21
139.2870247272391
  0
LINE
  8
0
  6
CONTINUOUS
 62
     7
 10
-174.4797631886879
 20
139.2870247272391
 11
-176.9213123662108
 21
139.2870247272391
  0
LINE
  8
1
  6
CONTINUOUS
 62
     7
 10
-153.2280066808347
 20
181.8418059930463
 11
-167.5674175896108
 21
161.3630048858215
  0
LINE
  8
1
  6
CONTINUOUS
 62
     7
 10
-151.223889260581
 20
160.2957271533633
 11
-151.4533198351214
 21
159.9680663356477
  0
ARC
  8
1
  6
CONTINUOUS
 62
     7
 10
-150.6341323677193
 20
159.3944961453472
 40
1.000025434651489
 50
145.0014572425861
 51
234.9985427574136
  0
LINE
  8
1
  6
CONTINUOUS
 62
     7
 10
-146.784323188023
 20
155.4780250987121
 11
-151.2077442271834
 21
158.5753378550077
  0
ARC
  8
1
  6
CONTINUOUS
 62
     7
 10
-146.2107775807333
 20
156.2973519832961
 40
1.000125545840852
 50
235.0071918924947
 51
324.9928081075027
  0
LINE
  8
1
  6
CONTINUOUS
 62
     7
 10
-140.3441220674937
 20
162.9321386963931
 11
-145.3915947073829
 21
155.72360070665
  0
ARC
  8
1
  6
CONTINUOUS
 62
     7
 10
-141.1633095348958
 20
163.5057088866936
 40
1.000025434651542
 50
325.0014572425901
 51
54.99854275740836
  0
LINE
  8
1
  6
CONTINUOUS
 62
     7
 10
-145.0131187145921
 20
167.4221799333288
 11
-140.5896976754316
 21
164.3248671770332
  0
ARC
  8
1
  6
CONTINUOUS
 62
     7
 10
-145.5866643218818
 20
166.6028530487446
 40
1.000125545840966
 50
55.00719189249931
 51
144.9928081074993
  0
LINE
  8
1
  6
CONTINUOUS
 62
     7
 10
-146.6352777697726
 20
166.8489435076752
 11
-146.4058471952322
 21
167.1766043253908
  0
LINE
  8
1
  6
CONTINUOUS
 62
     9
 10
-146.6352777697726
 20
166.8489435076752
 11
-141.9587091380064
 21
163.5743748987574
  0
LINE
  8
1
  6
CONTINUOUS
 62
     9
 10
-151.223889260581
 20
160.2957271533633
 11
-146.5473206288148
 21
157.0211585444455
  0
LINE
  8
1
  6
CONTINUOUS
 62
     7
 10
-93.438659985832
 20
181.8418059930463
 11
-79.09924907705587
 21
161.3630048858215
  0
LINE
  8
1
  6
CONTINUOUS
 62
     7
 10
-116.7801169790214
 20
163.4836637821609
 11
-104.3335083102037
 21
145.7080644210898
  0
LINE
  8
1
  6
CONTINUOUS
 62
     7
 10
-129.8865496876453
 20
163.4836637821609
 11
-142.333158356463
 21
145.7080644210898
  0
LINE
  8
1
  6
CONTINUOUS
 62
     7
 10
-140.8698875053315
 20
163.2273359117039
 11
-145.848811722692
 21
156.1166952149605
  0
LINE
  8
0
  6
CONTINUOUS
 62
     7
 10
-142.326462127261
 20
164.8083700395285
 11
-146.108146815139
 21
167.4563087114584
  0
LINE
  8
0
  6
CONTINUOUS
 62
     7
 10
-141.2615582415096
 20
164.0627295670288
 11
-142.326462127261
 21
164.8083700395285
  0
LINE
  8
0
  6
CONTINUOUS
 62
     7
 10
-140.9289561007714
 20
163.8298437130443
 11
-141.2615582415096
 21
164.0627295670288
  0
LINE
  8
0
  6
CONTINUOUS
 62
     7
 10
-146.7677842573763
 20
156.1990238577973
 11
-146.4351865070559
 21
155.9661317336463
  0
LINE
  8
0
  6
CONTINUOUS
 62
     7
 10
-147.8326756867764
 20
156.9446821198102
 11
-146.7677842573763
 21
156.1990238577973
  0
LINE
  8
0
  6
CONTINUOUS
 62
     7
 10
-151.6143364560416
 20
159.5926549510642
 11
-147.8326756867764
 21
156.9446821198102
  0
LINE
  8
1
  6
CONTINUOUS
 62
     7
 10
-123.3333333333333
 20
158.8950522913526
 11
-123.3333333333333
 21
151.1870878007205
  0
ARC
  8
1
  6
CONTINUOUS
 62
     7
 10
-146.2133984059262
 20
156.3194805296678
 40
0.4171874080705672
 50
237.8845475142384
 51
330.9169239233127
  0
ARC
  8
1
  6
CONTINUOUS
 62
     7
 10
-141.1828043144036
 20
163.5008075880102
 40
0.4155763313059275
 50
318.8483702164281
 51
52.35015834602655
  0
LINE
  8
1
  6
CONTINUOUS
 62
     7
 10
-110.9333333333334
 20
133.2870247272391
 11
-115.1333333333334
 21
133.2870247272391
  0
LINE
  8
0
  6
CONTINUOUS
 62
     7
 10
-115.1333333333333
 20
134.2870247272391
 11
-115.1333333333333
 21
133.2870247272391
  0
LINE
  8
1
  6
CONTINUOUS
 62
     7
 10
-131.5333333333333
 20
133.2870247272391
 11
-135.7333333333333
 21
133.2870247272391
  0
LINE
  8
0
  6
CONTINUOUS
 62
     7
 10
-131.5333333333333
 20
133.2870247272391
 11
-131.5333333333333
 21
134.2870247272391
  0
LINE
  8
0
  6
CONTINUOUS
 62
     7
 10
-131.5333333333333
 20
134.2870247272391
 11
-131.5333333333333
 21
139.2870247272391
  0
LINE
  8
0
  6
CONTINUOUS
 62
     7
 10
-115.1333333333333
 20
139.2870247272391
 11
-115.1333333333333
 21
134.2870247272391
  0
LINE
  8
0
  6
CONTINUOUS
 62
     7
 10
-146.767838143928
 20
156.1989468998259
 11
-147.8327358015036
 21
156.9445962670823
  0
POLYLINE
  8
1
  6
CONTINUOUS
 62
     7
 10
0.0
 20
0.0
 30
0.0
 66
     1
 70
     8
  0
VERTEX
  8
1
  6
CONTINUOUS
 62
     7
 10
-146.767838143928
 20
156.1989468998259
 30
0.0
 70
    32
  0
VERTEX
  8
1
  6
CONTINUOUS
 62
     7
 10
-146.7677842573763
 20
156.1990238577973
 30
0.0
 70
    32
  0
SEQEND
  8
1
  6
CONTINUOUS
 62
     7
  0
LINE
  8
1
  6
CONTINUOUS
 62
     7
 10
-147.8327358015036
 20
156.9445962670823
 11
-147.8326756867763
 21
156.9446821198103
  0
LINE
  8
0
  6
CONTINUOUS
 62
     7
 10
-142.3264020125336
 20
164.8084558922566
 11
-141.261504354958
 21
164.0628065250002
  0
POLYLINE
  8
1
  6
CONTINUOUS
 62
     7
 10
0.0
 20
0.0
 30
0.0
 66
     1
 70
     8
  0
VERTEX
  8
1
  6
CONTINUOUS
 62
     7
 10
-141.2615582415098
 20
164.0627295670286
 30
0.0
 70
    32
  0
VERTEX
  8
1
  6
CONTINUOUS
 62
     7
 10
-141.261504354958
 20
164.0628065250002
 30
0.0
 70
    32
  0
SEQEND
  8
1
  6
CONTINUOUS
 62
     7
  0
LINE
  8
1
  6
CONTINUOUS
 62
     7
 10
-142.326462127261
 20
164.8083700395285
 11
-142.3264020125336
 21
164.8084558922566
  0
LINE
  8
0
  6
CONTINUOUS
 62
     7
 10
-73.40767806674019
 20
139.2870247272391
 11
-72.18690347797873
 21
139.2870247272391
  0
LINE
  8
0
  6
CONTINUOUS
 62
     7
 10
-174.4797631886879
 20
139.2870247272391
 11
-173.2589885999265
 21
139.2870247272391
  0
LINE
  8
1
  6
CONTINUOUS
 62
     7
 10
-157.470744657564
 20
153.1177398653769
 11
-157.4014572130726
 21
153.2058070929756
  0
LINE
  8
1
  6
CONTINUOUS
 62
     7
 10
-89.26520945359404
 20
153.2058070929756
 11
-89.19592200910262
 21
153.1177398653769
  0
LINE
  8
1
  6
CONTINUOUS
 62
     7
 10
-89.19592200910262
 20
153.1177398653769
 11
-79.51155101054738
 21
139.2870247272391
  0
LINE
  8
0
  6
CONTINUOUS
 62
     7
 10
-79.51155101054738
 20
139.2870247272391
 11
-73.40767806674017
 21
139.2870247272391
  0
LINE
  8
1
  6
CONTINUOUS
 62
     7
 10
-157.470744657564
 20
153.1177398653769
 11
-167.1551156561193
 21
139.2870247272391
  0
LINE
  8
0
  6
CONTINUOUS
 62
     7
 10
-167.1551156561193
 20
139.2870247272391
 11
-173.2589885999265
 21
139.2870247272391
  0
ARC
  8
1
  6
CONTINUOUS
 62
     7
 10
-109.9333333333333
 20
139.2870247272391
 40
2.499999999999999
 50
0.0
 51
90.0
  0
ARC
  8
1
  6
CONTINUOUS
 62
     7
 10
-136.7333333333333
 20
139.2870247272391
 40
2.499999999999999
 50
90.0
 51
180.0
  0
LINE
  8
1
  6
CONTINUOUS
 62
     7
 10
-156.0992889695649
 20
153.3329347769069
 11
-144.631160349519
 21
145.3028646679922
  0
LINE
  8
1
  6
CONTINUOUS
 62
     7
 10
-167.5674175896108
 20
161.3630048858215
 11
-164.2908094124548
 21
159.0686991404173
  0
LINE
  8
1
  6
CONTINUOUS
 62
     7
 10
-130.2917494407429
 20
165.781665775217
 11
-153.2280066808347
 21
181.8418059930463
  0
LINE
  8
1
  6
CONTINUOUS
 62
     7
 10
-93.438659985832
 20
181.8418059930463
 11
-116.3749172259238
 21
165.781665775217
  0
LINE
  8
1
  6
CONTINUOUS
 62
     7
 10
-82.37585725421185
 20
159.0686991404173
 11
-79.09924907705587
 21
161.3630048858215
  0
LINE
  8
1
  6
CONTINUOUS
 62
     7
 10
-102.0355063171477
 20
145.3028646679922
 11
-90.56737769710175
 21
153.3329347769069
  0
LINE
  8
1
  6
CONTINUOUS
 62
     7
 10
-116.3749172259238
 20
165.781665775217
 11
-116.7801169790214
 21
163.4836637821609
  0
LINE
  8
1
  6
CONTINUOUS
 62
     7
 10
-104.3335083102037
 20
145.7080644210898
 11
-102.0355063171476
 21
145.3028646679922
  0
LINE
  8
1
  6
CONTINUOUS
 62
     7
 10
-144.631160349519
 20
145.3028646679922
 11
-142.333158356463
 21
145.7080644210898
  0
LINE
  8
1
  6
CONTINUOUS
 62
     7
 10
-129.8865496876453
 20
163.4836637821609
 11
-130.2917494407429
 21
165.781665775217
  0
ARC
  8
1
  6
CONTINUOUS
 62
     7
 10
-164.8643858480705
 20
158.2495470962582
 40
0.9999999994721477
 50
325.000000051033
 51
55.00000003024331
  0
ARC
  8
1
  6
CONTINUOUS
 62
     7
 10
-81.80248556430678
 20
158.2495832524234
 40
0.9998530423013189
 50
124.9915774244732
 51
214.9878794036997
  0
LINE
  8
1
  6
CONTINUOUS
 62
     7
 10
-142.3331583564629
 20
145.7080644210898
 11
-136.7333333333333
 21
141.7870247272391
  0
LINE
  8
1
  6
CONTINUOUS
 62
     7
 10
-123.3333333333333
 20
158.8950522913526
 11
-129.8865496876452
 21
163.4836637821609
  0
LINE
  8
1
  6
CONTINUOUS
 62
     7
 10
-116.7801169790214
 20
163.4836637821609
 11
-123.3333333333333
 21
158.8950522913525
  0
LINE
  8
1
  6
CONTINUOUS
 62
     7
 10
-109.9333333333333
 20
141.7870247272391
 11
-104.3335083102037
 21
145.7080644210898
  0
ARC
  8
1
  6
CONTINUOUS
 62
     7
 10
-110.9333333333333
 20
134.2870247272391
 40
0.9999999999999974
 50
270.0000000000002
 51
359.9999999999998
  0
ARC
  8
1
  6
CONTINUOUS
 62
     7
 10
-135.7333333333333
 20
134.2870247272391
 40
0.9999999999999991
 50
180.0000000000001
 51
269.9999999999998
  0
LINE
  8
1
  6
CONTINUOUS
 62
     7
 10
-136.7333333333333
 20
139.2870247272391
 11
-136.7333333333333
 21
134.2870247272391
  0
LINE
  8
1
  6
CONTINUOUS
 62
     7
 10
-109.9333333333333
 20
134.2870247272391
 11
-109.9333333333333
 21
139.2870247272391
  0
ARC
  8
1
  6
CONTINUOUS
 62
     7
 10
-156.672865405916
 20
152.5137827326179
 40
0.9999999999999989
 50
54.99999999999965
 51
145.0000000000003
  0
ARC
  8
1
  6
CONTINUOUS
 62
     7
 10
-89.99380126075069
 20
152.5137827326179
 40
0.9999999999999998
 50
34.99999999999984
 51
125.0000000000004
  0
ENDBLK
  8
0
  0
BLOCK
  8
0
  2
D_FRAME_VIEW_1745
 70
     0
 10
0.0
 20
0.0
  0
ARC
  8
1
  6
CONTINUOUS
 62
     7
 10
-109.2052117715357
 20
249.3453383926728
 40
3.987994940660572
 50
90.0000000000002
 51
100.2418546316694
  0
ARC
  8
1
  6
CONTINUOUS
 62
     7
 10
-109.0342561012884
 20
248.3991729965603
 40
4.949480664938548
 50
100.2418546316633
 51
108.490265914024
  0
ARC
  8
1
  6
CONTINUOUS
 62
     7
 10
-109.3291981069291
 20
249.2811596735205
 40
4.01948535041987
 50
108.4902659140238
 51
119.3764515128362
  0
ARC
  8
1
  6
CONTINUOUS
 62
     7
 10
-106.9007249965567
 20
244.9671694680794
 40
8.970040181996234
 50
119.3764515128409
 51
124.2486975520502
  0
ARC
  8
1
  6
CONTINUOUS
 62
     7
 10
-108.7594930590176
 20
247.6972694192536
 40
5.667243722414431
 50
124.2486975520502
 51
142.4765032375581
  0
ARC
  8
1
  6
CONTINUOUS
 62
     7
 10
-99.05553716156233
 20
240.2448375028127
 40
17.90266367961017
 50
142.4765032375585
 51
147.9091022136785
  0
ARC
  8
1
  6
CONTINUOUS
 62
     7
 10
-86.26895453144392
 20
232.3213282739957
 40
3.987994940662376
 50
270.0
 51
280.2418546316646
  0
ARC
  8
1
  6
CONTINUOUS
 62
     7
 10
-86.43991020169203
 20
233.2674936701086
 40
4.949480664940896
 50
280.2418546316675
 51
288.4902659140241
  0
ARC
  8
1
  6
CONTINUOUS
 62
     7
 10
-86.1449681960502
 20
232.3855069931451
 40
4.01948535041879
 50
288.4902659140239
 51
299.3764515128396
  0
ARC
  8
1
  6
CONTINUOUS
 62
     7
 10
-88.5734413064202
 20
236.6994971985834
 40
8.970040181991454
 50
299.3764515128383
 51
304.24869755205
  0
ARC
  8
1
  6
CONTINUOUS
 62
     7
 10
-86.71467324396217
 20
233.9693972474132
 40
5.667243722414623
 50
304.24869755205
 51
322.476503237557
  0
ARC
  8
1
  6
CONTINUOUS
 62
     7
 10
-96.41862914141733
 20
241.421829163854
 40
17.90266367961019
 50
322.4765032375585
 51
328.2247814314853
  0
ARC
  8
1
  6
CONTINUOUS
 62
     7
 10
-89.51664389224617
 20
237.1465487427708
 40
9.783832294572482
 50
328.2247814314852
 51
341.0055430585916
  0
ARC
  8
1
  6
CONTINUOUS
 62
     7
 10
-104.4465946491549
 20
242.28572746544
 40
25.57353107406962
 50
341.0055430585924
 51
345.8865068053647
  0
ARC
  8
1
  6
CONTINUOUS
 62
     7
 10
-96.09755536607335
 20
240.1865033683119
 40
16.9646287770052
 50
345.8865068053645
 51
354.0391179736545
  0
ARC
  8
1
  6
CONTINUOUS
 62
     7
 10
-102.292413654325
 20
240.8333333333334
 40
23.19316457726917
 50
354.0391179736538
 51
359.9999999999999
  0
ARC
  8
1
  6
CONTINUOUS
 62
     7
 10
-102.292413654325
 20
240.8333333333333
 40
23.19316457726917
 50
0.0000000000000686
 51
5.960882026346222
  0
ARC
  8
1
  6
CONTINUOUS
 62
     7
 10
-96.09755536607294
 20
241.4801632983548
 40
16.96462877700478
 50
5.960882026345358
 51
14.11349319463545
  0
ARC
  8
1
  6
CONTINUOUS
 62
     7
 10
-104.4465946491558
 20
239.3809392012265
 40
25.57353107407056
 50
14.11349319463546
 51
18.99445694140765
  0
ARC
  8
1
  6
CONTINUOUS
 62
     7
 10
-89.51664389224585
 20
244.520117923896
 40
9.783832294572138
 50
18.99445694140815
 51
31.77521856851506
  0
ARC
  8
1
  6
CONTINUOUS
 62
     7
 10
-96.41862914141528
 20
240.2448375028139
 40
17.90266367960781
 50
31.77521856851489
 51
37.52349676244226
  0
ARC
  8
1
  6
CONTINUOUS
 62
     7
 10
-86.71467324396208
 20
247.6972694192536
 40
5.667243722414424
 50
37.52349676244198
 51
55.75130244795
  0
ARC
  8
1
  6
CONTINUOUS
 62
     7
 10
-88.57344130642399
 20
244.9671694680777
 40
8.970040181998165
 50
55.75130244794993
 51
60.62354848715805
  0
ARC
  8
1
  6
CONTINUOUS
 62
     7
 10
-86.14496819605058
 20
249.2811596735204
 40
4.019485350419963
 50
60.62354848716381
 51
71.50973408597602
  0
ARC
  8
1
  6
CONTINUOUS
 62
     7
 10
-86.4399102016912
 20
248.3991729965606
 40
4.94948066493832
 50
71.50973408597586
 51
79.75814536833681
  0
ARC
  8
1
  6
CONTINUOUS
 62
     7
 10
-86.26895453144392
 20
249.3453383926728
 40
3.987994940660572
 50
79.75814536833069
 51
90.00000000000004
  0
ARC
  8
1
  6
CONTINUOUS
 62
     7
 10
-99.78103852244826
 20
249.3650124818306
 40
3.968017389270218
 50
89.86957271039618
 51
93.9464960132319
  0
ARC
  8
1
  6
CONTINUOUS
 62
     7
 10
-99.78103852244816
 20
249.3650124818295
 40
3.968017389271388
 50
93.94649601323218
 51
104.224712046312
  0
ARC
  8
1
  6
CONTINUOUS
 62
     7
 10
-99.54360940071928
 20
248.4284005950559
 40
4.934254634615637
 50
104.2247120463142
 51
104.5940277546803
  0
ARC
  8
1
  6
CONTINUOUS
 62
     7
 10
-86.26895453144392
 20
249.3453383926728
 40
3.987994940660572
 50
90.0
 51
100.2418546316694
  0
ARC
  8
1
  6
CONTINUOUS
 62
     7
 10
-86.09799886119659
 20
248.3991729965603
 40
4.949480664938548
 50
100.2418546316633
 51
108.490265914024
  0
ARC
  8
1
  6
CONTINUOUS
 62
     7
 10
-86.39294086683718
 20
249.2811596735202
 40
4.019485350420227
 50
108.490265914024
 51
119.3764515128356
  0
ARC
  8
1
  6
CONTINUOUS
 62
     7
 10
-83.96446775646395
 20
244.9671694680779
 40
8.970040181998012
 50
119.3764515128419
 51
124.2486975520503
  0
ARC
  8
1
  6
CONTINUOUS
 62
     7
 10
-85.8232358189259
 20
247.6972694192538
 40
5.667243722414224
 50
124.24869755205
 51
142.4765032375586
  0
ARC
  8
1
  6
CONTINUOUS
 62
     7
 10
-76.11927992147321
 20
240.2448375028144
 40
17.90266367960701
 50
142.4765032375576
 51
148.2247814314853
  0
ARC
  8
1
  6
CONTINUOUS
 62
     7
 10
-83.02126517064168
 20
244.5201179238958
 40
9.783832294572482
 50
148.2247814314852
 51
161.0055430585917
  0
ARC
  8
1
  6
CONTINUOUS
 62
     7
 10
-68.09131441373299
 20
239.3809392012267
 40
25.57353107406962
 50
161.0055430585925
 51
165.8865068053647
  0
ARC
  8
1
  6
CONTINUOUS
 62
     7
 10
-76.4403536968145
 20
241.4801632983547
 40
16.9646287770052
 50
165.8865068053645
 51
174.0391179736545
  0
ARC
  8
1
  6
CONTINUOUS
 62
     7
 10
-70.24549540856285
 20
240.8333333333333
 40
23.19316457726917
 50
174.0391179736538
 51
179.9999999999999
  0
ARC
  8
1
  6
CONTINUOUS
 62
     7
 10
-70.24549540856285
 20
240.8333333333334
 40
23.19316457726917
 50
180.0
 51
185.9608820263462
  0
ARC
  8
1
  6
CONTINUOUS
 62
     7
 10
-76.44035369681491
 20
240.1865033683119
 40
16.96462877700478
 50
185.9608820263454
 51
194.1134931946355
  0
ARC
  8
1
  6
CONTINUOUS
 62
     7
 10
-68.09131441373209
 20
242.2857274654402
 40
25.57353107407056
 50
194.1134931946355
 51
198.9944569414076
  0
ARC
  8
1
  6
CONTINUOUS
 62
     7
 10
-83.02126517064183
 20
237.1465487427707
 40
9.783832294572308
 50
198.9944569414081
 51
211.7752185685148
  0
ARC
  8
1
  6
CONTINUOUS
 62
     7
 10
-76.11927992146929
 20
241.4218291638549
 40
17.90266367961169
 50
211.775218568515
 51
217.5234967624412
  0
ARC
  8
1
  6
CONTINUOUS
 62
     7
 10
-85.82323581892567
 20
233.9693972474132
 40
5.667243722414623
 50
217.5234967624429
 51
235.7513024479499
  0
ARC
  8
1
  6
CONTINUOUS
 62
     7
 10
-83.96446775646766
 20
236.6994971985834
 40
8.970040181991454
 50
235.7513024479499
 51
240.6235484871616
  0
ARC
  8
1
  6
CONTINUOUS
 62
     7
 10
-86.39294086683765
 20
232.3855069931451
 40
4.01948535041879
 50
240.6235484871603
 51
251.509734085976
  0
ARC
  8
1
  6
CONTINUOUS
 62
     7
 10
-86.09799886119582
 20
233.2674936701086
 40
4.949480664940896
 50
251.5097340859759
 51
259.7581453683326
  0
ARC
  8
1
  6
CONTINUOUS
 62
     7
 10
-86.26895453144392
 20
232.3213282739957
 40
3.987994940662376
 50
259.7581453683354
 51
270.0
  0
ARC
  8
1
  6
CONTINUOUS
 62
     7
 10
-101.4943215042494
 20
244.9671694680793
 40
8.970040181996234
 50
119.3764515128409
 51
122.5433139567031
  0
ARC
  8
1
  6
CONTINUOUS
 62
     7
 10
-103.9227946146217
 20
249.2811596735205
 40
4.01948535041987
 50
108.4902659140239
 51
119.3764515128363
  0
ARC
  8
1
  6
CONTINUOUS
 62
     7
 10
-103.627852608981
 20
248.3991729965603
 40
4.949480664938548
 50
100.2418546316633
 51
108.4902659140239
  0
ARC
  8
1
  6
CONTINUOUS
 62
     7
 10
-103.7988082792283
 20
249.3453383926726
 40
3.987994940660683
 50
97.35751590652579
 51
100.2418546316691
  0
LINE
  8
1
  6
CONTINUOUS
 62
     7
 10
-106.322544599173
 20
252.5333333333333
 11
-106.5033925547817
 21
252.301273600699
  0
LINE
  8
1
  6
CONTINUOUS
 62
     7
 10
-101.6535479520746
 20
252.1067534000211
 11
-106.0769689912351
 21
252.1067534000211
  0
ARC
  8
1
  6
CONTINUOUS
 62
     7
 10
-101.8107448365338
 20
255.1068103840962
 40
3.004172559654537
 50
272.9994392916793
 51
301.0592507318802
  0
ARC
  8
1
  6
CONTINUOUS
 62
     7
 10
-95.4325963765099
 20
244.9671694680779
 40
8.970040181998012
 50
120.81850883498
 51
122.5433139567034
  0
LINE
  8
1
  6
CONTINUOUS
 62
     7
 10
-100.0313888968941
 20
252.6760526156603
 11
-104.7079575286602
 21
252.6760526156603
  0
LINE
  8
1
  6
CONTINUOUS
 62
     7
 10
-104.7705635281187
 20
252.8564837929549
 11
-104.8937926820664
 21
252.7532035633887
  0
ARC
  8
1
  6
CONTINUOUS
 62
     7
 10
-100.7404314582899
 20
244.8188530309152
 40
8.985894920322306
 50
116.4663398956765
 51
116.6295511064011
  0
LINE
  8
1
  6
CONTINUOUS
 62
     7
 10
-104.0553835225541
 20
252.7858246083808
 11
-104.7474946357864
 21
252.8676163487503
  0
LINE
  8
1
  6
CONTINUOUS
 62
     7
 10
-103.4800232433652
 20
252.7858246083808
 11
-104.0553835225541
 21
252.7858246083808
  0
ARC
  8
1
  6
CONTINUOUS
 62
     7
 10
-104.0368846882164
 20
265.1959272506379
 40
12.4225899980688
 50
272.5692311817946
 51
285.1632475170657
  0
ARC
  8
1
  6
CONTINUOUS
 62
     7
 10
-86.26895453144392
 20
232.6466390243801
 40
3.6522563064256
 50
248.0713769975268
 51
270.0
  0
ARC
  8
1
  6
CONTINUOUS
 62
     7
 10
-84.85551248448566
 20
236.1576173303021
 40
7.437066352486692
 50
237.3524679919357
 51
248.0713769975259
  0
ARC
  8
1
  6
CONTINUOUS
 62
     7
 10
-86.3040950809991
 20
233.8966664750942
 40
4.751867978327495
 50
216.722913990448
 51
237.3524679919356
  0
ARC
  8
1
  6
CONTINUOUS
 62
     7
 10
-74.3127446928825
 20
242.8422058443485
 40
19.71232113782316
 50
211.7752185685148
 51
216.7229139904488
  0
ARC
  8
1
  6
CONTINUOUS
 62
     7
 10
-83.19301581491396
 20
237.3415204775563
 40
9.266424589166954
 50
198.9944569414075
 51
211.7752185685146
  0
ARC
  8
1
  6
CONTINUOUS
 62
     7
 10
-69.05261983883166
 20
242.2089191256583
 40
24.22110171573673
 50
194.1134931946353
 51
198.9944569414083
  0
ARC
  8
1
  6
CONTINUOUS
 62
     7
 10
-76.96012893948634
 20
240.2207102923389
 40
16.06747218393766
 50
185.9608820263462
 51
194.1134931946352
  0
ARC
  8
1
  6
CONTINUOUS
 62
     7
 10
-71.09287923197341
 20
240.8333333333334
 40
21.96661840357554
 50
180.0
 51
185.9608820263451
  0
ARC
  8
1
  6
CONTINUOUS
 62
     7
 10
-71.09287923197341
 20
240.8333333333333
 40
21.96661840357554
 50
174.0391179736548
 51
179.9999999999999
  0
ARC
  8
1
  6
CONTINUOUS
 62
     7
 10
-76.96012893948634
 20
241.4459563743278
 40
16.06747218393766
 50
165.8865068053648
 51
174.0391179736538
  0
ARC
  8
1
  6
CONTINUOUS
 62
     7
 10
-69.05261983883155
 20
239.4577475410083
 40
24.22110171573686
 50
161.0055430585915
 51
165.8865068053647
  0
ARC
  8
1
  6
CONTINUOUS
 62
     7
 10
-83.19301581491388
 20
244.3251461891103
 40
9.266424589167052
 50
148.2247814314854
 51
161.0055430585924
  0
ARC
  8
1
  6
CONTINUOUS
 62
     7
 10
-74.3127446928825
 20
238.8244608223181
 40
19.71232113782316
 50
143.2770860095512
 51
148.2247814314854
  0
ARC
  8
1
  6
CONTINUOUS
 62
     7
 10
-86.3040950809991
 20
247.7700001915725
 40
4.751867978327495
 50
122.6475320080644
 51
143.277086009552
  0
ARC
  8
1
  6
CONTINUOUS
 62
     7
 10
-84.85551248448739
 20
245.5090493363673
 40
7.437066352483465
 50
111.9286230024695
 51
122.6475320080644
  0
ARC
  8
1
  6
CONTINUOUS
 62
     7
 10
-86.26895453144392
 20
249.0200276422874
 40
3.652256306424795
 50
90.0
 51
111.928623002478
  0
ARC
  8
1
  6
CONTINUOUS
 62
     7
 10
-86.26895453144392
 20
249.0200276422868
 40
3.652256306425433
 50
68.07137699752604
 51
90.0
  0
ARC
  8
1
  6
CONTINUOUS
 62
     7
 10
-87.68239657840209
 20
245.5090493363647
 40
7.437066352486468
 50
57.35246799193555
 51
68.07137699752614
  0
ARC
  8
1
  6
CONTINUOUS
 62
     7
 10
-86.23381398188874
 20
247.7700001915725
 40
4.751867978327487
 50
36.72291399044803
 51
57.35246799193573
  0
ARC
  8
1
  6
CONTINUOUS
 62
     7
 10
-98.22516437000358
 20
238.8244608223192
 40
19.7123211378211
 50
31.77521856851485
 51
36.72291399044946
  0
ARC
  8
1
  6
CONTINUOUS
 62
     7
 10
-89.34489324797373
 20
244.3251461891104
 40
9.266424589166794
 50
18.99445694140752
 51
31.77521856851485
  0
ARC
  8
1
  6
CONTINUOUS
 62
     7
 10
-103.4852892240562
 20
239.4577475410084
 40
24.22110171573673
 50
14.11349319463534
 51
18.99445694140843
  0
ARC
  8
1
  6
CONTINUOUS
 62
     7
 10
-95.57778012340151
 20
241.4459563743278
 40
16.06747218393766
 50
5.960882026346212
 51
14.11349319463522
  0
ARC
  8
1
  6
CONTINUOUS
 62
     7
 10
-101.4450298309144
 20
240.8333333333333
 40
21.96661840357554
 50
0.0000000000000568
 51
5.960882026345131
  0
ARC
  8
1
  6
CONTINUOUS
 62
     7
 10
-101.4450298309144
 20
240.8333333333334
 40
21.96661840357554
 50
354.0391179736548
 51
0.0
  0
ARC
  8
1
  6
CONTINUOUS
 62
     7
 10
-95.57778012340151
 20
240.2207102923389
 40
16.06747218393766
 50
345.8865068053647
 51
354.0391179736538
  0
ARC
  8
1
  6
CONTINUOUS
 62
     7
 10
-103.4852892240563
 20
242.2089191256584
 40
24.22110171573686
 50
341.0055430585915
 51
345.8865068053647
  0
ARC
  8
1
  6
CONTINUOUS
 62
     7
 10
-89.34489324797389
 20
237.3415204775563
 40
9.266424589166954
 50
328.2247814314853
 51
341.0055430585924
  0
ARC
  8
1
  6
CONTINUOUS
 62
     7
 10
-98.22516437000334
 20
242.8422058443473
 40
19.7123211378208
 50
323.2770860095505
 51
328.2247814314852
  0
ARC
  8
1
  6
CONTINUOUS
 62
     7
 10
-86.23381398188874
 20
233.8966664750942
 40
4.751867978327487
 50
302.6475320080642
 51
323.2770860095519
  0
ARC
  8
1
  6
CONTINUOUS
 62
     7
 10
-87.68239657840209
 20
236.1576173303019
 40
7.437066352486468
 50
291.9286230024738
 51
302.6475320080645
  0
ARC
  8
1
  6
CONTINUOUS
 62
     7
 10
-86.26895453144392
 20
232.64663902438
 40
3.652256306425488
 50
270.0
 51
291.9286230024736
  0
ARC
  8
1
  6
CONTINUOUS
 62
     7
 10
-160.3977121352227
 20
249.3453383926728
 40
3.987994940660572
 50
79.75814536833064
 51
90.0
  0
ARC
  8
1
  6
CONTINUOUS
 62
     7
 10
-160.5686678054701
 20
248.3991729965603
 40
4.949480664938605
 50
71.50973408597616
 51
79.75814536833661
  0
ARC
  8
1
  6
CONTINUOUS
 62
     7
 10
-160.2737257998291
 20
249.2811596735213
 40
4.019485350419112
 50
60.62354848716199
 51
71.50973408597616
  0
ARC
  8
1
  6
CONTINUOUS
 62
     7
 10
-162.7021989102007
 20
244.9671694680809
 40
8.970040181994378
 50
55.75130244794985
 51
60.62354848716023
  0
ARC
  8
1
  6
CONTINUOUS
 62
     7
 10
-160.8434308477409
 20
247.6972694192536
 40
5.667243722414494
 50
37.52349676244216
 51
55.7513024479499
  0
ARC
  8
1
  6
CONTINUOUS
 62
     7
 10
-170.547386745194
 20
240.244837502814
 40
17.90266367960762
 50
31.77521856851479
 51
37.52349676244228
  0
ARC
  8
1
  6
CONTINUOUS
 62
     7
 10
-163.645401496024
 20
244.5201179238964
 40
9.783832294571349
 50
18.99445694140701
 51
31.77521856851485
  0
ARC
  8
1
  6
CONTINUOUS
 62
     7
 10
-178.5753522529304
 20
239.3809392012275
 40
25.57353107406625
 50
14.11349319463545
 51
18.99445694140826
  0
ARC
  8
1
  6
CONTINUOUS
 62
     7
 10
-170.226312969854
 20
241.4801632983543
 40
16.96462877700708
 50
5.960882026346212
 51
14.11349319463534
  0
ARC
  8
1
  6
CONTINUOUS
 62
     7
 10
-176.4211712581038
 20
240.8333333333333
 40
23.19316457726917
 50
0.0000000000000568
 51
5.960882026346212
  0
ARC
  8
1
  6
CONTINUOUS
 62
     7
 10
-176.4211712581038
 20
240.8333333333334
 40
23.19316457726917
 50
354.0391179736538
 51
0.0
  0
ARC
  8
1
  6
CONTINUOUS
 62
     7
 10
-170.2263129698537
 20
240.1865033683123
 40
16.96462877700672
 50
345.8865068053645
 51
354.0391179736538
  0
ARC
  8
1
  6
CONTINUOUS
 62
     7
 10
-178.5753522529285
 20
242.2857274654387
 40
25.57353107406424
 50
341.0055430585916
 51
345.8865068053647
  0
ARC
  8
1
  6
CONTINUOUS
 62
     7
 10
-163.6454014960238
 20
237.1465487427701
 40
9.78383229457105
 50
328.2247814314852
 51
341.0055430585936
  0
ARC
  8
1
  6
CONTINUOUS
 62
     7
 10
-170.5473867451966
 20
241.4218291638543
 40
17.9026636796108
 50
322.4765032375585
 51
328.2247814314852
  0
ARC
  8
1
  6
CONTINUOUS
 62
     7
 10
-160.8434308477412
 20
233.9693972474134
 40
5.66724372241487
 50
304.2486975520502
 51
322.4765032375565
  0
ARC
  8
1
  6
CONTINUOUS
 62
     7
 10
-162.702198910197
 20
236.6994971985804
 40
8.970040181987827
 50
299.3764515128363
 51
304.2486975520501
  0
ARC
  8
1
  6
CONTINUOUS
 62
     7
 10
-160.2737257998287
 20
232.3855069931441
 40
4.019485350417768
 50
288.4902659140241
 51
299.376451512842
  0
ARC
  8
1
  6
CONTINUOUS
 62
     7
 10
-160.5686678054708
 20
233.2674936701084
 40
4.949480664940755
 50
280.2418546316674
 51
288.4902659140243
  0
ARC
  8
1
  6
CONTINUOUS
 62
     7
 10
-160.3977121352227
 20
232.3213282739957
 40
3.987994940662376
 50
270.0
 51
280.2418546316646
  0
ARC
  8
1
  6
CONTINUOUS
 62
     7
 10
-160.3977121352227
 20
249.0200276422875
 40
3.652256306424739
 50
68.07137699752184
 51
90.0
  0
ARC
  8
1
  6
CONTINUOUS
 62
     7
 10
-161.8111541821793
 20
245.5090493363673
 40
7.437066352483434
 50
57.35246799193555
 51
68.07137699753048
  0
ARC
  8
1
  6
CONTINUOUS
 62
     7
 10
-160.3625715856676
 20
247.7700001915724
 40
4.751867978327581
 50
36.72291399044843
 51
57.35246799193584
  0
ARC
  8
1
  6
CONTINUOUS
 62
     7
 10
-172.3539219737848
 20
238.8244608223177
 40
19.71232113782387
 50
31.77521856851479
 51
36.72291399044866
  0
ARC
  8
1
  6
CONTINUOUS
 62
     7
 10
-163.4736508517527
 20
244.3251461891103
 40
9.266424589166919
 50
18.99445694140763
 51
31.77521856851479
  0
ARC
  8
1
  6
CONTINUOUS
 62
     7
 10
-177.6140468278359
 20
239.4577475410081
 40
24.22110171573764
 50
14.11349319463545
 51
18.99445694140832
  0
ARC
  8
1
  6
CONTINUOUS
 62
     7
 10
-169.7065377271786
 20
241.4459563743282
 40
16.06747218393589
 50
5.96088202634536
 51
14.11349319463534
  0
ARC
  8
1
  6
CONTINUOUS
 62
     7
 10
-175.5737874346878
 20
240.8333333333333
 40
21.96661840357011
 50
0.0000000000001137
 51
5.960882026346554
  0
ARC
  8
1
  6
CONTINUOUS
 62
     7
 10
-175.5737874346878
 20
240.8333333333334
 40
21.96661840357011
 50
354.0391179736534
 51
0.0
  0
ARC
  8
1
  6
CONTINUOUS
 62
     7
 10
-169.7065377271776
 20
240.2207102923383
 40
16.06747218393486
 50
345.8865068053642
 51
354.0391179736548
  0
ARC
  8
1
  6
CONTINUOUS
 62
     7
 10
-177.6140468278361
 20
242.2089191256586
 40
24.22110171573787
 50
341.0055430585916
 51
345.8865068053645
  0
ARC
  8
1
  6
CONTINUOUS
 62
     7
 10
-163.4736508517528
 20
237.3415204775564
 40
9.266424589167004
 50
328.2247814314853
 51
341.0055430585924
  0
ARC
  8
1
  6
CONTINUOUS
 62
     7
 10
-172.3539219737848
 20
242.8422058443489
 40
19.71232113782387
 50
323.2770860095513
 51
328.2247814314852
  0
ARC
  8
1
  6
CONTINUOUS
 62
     7
 10
-160.3625715856676
 20
233.8966664750943
 40
4.751867978327581
 50
302.6475320080641
 51
323.2770860095516
  0
ARC
  8
1
  6
CONTINUOUS
 62
     7
 10
-161.8111541821808
 20
236.1576173303018
 40
7.437066352486291
 50
291.9286230024732
 51
302.6475320080642
  0
ARC
  8
1
  6
CONTINUOUS
 62
     7
 10
-160.3977121352227
 20
232.6466390243799
 40
3.652256306425461
 50
270.0
 51
291.9286230024736
  0
ARC
  8
1
  6
CONTINUOUS
 62
     7
 10
-160.3977121352227
 20
232.6466390243799
 40
3.652256306425461
 50
248.0713769975264
 51
270.0
  0
ARC
  8
1
  6
CONTINUOUS
 62
     7
 10
-158.9842700882647
 20
236.1576173303017
 40
7.437066352486191
 50
237.3524679919358
 51
248.0713769975268
  0
ARC
  8
1
  6
CONTINUOUS
 62
     7
 10
-160.4328526847779
 20
233.8966664750943
 40
4.751867978327581
 50
216.7229139904484
 51
237.3524679919358
  0
ARC
  8
1
  6
CONTINUOUS
 62
     7
 10
-148.4415022966607
 20
242.8422058443489
 40
19.71232113782387
 50
211.7752185685148
 51
216.7229139904487
  0
ARC
  8
1
  6
CONTINUOUS
 62
     7
 10
-157.3217734186928
 20
237.3415204775563
 40
9.266424589166919
 50
198.9944569414076
 51
211.7752185685148
  0
ARC
  8
1
  6
CONTINUOUS
 62
     7
 10
-143.1813774426096
 20
242.2089191256586
 40
24.22110171573764
 50
194.1134931946355
 51
198.9944569414083
  0
ARC
  8
1
  6
CONTINUOUS
 62
     7
 10
-151.0888865432669
 20
240.2207102923385
 40
16.06747218393589
 50
185.9608820263454
 51
194.1134931946353
  0
ARC
  8
1
  6
CONTINUOUS
 62
     7
 10
-145.2216368357577
 20
240.8333333333334
 40
21.96661840357011
 50
180.0000000000001
 51
185.9608820263466
  0
ARC
  8
1
  6
CONTINUOUS
 62
     7
 10
-145.2216368357577
 20
240.8333333333333
 40
21.96661840357011
 50
174.0391179736534
 51
179.9999999999999
  0
ARC
  8
1
  6
CONTINUOUS
 62
     7
 10
-151.0888865432679
 20
241.4459563743284
 40
16.06747218393486
 50
165.8865068053643
 51
174.0391179736548
  0
ARC
  8
1
  6
CONTINUOUS
 62
     7
 10
-143.1813774426094
 20
239.457747541008
 40
24.22110171573787
 50
161.0055430585917
 51
165.8865068053645
  0
ARC
  8
1
  6
CONTINUOUS
 62
     7
 10
-157.3217734186927
 20
244.3251461891103
 40
9.266424589167004
 50
148.2247814314854
 51
161.0055430585924
  0
ARC
  8
1
  6
CONTINUOUS
 62
     7
 10
-148.4415022966607
 20
238.8244608223177
 40
19.71232113782387
 50
143.2770860095513
 51
148.2247814314852
  0
ARC
  8
1
  6
CONTINUOUS
 62
     7
 10
-160.4328526847779
 20
247.7700001915724
 40
4.751867978327581
 50
122.6475320080641
 51
143.2770860095515
  0
ARC
  8
1
  6
CONTINUOUS
 62
     7
 10
-158.9842700882662
 20
245.5090493363672
 40
7.437066352483519
 50
111.9286230024694
 51
122.6475320080642
  0
ARC
  8
1
  6
CONTINUOUS
 62
     7
 10
-160.3977121352227
 20
249.0200276422875
 40
3.652256306424739
 50
90.0
 51
111.9286230024782
  0
ARC
  8
1
  6
CONTINUOUS
 62
     7
 10
-137.4614548951309
 20
249.3453383926728
 40
3.987994940660572
 50
79.75814536833064
 51
89.99999999999962
  0
ARC
  8
1
  6
CONTINUOUS
 62
     7
 10
-137.6324105653783
 20
248.3991729965603
 40
4.949480664938605
 50
71.50973408597616
 51
79.75814536833661
  0
ARC
  8
1
  6
CONTINUOUS
 62
     7
 10
-137.3374685597373
 20
249.2811596735213
 40
4.019485350419112
 50
60.62354848716199
 51
71.50973408597616
  0
ARC
  8
1
  6
CONTINUOUS
 62
     7
 10
-139.7659416701089
 20
244.9671694680809
 40
8.970040181994378
 50
55.75130244794985
 51
60.62354848716023
  0
ARC
  8
1
  6
CONTINUOUS
 62
     7
 10
-137.9071736076492
 20
247.6972694192536
 40
5.667243722414494
 50
37.52349676244216
 51
55.7513024479499
  0
ARC
  8
1
  6
CONTINUOUS
 62
     7
 10
-147.6111295051028
 20
240.2448375028135
 40
17.90266367960843
 50
32.09089778632175
 51
37.52349676244222
  0
ARC
  8
1
  6
CONTINUOUS
 62
     7
 10
-160.3977121352227
 20
232.3213282739957
 40
3.987994940662376
 50
259.7581453683354
 51
270.0
  0
ARC
  8
1
  6
CONTINUOUS
 62
     7
 10
-160.2267564649746
 20
233.2674936701085
 40
4.949480664940843
 50
251.5097340859756
 51
259.7581453683324
  0
ARC
  8
1
  6
CONTINUOUS
 62
     7
 10
-160.5216984706167
 20
232.3855069931442
 40
4.019485350417829
 50
240.6235484871582
 51
251.5097340859759
  0
ARC
  8
1
  6
CONTINUOUS
 62
     7
 10
-158.0932253602485
 20
236.6994971985804
 40
8.970040181987827
 50
235.7513024479499
 51
240.6235484871638
  0
ARC
  8
1
  6
CONTINUOUS
 62
     7
 10
-159.9519934227043
 20
233.9693972474135
 40
5.667243722414932
 50
217.5234967624438
 51
235.7513024479499
  0
ARC
  8
1
  6
CONTINUOUS
 62
     7
 10
-150.2480375252488
 20
241.4218291638543
 40
17.9026636796108
 50
211.7752185685149
 51
217.5234967624415
  0
ARC
  8
1
  6
CONTINUOUS
 62
     7
 10
-157.1500227744215
 20
237.1465487427702
 40
9.783832294571349
 50
198.9944569414071
 51
211.7752185685149
  0
ARC
  8
1
  6
CONTINUOUS
 62
     7
 10
-142.2200720175151
 20
242.2857274654392
 40
25.57353107406625
 50
194.1134931946355
 51
198.9944569414082
  0
ARC
  8
1
  6
CONTINUOUS
 62
     7
 10
-150.5691113005915
 20
240.1865033683124
 40
16.96462877700708
 50
185.9608820263462
 51
194.1134931946353
  0
ARC
  8
1
  6
CONTINUOUS
 62
     7
 10
-144.3742530123417
 20
240.8333333333334
 40
23.19316457726917
 50
180.0
 51
185.9608820263462
  0
ARC
  8
1
  6
CONTINUOUS
 62
     7
 10
-144.3742530123417
 20
240.8333333333333
 40
23.19316457726917
 50
174.0391179736538
 51
180.0
  0
ARC
  8
1
  6
CONTINUOUS
 62
     7
 10
-150.5691113005918
 20
241.4801632983544
 40
16.96462877700672
 50
165.8865068053645
 51
174.0391179736538
  0
ARC
  8
1
  6
CONTINUOUS
 62
     7
 10
-142.220072017517
 20
239.380939201228
 40
25.57353107406424
 50
161.0055430585916
 51
165.8865068053647
  0
ARC
  8
1
  6
CONTINUOUS
 62
     7
 10
-157.1500227744217
 20
244.5201179238966
 40
9.78383229457105
 50
148.2247814314851
 51
161.0055430585936
  0
ARC
  8
1
  6
CONTINUOUS
 62
     7
 10
-150.2480375252515
 20
240.244837502814
 40
17.90266367960762
 50
142.4765032375577
 51
148.2247814314852
  0
ARC
  8
1
  6
CONTINUOUS
 62
     7
 10
-159.9519934227046
 20
247.6972694192536
 40
5.66724372241447
 50
124.2486975520502
 51
142.4765032375581
  0
ARC
  8
1
  6
CONTINUOUS
 62
     7
 10
-158.0932253602448
 20
244.9671694680809
 40
8.970040181994378
 50
119.3764515128398
 51
124.2486975520501
  0
ARC
  8
1
  6
CONTINUOUS
 62
     7
 10
-160.5216984706164
 20
249.2811596735213
 40
4.019485350419112
 50
108.4902659140238
 51
119.376451512838
  0
ARC
  8
1
  6
CONTINUOUS
 62
     7
 10
-160.2267564649754
 20
248.3991729965604
 40
4.94948066493849
 50
100.2418546316633
 51
108.490265914024
  0
ARC
  8
1
  6
CONTINUOUS
 62
     7
 10
-160.3977121352227
 20
249.3453383926728
 40
3.987994940660572
 50
90.0
 51
100.2418546316693
  0
ARC
  8
1
  6
CONTINUOUS
 62
     7
 10
-146.8856281442185
 20
232.3016541848381
 40
3.968017389272243
 50
269.8695727103971
 51
273.9464960132306
  0
ARC
  8
1
  6
CONTINUOUS
 62
     7
 10
-146.8856281442185
 20
232.3016541848386
 40
3.968017389272688
 50
273.9464960132307
 51
284.2247120463076
  0
ARC
  8
1
  6
CONTINUOUS
 62
     7
 10
-147.1230572659468
 20
233.2382660716096
 40
4.93425463461442
 50
284.2247120463119
 51
284.5940277546769
  0
ARC
  8
1
  6
CONTINUOUS
 62
     7
 10
-145.1723451624126
 20
236.6994971985804
 40
8.970040181987827
 50
299.3764515128363
 51
302.5433139567015
  0
ARC
  8
1
  6
CONTINUOUS
 62
     7
 10
-142.7438720520443
 20
232.3855069931442
 40
4.019485350417768
 50
288.4902659140241
 51
299.376451512842
  0
ARC
  8
1
  6
CONTINUOUS
 62
     7
 10
-143.0388140576864
 20
233.2674936701085
 40
4.949480664940755
 50
280.2418546316674
 51
288.4902659140243
  0
ARC
  8
1
  6
CONTINUOUS
 62
     7
 10
-142.8678583874383
 20
232.3213282739958
 40
3.987994940662376
 50
277.3575159065222
 51
280.2418546316646
  0
LINE
  8
1
  6
CONTINUOUS
 62
     7
 10
-140.3441220674937
 20
229.1333333333334
 11
-140.163274111885
 21
229.3653930659677
  0
LINE
  8
1
  6
CONTINUOUS
 62
     7
 10
-145.0131187145921
 20
229.5599132666456
 11
-140.5896976754316
 21
229.5599132666456
  0
ARC
  8
1
  6
CONTINUOUS
 62
     7
 10
-144.855921830133
 20
226.5598562825709
 40
3.004172559654117
 50
92.9994392916784
 51
121.0592507318835
  0
ARC
  8
1
  6
CONTINUOUS
 62
     7
 10
-151.234070290153
 20
236.6994971985833
 40
8.97004018199132
 50
300.8185088349776
 51
302.5433139567021
  0
LINE
  8
1
  6
CONTINUOUS
 62
     7
 10
-146.6352777697726
 20
228.9906140510063
 11
-141.9587091380064
 21
228.9906140510063
  0
LINE
  8
1
  6
CONTINUOUS
 62
     7
 10
-141.896103138548
 20
228.8101828737118
 11
-141.7728739846003
 21
228.913463103278
  0
ARC
  8
1
  6
CONTINUOUS
 62
     7
 10
-145.9262352083762
 20
236.8478136357501
 40
8.98589492032076
 50
296.466339895677
 51
296.6295511064017
  0
LINE
  8
1
  6
CONTINUOUS
 62
     7
 10
-142.6112831441125
 20
228.8808420582859
 11
-141.9191720308803
 21
228.7990503179164
  0
LINE
  8
1
  6
CONTINUOUS
 62
     7
 10
-143.1866434233015
 20
228.8808420582859
 11
-142.6112831441125
 21
228.8808420582859
  0
ARC
  8
1
  6
CONTINUOUS
 62
     7
 10
-142.6297819784499
 20
216.4707394160259
 40
12.42258999807164
 50
92.56923118179537
 51
105.1632475170636
  0
ARC
  8
1
  6
CONTINUOUS
 62
     7
 10
-147.6111295051067
 20
241.4218291638556
 40
17.90266367961309
 50
322.4765032375589
 51
327.9091022136779
  0
ARC
  8
1
  6
CONTINUOUS
 62
     7
 10
-137.9071736076494
 20
233.9693972474134
 40
5.66724372241487
 50
304.2486975520502
 51
322.4765032375565
  0
ARC
  8
1
  6
CONTINUOUS
 62
     7
 10
-139.7659416701052
 20
236.6994971985804
 40
8.970040181987827
 50
299.3764515128363
 51
304.2486975520501
  0
ARC
  8
1
  6
CONTINUOUS
 62
     7
 10
-137.3374685597369
 20
232.3855069931441
 40
4.019485350417768
 50
288.4902659140241
 51
299.376451512842
  0
ARC
  8
1
  6
CONTINUOUS
 62
     7
 10
-137.632410565379
 20
233.2674936701084
 40
4.949480664940755
 50
280.2418546316674
 51
288.4902659140243
  0
ARC
  8
1
  6
CONTINUOUS
 62
     7
 10
-137.4614548951309
 20
232.3213282739957
 40
3.987994940662376
 50
270.0
 51
280.2418546316646
  0
ARC
  8
1
  6
CONTINUOUS
 62
     7
 10
-147.0673181557267
 20
238.9922692515078
 40
18.06567923912832
 50
31.77521856851479
 51
32.04676251832717
  0
ARC
  8
1
  6
CONTINUOUS
 62
     7
 10
-138.9288483872304
 20
244.0334623579416
 40
8.492366431688856
 50
18.99445694140837
 51
31.7752185685149
  0
ARC
  8
1
  6
CONTINUOUS
 62
     7
 10
-151.8880456442328
 20
239.5726552266634
 40
22.19782497229821
 50
14.11349319463534
 51
18.99445694140633
  0
ARC
  8
1
  6
CONTINUOUS
 62
     7
 10
-144.6410795465148
 20
241.3947817429714
 40
14.72529777844291
 50
5.960882026346667
 51
14.11349319463545
  0
ARC
  8
1
  6
CONTINUOUS
 62
     7
 10
-150.0182165407146
 20
240.8333333333333
 40
20.13166685306941
 50
0.0000000000000568
 51
5.960882026346268
  0
ARC
  8
1
  6
CONTINUOUS
 62
     7
 10
-150.0182165407146
 20
240.8333333333333
 40
20.13166685306941
 50
354.0391179736537
 51
0.0
  0
ARC
  8
1
  6
CONTINUOUS
 62
     7
 10
-144.6410795465148
 20
240.2718849236953
 40
14.72529777844291
 50
345.8865068053644
 51
354.0391179736532
  0
ARC
  8
1
  6
CONTINUOUS
 62
     7
 10
-151.8880456442328
 20
242.0940114400033
 40
22.19782497229821
 50
341.0055430585935
 51
345.8865068053645
  0
ARC
  8
1
  6
CONTINUOUS
 62
     7
 10
-138.9288483872304
 20
237.6332043087251
 40
8.492366431688856
 50
328.2247814314852
 51
341.0055430585916
  0
ARC
  8
1
  6
CONTINUOUS
 62
     7
 10
-147.0673181557267
 20
242.6743974151589
 40
18.06567923912832
 50
327.9532374816729
 51
328.2247814314852
  0
ARC
  8
1
  6
CONTINUOUS
 62
     7
 10
-99.05553716155839
 20
241.4218291638565
 40
17.90266367961486
 50
212.0908977863217
 51
217.5234967624403
  0
ARC
  8
1
  6
CONTINUOUS
 62
     7
 10
-108.7594930590173
 20
233.9693972474134
 40
5.66724372241487
 50
217.5234967624434
 51
235.7513024479498
  0
ARC
  8
1
  6
CONTINUOUS
 62
     7
 10
-106.9007249965604
 20
236.6994971985819
 40
8.970040181989713
 50
235.7513024479498
 51
240.6235484871625
  0
ARC
  8
1
  6
CONTINUOUS
 62
     7
 10
-109.3291981069295
 20
232.3855069931449
 40
4.019485350418528
 50
240.6235484871598
 51
251.5097340859761
  0
ARC
  8
1
  6
CONTINUOUS
 62
     7
 10
-109.0342561012876
 20
233.2674936701086
 40
4.949480664940896
 50
251.5097340859759
 51
259.7581453683326
  0
ARC
  8
1
  6
CONTINUOUS
 62
     7
 10
-109.2052117715357
 20
232.3213282739957
 40
3.987994940662376
 50
259.7581453683354
 51
269.9999999999998
  0
ARC
  8
1
  6
CONTINUOUS
 62
     7
 10
-99.59934851093372
 20
238.9922692515039
 40
18.06567923913565
 50
147.9532374816728
 51
148.2247814314849
  0
ARC
  8
1
  6
CONTINUOUS
 62
     7
 10
-107.7378182794365
 20
244.0334623579417
 40
8.492366431688623
 50
148.2247814314848
 51
161.0055430585917
  0
ARC
  8
1
  6
CONTINUOUS
 62
     7
 10
-94.7786210224404
 20
239.572655226665
 40
22.19782497229149
 50
161.0055430585921
 51
165.8865068053644
  0
ARC
  8
1
  6
CONTINUOUS
 62
     7
 10
-102.0255871201537
 20
241.3947817429718
 40
14.72529777844102
 50
165.8865068053644
 51
174.0391179736543
  0
ARC
  8
1
  6
CONTINUOUS
 62
     7
 10
-96.64845012594948
 20
240.8333333333333
 40
20.13166685307192
 50
174.0391179736546
 51
180.0
  0
ARC
  8
1
  6
CONTINUOUS
 62
     7
 10
-96.64845012594948
 20
240.8333333333333
 40
20.13166685307192
 50
180.0
 51
185.9608820263455
  0
ARC
  8
1
  6
CONTINUOUS
 62
     7
 10
-102.0255871201537
 20
240.2718849236949
 40
14.72529777844102
 50
185.9608820263458
 51
194.1134931946357
  0
ARC
  8
1
  6
CONTINUOUS
 62
     7
 10
-94.77862102244052
 20
242.0940114400017
 40
22.19782497229136
 50
194.1134931946355
 51
198.994456941408
  0
ARC
  8
1
  6
CONTINUOUS
 62
     7
 10
-107.7378182794363
 20
237.633204308725
 40
8.49236643168877
 50
198.9944569414084
 51
211.775218568515
  0
ARC
  8
1
  6
CONTINUOUS
 62
     7
 10
-99.59934851093693
 20
242.6743974151607
 40
18.06567923913186
 50
211.7752185685149
 51
212.0467625183272
  0
LINE
  8
1
  6
CONTINUOUS
 62
     7
 10
-176.9213123662108
 20
230.8333333333333
 11
-176.9213123662109
 21
250.8333333333333
  0
LINE
  8
1
  6
CONTINUOUS
 62
     7
 10
-162.88653469952
 20
229.1106223314725
 11
-176.9213123662108
 21
230.8333333333333
  0
LINE
  8
1
  6
CONTINUOUS
 62
     7
 10
-176.9213123662109
 20
250.8333333333333
 11
-162.88653469952
 21
252.5560443351942
  0
LINE
  8
1
  6
CONTINUOUS
 62
     7
 10
-69.74535430045582
 20
230.8333333333333
 11
-69.7453543004558
 21
250.8333333333333
  0
LINE
  8
1
  6
CONTINUOUS
 62
     7
 10
-83.78013196714667
 20
229.1106223314725
 11
-69.74535430045582
 21
230.8333333333333
  0
LINE
  8
1
  6
CONTINUOUS
 62
     7
 10
-69.7453543004558
 20
250.8333333333333
 11
-83.78013196714664
 21
252.5560443351942
  0
ARC
  8
1
  6
CONTINUOUS
 62
     7
 10
-100.3406390854123
 20
254.3297201316104
 40
1.360378134117814
 50
187.8817192614917
 51
194.2338472457878
  0
ARC
  8
1
  6
CONTINUOUS
 62
     7
 10
-100.3406390854122
 20
254.3297201316104
 40
1.360378134117854
 50
194.2338472457874
 51
210.2773280694535
  0
ARC
  8
1
  6
CONTINUOUS
 62
     7
 10
-100.7998975947155
 20
254.0615948537846
 40
0.8285797296669335
 50
210.2773280694405
 51
236.7671541229461
  0
ARC
  8
1
  6
CONTINUOUS
 62
     7
 10
-100.652898961607
 20
254.28595149465
 40
1.096804449698794
 50
236.7671541229462
 51
254.0876360583734
  0
ARC
  8
1
  6
CONTINUOUS
 62
     7
 10
-100.7794907896492
 20
253.8419111261088
 40
0.6350714751114319
 50
254.0876360584016
 51
269.2780138095496
  0
ARC
  8
1
  6
CONTINUOUS
 62
     7
 10
-146.3260275812551
 20
227.3369465350561
 40
1.360378134118622
 50
7.881719261495448
 51
14.23384724578892
  0
ARC
  8
1
  6
CONTINUOUS
 62
     7
 10
-146.3260275812551
 20
227.3369465350561
 40
1.360378134118561
 50
14.2338472457883
 51
30.27732806944809
  0
ARC
  8
1
  6
CONTINUOUS
 62
     7
 10
-145.8667690719514
 20
227.6050718128818
 40
0.8285797296672721
 50
30.27732806945363
 51
56.76715412294541
  0
ARC
  8
1
  6
CONTINUOUS
 62
     7
 10
-146.0137677050591
 20
227.3807151720176
 40
1.09680444969767
 50
56.76715412294592
 51
74.08763605838911
  0
ARC
  8
1
  6
CONTINUOUS
 62
     7
 10
-145.8871758770176
 20
227.8247555405581
 40
0.6350714751111425
 50
74.08763605838374
 51
89.27801380954304
  0
ARC
  8
1
  6
CONTINUOUS
 62
     7
 10
-140.5014497800103
 20
229.1887096604541
 40
0.3815492213278375
 50
27.58528674106224
 51
103.3729350219291
  0
ARC
  8
1
  6
CONTINUOUS
 62
     7
 10
-106.1652168866564
 20
252.4779570062126
 40
0.381549221327762
 50
207.5852867410541
 51
283.3729350219381
  0
LINE
  8
1
  6
CONTINUOUS
 62
     7
 10
-101.7073136067093
 20
259.3856692895763
 11
-101.6872488544224
 21
254.1433004862634
  0
LINE
  8
1
  6
CONTINUOUS
 62
     9
 10
-144.9593530599574
 20
222.2809973770904
 11
-144.9794178122444
 21
227.5233661804032
  0
LINE
  8
1
  6
CONTINUOUS
 62
     7
 10
-104.8937926820664
 20
252.7532035633887
 11
-104.7079575286602
 21
252.6760526156603
  0
LINE
  8
1
  6
CONTINUOUS
 62
     7
 10
-141.7728739846003
 20
228.913463103278
 11
-141.9587091380064
 21
228.9906140510063
  0
ARC
  8
1
  6
CONTINUOUS
 62
     7
 10
-105.7303575916608
 20
254.3207537029992
 40
1.75431689279438
 50
304.0733613884632
 51
334.9754877876532
  0
ARC
  8
1
  6
CONTINUOUS
 62
     7
 10
-140.9363090750059
 20
227.3459129636674
 40
1.754316892794364
 50
124.0733613884624
 51
154.9754877876541
  0
ARC
  8
1
  6
CONTINUOUS
 62
     7
 10
-98.75421266371713
 20
253.8281008074062
 40
0.6213074920692238
 50
225.4868575618396
 51
232.4211221030741
  0
ARC
  8
1
  6
CONTINUOUS
 62
     7
 10
-98.41416507089853
 20
254.1739770185153
 40
1.106346375864023
 50
208.4591174573834
 51
225.4868575618568
  0
ARC
  8
1
  6
CONTINUOUS
 62
     7
 10
-98.66371698743104
 20
254.0387118512825
 40
0.8224928493550783
 50
181.8016563636938
 51
208.4591174573827
  0
ARC
  8
1
  6
CONTINUOUS
 62
     7
 10
-98.10203768441478
 20
254.0563795881283
 40
1.384449954801854
 50
176.393208605738
 51
181.8016563636909
  0
ARC
  8
1
  6
CONTINUOUS
 62
     7
 10
-147.9124540029496
 20
227.8385658592602
 40
0.6213074920695133
 50
45.48685756185655
 51
52.42112210308654
  0
ARC
  8
1
  6
CONTINUOUS
 62
     7
 10
-148.2525015957686
 20
227.4926896481512
 40
1.106346375864508
 50
28.45911745738442
 51
45.48685756185358
  0
ARC
  8
1
  6
CONTINUOUS
 62
     7
 10
-148.0029496792353
 20
227.6279548153843
 40
0.8224928493547315
 50
1.801656363686902
 51
28.45911745738488
  0
ARC
  8
1
  6
CONTINUOUS
 62
     7
 10
-148.5646289822518
 20
227.6102870785384
 40
1.384449954801732
 50
356.3932086057421
 51
1.801656363695656
  0
ARC
  8
1
  6
CONTINUOUS
 62
     7
 10
-125.8373837157908
 20
246.9204146494579
 40
4.772039277212841
 50
62.2508724468712
 51
93.54296236109055
  0
ARC
  8
1
  6
CONTINUOUS
 62
     7
 10
-123.9083427343848
 20
250.6469412621825
 40
0.5765939856370701
 50
4.248736521197372
 51
59.47901705822078
  0
LINE
  8
1
  6
CONTINUOUS
 62
     7
 10
-123.3333333333333
 20
250.6896590918944
 11
-123.3333333333333
 21
230.9770075747723
  0
ARC
  8
1
  6
CONTINUOUS
 62
     7
 10
-123.9037212868403
 20
231.0125665909731
 40
0.5714952853165324
 50
297.313002852452
 51
356.4326941885827
  0
ARC
  8
1
  6
CONTINUOUS
 62
     7
 10
-125.7947977550243
 20
234.5808391852244
 40
4.609875025360219
 50
265.8018237299821
 51
297.8467093538612
  0
ARC
  8
1
  6
CONTINUOUS
 62
     7
 10
-120.8292829508762
 20
234.7462520172075
 40
4.77203927721153
 50
242.2508724468669
 51
273.5429623610952
  0
ARC
  8
1
  6
CONTINUOUS
 62
     7
 10
-122.758323932282
 20
231.0197254044841
 40
0.5765939856368899
 50
184.2487365211905
 51
239.4790170582294
  0
ARC
  8
1
  6
CONTINUOUS
 62
     7
 10
-122.7629453798265
 20
250.6541000756937
 40
0.5714952853163454
 50
117.31300285244
 51
176.4326941885927
  0
ARC
  8
1
  6
CONTINUOUS
 62
     7
 10
-120.8718689116424
 20
247.0858274814423
 40
4.609875025360131
 50
85.80182372998185
 51
117.8467093538615
  0
LINE
  8
1
  6
CONTINUOUS
 62
     7
 10
-99.48099751344827
 20
254.1433004862633
 11
-99.91104191266827
 21
259.3856692895763
  0
LINE
  8
1
  6
CONTINUOUS
 62
     7
 10
-147.1856691532184
 20
227.5233661804034
 11
-146.7556247539984
 21
222.2809973770904
  0
ARC
  8
1
  6
CONTINUOUS
 62
     7
 10
-102.5253430315909
 20
259.6915911294999
 40
0.6417422038334508
 50
60.05426465467576
 51
89.99999999999875
  0
ARC
  8
1
  6
CONTINUOUS
 62
     7
 10
-102.7503404793185
 20
259.3010303401186
 40
1.0924766951763
 50
42.59562207960448
 51
60.05426465467809
  0
ARC
  8
1
  6
CONTINUOUS
 62
     7
 10
-102.5582556669932
 20
259.4776342939848
 40
0.8315446510590294
 50
16.18673724421075
 51
42.59562207960562
  0
ARC
  8
1
  6
CONTINUOUS
 62
     7
 10
-103.0553723142323
 20
259.3333333333334
 40
1.349181326930404
 50
2.223289090675962
 51
16.18673724420546
  0
LINE
  8
0
  6
CONTINUOUS
 62
     7
 10
-102.6089545906043
 20
260.3333333333334
 11
-102.5253430315909
 21
260.3333333333334
  0
LINE
  8
0
  6
CONTINUOUS
 62
     7
 10
-144.0577120760624
 20
221.3333333333333
 11
-144.1413236350759
 21
221.3333333333333
  0
ARC
  8
1
  6
CONTINUOUS
 62
     7
 10
-101.2591006201912
 20
259.3333333333334
 40
1.349181326930404
 50
2.223289090675976
 51
16.18673724420546
  0
ARC
  8
1
  6
CONTINUOUS
 62
     7
 10
-100.7619839729521
 20
259.4776342939848
 40
0.8315446510590294
 50
16.18673724421075
 51
42.5956220796056
  0
ARC
  8
1
  6
CONTINUOUS
 62
     7
 10
-100.9540687852774
 20
259.3010303401186
 40
1.0924766951763
 50
42.59562207960455
 51
60.05426465467814
  0
ARC
  8
1
  6
CONTINUOUS
 62
     7
 10
-100.7290713375498
 20
259.6915911294999
 40
0.6417422038334508
 50
60.0542646546758
 51
90.00000000000001
  0
LINE
  8
0
  6
CONTINUOUS
 62
     7
 10
-102.5253430315909
 20
260.3333333333334
 11
-100.7290713375498
 21
260.3333333333334
  0
LINE
  8
0
  6
CONTINUOUS
 62
     7
 10
-144.1413236350759
 20
221.3333333333333
 11
-145.9375953291168
 21
221.3333333333333
  0
ARC
  8
1
  6
CONTINUOUS
 62
     7
 10
-145.4075660464764
 20
222.3333333333333
 40
1.349181326929461
 50
182.2232890906775
 51
196.1867372442145
  0
ARC
  8
1
  6
CONTINUOUS
 62
     7
 10
-145.9046826937146
 20
222.1890323726819
 40
0.8315446510589629
 50
196.1867372442042
 51
222.595622079602
  0
ARC
  8
1
  6
CONTINUOUS
 62
     7
 10
-145.7125978813892
 20
222.3656363265482
 40
1.09247669517638
 50
222.5956220796027
 51
240.0542646546738
  0
ARC
  8
1
  6
CONTINUOUS
 62
     7
 10
-145.9375953291169
 20
221.9750755371666
 40
0.6417422038332843
 50
240.0542646546672
 51
269.9999999999975
  0
ARC
  8
1
  6
CONTINUOUS
 62
     7
 10
-123.3333333333333
 20
240.8333333333333
 40
13.39999999999999
 50
60.0
 51
120.0
  0
LINE
  8
0
  6
CONTINUOUS
 62
     7
 10
-116.6333333333333
 20
252.4380737440448
 11
-116.6333333333333
 21
252.1104145411939
  0
LINE
  8
1
  6
CONTINUOUS
 62
     7
 10
-116.3584901431952
 20
251.6833563653318
 11
-116.6333333333333
 21
252.1104145411939
  0
LINE
  8
1
  6
CONTINUOUS
 62
     7
 10
-130.0333333333333
 20
252.1104145411939
 11
-130.3081784399815
 21
251.6833544300206
  0
LINE
  8
0
  6
CONTINUOUS
 62
     7
 10
-130.0333333333333
 20
252.1104145411939
 11
-130.0333333333333
 21
252.4380737440448
  0
LINE
  8
1
  6
CONTINUOUS
 62
     7
 10
-130.3081765234715
 20
229.9833103013349
 11
-130.0333333333333
 21
229.5562521254728
  0
LINE
  8
1
  6
CONTINUOUS
 62
     7
 10
-116.6333333333333
 20
229.5562521254728
 11
-116.3584882266852
 21
229.9833122366461
  0
LINE
  8
0
  6
CONTINUOUS
 62
     7
 10
-116.6333333333333
 20
229.5562521254728
 11
-116.6333333333333
 21
229.2285929226219
  0
ARC
  8
1
  6
CONTINUOUS
 62
     7
 10
-123.3333333333333
 20
240.8333333333333
 40
13.39999999999999
 50
240.0
 51
300.0
  0
LINE
  8
0
  6
CONTINUOUS
 62
     7
 10
-130.0333333333333
 20
229.2285929226219
 11
-130.0333333333333
 21
229.5562521254728
  0
ARC
  8
1
  6
CONTINUOUS
 62
     7
 10
-123.3333333333333
 20
240.8333333333333
 40
15.90000000000001
 50
225.5723338148163
 51
238.9541883493121
  0
ARC
  8
1
  6
CONTINUOUS
 62
     7
 10
-123.3333333333333
 20
240.8333333333333
 40
15.90000000000002
 50
121.0458116506878
 51
134.4276661851837
  0
LINE
  8
1
  6
CONTINUOUS
 62
     7
 10
-131.5333333333333
 20
251.6833947590684
 11
-131.5333333333333
 21
254.4557413436669
  0
LINE
  8
1
  6
CONTINUOUS
 62
     7
 10
-131.5333333333333
 20
227.2109253229998
 11
-131.5333333333333
 21
229.983270238346
  0
ARC
  8
0
  6
CONTINUOUS
 62
     7
 10
-123.3333333333333
 20
240.8333333333333
 40
15.90000000000003
 50
245.0780261826859
 51
270.0
  0
ARC
  8
0
  6
CONTINUOUS
 62
     7
 10
-123.3333333333333
 20
240.8333333333333
 40
15.9
 50
270.0
 51
294.921973817314
  0
LINE
  8
0
  6
CONTINUOUS
 62
     7
 10
-116.6333333333333
 20
226.4139019991926
 11
-116.6333333333333
 21
229.2285929226219
  0
LINE
  8
0
  6
CONTINUOUS
 62
     7
 10
-130.0333333333333
 20
229.2285929226219
 11
-130.0333333333333
 21
226.4139019991926
  0
ARC
  8
1
  6
CONTINUOUS
 62
     7
 10
-123.3333333333333
 20
240.8333333333333
 40
15.9
 50
65.07802618268738
 51
114.921973817314
  0
LINE
  8
0
  6
CONTINUOUS
 62
     7
 10
-116.6333333333333
 20
252.4380737440448
 11
-116.6333333333333
 21
255.252764667475
  0
LINE
  8
0
  6
CONTINUOUS
 62
     7
 10
-130.0333333333333
 20
255.2527646674741
 11
-130.0333333333333
 21
252.4380737440448
  0
ARC
  8
1
  6
CONTINUOUS
 62
     7
 10
-123.3333333333333
 20
240.8333333333333
 40
15.90000000000004
 50
45.57233381481632
 51
58.95418834931212
  0
ARC
  8
1
  6
CONTINUOUS
 62
     7
 10
-123.3333333333333
 20
240.8333333333333
 40
15.90000000000003
 50
301.0458116506878
 51
314.4276661851836
  0
LINE
  8
1
  6
CONTINUOUS
 62
     7
 10
-115.1333333333333
 20
229.9832845191303
 11
-115.1333333333333
 21
227.2109253229998
  0
LINE
  8
1
  6
CONTINUOUS
 62
     7
 10
-115.1333333333333
 20
254.4557413436669
 11
-115.1333333333333
 21
251.6833595955381
  0
LINE
  8
1
  6
CONTINUOUS
 62
     7
 10
-104.285474274817
 20
253.3333333333333
 11
-109.2052117715357
 21
253.3333333333333
  0
LINE
  8
1
  6
CONTINUOUS
 62
     7
 10
-86.26895453144392
 20
253.3333333333333
 11
-99.7720050782512
 21
253.3333333333333
  0
LINE
  8
1
  6
CONTINUOUS
 62
     7
 10
-109.2052117715357
 20
228.3333333333333
 11
-86.26895453144392
 21
228.3333333333333
  0
LINE
  8
1
  6
CONTINUOUS
 62
     7
 10
-142.3811923918497
 20
228.3333333333333
 11
-137.4614548951309
 21
228.3333333333333
  0
LINE
  8
1
  6
CONTINUOUS
 62
     7
 10
-160.3977121352227
 20
228.3333333333333
 11
-146.8946615884155
 21
228.3333333333333
  0
LINE
  8
1
  6
CONTINUOUS
 62
     7
 10
-137.4614548951309
 20
253.3333333333333
 11
-160.3977121352227
 21
253.3333333333333
  0
LINE
  8
1
  6
CONTINUOUS
 62
     7
 10
-132.4411730892252
 20
231.9090913886856
 11
-131.7522494145279
 21
233.0870913253791
  0
LINE
  8
1
  6
CONTINUOUS
 62
     7
 10
-131.7522494145279
 20
248.5795753412876
 11
-132.4411730892252
 21
249.7575752779811
  0
LINE
  8
1
  6
CONTINUOUS
 62
     7
 10
-114.2254935774415
 20
249.7575752779811
 11
-114.9144172521387
 21
248.5795753412876
  0
LINE
  8
1
  6
CONTINUOUS
 62
     7
 10
-114.9144172521387
 20
233.0870913253791
 11
-114.2254935774415
 21
231.9090913886856
  0
LINE
  8
1
  6
CONTINUOUS
 62
     7
 10
-141.6608707588173
 20
229.386257174423
 11
-141.5768045501155
 21
229.5586600535178
  0
LINE
  8
1
  6
CONTINUOUS
 62
     7
 10
-105.0057959078494
 20
252.2804094922437
 11
-105.0898621165512
 21
252.1080066131489
  0
LINE
  8
1
  6
CONTINUOUS
 62
     7
 10
-104.8937839436454
 20
252.7532403857489
 11
-105.0067243070102
 21
252.2778541934022
  0
LINE
  8
1
  6
CONTINUOUS
 62
     7
 10
-141.7728827230213
 20
228.9134262809178
 11
-141.6599423596564
 21
229.3888124732644
  0
LINE
  8
1
  6
CONTINUOUS
 62
     7
 10
-104.0584962500892
 20
253.8942346006406
 11
-104.140560894637
 21
253.5790925348719
  0
LINE
  8
1
  6
CONTINUOUS
 62
     7
 10
-142.6081704165775
 20
227.772432066026
 11
-142.5261057720297
 21
228.0875741317948
  0
LINE
  8
1
  6
CONTINUOUS
 62
     7
 10
-133.9012358760241
 20
229.9833333333333
 11
-126.1328491125688
 21
229.9833333333333
  0
LINE
  8
1
  6
CONTINUOUS
 62
     7
 10
-126.132933899955
 20
251.6833333333334
 11
-133.9012358760241
 21
251.6833333333334
  0
LINE
  8
1
  6
CONTINUOUS
 62
     7
 10
-112.7654307906426
 20
251.6833333333334
 11
-120.5338175540978
 21
251.6833333333334
  0
LINE
  8
1
  6
CONTINUOUS
 62
     7
 10
-120.5337327667117
 20
229.9833333333333
 11
-112.7654307906426
 21
229.9833333333333
  0
LINE
  8
1
  6
CONTINUOUS
 62
     7
 10
-103.6056068152689
 20
259.4150911651967
 11
-104.058496160817
 21
253.8942356889696
  0
LINE
  8
1
  6
CONTINUOUS
 62
     9
 10
-143.0610598513978
 20
222.2515755014699
 11
-142.6081705058497
 21
227.7724309776971
  0
ARC
  8
1
  6
CONTINUOUS
 62
     7
 10
-102.6089545906042
 20
259.3333333333334
 40
1.000000000000001
 50
90.0
 51
175.3103868661102
  0
ARC
  8
1
  6
CONTINUOUS
 62
     9
 10
-144.0577120760625
 20
222.3333333333333
 40
1.000000000000001
 50
270.0000000000007
 51
355.3103868661103
  0
ARC
  8
1
  6
CONTINUOUS
 62
     7
 10
-98.34777662079266
 20
253.9697985877128
 40
0.9348121150356625
 50
184.635973109549
 51
222.9141597093521
  0
ARC
  8
1
  6
CONTINUOUS
 62
     7
 10
-148.3188900458737
 20
227.696868078954
 40
0.9348121150353255
 50
4.635973109540373
 51
42.91415970935736
  0
ARC
  8
1
  6
CONTINUOUS
 62
     7
 10
-100.7290713375498
 20
259.3333333333334
 40
0.9999999999999963
 50
4.689613133890014
 51
90.00000000000117
  0
LINE
  8
1
  6
CONTINUOUS
 62
     7
 10
-99.27953198018984
 20
253.8942626643016
 11
-99.73241911288518
 21
259.4150911651967
  0
LINE
  8
1
  6
CONTINUOUS
 62
     7
 10
-147.3871346864768
 20
227.7724040023651
 11
-146.9342475537815
 21
222.2515755014699
  0
ARC
  8
1
  6
CONTINUOUS
 62
     7
 10
-145.9375953291169
 20
222.3333333333333
 40
0.9999999999999846
 50
184.6896131338897
 51
269.9999999999984
  0
ENDBLK
  8
0
  0
ENDSEC
  0
SECTION
  2
ENTITIES
  0
INSERT
  8
1
  6
CONTINUOUS
 62
     7
  2
D_FRAME_VIEW_1490
 10
0.0
 20
0.0
 30
0.0
  0
LINE
  8
1
  6
CONTINUOUS
 62
     7
 10
-82.62151720957024
 20
157.6760911203776
 11
-69.74535430045583
 21
139.2870247272391
  0
LINE
  8
1
  6
CENTER
 62
     1
 10
-123.3333333333334
 20
145.6496480032908
 11
-162.0360162238007
 21
172.749558312136
  0
LINE
  8
1
  6
CENTER
 62
     1
 10
-63.33333333333334
 20
240.8333333333333
 11
-183.3333333333333
 21
240.8333333333333
  0
LINE
  8
1
  6
CENTER
 62
     1
 10
-84.63065044286596
 20
172.749558312136
 11
-123.3333333333334
 21
145.6496480032908
  0
LINE
  8
1
  6
CONTINUOUS
 62
     7
 10
-164.0452338042139
 20
157.67597066021
 11
-176.9213123662109
 21
139.2870247272391
  0
TEXT
  8
1
  6
CONTINUOUS
 62
     7
 10
-69.51063315409945
 20
125.8284200325122
 40
3.0
  1
%%UCDE-16FDW
  0
LINE
  8
1
  6
CONTINUOUS
 62
     2
 10
-69.42575757575757
 20
125.2704545454545
 11
-53.90757575757575
 21
125.2704545454545
  0
LINE
  8
1
  6
CONTINUOUS
 62
     7
 10
-144.9794178122444
 20
227.5233661804032
 11
-144.9593416973624
 21
222.278028643023
  0
ARC
  8
1
  6
CONTINUOUS
 62
     7
 10
-143.6112943524352
 20
222.3333333333333
 40
1.349181326929627
 50
182.3492864485627
 51
212.177020783004
  0
ARC
  8
1
  6
CONTINUOUS
 62
     7
 10
-144.0577120760625
 20
222.3333333333333
 40
1.000000000000001
 50
225.9298520717942
 51
355.3103868661099
  0
LINE
  8
1
  6
CONTINUOUS
 62
     7
 10
-143.0610598513978
 20
222.2515755014699
 11
-142.6081705058497
 21
227.7724309776971
  0
INSERT
  8
1
  6
CONTINUOUS
 62
     7
  2
D_FRAME_VIEW_1745
 10
0.0
 20
0.0
 30
0.0
  0
LINE
  8
1
  6
CONTINUOUS
 62
     7
 10
-116.6333333333333
 20
133.2870247272391
 11
-116.6333333333333
 21
142.5370247272391
  0
LINE
  8
1
  6
CONTINUOUS
 62
     7
 10
-115.1333333333333
 20
142.5370247272391
 11
-115.1333333333333
 21
133.2870247272391
  0
ARC
  8
1
  6
CONTINUOUS
 62
     7
 10
-123.3333333333333
 20
240.8333333333333
 40
15.9
 50
245.078026182686
 51
294.921973817314
  0
LINE
  8
1
  6
CONTINUOUS
 62
     7
 10
-130.0333333333333
 20
142.5370247272391
 11
-130.0333333333333
 21
133.2870247272391
  0
LINE
  8
1
  6
CONTINUOUS
 62
     7
 10
-79.51155101054738
 20
139.2870247272391
 11
-69.74535430045582
 21
139.2870247272391
  0
LINE
  8
1
  6
CONTINUOUS
 62
     7
 10
-102.6089545906043
 20
260.3333333333334
 11
-100.7290713375498
 21
260.3333333333334
  0
LINE
  8
1
  6
CONTINUOUS
 62
     7
 10
-116.6333333333333
 20
226.4139019991926
 11
-116.6333333333333
 21
229.5562521254728
  0
LINE
  8
1
  6
CONTINUOUS
 62
     7
 10
-130.0333333333333
 20
229.5562521254728
 11
-130.0333333333333
 21
226.4139019991926
  0
LINE
  8
1
  6
CONTINUOUS
 62
     7
 10
-116.6333333333333
 20
252.1104145411939
 11
-116.6333333333333
 21
255.252764667475
  0
LINE
  8
1
  6
CONTINUOUS
 62
     7
 10
-144.0577120760624
 20
221.3333333333333
 11
-145.9375953291168
 21
221.3333333333333
  0
LINE
  8
1
  6
CONTINUOUS
 62
     7
 10
-167.1551156561193
 20
139.2870247272391
 11
-176.9213123662108
 21
139.2870247272391
  0
LINE
  8
1
  6
CONTINUOUS
 62
     7
 10
-131.5333333333333
 20
133.2870247272391
 11
-131.5333333333333
 21
142.5370247272391
  0
LINE
  8
1
  6
CONTINUOUS
 62
     7
 10
-146.4352381983987
 20
155.9660579107581
 11
-151.6144085300782
 21
159.5925520186725
  0
LINE
  8
1
  6
CONTINUOUS
 62
     7
 10
-130.0333333333333
 20
255.2527646674741
 11
-130.0333333333333
 21
252.1104145411939
  0
LINE
  8
1
  6
CONTINUOUS
 62
     7
 10
-146.1080747411058
 20
167.4564116438452
 11
-140.9289044094287
 21
163.8299175359324
  0
LINE
  8
1
  6
CONTINUOUS
 62
     7
 10
-151.223889260581
 20
160.2957271533633
 11
-146.537138314308
 21
157.0140288110714
  0
ARC
  8
1
  6
CONTINUOUS
 62
     7
 10
-146.2503500961325
 20
157.4236048332158
 40
0.4999999999999336
 50
234.9999999999957
 51
326.0498453876232
  0
ARC
  8
1
  6
CONTINUOUS
 62
     7
 10
83.8897151041383
 20
1.346709652428807
 40
277.5727394422605
 50
144.386968635158
 51
145.855228331212
  0
ARC
  8
1
  6
CONTINUOUS
 62
     7
 10
-142.2353150416751
 20
163.1576691432388
 40
0.5000000000000049
 50
339.1251288436533
 51
55.00000000000119
  0
LINE
  8
1
  6
CONTINUOUS
 62
     7
 10
-141.9485268234996
 20
163.5672451653834
 11
-146.6352777697726
 21
166.8489435076752
  0
ENDSEC
  0
EOF
