  0
SECTION
  2
HEADER
  9
$ACADVER
  1
AC1004
  9
$INSBASE
 10
0.0
 20
0.0
  9
$EXTMIN
 10
-235.0
 20
146.9371212121212
  9
$EXTMAX
 10
-128.1545454545455
 20
301.9074183253243
  9
$LIMMIN
 10
0.0
 20
0.0
  9
$LIMMAX
 10
12.0
 20
9.0
  9
$ORTHOMODE
 70
     0
  9
$REGENMODE
 70
     1
  9
$FILLMODE
 70
     1
  9
$QTEXTMODE
 70
     0
  9
$DRAGMODE
 70
     2
  9
$LTSCALE
 40
1.0
  9
$OSMODE
 70
    37
  9
$ATTMODE
 70
     1
  9
$TEXTSIZE
 40
0.2
  9
$TRACEWID
 40
0.05
  9
$TEXTSTYLE
  7
STANDARD
  9
$CLAYER
  8
0
  9
$CELTYPE
  6
BYLAYER
  9
$CECOLOR
 62
   256
  9
$DIMSCALE
 40
1.0
  9
$DIMASZ
 40
3.0
  9
$DIMEXO
 40
0.0625
  9
$DIMDLI
 40
0.38
  9
$DIMRND
 40
0.0
  9
$DIMDLE
 40
0.0
  9
$DIMEXE
 40
1.5
  9
$DIMTP
 40
0.0
  9
$DIMTM
 40
0.0
  9
$DIMTXT
 40
3.0
  9
$DIMCEN
 40
0.09
  9
$DIMTSZ
 40
0.0
  9
$DIMTOL
 70
     0
  9
$DIMLIM
 70
     0
  9
$DIMTIH
 70
     1
  9
$DIMTOH
 70
     1
  9
$DIMSE1
 70
     0
  9
$DIMSE2
 70
     0
  9
$DIMTAD
 70
     1
  9
$DIMZIN
 70
     0
  9
$DIMBLK
  1

  9
$DIMASO
 70
     1
  9
$DIMSHO
 70
     1
  9
$DIMPOST
  1

  9
$DIMAPOST
  1

  9
$DIMALT
 70
     0
  9
$DIMALTD
 70
     2
  9
$DIMALTF
 40
25.4
  9
$DIMLFAC
 40
1.0
  9
$DIMTOFL
 70
     0
  9
$DIMTVP
 40
0.0
  9
$DIMTIX
 70
     0
  9
$DIMSOXD
 70
     0
  9
$DIMSAH
 70
     0
  9
$DIMBLK1
  1

  9
$DIMBLK2
  1

  9
$LUNITS
 70
     2
  9
$LUPREC
 70
     4
  9
$SKETCHINC
 40
0.1
  9
$FILLETRAD
 40
0.5
  9
$AUNITS
 70
     0
  9
$AUPREC
 70
     0
  9
$MENU
  1
.
  9
$ELEVATION
 40
0.0
  9
$THICKNESS
 40
0.0
  9
$LIMCHECK
 70
     0
  9
$CHAMFERA
 40
0.0
  9
$CHAMFERB
 40
0.0
  9
$SKPOLY
 70
     0
  9
$TDCREATE
 40
2459093.446207813
  9
$TDUPDATE
 40
2459093.446208125
  9
$TDINDWG
 40
0.0000000116
  9
$TDUSRTIMER
 40
0.0000000116
  9
$USRTIMER
 70
     1
  9
$ANGBASE
 50
0.0
  9
$ANGDIR
 70
     0
  9
$PDMODE
 70
     0
  9
$PDSIZE
 40
0.0
  9
$PLINEWID
 40
0.0
  9
$COORDS
 70
     1
  9
$SPLFRAME
 70
     0
  9
$SPLINETYPE
 70
     6
  9
$SPLINESEGS
 70
     8
  9
$ATTDIA
 70
     0
  9
$ATTREQ
 70
     1
  9
$SURFTAB1
 70
     6
  9
$SURFTAB2
 70
     6
  9
$SURFTYPE
 70
     6
  9
$SURFU
 70
     6
  9
$SURFV
 70
     6
  9
$UCSNAME
  2

  9
$UCSORG
 10
0.0
 20
0.0
 30
0.0
  9
$UCSXDIR
 10
1.0
 20
0.0
 30
0.0
  9
$UCSYDIR
 10
0.0
 20
1.0
 30
0.0
  9
$USERI1
 70
     0
  9
$USERI2
 70
     0
  9
$USERI3
 70
     0
  9
$USERI4
 70
     0
  9
$USERI5
 70
     0
  9
$USERR1
 40
0.0
  9
$USERR2
 40
0.0
  9
$USERR3
 40
0.0
  9
$USERR4
 40
0.0
  9
$USERR5
 40
0.0
  9
$WORLDVIEW
 70
     1
  0
ENDSEC
  0
SECTION
  2
TABLES
  0
TABLE
  2
LTYPE
 70
     2
  0
LTYPE
  2
CONTINUOUS
 70
     0
  3
Solid line
 72
    65
 73
     0
 40
0.0
  0
LTYPE
  2
CENTER
 70
     0
  3

 72
    65
 73
     0
 40
0.0
  0
ENDTAB
  0
TABLE
  2
LAYER
 70
     2
  0
LAYER
  2
0
 70
     0
 62
     7
  6
CONTINUOUS
  0
LAYER
  2
1
 70
     0
 62
     7
  6
CONTINUOUS
  0
ENDTAB
  0
TABLE
  2
STYLE
 70
     2
  0
STYLE
  2
STANDARD
 70
     0
 40
0.0
 41
1.0
 50
0.0
 71
     0
 42
0.2
  3
txt
  4

  0
STYLE
  2
ＭＳ_ゴシック
 70
     0
 40
0.0
 41
1.0
 50
0.0
 71
     0
 42
0.2
  3
ＭＳ ゴシック.shx
  4

  0
ENDTAB
  0
TABLE
  2
VIEW
 70
     0
  0
ENDTAB
  0
ENDSEC
  0
SECTION
  2
BLOCKS
  0
BLOCK
  8
0
  2
D_FRAME_VIEW_1647
 70
     0
 10
0.0
 20
0.0
  0
LINE
  8
1
  6
CONTINUOUS
 62
     7
 10
-232.8042947933477
 20
272.9074183253243
 11
-216.1162299146761
 21
269.9520434876916
  0
LINE
  8
1
  6
CONTINUOUS
 62
     7
 10
-232.8042947933477
 20
298.9074183253242
 11
-232.8042947933477
 21
272.9074183253243
  0
LINE
  8
1
  6
CONTINUOUS
 62
     7
 10
-216.1162299146762
 20
301.8627931629569
 11
-232.8042947933477
 21
298.9074183253242
  0
LINE
  8
1
  6
CONTINUOUS
 62
     7
 10
-216.1162299146761
 20
269.9520434876915
 11
-215.6115568547779
 21
269.9074183253242
  0
POLYLINE
  8
1
  6
CONTINUOUS
 62
     7
 66
     1
 70
     1
  0
VERTEX
  8
1
  6
CONTINUOUS
 62
     7
 10
-215.6115568547779
 20
301.1292549767534
  0
VERTEX
  8
1
  6
CONTINUOUS
 62
     7
 10
-216.8665779971642
 20
300.8367716537484
  0
VERTEX
  8
1
  6
CONTINUOUS
 62
     7
 10
-218.0733693808725
 20
299.9705616548098
  0
VERTEX
  8
1
  6
CONTINUOUS
 62
     7
 10
-219.1855546898034
 20
298.5639129444207
  0
VERTEX
  8
1
  6
CONTINUOUS
 62
     7
 10
-220.1603932662553
 20
296.6708822436637
  0
VERTEX
  8
1
  6
CONTINUOUS
 62
     7
 10
-220.960422610431
 20
294.3642176607451
  0
VERTEX
  8
1
  6
CONTINUOUS
 62
     7
 10
-221.5548980432955
 20
291.7325630219939
  0
VERTEX
  8
1
  6
CONTINUOUS
 62
     7
 10
-221.9209742073493
 20
288.8770513393284
  0
VERTEX
  8
1
  6
CONTINUOUS
 62
     7
 10
-222.0445830009058
 20
285.9074183253242
  0
VERTEX
  8
1
  6
CONTINUOUS
 62
     7
 10
-221.9209742073493
 20
282.93778531132
  0
VERTEX
  8
1
  6
CONTINUOUS
 62
     7
 10
-221.5548980432955
 20
280.0822736286545
  0
VERTEX
  8
1
  6
CONTINUOUS
 62
     7
 10
-220.960422610431
 20
277.4506189899034
  0
VERTEX
  8
1
  6
CONTINUOUS
 62
     7
 10
-220.1603932662553
 20
275.1439544069847
  0
VERTEX
  8
1
  6
CONTINUOUS
 62
     7
 10
-219.1855546898034
 20
273.2509237062277
  0
VERTEX
  8
1
  6
CONTINUOUS
 62
     7
 10
-218.0733693808725
 20
271.8442749958386
  0
VERTEX
  8
1
  6
CONTINUOUS
 62
     7
 10
-216.8665779971642
 20
270.9780649969001
  0
VERTEX
  8
1
  6
CONTINUOUS
 62
     7
 10
-215.6115568547779
 20
270.6855816738951
  0
VERTEX
  8
1
  6
CONTINUOUS
 62
     7
 10
-214.3565357123917
 20
270.9780649969001
  0
VERTEX
  8
1
  6
CONTINUOUS
 62
     7
 10
-213.1497443286834
 20
271.8442749958386
  0
VERTEX
  8
1
  6
CONTINUOUS
 62
     7
 10
-212.0375590197525
 20
273.2509237062278
  0
VERTEX
  8
1
  6
CONTINUOUS
 62
     7
 10
-211.0627204433005
 20
275.1439544069847
  0
VERTEX
  8
1
  6
CONTINUOUS
 62
     7
 10
-210.2626910991249
 20
277.4506189899034
  0
VERTEX
  8
1
  6
CONTINUOUS
 62
     7
 10
-209.6682156662604
 20
280.0822736286546
  0
VERTEX
  8
1
  6
CONTINUOUS
 62
     7
 10
-209.3021395022066
 20
282.93778531132
  0
VERTEX
  8
1
  6
CONTINUOUS
 62
     7
 10
-209.1785307086501
 20
285.9074183253243
  0
VERTEX
  8
1
  6
CONTINUOUS
 62
     7
 10
-209.3021395022066
 20
288.8770513393285
  0
VERTEX
  8
1
  6
CONTINUOUS
 62
     7
 10
-209.6682156662605
 20
291.7325630219939
  0
VERTEX
  8
1
  6
CONTINUOUS
 62
     7
 10
-210.2626910991249
 20
294.3642176607451
  0
VERTEX
  8
1
  6
CONTINUOUS
 62
     7
 10
-211.0627204433006
 20
296.6708822436638
  0
VERTEX
  8
1
  6
CONTINUOUS
 62
     7
 10
-212.0375590197525
 20
298.5639129444207
  0
VERTEX
  8
1
  6
CONTINUOUS
 62
     7
 10
-213.1497443286834
 20
299.9705616548098
  0
VERTEX
  8
1
  6
CONTINUOUS
 62
     7
 10
-214.3565357123917
 20
300.8367716537484
  0
SEQEND
  8
1
  6
CONTINUOUS
 62
     7
  0
POLYLINE
  8
1
  6
CONTINUOUS
 62
     7
 66
     1
  0
VERTEX
  8
1
  6
CONTINUOUS
 62
     7
 10
-184.7970920955319
 20
269.9074183253243
  0
VERTEX
  8
1
  6
CONTINUOUS
 62
     7
 10
-183.1729890033479
 20
270.3757830443481
  0
VERTEX
  8
1
  6
CONTINUOUS
 62
     7
 10
-181.6439699847184
 20
271.7534565126664
  0
SEQEND
  8
1
  6
CONTINUOUS
 62
     7
  0
LINE
  8
1
  6
CONTINUOUS
 62
     7
 10
-215.6115568547779
 20
301.9074183253242
 11
-216.1162299146762
 21
301.8627931629569
  0
POLYLINE
  8
1
  6
CONTINUOUS
 62
     7
 66
     1
  0
VERTEX
  8
1
  6
CONTINUOUS
 62
     7
 10
-215.6115568547779
 20
269.9074183253242
  0
VERTEX
  8
1
  6
CONTINUOUS
 62
     7
 10
-214.2923771304117
 20
270.2148538388725
  0
VERTEX
  8
1
  6
CONTINUOUS
 62
     7
 10
-213.0238927430483
 20
271.1253458051436
  0
VERTEX
  8
1
  6
CONTINUOUS
 62
     7
 10
-211.85485083632
 20
272.6039045284835
  0
VERTEX
  8
1
  6
CONTINUOUS
 62
     7
 10
-210.830177035096
 20
274.5937098263394
  0
VERTEX
  8
1
  6
CONTINUOUS
 62
     7
 10
-209.9892489789137
 20
277.0182945970106
  0
VERTEX
  8
1
  6
CONTINUOUS
 62
     7
 10
-209.3643830613742
 20
279.7844834074828
  0
VERTEX
  8
1
  6
CONTINUOUS
 62
     7
 10
-208.9795925292599
 20
282.7859731730662
  0
VERTEX
  8
1
  6
CONTINUOUS
 62
     7
 10
-208.8496646669267
 20
285.9074183253242
  0
VERTEX
  8
1
  6
CONTINUOUS
 62
     7
 10
-208.9795925292599
 20
289.0288634775823
  0
VERTEX
  8
1
  6
CONTINUOUS
 62
     7
 10
-209.3643830613742
 20
292.0303532431657
  0
VERTEX
  8
1
  6
CONTINUOUS
 62
     7
 10
-209.9892489789137
 20
294.7965420536378
  0
VERTEX
  8
1
  6
CONTINUOUS
 62
     7
 10
-210.830177035096
 20
297.221126824309
  0
VERTEX
  8
1
  6
CONTINUOUS
 62
     7
 10
-211.85485083632
 20
299.2109321221649
  0
VERTEX
  8
1
  6
CONTINUOUS
 62
     7
 10
-213.0238927430483
 20
300.6894908455048
  0
VERTEX
  8
1
  6
CONTINUOUS
 62
     7
 10
-214.2923771304117
 20
301.5999828117759
  0
VERTEX
  8
1
  6
CONTINUOUS
 62
     7
 10
-215.6115568547779
 20
301.9074183253242
  0
SEQEND
  8
1
  6
CONTINUOUS
 62
     7
  0
LINE
  8
1
  6
CONTINUOUS
 62
     7
 10
-198.6779381397391
 20
269.9074183253242
 11
-197.5558237427833
 21
270.1338367021771
  0
POLYLINE
  8
1
  6
CONTINUOUS
 62
     7
 66
     1
  0
VERTEX
  8
1
  6
CONTINUOUS
 62
     7
 10
-193.9376040700134
 20
269.93213654806
  0
VERTEX
  8
1
  6
CONTINUOUS
 62
     7
 10
-192.948411404523
 20
270.2367671222667
  0
VERTEX
  8
1
  6
CONTINUOUS
 62
     7
 10
-191.9889234198428
 20
270.8824391240075
  0
SEQEND
  8
1
  6
CONTINUOUS
 62
     7
  0
ARC
  8
1
  6
CONTINUOUS
 62
     7
 10
-195.5496626922976
 20
263.9782328311009
 40
6.474267617120429
 50
90.48152256923208
 51
108.0512077231667
  0
POLYLINE
  8
1
  6
CONTINUOUS
 62
     7
 66
     1
  0
VERTEX
  8
1
  6
CONTINUOUS
 62
     7
 10
-192.4726129451388
 20
271.2872268081108
  0
VERTEX
  8
1
  6
CONTINUOUS
 62
     7
 10
-192.4375895273482
 20
271.2868867762062
  0
VERTEX
  8
1
  6
CONTINUOUS
 62
     7
 10
-192.4032415477473
 20
271.2858706698236
  0
VERTEX
  8
1
  6
CONTINUOUS
 62
     7
 10
-192.3696598743227
 20
271.2841844729596
  0
VERTEX
  8
1
  6
CONTINUOUS
 62
     7
 10
-192.3369353750606
 20
271.2818341696108
  0
VERTEX
  8
1
  6
CONTINUOUS
 62
     7
 10
-192.3041501770456
 20
271.278721661774
  0
VERTEX
  8
1
  6
CONTINUOUS
 62
     7
 10
-192.2723305725265
 20
271.2749192299011
  0
VERTEX
  8
1
  6
CONTINUOUS
 62
     7
 10
-192.2415582038657
 20
271.2704454014631
  0
VERTEX
  8
1
  6
CONTINUOUS
 62
     7
 10
-192.2119147134253
 20
271.2653187039311
  0
VERTEX
  8
1
  6
CONTINUOUS
 62
     7
 10
-192.1842534434554
 20
271.2597301126004
  0
VERTEX
  8
1
  6
CONTINUOUS
 62
     7
 10
-192.1576892488976
 20
271.2535521765659
  0
VERTEX
  8
1
  6
CONTINUOUS
 62
     7
 10
-192.1322775296491
 20
271.2468097897033
  0
VERTEX
  8
1
  6
CONTINUOUS
 62
     7
 10
-192.1080736856072
 20
271.2395278458881
  0
VERTEX
  8
1
  6
CONTINUOUS
 62
     7
 10
-192.0844876284791
 20
271.2315020851962
  0
VERTEX
  8
1
  6
CONTINUOUS
 62
     7
 10
-192.0621934832637
 20
271.2229405078871
  0
VERTEX
  8
1
  6
CONTINUOUS
 62
     7
 10
-192.0412314241944
 20
271.2138749172304
  0
VERTEX
  8
1
  6
CONTINUOUS
 62
     7
 10
-192.0216416255044
 20
271.2043371164953
  0
VERTEX
  8
1
  6
CONTINUOUS
 62
     7
 10
-191.9971525961047
 20
271.1905885329014
  0
VERTEX
  8
1
  6
CONTINUOUS
 62
     7
 10
-191.9752149481772
 20
271.1760176327153
  0
VERTEX
  8
1
  6
CONTINUOUS
 62
     7
 10
-191.9558708551534
 20
271.1607095545639
  0
VERTEX
  8
1
  6
CONTINUOUS
 62
     7
 10
-191.9391624904648
 20
271.1447494370742
  0
VERTEX
  8
1
  6
CONTINUOUS
 62
     7
 10
-191.925132027543
 20
271.1282224188731
  0
VERTEX
  8
1
  6
CONTINUOUS
 62
     7
 10
-191.9138216398193
 20
271.1112136385875
  0
VERTEX
  8
1
  6
CONTINUOUS
 62
     7
 10
-191.9067018433565
 20
271.0972394113234
  0
VERTEX
  8
1
  6
CONTINUOUS
 62
     7
 10
-191.9012926684795
 20
271.082988355081
  0
VERTEX
  8
1
  6
CONTINUOUS
 62
     7
 10
-191.8975944730048
 20
271.0685018831444
  0
VERTEX
  8
1
  6
CONTINUOUS
 62
     7
 10
-191.8956076147486
 20
271.0538214087978
  0
VERTEX
  8
1
  6
CONTINUOUS
 62
     7
 10
-191.8952312069123
 20
271.0439503607817
  0
SEQEND
  8
1
  6
CONTINUOUS
 62
     7
  0
LINE
  8
1
  6
CONTINUOUS
 62
     7
 10
-198.3636135608771
 20
271.2872268081108
 11
-192.4726129451388
 21
271.2872268081108
  0
LINE
  8
1
  6
CONTINUOUS
 62
     7
 10
-199.6925396096543
 20
270.8824391240075
 11
-199.6040589473244
 21
270.9480083882854
  0
ARC
  8
1
  6
CONTINUOUS
 62
     7
 10
-198.3274672692235
 20
268.7174240016445
 40
2.570057006862366
 50
90.80585692642853
 51
119.7830523794968
  0
LINE
  8
1
  6
CONTINUOUS
 62
     7
 10
-199.9038487405247
 20
270.7087341717535
 11
-199.6925396096543
 21
270.8824391240075
  0
LINE
  8
1
  6
CONTINUOUS
 62
     7
 10
-193.6347203335728
 20
270.7087341717536
 11
-199.9038487405247
 21
270.7087341717536
  0
LINE
  8
1
  6
CONTINUOUS
 62
     7
 10
-193.4471368200205
 20
270.527162816806
 11
-193.3789802748766
 21
270.6049276872539
  0
LINE
  8
1
  6
CONTINUOUS
 62
     7
 10
-193.6080899212969
 20
270.4259938103512
 11
-193.4471368200205
 21
270.527162816806
  0
LINE
  8
1
  6
CONTINUOUS
 62
     7
 10
-194.0549524316521
 20
270.4522718114252
 11
-193.6080899212969
 21
270.4259938103512
  0
LINE
  8
1
  6
CONTINUOUS
 62
     7
 10
-195.6040727955438
 20
270.4522718114252
 11
-194.0549524316521
 21
270.4522718114252
  0
POLYLINE
  8
1
  6
CONTINUOUS
 62
     7
 66
     1
  0
VERTEX
  8
1
  6
CONTINUOUS
 62
     7
 10
-181.6439699847184
 20
300.061380137982
  0
VERTEX
  8
1
  6
CONTINUOUS
 62
     7
 10
-183.1729890033479
 20
301.4390536063003
  0
VERTEX
  8
1
  6
CONTINUOUS
 62
     7
 10
-184.7970920955319
 20
301.9074183253242
  0
SEQEND
  8
1
  6
CONTINUOUS
 62
     7
  0
POLYLINE
  8
1
  6
CONTINUOUS
 62
     7
 66
     1
  0
VERTEX
  8
1
  6
CONTINUOUS
 62
     7
 10
-181.6439699847184
 20
271.7534565126664
  0
VERTEX
  8
1
  6
CONTINUOUS
 62
     7
 10
-180.532081030355
 20
273.4915397772328
  0
VERTEX
  8
1
  6
CONTINUOUS
 62
     7
 10
-179.5858419278157
 20
275.7118465132805
  0
VERTEX
  8
1
  6
CONTINUOUS
 62
     7
 10
-178.8420038987807
 20
278.3281416615777
  0
VERTEX
  8
1
  6
CONTINUOUS
 62
     7
 10
-178.3294570580489
 20
281.2388102680199
  0
VERTEX
  8
1
  6
CONTINUOUS
 62
     7
 10
-178.0681083430049
 20
284.3308041327319
  0
VERTEX
  8
1
  6
CONTINUOUS
 62
     7
 10
-178.0681083430049
 20
287.4840325179165
  0
VERTEX
  8
1
  6
CONTINUOUS
 62
     7
 10
-178.3294570580489
 20
290.5760263826285
  0
VERTEX
  8
1
  6
CONTINUOUS
 62
     7
 10
-178.8420038987807
 20
293.4866949890707
  0
VERTEX
  8
1
  6
CONTINUOUS
 62
     7
 10
-179.5858419278157
 20
296.1029901373679
  0
VERTEX
  8
1
  6
CONTINUOUS
 62
     7
 10
-180.532081030355
 20
298.3232968734156
  0
VERTEX
  8
1
  6
CONTINUOUS
 62
     7
 10
-181.6439699847184
 20
300.061380137982
  0
SEQEND
  8
1
  6
CONTINUOUS
 62
     7
  0
POLYLINE
  8
1
  6
CONTINUOUS
 62
     7
 66
     1
  0
VERTEX
  8
1
  6
CONTINUOUS
 62
     7
 10
-179.7644901986747
 20
274.0977064378878
  0
VERTEX
  8
1
  6
CONTINUOUS
 62
     7
 10
-178.8367578523778
 20
275.5479196617604
  0
VERTEX
  8
1
  6
CONTINUOUS
 62
     7
 10
-178.0472396011965
 20
277.4004880946502
  0
VERTEX
  8
1
  6
CONTINUOUS
 62
     7
 10
-177.4265997457205
 20
279.5834593590107
  0
VERTEX
  8
1
  6
CONTINUOUS
 62
     7
 10
-176.9989434754848
 20
282.0120484775109
  0
VERTEX
  8
1
  6
CONTINUOUS
 62
     7
 10
-176.7808806413701
 20
284.59193085838
  0
VERTEX
  8
1
  6
CONTINUOUS
 62
     7
 10
-176.7808806413701
 20
287.2229057922684
  0
VERTEX
  8
1
  6
CONTINUOUS
 62
     7
 10
-176.9989434754848
 20
289.8027881731375
  0
VERTEX
  8
1
  6
CONTINUOUS
 62
     7
 10
-177.4265997457205
 20
292.2313772916377
  0
VERTEX
  8
1
  6
CONTINUOUS
 62
     7
 10
-178.0472396011965
 20
294.4143485559982
  0
VERTEX
  8
1
  6
CONTINUOUS
 62
     7
 10
-178.8367578523778
 20
296.2669169888881
  0
VERTEX
  8
1
  6
CONTINUOUS
 62
     7
 10
-179.7644901986748
 20
297.7171302127606
  0
SEQEND
  8
1
  6
CONTINUOUS
 62
     7
  0
LINE
  8
1
  6
CONTINUOUS
 62
     7
 10
-193.6347203335728
 20
270.7087341717536
 11
-193.5172212690268
 21
271.2872268081108
  0
LINE
  8
1
  6
CONTINUOUS
 62
     7
 10
-172.181830413084
 20
299.2574183253242
 11
-171.9647098799622
 21
299.2452268407086
  0
ARC
  8
1
  6
CONTINUOUS
 62
     7
 10
-173.4390310552918
 20
294.6560033849036
 40
4.820227676711537
 50
12.77943245675283
 51
72.1900098292682
  0
ARC
  8
1
  6
CONTINUOUS
 62
     7
 10
-193.863648275039
 20
286.4895128468265
 40
26.76809507639957
 50
358.7539573369502
 51
20.17660675577367
  0
ARC
  8
1
  6
CONTINUOUS
 62
     7
 10
-189.677793279017
 20
284.8257757733072
 40
22.60180689655158
 50
332.1227725480304
 51
2.74302110442602
  0
ARC
  8
1
  6
CONTINUOUS
 62
     7
 10
-172.7036593593567
 20
275.9261799843267
 40
3.436946695889308
 50
282.4154616603378
 51
330.9569376654472
  0
LINE
  8
1
  6
CONTINUOUS
 62
     7
 10
-171.9647196654104
 20
272.5696087100805
 11
-172.181830413084
 21
272.5574183253242
  0
LINE
  8
1
  6
CONTINUOUS
 62
     7
 10
-191.8952312069123
 20
271.0439503607817
 11
-191.9889234198428
 21
270.8824391240075
  0
LINE
  8
1
  6
CONTINUOUS
 62
     7
 10
-193.3789802748766
 20
270.6049276872539
 11
-193.6347203335728
 21
270.7087341717536
  0
POLYLINE
  8
1
  6
CONTINUOUS
 62
     7
 66
     1
  0
VERTEX
  8
1
  6
CONTINUOUS
 62
     7
 10
-195.6040727955438
 20
270.4522718114252
  0
VERTEX
  8
1
  6
CONTINUOUS
 62
     7
 10
-195.6813972998365
 20
270.3834846889628
  0
VERTEX
  8
1
  6
CONTINUOUS
 62
     7
 10
-195.751589392067
 20
270.2804189014475
  0
VERTEX
  8
1
  6
CONTINUOUS
 62
     7
 10
-195.8119671732799
 20
270.147012385748
  0
VERTEX
  8
1
  6
CONTINUOUS
 62
     7
 10
-195.8602237296444
 20
269.9883623370576
  0
VERTEX
  8
1
  6
CONTINUOUS
 62
     7
 10
-195.8945152750018
 20
269.8105304552964
  0
VERTEX
  8
1
  6
CONTINUOUS
 62
     7
 10
-195.9135315982334
 20
269.6203113397248
  0
SEQEND
  8
1
  6
CONTINUOUS
 62
     7
  0
POLYLINE
  8
1
  6
CONTINUOUS
 62
     7
 66
     1
  0
VERTEX
  8
1
  6
CONTINUOUS
 62
     7
 10
-194.0549524316521
 20
270.4522718114252
  0
VERTEX
  8
1
  6
CONTINUOUS
 62
     7
 10
-194.1322769359448
 20
270.3834846889628
  0
VERTEX
  8
1
  6
CONTINUOUS
 62
     7
 10
-194.2024690281753
 20
270.2804189014475
  0
VERTEX
  8
1
  6
CONTINUOUS
 62
     7
 10
-194.2628468093882
 20
270.147012385748
  0
VERTEX
  8
1
  6
CONTINUOUS
 62
     7
 10
-194.3111033657527
 20
269.9883623370576
  0
VERTEX
  8
1
  6
CONTINUOUS
 62
     7
 10
-194.34539491111
 20
269.8105304552964
  0
VERTEX
  8
1
  6
CONTINUOUS
 62
     7
 10
-194.3644112343417
 20
269.6203113397248
  0
SEQEND
  8
1
  6
CONTINUOUS
 62
     7
  0
LINE
  8
1
  6
CONTINUOUS
 62
     7
 10
-195.9135315982334
 20
269.6203113397248
 11
-195.9695173593771
 21
263.8142572544936
  0
POLYLINE
  8
1
  6
CONTINUOUS
 62
     7
 66
     1
  0
VERTEX
  8
1
  6
CONTINUOUS
 62
     7
 10
-195.4515517474226
 20
263.3404252326151
  0
VERTEX
  8
1
  6
CONTINUOUS
 62
     7
 10
-195.4300249890271
 20
263.3409880296522
  0
VERTEX
  8
1
  6
CONTINUOUS
 62
     7
 10
-195.4084823747097
 20
263.3426751538017
  0
VERTEX
  8
1
  6
CONTINUOUS
 62
     7
 10
-195.3869724009485
 20
263.3454828070294
  0
VERTEX
  8
1
  6
CONTINUOUS
 62
     7
 10
-195.3655434907415
 20
263.3494046687799
  0
VERTEX
  8
1
  6
CONTINUOUS
 62
     7
 10
-195.3442438845973
 20
263.3544319102045
  0
VERTEX
  8
1
  6
CONTINUOUS
 62
     7
 10
-195.3231215319371
 20
263.3605532140367
  0
VERTEX
  8
1
  6
CONTINUOUS
 62
     7
 10
-195.3022239831506
 20
263.3677548000699
  0
VERTEX
  8
1
  6
CONTINUOUS
 62
     7
 10
-195.281598282552
 20
263.3760204561791
  0
VERTEX
  8
1
  6
CONTINUOUS
 62
     7
 10
-195.2612908624742
 20
263.3853315748172
  0
VERTEX
  8
1
  6
CONTINUOUS
 62
     7
 10
-195.2413474387405
 20
263.3956671949041
  0
VERTEX
  8
1
  6
CONTINUOUS
 62
     7
 10
-195.22181290775
 20
263.4070040490146
  0
VERTEX
  8
1
  6
CONTINUOUS
 62
     7
 10
-195.2027312454074
 20
263.4193166157569
  0
VERTEX
  8
1
  6
CONTINUOUS
 62
     7
 10
-195.1841454081249
 20
263.4325771772268
  0
VERTEX
  8
1
  6
CONTINUOUS
 62
     7
 10
-195.1660972361191
 20
263.4467558814054
  0
VERTEX
  8
1
  6
CONTINUOUS
 62
     7
 10
-195.1486273592208
 20
263.4618208093619
  0
VERTEX
  8
1
  6
CONTINUOUS
 62
     7
 10
-195.13177510541
 20
263.4777380471089
  0
VERTEX
  8
1
  6
CONTINUOUS
 62
     7
 10
-195.1155784122805
 20
263.4944717619497
  0
VERTEX
  8
1
  6
CONTINUOUS
 62
     7
 10
-195.1000737416362
 20
263.5119842831436
  0
VERTEX
  8
1
  6
CONTINUOUS
 62
     7
 10
-195.0852959974078
 20
263.5302361867104
  0
VERTEX
  8
1
  6
CONTINUOUS
 62
     7
 10
-195.071278447078
 20
263.5491863841812
  0
VERTEX
  8
1
  6
CONTINUOUS
 62
     7
 10
-195.0580526467898
 20
263.568792215096
  0
VERTEX
  8
1
  6
CONTINUOUS
 62
     7
 10
-195.0456483703083
 20
263.5890095430406
  0
VERTEX
  8
1
  6
CONTINUOUS
 62
     7
 10
-195.0340935419936
 20
263.6097928550059
  0
VERTEX
  8
1
  6
CONTINUOUS
 62
     7
 10
-195.0234141739382
 20
263.6310953638464
  0
VERTEX
  8
1
  6
CONTINUOUS
 62
     7
 10
-195.013634307409
 20
263.6528691136066
  0
VERTEX
  8
1
  6
CONTINUOUS
 62
     7
 10
-195.0047759587256
 20
263.6750650874791
  0
VERTEX
  8
1
  6
CONTINUOUS
 62
     7
 10
-194.9968590696975
 20
263.6976333181506
  0
VERTEX
  8
1
  6
CONTINUOUS
 62
     7
 10
-194.9899014627316
 20
263.7205230002876
  0
VERTEX
  8
1
  6
CONTINUOUS
 62
     7
 10
-194.9839188007101
 20
263.7436826049091
  0
VERTEX
  8
1
  6
CONTINUOUS
 62
     7
 10
-194.978924551731
 20
263.7670599953874
  0
VERTEX
  8
1
  6
CONTINUOUS
 62
     7
 10
-194.9749299587882
 20
263.7906025448184
  0
VERTEX
  8
1
  6
CONTINUOUS
 62
     7
 10
-194.9719440144622
 20
263.8142572544936
  0
SEQEND
  8
1
  6
CONTINUOUS
 62
     7
  0
LINE
  8
1
  6
CONTINUOUS
 62
     7
 10
-195.5440593686247
 20
263.3404252326151
 11
-195.4515517474226
 21
263.3404252326151
  0
POLYLINE
  8
1
  6
CONTINUOUS
 62
     7
 66
     1
  0
VERTEX
  8
1
  6
CONTINUOUS
 62
     7
 10
-195.9695173593772
 20
263.8142572544936
  0
VERTEX
  8
1
  6
CONTINUOUS
 62
     7
 10
-195.9692346861932
 20
263.7906025448184
  0
VERTEX
  8
1
  6
CONTINUOUS
 62
     7
 10
-195.967930546668
 20
263.7670599953874
  0
VERTEX
  8
1
  6
CONTINUOUS
 62
     7
 10
-195.965607876665
 20
263.7436826049091
  0
VERTEX
  8
1
  6
CONTINUOUS
 62
     7
 10
-195.9622719049515
 20
263.7205230002876
  0
VERTEX
  8
1
  6
CONTINUOUS
 62
     7
 10
-195.9579301414273
 20
263.6976333181506
  0
VERTEX
  8
1
  6
CONTINUOUS
 62
     7
 10
-195.9525923602192
 20
263.6750650874791
  0
VERTEX
  8
1
  6
CONTINUOUS
 62
     7
 10
-195.9462705776768
 20
263.6528691136066
  0
VERTEX
  8
1
  6
CONTINUOUS
 62
     7
 10
-195.9389790253222
 20
263.6310953638464
  0
VERTEX
  8
1
  6
CONTINUOUS
 62
     7
 10
-195.9307341178116
 20
263.6097928550059
  0
VERTEX
  8
1
  6
CONTINUOUS
 62
     7
 10
-195.921554415983
 20
263.5890095430406
  0
VERTEX
  8
1
  6
CONTINUOUS
 62
     7
 10
-195.9114605850725
 20
263.568792215096
  0
VERTEX
  8
1
  6
CONTINUOUS
 62
     7
 10
-195.9004753481924
 20
263.5491863841812
  0
VERTEX
  8
1
  6
CONTINUOUS
 62
     7
 10
-195.888623435178
 20
263.5302361867104
  0
VERTEX
  8
1
  6
CONTINUOUS
 62
     7
 10
-195.8759315269153
 20
263.5119842831436
  0
VERTEX
  8
1
  6
CONTINUOUS
 62
     7
 10
-195.8624281952779
 20
263.4944717619497
  0
VERTEX
  8
1
  6
CONTINUOUS
 62
     7
 10
-195.8481438388057
 20
263.4777380471089
  0
VERTEX
  8
1
  6
CONTINUOUS
 62
     7
 10
-195.8331106142729
 20
263.4618208093619
  0
VERTEX
  8
1
  6
CONTINUOUS
 62
     7
 10
-195.8173623642963
 20
263.4467558814054
  0
VERTEX
  8
1
  6
CONTINUOUS
 62
     7
 10
-195.8009345411497
 20
263.4325771772268
  0
VERTEX
  8
1
  6
CONTINUOUS
 62
     7
 10
-195.7838641269537
 20
263.4193166157569
  0
VERTEX
  8
1
  6
CONTINUOUS
 62
     7
 10
-195.7661895504227
 20
263.4070040490146
  0
VERTEX
  8
1
  6
CONTINUOUS
 62
     7
 10
-195.7479506003537
 20
263.3956671949041
  0
VERTEX
  8
1
  6
CONTINUOUS
 62
     7
 10
-195.729188336055
 20
263.3853315748172
  0
VERTEX
  8
1
  6
CONTINUOUS
 62
     7
 10
-195.7099449949137
 20
263.3760204561791
  0
VERTEX
  8
1
  6
CONTINUOUS
 62
     7
 10
-195.6902638973112
 20
263.3677548000699
  0
VERTEX
  8
1
  6
CONTINUOUS
 62
     7
 10
-195.6701893491012
 20
263.3605532140367
  0
VERTEX
  8
1
  6
CONTINUOUS
 62
     7
 10
-195.6497665418688
 20
263.3544319102045
  0
VERTEX
  8
1
  6
CONTINUOUS
 62
     7
 10
-195.6290414511956
 20
263.3494046687799
  0
VERTEX
  8
1
  6
CONTINUOUS
 62
     7
 10
-195.60806073316
 20
263.3454828070294
  0
VERTEX
  8
1
  6
CONTINUOUS
 62
     7
 10
-195.5868716193058
 20
263.3426751538017
  0
VERTEX
  8
1
  6
CONTINUOUS
 62
     7
 10
-195.5655218103151
 20
263.3409880296522
  0
VERTEX
  8
1
  6
CONTINUOUS
 62
     7
 10
-195.5440593686247
 20
263.3404252326151
  0
SEQEND
  8
1
  6
CONTINUOUS
 62
     7
  0
LINE
  8
1
  6
CONTINUOUS
 62
     7
 10
-194.9719440144621
 20
263.8142572544936
 11
-194.3644112343417
 21
269.6203113397248
  0
POLYLINE
  8
1
  6
CONTINUOUS
 62
     7
 66
     1
  0
VERTEX
  8
1
  6
CONTINUOUS
 62
     7
 10
-193.6080899212969
 20
270.4259938103512
  0
VERTEX
  8
1
  6
CONTINUOUS
 62
     7
 10
-193.6959890893303
 20
270.3542390282931
  0
VERTEX
  8
1
  6
CONTINUOUS
 62
     7
 10
-193.7607851094805
 20
270.2760092430236
  0
SEQEND
  8
1
  6
CONTINUOUS
 62
     7
  0
ARC
  8
1
  6
CONTINUOUS
 62
     7
 10
-191.540962856543
 20
268.904061158977
 40
2.609569385924695
 50
148.2821056802055
 51
165.9046914220039
  0
LINE
  8
1
  6
CONTINUOUS
 62
     7
 10
-195.7534631672636
 20
262.9074183253242
 11
-197.4972311079551
 21
262.9074183253242
  0
LINE
  8
1
  6
CONTINUOUS
 62
     7
 10
-195.6609555460614
 20
262.9074183253242
 11
-195.7534631672636
 21
262.9074183253242
  0
LINE
  8
1
  6
CONTINUOUS
 62
     7
 10
-195.6609555460614
 20
262.9074183253242
 11
-195.6232183006883
 21
262.9154563409082
  0
ARC
  8
1
  6
CONTINUOUS
 62
     7
 10
-163.0457052066522
 20
285.9074183253242
 40
13.34999999999999
 50
270.0118436708804
 51
89.98815632911942
  0
LINE
  8
1
  6
CONTINUOUS
 62
     7
 10
-197.5879582451865
 20
262.9124257104943
 11
-197.4972311079551
 21
262.9074183253242
  0
ARC
  8
1
  6
CONTINUOUS
 62
     7
 10
-163.0457052066522
 20
285.9074183253242
 40
15.84999999999997
 50
237.4084843953601
 51
270.0
  0
ARC
  8
1
  6
CONTINUOUS
 62
     7
 10
-163.0457052066522
 20
285.9074183253242
 40
15.84999999999997
 50
270.0
 51
122.5966584366915
  0
LINE
  8
1
  6
CONTINUOUS
 62
     7
 10
-193.9487228771841
 20
269.9074183253242
 11
-184.7970920955318
 21
269.9074183253242
  0
LINE
  8
1
  6
CONTINUOUS
 62
     7
 10
-215.6115568547779
 20
269.9074183253242
 11
-198.6779381397391
 21
269.9074183253242
  0
LINE
  8
1
  6
CONTINUOUS
 62
     7
 10
-184.7970920955318
 20
301.9074183253243
 11
-215.6115568547779
 21
301.9074183253243
  0
LINE
  8
1
  6
CONTINUOUS
 62
     7
 10
-181.6439699847184
 20
271.7534565126664
 11
-179.7644901986747
 21
274.0977064378878
  0
LINE
  8
1
  6
CONTINUOUS
 62
     7
 10
-179.7644901986747
 20
297.7171302127607
 11
-181.6439699847184
 21
300.061380137982
  0
LINE
  8
1
  6
CONTINUOUS
 62
     7
 10
-180.9994013491883
 20
272.5574183253242
 11
-172.181830413084
 21
272.5574183253242
  0
LINE
  8
1
  6
CONTINUOUS
 62
     7
 10
-172.181830413084
 20
299.2574183253242
 11
-180.9994013491883
 21
299.2574183253242
  0
LINE
  8
1
  6
CONTINUOUS
 62
     7
 10
-193.3789890435411
 20
270.6048845130437
 11
-193.2403968189703
 21
271.2872268081108
  0
LINE
  8
1
  6
CONTINUOUS
 62
     7
 10
-194.1035330338948
 20
269.3772081153066
 11
-194.0719721841624
 21
269.539544182703
  0
LINE
  8
1
  6
CONTINUOUS
 62
     7
 10
-194.6840628061274
 20
263.8292155334784
 11
-194.1035254519545
 21
269.377280406878
  0
POLYLINE
  8
1
  6
CONTINUOUS
 62
     7
 66
     1
  0
VERTEX
  8
1
  6
CONTINUOUS
 62
     7
 10
-195.6232183638794
 20
262.9154563137689
  0
VERTEX
  8
1
  6
CONTINUOUS
 62
     7
 10
-195.5825689154157
 20
262.9171410242648
  0
VERTEX
  8
1
  6
CONTINUOUS
 62
     7
 10
-195.5431842435203
 20
262.9205853763434
  0
VERTEX
  8
1
  6
CONTINUOUS
 62
     7
 10
-195.50512005141
 20
262.9256205581499
  0
VERTEX
  8
1
  6
CONTINUOUS
 62
     7
 10
-195.4684201733614
 20
262.9320819138578
  0
VERTEX
  8
1
  6
CONTINUOUS
 62
     7
 10
-195.4331175476377
 20
262.9398096238168
  0
VERTEX
  8
1
  6
CONTINUOUS
 62
     7
 10
-195.3992351740592
 20
262.9486492596837
  0
VERTEX
  8
1
  6
CONTINUOUS
 62
     7
 10
-195.3604701855534
 20
262.9605157739956
  0
VERTEX
  8
1
  6
CONTINUOUS
 62
     7
 10
-195.3237790498681
 20
262.9735248181152
  0
VERTEX
  8
1
  6
CONTINUOUS
 62
     7
 10
-195.2891560996894
 20
262.9874447806908
  0
VERTEX
  8
1
  6
CONTINUOUS
 62
     7
 10
-195.2565830929143
 20
263.0020577897441
  0
VERTEX
  8
1
  6
CONTINUOUS
 62
     7
 10
-195.2260311491973
 20
263.0171598664571
  0
VERTEX
  8
1
  6
CONTINUOUS
 62
     7
 10
-195.1941655492447
 20
263.0344206021283
  0
VERTEX
  8
1
  6
CONTINUOUS
 62
     7
 10
-195.1647242228265
 20
263.051810027967
  0
VERTEX
  8
1
  6
CONTINUOUS
 62
     7
 10
-195.1376352102511
 20
263.0691025055449
  0
VERTEX
  8
1
  6
CONTINUOUS
 62
     7
 10
-195.1128205493399
 20
263.0860927594092
  0
VERTEX
  8
1
  6
CONTINUOUS
 62
     7
 10
-195.0901985349727
 20
263.102595048854
  0
VERTEX
  8
1
  6
CONTINUOUS
 62
     7
 10
-195.0637509922742
 20
263.1231907821492
  0
VERTEX
  8
1
  6
CONTINUOUS
 62
     7
 10
-195.0407340889834
 20
263.1423349197135
  0
VERTEX
  8
1
  6
CONTINUOUS
 62
     7
 10
-195.0189634283551
 20
263.161561235669
  0
VERTEX
  8
1
  6
CONTINUOUS
 62
     7
 10
-195.000987238535
 20
263.1783132370125
  0
VERTEX
  8
1
  6
CONTINUOUS
 62
     7
 10
-194.9819268830777
 20
263.1970064918839
  0
VERTEX
  8
1
  6
CONTINUOUS
 62
     7
 10
-194.9619051210234
 20
263.2177545195382
  0
VERTEX
  8
1
  6
CONTINUOUS
 62
     7
 10
-194.9410598825406
 20
263.2406729451995
  0
VERTEX
  8
1
  6
CONTINUOUS
 62
     7
 10
-194.9195452946344
 20
263.2658776254898
  0
VERTEX
  8
1
  6
CONTINUOUS
 62
     7
 10
-194.8979290511236
 20
263.2929679118184
  0
VERTEX
  8
1
  6
CONTINUOUS
 62
     7
 10
-194.8760116472682
 20
263.3224775616274
  0
VERTEX
  8
1
  6
CONTINUOUS
 62
     7
 10
-194.8539899936385
 20
263.354504372473
  0
VERTEX
  8
1
  6
CONTINUOUS
 62
     7
 10
-194.8320792524741
 20
263.3891372864622
  0
VERTEX
  8
1
  6
CONTINUOUS
 62
     7
 10
-194.8156964764316
 20
263.4171571510632
  0
VERTEX
  8
1
  6
CONTINUOUS
 62
     7
 10
-194.7996201688764
 20
263.4467454717582
  0
VERTEX
  8
1
  6
CONTINUOUS
 62
     7
 10
-194.7839655883778
 20
263.4779247023073
  0
VERTEX
  8
1
  6
CONTINUOUS
 62
     7
 10
-194.768854261948
 20
263.5107107788982
  0
VERTEX
  8
1
  6
CONTINUOUS
 62
     7
 10
-194.7544138989716
 20
263.5451122222215
  0
VERTEX
  8
1
  6
CONTINUOUS
 62
     7
 10
-194.7407782397375
 20
263.5811292005893
  0
VERTEX
  8
1
  6
CONTINUOUS
 62
     7
 10
-194.728086830762
 20
263.6187525572431
  0
VERTEX
  8
1
  6
CONTINUOUS
 62
     7
 10
-194.7164847186922
 20
263.6579628059142
  0
VERTEX
  8
1
  6
CONTINUOUS
 62
     7
 10
-194.7061220541928
 20
263.698729099737
  0
VERTEX
  8
1
  6
CONTINUOUS
 62
     7
 10
-194.6971535968663
 20
263.7410081797864
  0
VERTEX
  8
1
  6
CONTINUOUS
 62
     7
 10
-194.6897381119426
 20
263.7847433108401
  0
VERTEX
  8
1
  6
CONTINUOUS
 62
     7
 10
-194.6840376492237
 20
263.8298632134614
  0
SEQEND
  8
1
  6
CONTINUOUS
 62
     7
  0
LINE
  8
1
  6
CONTINUOUS
 62
     7
 10
-163.0402237143941
 20
299.2570429951772
 11
-172.1797813182804
 21
299.2570472947344
  0
LINE
  8
1
  6
CONTINUOUS
 62
     7
 10
-172.1797813182804
 20
272.557789355914
 11
-163.0402237143941
 21
272.5577936554713
  0
LINE
  8
1
  6
CONTINUOUS
 62
     7
 10
-199.2911803443338
 20
269.9075913934764
 11
-199.0546742330498
 21
269.3774050729027
  0
POLYLINE
  8
1
  6
CONTINUOUS
 62
     7
 66
     1
  0
VERTEX
  8
1
  6
CONTINUOUS
 62
     7
 10
-198.4741490047929
 20
263.8298632134614
  0
VERTEX
  8
1
  6
CONTINUOUS
 62
     7
 10
-198.4693426117919
 20
263.7908514001605
  0
VERTEX
  8
1
  6
CONTINUOUS
 62
     7
 10
-198.4632864943327
 20
263.7530999915541
  0
VERTEX
  8
1
  6
CONTINUOUS
 62
     7
 10
-198.456108759694
 20
263.7166502633918
  0
VERTEX
  8
1
  6
CONTINUOUS
 62
     7
 10
-198.4479339856415
 20
263.6815337031686
  0
VERTEX
  8
1
  6
CONTINUOUS
 62
     7
 10
-198.4388828357676
 20
263.647772816417
  0
VERTEX
  8
1
  6
CONTINUOUS
 62
     7
 10
-198.4290717478871
 20
263.6153819176163
  0
VERTEX
  8
1
  6
CONTINUOUS
 62
     7
 10
-198.4166850889825
 20
263.5789746871241
  0
VERTEX
  8
1
  6
CONTINUOUS
 62
     7
 10
-198.4035731423621
 20
263.5444791910263
  0
VERTEX
  8
1
  6
CONTINUOUS
 62
     7
 10
-198.3899016175382
 20
263.5118836879063
  0
VERTEX
  8
1
  6
CONTINUOUS
 62
     7
 10
-198.3758267986705
 20
263.4811667471168
  0
VERTEX
  8
1
  6
CONTINUOUS
 62
     7
 10
-198.3571856263323
 20
263.4440291569738
  0
VERTEX
  8
1
  6
CONTINUOUS
 62
     7
 10
-198.3384088145223
 20
263.4099276871013
  0
VERTEX
  8
1
  6
CONTINUOUS
 62
     7
 10
-198.3197679087311
 20
263.3787659792537
  0
VERTEX
  8
1
  6
CONTINUOUS
 62
     7
 10
-198.3015089174864
 20
263.3504372920838
  0
VERTEX
  8
1
  6
CONTINUOUS
 62
     7
 10
-198.2838533211623
 20
263.3248284153618
  0
VERTEX
  8
1
  6
CONTINUOUS
 62
     7
 10
-198.2669992377204
 20
263.3018231834778
  0
VERTEX
  8
1
  6
CONTINUOUS
 62
     7
 10
-198.2494339847548
 20
263.2791806245834
  0
VERTEX
  8
1
  6
CONTINUOUS
 62
     7
 10
-198.2294665048399
 20
263.2549207090414
  0
VERTEX
  8
1
  6
CONTINUOUS
 62
     7
 10
-198.206531590087
 20
263.228803181266
  0
VERTEX
  8
1
  6
CONTINUOUS
 62
     7
 10
-198.1803746432597
 20
263.2010645631422
  0
VERTEX
  8
1
  6
CONTINUOUS
 62
     7
 10
-198.1507275124949
 20
263.1719878739706
  0
VERTEX
  8
1
  6
CONTINUOUS
 62
     7
 10
-198.1248054306719
 20
263.1484199640979
  0
VERTEX
  8
1
  6
CONTINUOUS
 62
     7
 10
-198.0964245393689
 20
263.1244204037238
  0
VERTEX
  8
1
  6
CONTINUOUS
 62
     7
 10
-198.0654533969303
 20
263.1002018671258
  0
VERTEX
  8
1
  6
CONTINUOUS
 62
     7
 10
-198.0317661585301
 20
263.0760032325449
  0
VERTEX
  8
1
  6
CONTINUOUS
 62
     7
 10
-198.0043653472841
 20
263.0578463146919
  0
VERTEX
  8
1
  6
CONTINUOUS
 62
     7
 10
-197.9752923068942
 20
263.0399803388387
  0
VERTEX
  8
1
  6
CONTINUOUS
 62
     7
 10
-197.9445062330073
 20
263.0225422567158
  0
VERTEX
  8
1
  6
CONTINUOUS
 62
     7
 10
-197.9119727546582
 20
263.0056791166554
  0
VERTEX
  8
1
  6
CONTINUOUS
 62
     7
 10
-197.8776651795047
 20
262.9895481712763
  0
VERTEX
  8
1
  6
CONTINUOUS
 62
     7
 10
-197.8415658342323
 20
262.9743168751504
  0
VERTEX
  8
1
  6
CONTINUOUS
 62
     7
 10
-197.809191649253
 20
262.962111824742
  0
VERTEX
  8
1
  6
CONTINUOUS
 62
     7
 10
-197.7754979596591
 20
262.9508155398326
  0
VERTEX
  8
1
  6
CONTINUOUS
 62
     7
 10
-197.7404943754925
 20
262.9405506306005
  0
VERTEX
  8
1
  6
CONTINUOUS
 62
     7
 10
-197.7041985025583
 20
262.9314444981322
  0
VERTEX
  8
1
  6
CONTINUOUS
 62
     7
 10
-197.666636755294
 20
262.9236289576788
  0
VERTEX
  8
1
  6
CONTINUOUS
 62
     7
 10
-197.6278451971465
 20
262.9172397615027
  0
VERTEX
  8
1
  6
CONTINUOUS
 62
     7
 10
-197.5934346220625
 20
262.9129812058094
  0
SEQEND
  8
1
  6
CONTINUOUS
 62
     7
  0
LINE
  8
1
  6
CONTINUOUS
 62
     7
 10
-197.5934346220625
 20
262.9129812058094
 11
-197.5878704032639
 21
262.912416009909
  0
LINE
  8
1
  6
CONTINUOUS
 62
     7
 10
-199.0546643353571
 20
269.3773103510736
 11
-198.4741238478891
 21
263.8292155334784
  0
ENDBLK
  8
0
  0
BLOCK
  8
0
  2
D_FRAME_VIEW_1490
 70
     0
 10
0.0
 20
0.0
  0
LINE
  8
1
  6
CONTINUOUS
 62
     7
 10
-232.8042947933477
 20
171.5577983897217
 11
-230.0458499959415
 21
171.5577983897217
  0
LINE
  8
1
  6
CONTINUOUS
 62
     7
 10
-232.8042947933477
 20
171.5577983897217
 11
-216.1162299146761
 21
207.3454690119455
  0
LINE
  8
1
  6
CONTINUOUS
 62
     7
 10
-191.558984283383
 20
179.5577983897217
 11
-178.0351999076806
 21
208.5596475748945
  0
LINE
  8
1
  6
CONTINUOUS
 62
     7
 10
-216.1162299146762
 20
207.3454690119455
 11
-208.8496646669268
 21
222.9286684740783
  0
LINE
  8
1
  6
CONTINUOUS
 62
     9
 10
-197.8609029509798
 20
194.6335884340794
 11
-204.1300313579317
 21
197.5569310201982
  0
LINE
  8
1
  6
CONTINUOUS
 62
     7
 10
-204.1300313579317
 20
197.5569310201981
 11
-204.341340488802
 21
197.1037771266798
  0
POLYLINE
  8
1
  6
CONTINUOUS
 62
     7
 66
     1
  0
VERTEX
  8
1
  6
CONTINUOUS
 62
     7
 10
-203.8576509635061
 20
195.7748510779025
  0
VERTEX
  8
1
  6
CONTINUOUS
 62
     7
 10
-203.8981036633988
 20
195.7948658806382
  0
VERTEX
  8
1
  6
CONTINUOUS
 62
     7
 10
-203.9377013258167
 20
195.8167602994856
  0
VERTEX
  8
1
  6
CONTINUOUS
 62
     7
 10
-203.9763149541723
 20
195.840437475351
  0
VERTEX
  8
1
  6
CONTINUOUS
 62
     7
 10
-204.0138155518779
 20
195.8658005491407
  0
VERTEX
  8
1
  6
CONTINUOUS
 62
     7
 10
-204.0500741223461
 20
195.8927526617612
  0
VERTEX
  8
1
  6
CONTINUOUS
 62
     7
 10
-204.0849616689892
 20
195.9211969541186
  0
VERTEX
  8
1
  6
CONTINUOUS
 62
     7
 10
-204.1183491952196
 20
195.9510365671194
  0
VERTEX
  8
1
  6
CONTINUOUS
 62
     7
 10
-204.1502009511539
 20
195.9822342262505
  0
VERTEX
  8
1
  6
CONTINUOUS
 62
     7
 10
-204.1806147877029
 20
196.0148261427566
  0
VERTEX
  8
1
  6
CONTINUOUS
 62
     7
 10
-204.2095194792514
 20
196.0486921995294
  0
VERTEX
  8
1
  6
CONTINUOUS
 62
     7
 10
-204.2368438001845
 20
196.0837122794603
  0
VERTEX
  8
1
  6
CONTINUOUS
 62
     7
 10
-204.2625165248871
 20
196.1197662654409
  0
VERTEX
  8
1
  6
CONTINUOUS
 62
     7
 10
-204.2864664277441
 20
196.1567340403627
  0
VERTEX
  8
1
  6
CONTINUOUS
 62
     7
 10
-204.3086222831404
 20
196.1944954871173
  0
VERTEX
  8
1
  6
CONTINUOUS
 62
     7
 10
-204.3331113125402
 20
196.2413710835404
  0
VERTEX
  8
1
  6
CONTINUOUS
 62
     7
 10
-204.3550489604677
 20
196.2894151825269
  0
VERTEX
  8
1
  6
CONTINUOUS
 62
     7
 10
-204.3743930534915
 20
196.3384256398163
  0
VERTEX
  8
1
  6
CONTINUOUS
 62
     7
 10
-204.39110141818
 20
196.3882003111483
  0
VERTEX
  8
1
  6
CONTINUOUS
 62
     7
 10
-204.4051318811019
 20
196.4385370522624
  0
VERTEX
  8
1
  6
CONTINUOUS
 62
     7
 10
-204.4164422688255
 20
196.4892337188982
  0
VERTEX
  8
1
  6
CONTINUOUS
 62
     7
 10
-204.4244976217281
 20
196.5365065567159
  0
VERTEX
  8
1
  6
CONTINUOUS
 62
     7
 10
-204.4302638056471
 20
196.5841141579822
  0
VERTEX
  8
1
  6
CONTINUOUS
 62
     7
 10
-204.4337489457392
 20
196.6319133898753
  0
VERTEX
  8
1
  6
CONTINUOUS
 62
     7
 10
-204.4349611671611
 20
196.6797611195734
  0
VERTEX
  8
1
  6
CONTINUOUS
 62
     7
 10
-204.4339085950699
 20
196.7275142142547
  0
VERTEX
  8
1
  6
CONTINUOUS
 62
     7
 10
-204.4305993546223
 20
196.7750295410976
  0
VERTEX
  8
1
  6
CONTINUOUS
 62
     7
 10
-204.4250415709751
 20
196.8221639672802
  0
VERTEX
  8
1
  6
CONTINUOUS
 62
     7
 10
-204.4169250306006
 20
196.8705272665258
  0
VERTEX
  8
1
  6
CONTINUOUS
 62
     7
 10
-204.4064189584924
 20
196.918518005758
  0
VERTEX
  8
1
  6
CONTINUOUS
 62
     7
 10
-204.3935654114545
 20
196.9659872731831
  0
VERTEX
  8
1
  6
CONTINUOUS
 62
     7
 10
-204.3784064462908
 20
197.0127861570076
  0
VERTEX
  8
1
  6
CONTINUOUS
 62
     7
 10
-204.3609841198053
 20
197.0587657454377
  0
VERTEX
  8
1
  6
CONTINUOUS
 62
     7
 10
-204.341340488802
 20
197.1037771266798
  0
SEQEND
  8
1
  6
CONTINUOUS
 62
     7
  0
LINE
  8
1
  6
CONTINUOUS
 62
     7
 10
-197.9666503477679
 20
193.0278323765879
 11
-203.8576509635061
 21
195.7748510779025
  0
ARC
  8
1
  6
CONTINUOUS
 62
     7
 10
-197.544381535719
 20
193.9346841577915
 40
1.000546670444165
 50
275.9594767776628
 51
334.9802241525809
  0
POLYLINE
  8
1
  6
CONTINUOUS
 62
     7
 66
     1
  0
VERTEX
  8
1
  6
CONTINUOUS
 62
     7
 10
-197.4404997296403
 20
192.9395448659822
  0
VERTEX
  8
1
  6
CONTINUOUS
 62
     7
 10
-197.5776717516219
 20
192.9347832413291
  0
VERTEX
  8
1
  6
CONTINUOUS
 62
     7
 10
-197.7061846309654
 20
192.9474960810377
  0
VERTEX
  8
1
  6
CONTINUOUS
 62
     7
 10
-197.8323755318528
 20
192.9766131106128
  0
VERTEX
  8
1
  6
CONTINUOUS
 62
     7
 10
-197.9337852038998
 20
193.013223608742
  0
VERTEX
  8
1
  6
CONTINUOUS
 62
     7
 10
-197.9666503477679
 20
193.0278323765879
  0
SEQEND
  8
1
  6
CONTINUOUS
 62
     7
  0
POLYLINE
  8
1
  6
CONTINUOUS
 62
     7
 66
     1
  0
VERTEX
  8
1
  6
CONTINUOUS
 62
     7
 10
-192.4726129451388
 20
204.8098336080644
  0
VERTEX
  8
1
  6
CONTINUOUS
 62
     7
 10
-192.4321602452461
 20
204.7898188053287
  0
VERTEX
  8
1
  6
CONTINUOUS
 62
     7
 10
-192.3925625828282
 20
204.7679243864813
  0
VERTEX
  8
1
  6
CONTINUOUS
 62
     7
 10
-192.3539489544726
 20
204.7442472106159
  0
VERTEX
  8
1
  6
CONTINUOUS
 62
     7
 10
-192.316448356767
 20
204.7188841368261
  0
VERTEX
  8
1
  6
CONTINUOUS
 62
     7
 10
-192.2801897862988
 20
204.6919320242057
  0
VERTEX
  8
1
  6
CONTINUOUS
 62
     7
 10
-192.2453022396557
 20
204.6634877318482
  0
VERTEX
  8
1
  6
CONTINUOUS
 62
     7
 10
-192.2119147134253
 20
204.6336481188474
  0
VERTEX
  8
1
  6
CONTINUOUS
 62
     7
 10
-192.1800629574909
 20
204.6024504597164
  0
VERTEX
  8
1
  6
CONTINUOUS
 62
     7
 10
-192.149649120942
 20
204.5698585432102
  0
VERTEX
  8
1
  6
CONTINUOUS
 62
     7
 10
-192.1207444293935
 20
204.5359924864374
  0
VERTEX
  8
1
  6
CONTINUOUS
 62
     7
 10
-192.0934201084603
 20
204.5009724065065
  0
VERTEX
  8
1
  6
CONTINUOUS
 62
     7
 10
-192.0677473837578
 20
204.4649184205259
  0
VERTEX
  8
1
  6
CONTINUOUS
 62
     7
 10
-192.0437974809008
 20
204.4279506456041
  0
VERTEX
  8
1
  6
CONTINUOUS
 62
     7
 10
-192.0216416255044
 20
204.3901891988496
  0
VERTEX
  8
1
  6
CONTINUOUS
 62
     7
 10
-191.9971525961047
 20
204.3433136024264
  0
VERTEX
  8
1
  6
CONTINUOUS
 62
     7
 10
-191.9752149481772
 20
204.29526950344
  0
VERTEX
  8
1
  6
CONTINUOUS
 62
     7
 10
-191.9558708551534
 20
204.2462590461505
  0
VERTEX
  8
1
  6
CONTINUOUS
 62
     7
 10
-191.9391624904649
 20
204.1964843748185
  0
VERTEX
  8
1
  6
CONTINUOUS
 62
     7
 10
-191.925132027543
 20
204.1461476337044
  0
VERTEX
  8
1
  6
CONTINUOUS
 62
     7
 10
-191.9138216398193
 20
204.0954509670686
  0
VERTEX
  8
1
  6
CONTINUOUS
 62
     7
 10
-191.9057662869167
 20
204.0481781292509
  0
VERTEX
  8
1
  6
CONTINUOUS
 62
     7
 10
-191.9000001029978
 20
204.0005705279846
  0
VERTEX
  8
1
  6
CONTINUOUS
 62
     7
 10
-191.8965149629058
 20
203.9527712960916
  0
VERTEX
  8
1
  6
CONTINUOUS
 62
     7
 10
-191.8953027414838
 20
203.9049235663935
  0
VERTEX
  8
1
  6
CONTINUOUS
 62
     7
 10
-191.896355313575
 20
203.8571704717122
  0
VERTEX
  8
1
  6
CONTINUOUS
 62
     7
 10
-191.8996645540226
 20
203.8096551448693
  0
VERTEX
  8
1
  6
CONTINUOUS
 62
     7
 10
-191.9052223376698
 20
203.7625207186867
  0
VERTEX
  8
1
  6
CONTINUOUS
 62
     7
 10
-191.9133388780443
 20
203.7141574194411
  0
VERTEX
  8
1
  6
CONTINUOUS
 62
     7
 10
-191.9238449501525
 20
203.6661666802088
  0
VERTEX
  8
1
  6
CONTINUOUS
 62
     7
 10
-191.9366984971904
 20
203.6186974127837
  0
VERTEX
  8
1
  6
CONTINUOUS
 62
     7
 10
-191.9518574623541
 20
203.5718985289592
  0
VERTEX
  8
1
  6
CONTINUOUS
 62
     7
 10
-191.9692797888396
 20
203.5259189405292
  0
VERTEX
  8
1
  6
CONTINUOUS
 62
     7
 10
-191.9889234198428
 20
203.4809075592871
  0
SEQEND
  8
1
  6
CONTINUOUS
 62
     7
  0
LINE
  8
1
  6
CONTINUOUS
 62
     7
 10
-198.3636135608771
 20
207.556852309379
 11
-192.4726129451388
 21
204.8098336080644
  0
ARC
  8
1
  6
CONTINUOUS
 62
     7
 10
-198.785882372926
 20
206.6500005281755
 40
1.000546670444027
 50
95.95947677766054
 51
154.9802241525869
  0
POLYLINE
  8
1
  6
CONTINUOUS
 62
     7
 66
     1
  0
VERTEX
  8
1
  6
CONTINUOUS
 62
     7
 10
-198.8897641790046
 20
207.6451398199847
  0
VERTEX
  8
1
  6
CONTINUOUS
 62
     7
 10
-198.752592157023
 20
207.6499014446378
  0
VERTEX
  8
1
  6
CONTINUOUS
 62
     7
 10
-198.6240792776796
 20
207.6371886049292
  0
VERTEX
  8
1
  6
CONTINUOUS
 62
     7
 10
-198.4978883767921
 20
207.6080715753541
  0
VERTEX
  8
1
  6
CONTINUOUS
 62
     7
 10
-198.3964787047451
 20
207.5714610772249
  0
VERTEX
  8
1
  6
CONTINUOUS
 62
     7
 10
-198.3636135608771
 20
207.556852309379
  0
SEQEND
  8
1
  6
CONTINUOUS
 62
     7
  0
LINE
  8
1
  6
CONTINUOUS
 62
     7
 10
-199.9038487405247
 20
206.6200088905646
 11
-199.6925396096543
 21
207.073162784083
  0
LINE
  8
1
  6
CONTINUOUS
 62
     9
 10
-193.6347203335728
 20
203.6966663044459
 11
-199.9038487405247
 21
206.6200088905646
  0
LINE
  8
1
  6
CONTINUOUS
 62
     7
 10
-196.6377242989906
 20
193.5115219018839
 11
-191.9889234198428
 21
203.480907559287
  0
LINE
  8
1
  6
CONTINUOUS
 62
     7
 10
-188.0373302541231
 20
180.839575631756
 11
-176.7534226656464
 21
205.0379935456345
  0
LINE
  8
1
  6
CONTINUOUS
 62
     7
 10
-147.1957052066523
 20
171.5577983897217
 11
-172.7451897290379
 21
171.5577983897217
  0
LINE
  8
1
  6
CONTINUOUS
 62
     7
 10
-149.6957052066523
 20
174.0577983897217
 11
-172.7451897290379
 21
174.0577983897217
  0
LINE
  8
1
  6
CONTINUOUS
 62
     7
 10
-172.7451897290379
 20
174.0577983897217
 11
-172.7451897290379
 21
171.5577983897217
  0
LINE
  8
1
  6
CONTINUOUS
 62
     7
 10
-195.2215838797124
 20
205.5400108474202
 11
-199.3598082589688
 21
207.4696965666313
  0
LINE
  8
1
  6
CONTINUOUS
 62
     7
 10
-195.2215838797124
 20
205.5400108474202
 11
-194.0433837565641
 21
204.9906071071571
  0
LINE
  8
1
  6
CONTINUOUS
 62
     7
 10
-192.5811088989103
 20
204.3087371427056
 11
-194.0433837565641
 21
204.9906071071571
  0
LINE
  8
1
  6
CONTINUOUS
 62
     7
 10
-197.6525280397987
 20
193.4330436982658
 11
-199.1148028974525
 21
194.1149136627174
  0
LINE
  8
1
  6
CONTINUOUS
 62
     7
 10
-199.1148028974525
 20
194.1149136627174
 11
-200.2930030206002
 21
194.6643174029802
  0
LINE
  8
1
  6
CONTINUOUS
 62
     7
 10
-200.2930030206001
 20
194.6643174029802
 11
-204.4312273998571
 21
196.5940031221915
  0
LINE
  8
1
  6
CONTINUOUS
 62
     7
 10
-197.1103666145476
 20
193.6810379768224
 11
-192.4225888913224
 21
203.7340097460891
  0
POLYLINE
  8
1
  6
CONTINUOUS
 62
     7
 66
     1
  0
VERTEX
  8
1
  6
CONTINUOUS
 62
     7
 10
-192.5811088989103
 20
204.3087371427056
  0
VERTEX
  8
1
  6
CONTINUOUS
 62
     7
 10
-192.5660946584522
 20
204.3013609647252
  0
VERTEX
  8
1
  6
CONTINUOUS
 62
     7
 10
-192.5513558542303
 20
204.2933586350318
  0
VERTEX
  8
1
  6
CONTINUOUS
 62
     7
 10
-192.5369477057714
 20
204.284748786325
  0
VERTEX
  8
1
  6
CONTINUOUS
 62
     7
 10
-192.5229254326026
 20
204.2755500513047
  0
VERTEX
  8
1
  6
CONTINUOUS
 62
     7
 10
-192.5093442542511
 20
204.2657810626705
  0
VERTEX
  8
1
  6
CONTINUOUS
 62
     7
 10
-192.4962593902437
 20
204.2554604531221
  0
VERTEX
  8
1
  6
CONTINUOUS
 62
     7
 10
-192.4837260601077
 20
204.2446068553594
  0
VERTEX
  8
1
  6
CONTINUOUS
 62
     7
 10
-192.471725940772
 20
204.2331736160438
  0
VERTEX
  8
1
  6
CONTINUOUS
 62
     7
 10
-192.4602849765922
 20
204.2211888759805
  0
VERTEX
  8
1
  6
CONTINUOUS
 62
     7
 10
-192.4494361736802
 20
204.2087029918078
  0
VERTEX
  8
1
  6
CONTINUOUS
 62
     7
 10
-192.4392125381479
 20
204.1957663201638
  0
VERTEX
  8
1
  6
CONTINUOUS
 62
     7
 10
-192.4296470761075
 20
204.1824292176867
  0
VERTEX
  8
1
  6
CONTINUOUS
 62
     7
 10
-192.4207727936708
 20
204.1687420410147
  0
VERTEX
  8
1
  6
CONTINUOUS
 62
     7
 10
-192.4126226969501
 20
204.1547551467862
  0
VERTEX
  8
1
  6
CONTINUOUS
 62
     7
 10
-192.4042987135773
 20
204.1386485095157
  0
VERTEX
  8
1
  6
CONTINUOUS
 62
     7
 10
-192.3968403022273
 20
204.1221777405557
  0
VERTEX
  8
1
  6
CONTINUOUS
 62
     7
 10
-192.3902418348569
 20
204.1054098193245
  0
VERTEX
  8
1
  6
CONTINUOUS
 62
     7
 10
-192.3844976834228
 20
204.0884117252405
  0
VERTEX
  8
1
  6
CONTINUOUS
 62
     7
 10
-192.3796022198819
 20
204.071250437722
  0
VERTEX
  8
1
  6
CONTINUOUS
 62
     7
 10
-192.375549816191
 20
204.0539929361873
  0
VERTEX
  8
1
  6
CONTINUOUS
 62
     7
 10
-192.3716294614098
 20
204.0323088750328
  0
VERTEX
  8
1
  6
CONTINUOUS
 62
     7
 10
-192.3689115979367
 20
204.0104840693248
  0
VERTEX
  8
1
  6
CONTINUOUS
 62
     7
 10
-192.3673463503575
 20
203.9885859810507
  0
VERTEX
  8
1
  6
CONTINUOUS
 62
     7
 10
-192.3668838432582
 20
203.9666820721982
  0
VERTEX
  8
1
  6
CONTINUOUS
 62
     7
 10
-192.3674742012244
 20
203.9448398047548
  0
VERTEX
  8
1
  6
CONTINUOUS
 62
     7
 10
-192.3690675488421
 20
203.923126640708
  0
VERTEX
  8
1
  6
CONTINUOUS
 62
     7
 10
-192.371614010697
 20
203.9016100420455
  0
VERTEX
  8
1
  6
CONTINUOUS
 62
     7
 10
-192.3765024729709
 20
203.8727443660514
  0
VERTEX
  8
1
  6
CONTINUOUS
 62
     7
 10
-192.3829587906242
 20
203.8441671631597
  0
VERTEX
  8
1
  6
CONTINUOUS
 62
     7
 10
-192.3908892774714
 20
203.8159417665439
  0
VERTEX
  8
1
  6
CONTINUOUS
 62
     7
 10
-192.4002002473272
 20
203.7881315093777
  0
VERTEX
  8
1
  6
CONTINUOUS
 62
     7
 10
-192.4107980140061
 20
203.7607997248348
  0
VERTEX
  8
1
  6
CONTINUOUS
 62
     7
 10
-192.4225888913225
 20
203.7340097460891
  0
SEQEND
  8
1
  6
CONTINUOUS
 62
     7
  0
POLYLINE
  8
1
  6
CONTINUOUS
 62
     7
 66
     1
  0
VERTEX
  8
1
  6
CONTINUOUS
 62
     7
 10
-197.1103666145476
 20
193.6810379768224
  0
VERTEX
  8
1
  6
CONTINUOUS
 62
     7
 10
-197.1232620375542
 20
193.6548834802096
  0
VERTEX
  8
1
  6
CONTINUOUS
 62
     7
 10
-197.1373596453224
 20
193.629244094744
  0
VERTEX
  8
1
  6
CONTINUOUS
 62
     7
 10
-197.1526663354685
 20
193.6042453536626
  0
VERTEX
  8
1
  6
CONTINUOUS
 62
     7
 10
-197.1691890056093
 20
193.5800127902021
  0
VERTEX
  8
1
  6
CONTINUOUS
 62
     7
 10
-197.1869345533617
 20
193.5566719375994
  0
VERTEX
  8
1
  6
CONTINUOUS
 62
     7
 10
-197.2059098763424
 20
193.5343483290912
  0
VERTEX
  8
1
  6
CONTINUOUS
 62
     7
 10
-197.2261218721683
 20
193.5131674979145
  0
VERTEX
  8
1
  6
CONTINUOUS
 62
     7
 10
-197.2475774384564
 20
193.4932549773059
  0
VERTEX
  8
1
  6
CONTINUOUS
 62
     7
 10
-197.2643001662257
 20
193.4793892282001
  0
VERTEX
  8
1
  6
CONTINUOUS
 62
     7
 10
-197.2817951829742
 20
193.4662960364608
  0
VERTEX
  8
1
  6
CONTINUOUS
 62
     7
 10
-197.3000237850615
 20
193.4540662926937
  0
VERTEX
  8
1
  6
CONTINUOUS
 62
     7
 10
-197.318947268847
 20
193.4427908875042
  0
VERTEX
  8
1
  6
CONTINUOUS
 62
     7
 10
-197.3385269306901
 20
193.4325607114978
  0
VERTEX
  8
1
  6
CONTINUOUS
 62
     7
 10
-197.3587240669505
 20
193.4234666552798
  0
VERTEX
  8
1
  6
CONTINUOUS
 62
     7
 10
-197.3738761900175
 20
193.4175864275451
  0
VERTEX
  8
1
  6
CONTINUOUS
 62
     7
 10
-197.3893929871404
 20
193.412363938193
  0
VERTEX
  8
1
  6
CONTINUOUS
 62
     7
 10
-197.4052262854279
 20
193.4078285341736
  0
VERTEX
  8
1
  6
CONTINUOUS
 62
     7
 10
-197.4213279119892
 20
193.4040095624367
  0
VERTEX
  8
1
  6
CONTINUOUS
 62
     7
 10
-197.4376496939331
 20
193.4009363699323
  0
VERTEX
  8
1
  6
CONTINUOUS
 62
     7
 10
-197.4541434583684
 20
193.3986383036103
  0
VERTEX
  8
1
  6
CONTINUOUS
 62
     7
 10
-197.4707610324042
 20
193.3971447104207
  0
VERTEX
  8
1
  6
CONTINUOUS
 62
     7
 10
-197.4875690828458
 20
193.396479054296
  0
VERTEX
  8
1
  6
CONTINUOUS
 62
     7
 10
-197.5045142837373
 20
193.3966448874619
  0
VERTEX
  8
1
  6
CONTINUOUS
 62
     7
 10
-197.5215303404735
 20
193.3976311829633
  0
VERTEX
  8
1
  6
CONTINUOUS
 62
     7
 10
-197.5385509584488
 20
193.399426913845
  0
VERTEX
  8
1
  6
CONTINUOUS
 62
     7
 10
-197.5555098430577
 20
193.4020210531516
  0
VERTEX
  8
1
  6
CONTINUOUS
 62
     7
 10
-197.5723406996947
 20
193.4054025739281
  0
VERTEX
  8
1
  6
CONTINUOUS
 62
     7
 10
-197.5889772337544
 20
193.4095604492192
  0
VERTEX
  8
1
  6
CONTINUOUS
 62
     7
 10
-197.605190639922
 20
193.4144067002483
  0
VERTEX
  8
1
  6
CONTINUOUS
 62
     7
 10
-197.6212171353196
 20
193.4199603671552
  0
VERTEX
  8
1
  6
CONTINUOUS
 62
     7
 10
-197.6370113814456
 20
193.4261848873558
  0
VERTEX
  8
1
  6
CONTINUOUS
 62
     7
 10
-197.6525280397987
 20
193.4330436982658
  0
SEQEND
  8
1
  6
CONTINUOUS
 62
     7
  0
LINE
  8
1
  6
CONTINUOUS
 62
     7
 10
-172.745189729038
 20
175.0577983897217
 11
-172.745189729038
 21
174.4366465723226
  0
POLYLINE
  8
1
  6
CONTINUOUS
 62
     7
 66
     1
  0
VERTEX
  8
1
  6
CONTINUOUS
 62
     7
 10
-173.2451897290379
 20
175.5577983897217
  0
VERTEX
  8
1
  6
CONTINUOUS
 62
     7
 10
-173.216729944124
 20
175.5569892924791
  0
VERTEX
  8
1
  6
CONTINUOUS
 62
     7
 10
-173.1878418091217
 20
175.5545040231352
  0
VERTEX
  8
1
  6
CONTINUOUS
 62
     7
 10
-173.1586196363848
 20
175.550255615266
  0
VERTEX
  8
1
  6
CONTINUOUS
 62
     7
 10
-173.1291577382674
 20
175.5441571024473
  0
VERTEX
  8
1
  6
CONTINUOUS
 62
     7
 10
-173.0995504271233
 20
175.5361215182552
  0
VERTEX
  8
1
  6
CONTINUOUS
 62
     7
 10
-173.0698920153067
 20
175.5260618962654
  0
VERTEX
  8
1
  6
CONTINUOUS
 62
     7
 10
-173.047236377161
 20
175.516940093223
  0
VERTEX
  8
1
  6
CONTINUOUS
 62
     7
 10
-173.0245624989811
 20
175.506480564819
  0
VERTEX
  8
1
  6
CONTINUOUS
 62
     7
 10
-173.0019737133524
 20
175.4946471687822
  0
VERTEX
  8
1
  6
CONTINUOUS
 62
     7
 10
-172.9795733528598
 20
175.4814037628409
  0
VERTEX
  8
1
  6
CONTINUOUS
 62
     7
 10
-172.9574647500886
 20
175.466714204724
  0
VERTEX
  8
1
  6
CONTINUOUS
 62
     7
 10
-172.9357512376241
 20
175.4505423521598
  0
VERTEX
  8
1
  6
CONTINUOUS
 62
     7
 10
-172.9213082952953
 20
175.4387105486079
  0
VERTEX
  8
1
  6
CONTINUOUS
 62
     7
 10
-172.9070686066145
 20
175.4261127897029
  0
VERTEX
  8
1
  6
CONTINUOUS
 62
     7
 10
-172.89309281192
 20
175.4127648301429
  0
VERTEX
  8
1
  6
CONTINUOUS
 62
     7
 10
-172.8794415515501
 20
175.3986824246259
  0
VERTEX
  8
1
  6
CONTINUOUS
 62
     7
 10
-172.866175465843
 20
175.3838813278502
  0
VERTEX
  8
1
  6
CONTINUOUS
 62
     7
 10
-172.8533551951369
 20
175.3683772945139
  0
VERTEX
  8
1
  6
CONTINUOUS
 62
     7
 10
-172.8410413797702
 20
175.3521860793151
  0
VERTEX
  8
1
  6
CONTINUOUS
 62
     7
 10
-172.8312140274654
 20
175.3381831132158
  0
VERTEX
  8
1
  6
CONTINUOUS
 62
     7
 10
-172.8217594297849
 20
175.3236612833648
  0
VERTEX
  8
1
  6
CONTINUOUS
 62
     7
 10
-172.812717399171
 20
175.3086639852901
  0
VERTEX
  8
1
  6
CONTINUOUS
 62
     7
 10
-172.8041277480656
 20
175.2932346145195
  0
VERTEX
  8
1
  6
CONTINUOUS
 62
     7
 10
-172.7960302889107
 20
175.2774165665809
  0
VERTEX
  8
1
  6
CONTINUOUS
 62
     7
 10
-172.7884648341486
 20
175.2612532370024
  0
VERTEX
  8
1
  6
CONTINUOUS
 62
     7
 10
-172.7814711962211
 20
175.2447880213117
  0
VERTEX
  8
1
  6
CONTINUOUS
 62
     7
 10
-172.7750463474845
 20
175.2279566483331
  0
VERTEX
  8
1
  6
CONTINUOUS
 62
     7
 10
-172.7692088560164
 20
175.2108035422312
  0
VERTEX
  8
1
  6
CONTINUOUS
 62
     7
 10
-172.7639751286815
 20
175.1933967643302
  0
VERTEX
  8
1
  6
CONTINUOUS
 62
     7
 10
-172.7593615723443
 20
175.1758043759541
  0
VERTEX
  8
1
  6
CONTINUOUS
 62
     7
 10
-172.7553845938694
 20
175.158094438427
  0
VERTEX
  8
1
  6
CONTINUOUS
 62
     7
 10
-172.7520606001215
 20
175.140335013073
  0
VERTEX
  8
1
  6
CONTINUOUS
 62
     7
 10
-172.7494059979651
 20
175.1225941612161
  0
VERTEX
  8
1
  6
CONTINUOUS
 62
     7
 10
-172.7475506806435
 20
175.1063145475047
  0
VERTEX
  8
1
  6
CONTINUOUS
 62
     7
 10
-172.7462342854553
 20
175.09005810861
  0
VERTEX
  8
1
  6
CONTINUOUS
 62
     7
 10
-172.7454496792901
 20
175.0738707531447
  0
VERTEX
  8
1
  6
CONTINUOUS
 62
     7
 10
-172.745189729038
 20
175.0577983897217
  0
SEQEND
  8
1
  6
CONTINUOUS
 62
     7
  0
LINE
  8
1
  6
CONTINUOUS
 62
     7
 10
-174.066795962136
 20
175.5577983897217
 11
-173.2451897290379
 21
175.5577983897217
  0
POLYLINE
  8
1
  6
CONTINUOUS
 62
     7
 66
     1
  0
VERTEX
  8
1
  6
CONTINUOUS
 62
     7
 10
-174.4104429056794
 20
175.0577983897217
  0
VERTEX
  8
1
  6
CONTINUOUS
 62
     7
 10
-174.4116351089003
 20
175.0778543621444
  0
VERTEX
  8
1
  6
CONTINUOUS
 62
     7
 10
-174.4122308553559
 20
175.0976457912845
  0
VERTEX
  8
1
  6
CONTINUOUS
 62
     7
 10
-174.4122542281669
 20
175.1171320228105
  0
VERTEX
  8
1
  6
CONTINUOUS
 62
     7
 10
-174.4117293104539
 20
175.1362724023908
  0
VERTEX
  8
1
  6
CONTINUOUS
 62
     7
 10
-174.4106801853376
 20
175.1550262756938
  0
VERTEX
  8
1
  6
CONTINUOUS
 62
     7
 10
-174.4091309359386
 20
175.1733529883879
  0
VERTEX
  8
1
  6
CONTINUOUS
 62
     7
 10
-174.4071056453776
 20
175.1912118861416
  0
VERTEX
  8
1
  6
CONTINUOUS
 62
     7
 10
-174.4046283967753
 20
175.2085623146234
  0
VERTEX
  8
1
  6
CONTINUOUS
 62
     7
 10
-174.4000946188612
 20
175.233787122993
  0
VERTEX
  8
1
  6
CONTINUOUS
 62
     7
 10
-174.3946354453349
 20
175.2580734467527
  0
VERTEX
  8
1
  6
CONTINUOUS
 62
     7
 10
-174.3883044593343
 20
175.2814091405193
  0
VERTEX
  8
1
  6
CONTINUOUS
 62
     7
 10
-174.3811552439977
 20
175.3037820589091
  0
VERTEX
  8
1
  6
CONTINUOUS
 62
     7
 10
-174.3732413824632
 20
175.3251800565386
  0
VERTEX
  8
1
  6
CONTINUOUS
 62
     7
 10
-174.3646164578689
 20
175.3455909880244
  0
VERTEX
  8
1
  6
CONTINUOUS
 62
     7
 10
-174.3553340533529
 20
175.365002707983
  0
VERTEX
  8
1
  6
CONTINUOUS
 62
     7
 10
-174.341459626182
 20
175.3902801417687
  0
VERTEX
  8
1
  6
CONTINUOUS
 62
     7
 10
-174.3263681038254
 20
175.4138859781069
  0
VERTEX
  8
1
  6
CONTINUOUS
 62
     7
 10
-174.3101220896246
 20
175.4357970485866
  0
VERTEX
  8
1
  6
CONTINUOUS
 62
     7
 10
-174.2927841869212
 20
175.4559901847964
  0
VERTEX
  8
1
  6
CONTINUOUS
 62
     7
 10
-174.2744169990567
 20
175.4744422183252
  0
VERTEX
  8
1
  6
CONTINUOUS
 62
     7
 10
-174.2550831293728
 20
175.4911299807618
  0
VERTEX
  8
1
  6
CONTINUOUS
 62
     7
 10
-174.234845181211
 20
175.5060303036951
  0
VERTEX
  8
1
  6
CONTINUOUS
 62
     7
 10
-174.2134818348478
 20
175.5192700724025
  0
VERTEX
  8
1
  6
CONTINUOUS
 62
     7
 10
-174.1911254663627
 20
175.5306991266785
  0
VERTEX
  8
1
  6
CONTINUOUS
 62
     7
 10
-174.1678431520423
 20
175.5402350296128
  0
VERTEX
  8
1
  6
CONTINUOUS
 62
     7
 10
-174.143701968173
 20
175.5477953442947
  0
VERTEX
  8
1
  6
CONTINUOUS
 62
     7
 10
-174.1187689910412
 20
175.5532976338138
  0
VERTEX
  8
1
  6
CONTINUOUS
 62
     7
 10
-174.0931112969334
 20
175.5566594612596
  0
VERTEX
  8
1
  6
CONTINUOUS
 62
     7
 10
-174.066795962136
 20
175.5577983897217
  0
SEQEND
  8
1
  6
CONTINUOUS
 62
     7
  0
LINE
  8
1
  6
CONTINUOUS
 62
     7
 10
-174.3753966650733
 20
174.4450173948535
 11
-174.4104429056794
 21
175.0577983897217
  0
LINE
  8
1
  6
CONTINUOUS
 62
     7
 10
-172.7451897290379
 20
174.4346644774418
 11
-172.7451897290379
 21
174.0577983897217
  0
LINE
  8
1
  6
CONTINUOUS
 62
     7
 10
-172.7451897290379
 20
171.5577983897217
 11
-172.7451897290379
 21
167.3681850887449
  0
LINE
  8
1
  6
CONTINUOUS
 62
     7
 10
-172.7451897290379
 20
165.5577983897217
 11
-150.8457052066522
 21
165.5577983897217
  0
LINE
  8
1
  6
CONTINUOUS
 62
     7
 10
-172.7451897290379
 20
167.3681850887449
 11
-172.7451897290379
 21
165.5577983897217
  0
POLYLINE
  8
1
  6
CONTINUOUS
 62
     7
 66
     1
  0
VERTEX
  8
1
  6
CONTINUOUS
 62
     7
 10
-173.2451897290379
 20
175.5577983897217
  0
VERTEX
  8
1
  6
CONTINUOUS
 62
     7
 10
-173.2012829491324
 20
175.5559844920206
  0
VERTEX
  8
1
  6
CONTINUOUS
 62
     7
 10
-173.156398799776
 20
175.5501826987465
  0
VERTEX
  8
1
  6
CONTINUOUS
 62
     7
 10
-173.1107619008401
 20
175.539852859643
  0
VERTEX
  8
1
  6
CONTINUOUS
 62
     7
 10
-173.0645968721962
 20
175.5244548244542
  0
VERTEX
  8
1
  6
CONTINUOUS
 62
     7
 10
-173.0181283337159
 20
175.5034484429236
  0
VERTEX
  8
1
  6
CONTINUOUS
 62
     7
 10
-172.9715809052708
 20
175.4762935647951
  0
VERTEX
  8
1
  6
CONTINUOUS
 62
     7
 10
-172.9496389692769
 20
175.4611087519776
  0
VERTEX
  8
1
  6
CONTINUOUS
 62
     7
 10
-172.9277860654921
 20
175.4441565462562
  0
VERTEX
  8
1
  6
CONTINUOUS
 62
     7
 10
-172.9061249019267
 20
175.4252837427994
  0
VERTEX
  8
1
  6
CONTINUOUS
 62
     7
 10
-172.8847581865911
 20
175.4043371367751
  0
VERTEX
  8
1
  6
CONTINUOUS
 62
     7
 10
-172.8706260102022
 20
175.389026491804
  0
VERTEX
  8
1
  6
CONTINUOUS
 62
     7
 10
-172.8566767993083
 20
175.3725754149108
  0
VERTEX
  8
1
  6
CONTINUOUS
 62
     7
 10
-172.8430011960646
 20
175.3549178052241
  0
VERTEX
  8
1
  6
CONTINUOUS
 62
     7
 10
-172.8296898426263
 20
175.3359875618731
  0
VERTEX
  8
1
  6
CONTINUOUS
 62
     7
 10
-172.8168333811483
 20
175.3157185839863
  0
VERTEX
  8
1
  6
CONTINUOUS
 62
     7
 10
-172.807301306299
 20
175.2991564830838
  0
SEQEND
  8
1
  6
CONTINUOUS
 62
     7
  0
LINE
  8
1
  6
CONTINUOUS
 62
     7
 10
-173.6063345288586
 20
175.0577983897217
 11
-173.6063345288586
 21
166.5577983897217
  0
POLYLINE
  8
1
  6
CONTINUOUS
 62
     7
 66
     1
  0
VERTEX
  8
1
  6
CONTINUOUS
 62
     7
 10
-173.2815823338404
 20
175.5577983897217
  0
VERTEX
  8
1
  6
CONTINUOUS
 62
     7
 10
-173.3086104756613
 20
175.5562193059398
  0
VERTEX
  8
1
  6
CONTINUOUS
 62
     7
 10
-173.3352932014034
 20
175.5514582473061
  0
VERTEX
  8
1
  6
CONTINUOUS
 62
     7
 10
-173.3615383426048
 20
175.5434795028887
  0
VERTEX
  8
1
  6
CONTINUOUS
 62
     7
 10
-173.387253730804
 20
175.5322473617556
  0
VERTEX
  8
1
  6
CONTINUOUS
 62
     7
 10
-173.4123471975394
 20
175.517726112975
  0
VERTEX
  8
1
  6
CONTINUOUS
 62
     7
 10
-173.4367265743493
 20
175.4998800456148
  0
VERTEX
  8
1
  6
CONTINUOUS
 62
     7
 10
-173.460299692772
 20
175.4786734487433
  0
VERTEX
  8
1
  6
CONTINUOUS
 62
     7
 10
-173.476095230971
 20
175.4619836857891
  0
VERTEX
  8
1
  6
CONTINUOUS
 62
     7
 10
-173.4914963173167
 20
175.4434563090566
  0
VERTEX
  8
1
  6
CONTINUOUS
 62
     7
 10
-173.5064311184688
 20
175.4229956500537
  0
VERTEX
  8
1
  6
CONTINUOUS
 62
     7
 10
-173.5208278010867
 20
175.4005060402885
  0
VERTEX
  8
1
  6
CONTINUOUS
 62
     7
 10
-173.5346145318298
 20
175.3758918112688
  0
VERTEX
  8
1
  6
CONTINUOUS
 62
     7
 10
-173.5431472439693
 20
175.3588339568356
  0
VERTEX
  8
1
  6
CONTINUOUS
 62
     7
 10
-173.5513985763416
 20
175.3407130910368
  0
VERTEX
  8
1
  6
CONTINUOUS
 62
     7
 10
-173.559313654627
 20
175.3215067389461
  0
VERTEX
  8
1
  6
CONTINUOUS
 62
     7
 10
-173.5668376045058
 20
175.3011924256372
  0
VERTEX
  8
1
  6
CONTINUOUS
 62
     7
 10
-173.5739155516583
 20
175.2797476761836
  0
VERTEX
  8
1
  6
CONTINUOUS
 62
     7
 10
-173.5804926217648
 20
175.2571500156591
  0
VERTEX
  8
1
  6
CONTINUOUS
 62
     7
 10
-173.5843652773463
 20
175.2422471501397
  0
VERTEX
  8
1
  6
CONTINUOUS
 62
     7
 10
-173.5880077127262
 20
175.226803295124
  0
VERTEX
  8
1
  6
CONTINUOUS
 62
     7
 10
-173.5913930396412
 20
175.2108521789805
  0
VERTEX
  8
1
  6
CONTINUOUS
 62
     7
 10
-173.5944943698281
 20
175.1944275300779
  0
VERTEX
  8
1
  6
CONTINUOUS
 62
     7
 10
-173.5972848150233
 20
175.1775630767847
  0
VERTEX
  8
1
  6
CONTINUOUS
 62
     7
 10
-173.5997374869636
 20
175.1602925474694
  0
VERTEX
  8
1
  6
CONTINUOUS
 62
     7
 10
-173.6012336867605
 20
175.1480062324945
  0
VERTEX
  8
1
  6
CONTINUOUS
 62
     7
 10
-173.6025502500049
 20
175.1354916567711
  0
VERTEX
  8
1
  6
CONTINUOUS
 62
     7
 10
-173.6036810564644
 20
175.12278788571
  0
VERTEX
  8
1
  6
CONTINUOUS
 62
     7
 10
-173.6046199859068
 20
175.1099339847222
  0
VERTEX
  8
1
  6
CONTINUOUS
 62
     7
 10
-173.6053609180997
 20
175.0969690192186
  0
VERTEX
  8
1
  6
CONTINUOUS
 62
     7
 10
-173.6058977328109
 20
175.0839320546101
  0
VERTEX
  8
1
  6
CONTINUOUS
 62
     7
 10
-173.6062243098079
 20
175.0708621563075
  0
VERTEX
  8
1
  6
CONTINUOUS
 62
     7
 10
-173.6063345288586
 20
175.0577983897217
  0
SEQEND
  8
1
  6
CONTINUOUS
 62
     7
  0
ARC
  8
1
  6
CONTINUOUS
 62
     7
 10
-175.5276395357746
 20
166.52706215893
 40
1.921550843845628
 50
336.6096121675912
 51
0.9165156432119375
  0
POLYLINE
  8
1
  6
CONTINUOUS
 62
     7
 66
     1
  0
VERTEX
  8
1
  6
CONTINUOUS
 62
     7
 10
-173.7639993577903
 20
165.7642181590955
  0
VERTEX
  8
1
  6
CONTINUOUS
 62
     7
 10
-173.8308536948657
 20
165.656999488575
  0
VERTEX
  8
1
  6
CONTINUOUS
 62
     7
 10
-173.8731152559759
 20
165.6108465225629
  0
SEQEND
  8
1
  6
CONTINUOUS
 62
     7
  0
LINE
  8
1
  6
CONTINUOUS
 62
     7
 10
-173.8731152559759
 20
165.6108465225629
 11
-173.9898570777745
 21
165.5577983897217
  0
ARC
  8
1
  6
CONTINUOUS
 62
     7
 10
-169.7669022164578
 20
171.7423094862206
 40
5.352949822526242
 50
157.0352093580055
 51
181.9753223875993
  0
POLYLINE
  8
1
  6
CONTINUOUS
 62
     7
 66
     1
  0
VERTEX
  8
1
  6
CONTINUOUS
 62
     7
 10
-174.6956028842845
 20
173.830845224351
  0
VERTEX
  8
1
  6
CONTINUOUS
 62
     7
 10
-174.6151122974503
 20
173.9353286388854
  0
VERTEX
  8
1
  6
CONTINUOUS
 62
     7
 10
-174.5200562027467
 20
174.0146998125592
  0
VERTEX
  8
1
  6
CONTINUOUS
 62
     7
 10
-174.4236507567851
 20
174.0531197181635
  0
VERTEX
  8
1
  6
CONTINUOUS
 62
     7
 10
-174.3753968747963
 20
174.0577983897217
  0
SEQEND
  8
1
  6
CONTINUOUS
 62
     7
  0
LINE
  8
1
  6
CONTINUOUS
 62
     7
 10
-174.3753968747963
 20
174.0577983897217
 11
-174.3753968747963
 21
174.4432161430588
  0
LINE
  8
1
  6
CONTINUOUS
 62
     7
 10
-174.3753968747963
 20
174.0577983897217
 11
-176.3957052066523
 21
174.0577983897217
  0
LINE
  8
1
  6
CONTINUOUS
 62
     7
 10
-175.1166711327525
 20
171.5577983897217
 11
-178.8957052066522
 21
171.5577983897217
  0
LINE
  8
1
  6
CONTINUOUS
 62
     9
 10
-148.3457052066522
 20
169.0577983897217
 11
-149.4025850010889
 21
169.0577983897217
  0
LINE
  8
1
  6
CONTINUOUS
 62
     9
 10
-176.6888254122155
 20
169.0577983897217
 11
-177.7457052066522
 21
169.0577983897217
  0
LINE
  8
1
  6
CONTINUOUS
 62
     7
 10
-175.2457052066522
 20
165.5577983897217
 11
-173.9898570777745
 21
165.5577983897217
  0
LINE
  8
1
  6
CONTINUOUS
 62
     7
 10
-230.0458499959415
 20
171.5577983897217
 11
-228.942472076979
 21
171.5577983897217
  0
LINE
  8
1
  6
CONTINUOUS
 62
     7
 10
-213.2603874228176
 20
188.6247263765202
 11
-213.211786641297
 21
188.7163036073339
  0
LINE
  8
1
  6
CONTINUOUS
 62
     7
 10
-221.2188266442416
 20
171.5577983897217
 11
-213.2603874228176
 21
188.6247263765202
  0
LINE
  8
1
  6
CONTINUOUS
 62
     7
 10
-228.942472076979
 20
171.5577983897217
 11
-221.2188266442416
 21
171.5577983897217
  0
LINE
  8
1
  6
CONTINUOUS
 62
     7
 10
-211.9509094917076
 20
189.0667092788874
 11
-191.558984283383
 21
179.5577983897217
  0
LINE
  8
1
  6
CONTINUOUS
 62
     7
 10
-178.0351999076806
 20
208.5596475748945
 11
-208.8496646669267
 21
222.9286684740783
  0
LINE
  8
1
  6
CONTINUOUS
 62
     7
 10
-191.558984283383
 20
179.5577983897217
 11
-188.0373302541231
 21
180.839575631756
  0
LINE
  8
1
  6
CONTINUOUS
 62
     7
 10
-176.7534226656464
 20
205.0379935456345
 11
-178.0351999076807
 21
208.5596475748945
  0
ARC
  8
1
  6
CONTINUOUS
 62
     7
 10
-149.6957052066522
 20
171.5577983897217
 40
2.500000000000002
 50
0.0
 51
90.0
  0
ARC
  8
1
  6
CONTINUOUS
 62
     7
 10
-198.3093371360252
 20
162.7697435710585
 40
49.96653047848689
 50
13.36335377914322
 51
43.6499940565873
  0
ARC
  8
1
  6
CONTINUOUS
 62
     7
 10
-175.5544671647035
 20
182.4109567162645
 40
20.00035918644738
 50
47.9361597482729
 51
64.99978784413308
  0
ARC
  8
1
  6
CONTINUOUS
 62
     7
 10
-177.8959382385942
 20
174.4552538960114
 40
1.50090221314708
 50
1.079777175264553
 51
64.99535914888065
  0
LINE
  8
1
  6
CONTINUOUS
 62
     7
 10
-176.395302547144
 20
174.4835377248847
 11
-176.3950339566785
 21
174.4553878807883
  0
LINE
  8
1
  6
CONTINUOUS
 62
     7
 10
-188.0373302541231
 20
180.839575631756
 11
-177.2617778140412
 21
175.814853008095
  0
LINE
  8
1
  6
CONTINUOUS
 62
     7
 10
-167.1018830121269
 20
200.5374066922118
 11
-176.7534226656464
 21
205.0379935456345
  0
LINE
  8
1
  6
CONTINUOUS
 62
     7
 10
-149.6957052066522
 20
174.0577983897217
 11
-149.6957052066522
 21
174.3182914751462
  0
LINE
  8
1
  6
CONTINUOUS
 62
     9
 10
-149.6957052066522
 20
169.0577983897217
 11
-149.6957052066522
 21
171.5577983897217
  0
ARC
  8
1
  6
CONTINUOUS
 62
     7
 10
-151.6957052066522
 20
167.3681850887449
 40
2.000000000000001
 50
295.1506634125434
 51
312.7148639017596
  0
ARC
  8
1
  6
CONTINUOUS
 62
     7
 10
-176.3957052066522
 20
171.5577983897217
 40
2.499999999999999
 50
90.0
 51
180.0
  0
ARC
  8
1
  6
CONTINUOUS
 62
     7
 10
-151.8457052066522
 20
169.0577983897217
 40
3.499999999999998
 50
295.4983996759094
 51
0.0
  0
LINE
  8
1
  6
CONTINUOUS
 62
     7
 10
-176.3957052066522
 20
174.5053914819318
 11
-176.3957052066522
 21
174.4835287933696
  0
LINE
  8
1
  6
CONTINUOUS
 62
     7
 10
-176.3957052066522
 20
174.4835287933696
 11
-176.3957052066522
 21
174.0577983897217
  0
LINE
  8
1
  6
CONTINUOUS
 62
     9
 10
-176.3957052066522
 20
171.5577983897217
 11
-176.3957052066522
 21
169.0577983897217
  0
ARC
  8
1
  6
CONTINUOUS
 62
     7
 10
-174.2457052066522
 20
169.0577983897217
 40
3.499999999999996
 50
180.0
 51
244.5016003240928
  0
ARC
  8
1
  6
CONTINUOUS
 62
     7
 10
-174.3957052066522
 20
167.3681850887449
 40
1.999999999999998
 50
227.2851360982453
 51
244.8493365874566
  0
ARC
  8
1
  6
CONTINUOUS
 62
     7
 10
-212.3735277534484
 20
188.1604014918508
 40
1.000000000000001
 50
64.99999999999966
 51
155.0000000000003
  0
ENDBLK
  8
0
  0
ENDSEC
  0
SECTION
  2
ENTITIES
  0
LINE
  8
1
  6
CONTINUOUS
 62
     7
 10
-204.1300313579317
 20
197.5569310201982
 11
-197.8274828187965
 21
194.6180043705058
  0
ARC
  8
1
  6
CONTINUOUS
 62
     7
 10
-197.6161736879261
 20
195.0711582640241
 40
0.4999999999999953
 50
245.0000000000016
 51
336.0663270045925
  0
POLYLINE
  8
1
  6
CONTINUOUS
 62
     7
 66
     1
  0
VERTEX
  8
1
  6
CONTINUOUS
 62
     7
 10
-193.3634663447854
 20
203.0082226878852
  0
VERTEX
  8
1
  6
CONTINUOUS
 62
     7
 10
-194.6504192254792
 20
200.3335757617022
  0
VERTEX
  8
1
  6
CONTINUOUS
 62
     7
 10
-195.9375047918948
 20
197.573411857236
  0
VERTEX
  8
1
  6
CONTINUOUS
 62
     7
 10
-197.1591658410422
 20
194.868318849988
  0
SEQEND
  8
1
  6
CONTINUOUS
 62
     7
  0
ARC
  8
1
  6
CONTINUOUS
 62
     7
 10
-193.8126093322598
 20
203.2279283473539
 40
0.5000000000000068
 50
333.9336729954067
 51
64.99999999999739
  0
LINE
  8
1
  6
CONTINUOUS
 62
     7
 10
-193.6013002013894
 20
203.6810822408722
 11
-199.9038487405247
 21
206.6200088905646
  0
LINE
  8
1
  6
CENTER
 62
     1
 10
-163.0457052066522
 20
183.9158847005313
 11
-217.4241724288512
 21
209.2729804049733
  0
LINE
  8
1
  6
CENTER
 62
     1
 10
-140.0
 20
285.9074183253242
 11
-235.0
 21
285.9074183253242
  0
LINE
  8
1
  6
CENTER
 62
     1
 10
-163.0457052066522
 20
183.9158847005313
 11
-163.0457052066522
 21
164.1666666666667
  0
LINE
  8
1
  6
CONTINUOUS
 62
     7
 10
-176.6888254122155
 20
169.0577983897217
 11
-176.3957052066522
 21
169.0577983897217
  0
LINE
  8
1
  6
CONTINUOUS
 62
     7
 10
-176.3957052066522
 20
169.0577983897217
 11
-176.3957052066522
 21
171.5577983897217
  0
LINE
  8
1
  6
CONTINUOUS
 62
     7
 10
-149.6957052066522
 20
171.5577983897217
 11
-149.6957052066522
 21
169.0577983897217
  0
LINE
  8
1
  6
CONTINUOUS
 62
     7
 10
-149.6957052066522
 20
169.0577983897217
 11
-148.3457052066522
 21
169.0577983897217
  0
INSERT
  8
1
  6
CONTINUOUS
 62
     7
  2
D_FRAME_VIEW_1647
 10
0.0
 20
0.0
 30
0.0
  0
INSERT
  8
1
  6
CONTINUOUS
 62
     7
  2
D_FRAME_VIEW_1490
 10
0.0
 20
0.0
 30
0.0
  0
TEXT
  8
1
  6
CONTINUOUS
 62
     7
 10
-141.9303301237964
 20
147.4950866991789
 40
3.0
  1
%%UCDE-22FD
  0
LINE
  8
1
  6
CONTINUOUS
 62
     2
 10
-141.8454545454545
 20
146.9371212121212
 11
-128.1545454545455
 21
146.9371212121212
  0
ENDSEC
  0
EOF
