  0
SECTION
  2
HEADER
  9
$ACADVER
  1
AC1004
  9
$INSBASE
 10
0.0
 20
0.0
  9
$EXTMIN
 10
-190.0
 20
108.6037878787879
  9
$EXTMAX
 10
-63.98787878787878
 20
287.5613216825362
  9
$LIMMIN
 10
0.0
 20
0.0
  9
$LIMMAX
 10
12.0
 20
9.0
  9
$ORTHOMODE
 70
     0
  9
$REGENMODE
 70
     1
  9
$FILLMODE
 70
     1
  9
$QTEXTMODE
 70
     0
  9
$DRAGMODE
 70
     2
  9
$LTSCALE
 40
1.0
  9
$OSMODE
 70
    37
  9
$ATTMODE
 70
     1
  9
$TEXTSIZE
 40
0.2
  9
$TRACEWID
 40
0.05
  9
$TEXTSTYLE
  7
STANDARD
  9
$CLAYER
  8
0
  9
$CELTYPE
  6
BYLAYER
  9
$CECOLOR
 62
   256
  9
$DIMSCALE
 40
1.0
  9
$DIMASZ
 40
3.0
  9
$DIMEXO
 40
0.0625
  9
$DIMDLI
 40
0.38
  9
$DIMRND
 40
0.0
  9
$DIMDLE
 40
0.0
  9
$DIMEXE
 40
1.5
  9
$DIMTP
 40
0.0
  9
$DIMTM
 40
0.0
  9
$DIMTXT
 40
3.0
  9
$DIMCEN
 40
0.09
  9
$DIMTSZ
 40
0.0
  9
$DIMTOL
 70
     0
  9
$DIMLIM
 70
     0
  9
$DIMTIH
 70
     1
  9
$DIMTOH
 70
     1
  9
$DIMSE1
 70
     0
  9
$DIMSE2
 70
     0
  9
$DIMTAD
 70
     1
  9
$DIMZIN
 70
     0
  9
$DIMBLK
  1

  9
$DIMASO
 70
     1
  9
$DIMSHO
 70
     1
  9
$DIMPOST
  1

  9
$DIMAPOST
  1

  9
$DIMALT
 70
     0
  9
$DIMALTD
 70
     2
  9
$DIMALTF
 40
25.4
  9
$DIMLFAC
 40
1.0
  9
$DIMTOFL
 70
     0
  9
$DIMTVP
 40
0.0
  9
$DIMTIX
 70
     0
  9
$DIMSOXD
 70
     0
  9
$DIMSAH
 70
     0
  9
$DIMBLK1
  1

  9
$DIMBLK2
  1

  9
$LUNITS
 70
     2
  9
$LUPREC
 70
     4
  9
$SKETCHINC
 40
0.1
  9
$FILLETRAD
 40
0.5
  9
$AUNITS
 70
     0
  9
$AUPREC
 70
     0
  9
$MENU
  1
.
  9
$ELEVATION
 40
0.0
  9
$THICKNESS
 40
0.0
  9
$LIMCHECK
 70
     0
  9
$CHAMFERA
 40
0.0
  9
$CHAMFERB
 40
0.0
  9
$SKPOLY
 70
     0
  9
$TDCREATE
 40
2459093.468515938
  9
$TDUPDATE
 40
2459093.468516215
  9
$TDINDWG
 40
0.0000000116
  9
$TDUSRTIMER
 40
0.0000000116
  9
$USRTIMER
 70
     1
  9
$ANGBASE
 50
0.0
  9
$ANGDIR
 70
     0
  9
$PDMODE
 70
     0
  9
$PDSIZE
 40
0.0
  9
$PLINEWID
 40
0.0
  9
$COORDS
 70
     1
  9
$SPLFRAME
 70
     0
  9
$SPLINETYPE
 70
     6
  9
$SPLINESEGS
 70
     8
  9
$ATTDIA
 70
     0
  9
$ATTREQ
 70
     1
  9
$SURFTAB1
 70
     6
  9
$SURFTAB2
 70
     6
  9
$SURFTYPE
 70
     6
  9
$SURFU
 70
     6
  9
$SURFV
 70
     6
  9
$UCSNAME
  2

  9
$UCSORG
 10
0.0
 20
0.0
 30
0.0
  9
$UCSXDIR
 10
1.0
 20
0.0
 30
0.0
  9
$UCSYDIR
 10
0.0
 20
1.0
 30
0.0
  9
$USERI1
 70
     0
  9
$USERI2
 70
     0
  9
$USERI3
 70
     0
  9
$USERI4
 70
     0
  9
$USERI5
 70
     0
  9
$USERR1
 40
0.0
  9
$USERR2
 40
0.0
  9
$USERR3
 40
0.0
  9
$USERR4
 40
0.0
  9
$USERR5
 40
0.0
  9
$WORLDVIEW
 70
     1
  0
ENDSEC
  0
SECTION
  2
TABLES
  0
TABLE
  2
LTYPE
 70
     2
  0
LTYPE
  2
CONTINUOUS
 70
     0
  3
Solid line
 72
    65
 73
     0
 40
0.0
  0
LTYPE
  2
CENTER
 70
     0
  3

 72
    65
 73
     0
 40
0.0
  0
ENDTAB
  0
TABLE
  2
LAYER
 70
     2
  0
LAYER
  2
0
 70
     0
 62
     7
  6
CONTINUOUS
  0
LAYER
  2
1
 70
     0
 62
     7
  6
CONTINUOUS
  0
ENDTAB
  0
TABLE
  2
STYLE
 70
     2
  0
STYLE
  2
STANDARD
 70
     0
 40
0.0
 41
1.0
 50
0.0
 71
     0
 42
0.2
  3
txt
  4

  0
STYLE
  2
ＭＳ_ゴシック
 70
     0
 40
0.0
 41
1.0
 50
0.0
 71
     0
 42
0.2
  3
ＭＳ ゴシック.shx
  4

  0
ENDTAB
  0
TABLE
  2
VIEW
 70
     0
  0
ENDTAB
  0
ENDSEC
  0
SECTION
  2
BLOCKS
  0
BLOCK
  8
0
  2
D_FRAME_VIEW_1714
 70
     0
 10
0.0
 20
0.0
  0
LINE
  8
1
  6
CONTINUOUS
 62
     7
 10
-176.5713327589838
 20
274.5613216825362
 11
-176.5713327589838
 21
284.0613216825362
  0
LINE
  8
1
  6
CONTINUOUS
 62
     7
 10
-176.571332758984
 20
284.0613216825362
 11
-156.9542817483814
 21
287.5064620174467
  0
ARC
  8
1
  6
CONTINUOUS
 62
     7
 10
-156.3286672410161
 20
250.9459940916169
 40
3.384672409080663
 50
259.3591588303929
 51
270.0
  0
LINE
  8
1
  6
CONTINUOUS
 62
     7
 10
-156.9542817483814
 20
247.6161813476257
 11
-176.5713327589838
 21
251.0613216825362
  0
LINE
  8
1
  6
CONTINUOUS
 62
     7
 10
-176.5713327589838
 20
251.0613216825362
 11
-176.5713327589838
 21
260.5613216825362
  0
ARC
  8
1
  6
CONTINUOUS
 62
     7
 10
-115.9979707178853
 20
250.9459940916169
 40
3.384672409080663
 50
270.0000000000002
 51
284.4453808603908
  0
ARC
  8
1
  6
CONTINUOUS
 62
     7
 10
-116.4861714538025
 20
252.8411774543207
 40
5.341726301240888
 50
284.4453808603973
 51
293.5838530990015
  0
ARC
  8
1
  6
CONTINUOUS
 62
     7
 10
-115.9006494563593
 20
251.4999403760242
 40
3.878253407850889
 50
293.5838530990013
 51
308.0914297802133
  0
ARC
  8
1
  6
CONTINUOUS
 62
     7
 10
-120.6894885037118
 20
257.6092549542402
 40
11.64077258895764
 50
308.0914297802113
 51
312.9133124994284
  0
ARC
  8
1
  6
CONTINUOUS
 62
     7
 10
-117.1137279591861
 20
253.7630708232806
 40
6.389182749582168
 50
312.9133124994283
 51
322.4023895835905
  0
ARC
  8
1
  6
CONTINUOUS
 62
     7
 10
-156.3286672410161
 20
284.1766492734572
 40
3.384672409079026
 50
90.0
 51
100.6408411696117
  0
ARC
  8
1
  6
CONTINUOUS
 62
     7
 10
-156.3286672410161
 20
250.9459940916169
 40
3.384672409080691
 50
270.0
 51
284.4453808603909
  0
ARC
  8
1
  6
CONTINUOUS
 62
     7
 10
-156.8168679769326
 20
252.8411774543189
 40
5.341726301239016
 50
284.4453808603946
 51
293.5838530990016
  0
ARC
  8
1
  6
CONTINUOUS
 62
     7
 10
-156.2313459794899
 20
251.4999403760237
 40
3.878253407850405
 50
293.5838530990013
 51
308.091429780215
  0
ARC
  8
1
  6
CONTINUOUS
 62
     7
 10
-161.0201850268444
 20
257.609254954242
 40
11.64077258896024
 50
308.0914297802126
 51
312.9133124994287
  0
ARC
  8
1
  6
CONTINUOUS
 62
     7
 10
-157.4444244823173
 20
253.7630708232808
 40
6.389182749582559
 50
312.9133124994287
 51
323.5119969221821
  0
ARC
  8
1
  6
CONTINUOUS
 62
     7
 10
-169.1820303327337
 20
262.4446394795424
 40
20.98853292118658
 50
323.5119969221809
 51
326.7342010064264
  0
ARC
  8
1
  6
CONTINUOUS
 62
     7
 10
-161.0360563627041
 20
257.1006926003555
 40
11.24611740100002
 50
326.7342010064264
 51
333.8720252279066
  0
ARC
  8
1
  6
CONTINUOUS
 62
     7
 10
-177.9899082436556
 20
265.4165657777751
 40
30.12962449857513
 50
333.8720252279068
 51
336.5347909030472
  0
ARC
  8
1
  6
CONTINUOUS
 62
     7
 10
-167.2745878231281
 20
260.7651464608962
 40
18.44828068135927
 50
336.5347909030475
 51
341.5203296233997
  0
ARC
  8
1
  6
CONTINUOUS
 62
     7
 10
-186.250488610398
 20
267.1069081411973
 40
38.45584804718477
 50
341.5203296233946
 51
343.9114425964863
  0
ARC
  8
1
  6
CONTINUOUS
 62
     7
 10
-175.0661320196207
 20
263.8811290735848
 40
26.81559534620316
 50
343.9114425964863
 51
347.7004487511206
  0
ARC
  8
1
  6
CONTINUOUS
 62
     7
 10
-196.8022479905771
 20
268.6201904459399
 40
49.06233533645373
 50
347.7004487511206
 51
349.7711098885617
  0
ARC
  8
1
  6
CONTINUOUS
 62
     7
 10
-186.3441341429151
 20
266.7330342801227
 40
38.43531770944087
 50
349.7711098885619
 51
355.5040160407531
  0
ARC
  8
1
  6
CONTINUOUS
 62
     7
 10
-196.8779631303384
 20
267.5613216825362
 40
49.00166112413623
 50
355.5040160407551
 51
0.0
  0
ARC
  8
1
  6
CONTINUOUS
 62
     7
 10
-196.8779631303384
 20
267.5613216825362
 40
49.00166112413623
 50
0.0
 51
4.495983959244999
  0
ARC
  8
1
  6
CONTINUOUS
 62
     7
 10
-186.3441341429151
 20
268.3896090849497
 40
38.43531770944087
 50
4.495983959246947
 51
10.22889011143814
  0
ARC
  8
1
  6
CONTINUOUS
 62
     7
 10
-196.8022479905365
 20
266.5024529191399
 40
49.06233533641247
 50
10.22889011143826
 51
12.29955124888108
  0
ARC
  8
1
  6
CONTINUOUS
 62
     7
 10
-175.066132019609
 20
271.241514291491
 40
26.81559534619092
 50
12.29955124887773
 51
16.08855740351365
  0
ARC
  8
1
  6
CONTINUOUS
 62
     7
 10
-186.250488610398
 20
268.0157352238751
 40
38.45584804718477
 50
16.0885574035136
 51
18.4796703766054
  0
ARC
  8
1
  6
CONTINUOUS
 62
     7
 10
-167.2745878231281
 20
274.3574969041762
 40
18.44828068135927
 50
18.4796703766004
 51
23.46520909695256
  0
ARC
  8
1
  6
CONTINUOUS
 62
     7
 10
-177.9899082436556
 20
269.7060775872973
 40
30.12962449857513
 50
23.46520909695263
 51
26.12797477209311
  0
ARC
  8
1
  6
CONTINUOUS
 62
     7
 10
-161.0360563627044
 20
278.0219507647167
 40
11.24611740100039
 50
26.12797477209337
 51
33.26579899357349
  0
ARC
  8
1
  6
CONTINUOUS
 62
     7
 10
-169.1820303327241
 20
272.6780038855363
 40
20.98853292117505
 50
33.26579899357353
 51
36.48800307782085
  0
ARC
  8
1
  6
CONTINUOUS
 62
     7
 10
-157.4444244823167
 20
281.3595725417923
 40
6.389182749581655
 50
36.48800307781612
 51
47.08668750057116
  0
ARC
  8
1
  6
CONTINUOUS
 62
     7
 10
-161.0201850268441
 20
277.5133884108307
 40
11.64077258895984
 50
47.08668750057137
 51
51.90857021978781
  0
ARC
  8
1
  6
CONTINUOUS
 62
     7
 10
-156.23134597949
 20
283.6227029890485
 40
3.878253407850591
 50
51.90857021978554
 51
66.41614690099853
  0
ARC
  8
1
  6
CONTINUOUS
 62
     7
 10
-156.8168679769309
 20
282.2814659107573
 40
5.341726301234829
 50
66.41614690099861
 51
75.55461913961265
  0
ARC
  8
1
  6
CONTINUOUS
 62
     7
 10
-156.3286672410161
 20
284.1766492734572
 40
3.384672409079026
 50
75.55461913960177
 51
89.99999999999952
  0
ARC
  8
1
  6
CONTINUOUS
 62
     7
 10
-128.1358045813541
 20
251.4999403760245
 40
3.8782534078512
 50
293.5838530990015
 51
305.1111454558941
  0
ARC
  8
1
  6
CONTINUOUS
 62
     7
 10
-128.7213265787957
 20
252.8411774543172
 40
5.341726301237066
 50
284.4453808603909
 51
293.5838530990013
  0
ARC
  8
1
  6
CONTINUOUS
 62
     7
 10
-128.23312584288
 20
250.9459940916162
 40
3.384672409079914
 50
271.9963098194062
 51
284.4453808603944
  0
ARC
  8
1
  6
CONTINUOUS
 62
     7
 10
-126.2927004548562
 20
247.9148423331101
 40
0.738957641464052
 50
50.08610926736395
 51
97.75511358580819
  0
POLYLINE
  8
1
  6
CONTINUOUS
 62
     7
 10
0.0
 20
0.0
 30
0.0
 66
     1
 70
     8
  0
VERTEX
  8
1
  6
CONTINUOUS
 62
     7
 10
-125.8185589226265
 20
248.4816299505586
 30
0.0
 70
    32
  0
VERTEX
  8
1
  6
CONTINUOUS
 62
     7
 10
-125.8150336698846
 20
248.4586495911927
 30
0.0
 70
    32
  0
VERTEX
  8
1
  6
CONTINUOUS
 62
     7
 10
-125.8150331903428
 20
248.4583744441315
 30
0.0
 70
    32
  0
SEQEND
  8
1
  6
CONTINUOUS
 62
     7
  0
LINE
  8
1
  6
CONTINUOUS
 62
     7
 10
-134.0960311184136
 20
248.6470413631585
 11
-126.3924149286021
 21
248.6470413631585
  0
LINE
  8
1
  6
CONTINUOUS
 62
     7
 10
-134.7604941428023
 20
248.4825376541973
 11
-134.0960311184136
 21
248.6470413631585
  0
ARC
  8
1
  6
CONTINUOUS
 62
     7
 10
-141.9877214990748
 20
257.6092549542421
 40
11.64077258896024
 50
308.0914297802126
 51
308.3748536449122
  0
ARC
  8
1
  6
CONTINUOUS
 62
     7
 10
-137.1988824517204
 20
251.4999403760238
 40
3.878253407850467
 50
301.3909444685944
 51
308.0914297802149
  0
ARC
  8
1
  6
CONTINUOUS
 62
     7
 10
-137.1988824517206
 20
251.4999403760244
 40
3.8782534078512
 50
293.5838530990015
 51
301.3909444685917
  0
ARC
  8
1
  6
CONTINUOUS
 62
     7
 10
-137.7844044491627
 20
252.8411774543184
 40
5.341726301238459
 50
284.4453808603931
 51
293.5838530990013
  0
ARC
  8
1
  6
CONTINUOUS
 62
     7
 10
-137.2962037132465
 20
250.9459940916168
 40
3.38467240908058
 50
270.0
 51
284.4453808603909
  0
ARC
  8
1
  6
CONTINUOUS
 62
     7
 10
-155.4347170476338
 20
282.1300974781113
 40
2.967773773915383
 50
89.04156399730678
 51
90.00000000000004
  0
ARC
  8
1
  6
CONTINUOUS
 62
     7
 10
-155.4347170476338
 20
282.1300974781113
 40
2.967773773915383
 50
90.0
 51
104.4453808603964
  0
ARC
  8
1
  6
CONTINUOUS
 62
     7
 10
-155.0066492273712
 20
280.4683486289462
 40
4.683772403415499
 50
104.4453808603926
 51
113.5838530990016
  0
ARC
  8
1
  6
CONTINUOUS
 62
     7
 10
-155.5200510039799
 20
281.6443821543436
 40
3.400559156490517
 50
113.5838530990017
 51
128.0914297802165
  0
ARC
  8
1
  6
CONTINUOUS
 62
     7
 10
-151.3210653372697
 20
276.2875672575188
 40
10.20694927667031
 50
128.0914297802113
 51
132.9133124994288
  0
ARC
  8
1
  6
CONTINUOUS
 62
     7
 10
-154.4563904391543
 20
279.6600071908164
 40
5.602210999829009
 50
132.9133124994287
 51
143.5119969221832
  0
ARC
  8
1
  6
CONTINUOUS
 62
     7
 10
-144.1645350980088
 20
272.0477692367448
 40
18.40332239815977
 50
143.5119969221802
 51
146.7342010064263
  0
ARC
  8
1
  6
CONTINUOUS
 62
     7
 10
-151.3071489138622
 20
276.7334887039196
 40
9.860904763351556
 50
146.7342010064264
 51
153.8720252279036
  0
ARC
  8
1
  6
CONTINUOUS
 62
     7
 10
-136.4415457186483
 20
269.4419025944458
 40
26.41848267648327
 50
153.8720252279078
 51
156.5347909030471
  0
ARC
  8
1
  6
CONTINUOUS
 62
     7
 10
-145.8370331040299
 20
273.5203948653942
 40
16.17595943203565
 50
156.5347909030472
 51
161.5203296233963
  0
ARC
  8
1
  6
CONTINUOUS
 62
     7
 10
-129.1984418649155
 20
267.9597639621622
 40
33.71914427585216
 50
161.5203296233975
 51
163.9114425964866
  0
ARC
  8
1
  6
CONTINUOUS
 62
     7
 10
-139.0051930528072
 20
270.7882156881445
 40
23.51265085120196
 50
163.9114425964867
 51
167.700448751121
  0
ARC
  8
1
  6
CONTINUOUS
 62
     7
 10
-119.9463692941474
 20
266.6328764546832
 40
43.01920378114825
 50
167.7004487511216
 51
169.7711098885621
  0
ARC
  8
1
  6
CONTINUOUS
 62
     7
 10
-129.116330888805
 20
268.2875868370465
 40
33.70114271153751
 50
169.7711098885621
 51
175.504016040753
  0
ARC
  8
1
  6
CONTINUOUS
 62
     7
 10
-119.8799801790905
 20
267.5613216825362
 40
42.96600296453101
 50
175.504016040754
 51
180.0000000000001
  0
ARC
  8
1
  6
CONTINUOUS
 62
     7
 10
-119.8799801790905
 20
267.5613216825362
 40
42.96600296453101
 50
180.0
 51
184.495983959246
  0
ARC
  8
1
  6
CONTINUOUS
 62
     7
 10
-129.1163308888064
 20
266.8350565280257
 40
33.70114271153604
 50
184.4959839592467
 51
190.2288901114379
  0
ARC
  8
1
  6
CONTINUOUS
 62
     7
 10
-119.9463692941474
 20
268.4897669103892
 40
43.01920378114825
 50
190.2288901114379
 51
192.2995512488784
  0
ARC
  8
1
  6
CONTINUOUS
 62
     7
 10
-139.0051930528072
 20
264.3344276769279
 40
23.51265085120196
 50
192.2995512488787
 51
196.088557403513
  0
ARC
  8
1
  6
CONTINUOUS
 62
     7
 10
-129.1984418649155
 20
267.1628794029102
 40
33.71914427585216
 50
196.0885574035134
 51
198.4796703766024
  0
ARC
  8
1
  6
CONTINUOUS
 62
     7
 10
-145.8370331040299
 20
261.6022484996783
 40
16.17595943203565
 50
198.4796703766036
 51
203.4652090969527
  0
ARC
  8
1
  6
CONTINUOUS
 62
     7
 10
-136.4415457186483
 20
265.6807407706266
 40
26.41848267648327
 50
203.4652090969529
 51
206.1279747720921
  0
ARC
  8
1
  6
CONTINUOUS
 62
     7
 10
-151.3071489138625
 20
258.3891546611526
 40
9.86090476335123
 50
206.1279747720962
 51
213.2657989935736
  0
ARC
  8
1
  6
CONTINUOUS
 62
     7
 10
-144.1645350980088
 20
263.0748741283276
 40
18.40332239815977
 50
213.2657989935736
 51
216.4880030778196
  0
ARC
  8
1
  6
CONTINUOUS
 62
     7
 10
-154.4563904391543
 20
255.4626361742561
 40
5.602210999829009
 50
216.4880030778169
 51
227.0866875005712
  0
ARC
  8
1
  6
CONTINUOUS
 62
     7
 10
-151.3210653372697
 20
258.8350761075536
 40
10.20694927667031
 50
227.0866875005712
 51
231.9085702197887
  0
ARC
  8
1
  6
CONTINUOUS
 62
     7
 10
-155.5200510039799
 20
253.4782612107288
 40
3.400559156490517
 50
231.9085702197836
 51
246.4161469009984
  0
ARC
  8
1
  6
CONTINUOUS
 62
     7
 10
-155.0066492273712
 20
254.6542947361263
 40
4.683772403415499
 50
246.4161469009984
 51
255.5546191396073
  0
ARC
  8
1
  6
CONTINUOUS
 62
     7
 10
-155.4347170476338
 20
252.9925458869611
 40
2.967773773915383
 50
255.5546191396037
 51
270.0000000000001
  0
ARC
  8
1
  6
CONTINUOUS
 62
     7
 10
-155.4347170476338
 20
252.9925458869611
 40
2.967773773915383
 50
270.0
 51
270.9308829814095
  0
ARC
  8
1
  6
CONTINUOUS
 62
     7
 10
-117.1137279591871
 20
281.3595725417908
 40
6.389182749583604
 50
37.59761041641188
 51
47.0866875005721
  0
ARC
  8
1
  6
CONTINUOUS
 62
     7
 10
-120.6894885037091
 20
277.5133884108349
 40
11.64077258895389
 50
47.086687500572
 51
51.90857021979064
  0
ARC
  8
1
  6
CONTINUOUS
 62
     7
 10
-115.9006494563593
 20
283.6227029890483
 40
3.878253407850838
 50
51.90857021978611
 51
66.41614690099834
  0
ARC
  8
1
  6
CONTINUOUS
 62
     7
 10
-116.4861714538015
 20
282.2814659107541
 40
5.341726301238294
 50
66.41614690099826
 51
75.55461913960667
  0
ARC
  8
1
  6
CONTINUOUS
 62
     7
 10
-115.9979707178853
 20
284.1766492734573
 40
3.384672409078915
 50
75.55461913960177
 51
89.99999999999999
  0
ARC
  8
1
  6
CONTINUOUS
 62
     7
 10
-114.1312314469715
 20
255.9017997064658
 40
5.398859423397736
 50
322.4023895835901
 51
323.5119969221817
  0
ARC
  8
1
  6
CONTINUOUS
 62
     7
 10
-124.0495083905736
 20
263.237725221007
 40
17.73531031840346
 50
323.5119969221807
 51
326.7342010064262
  0
ARC
  8
1
  6
CONTINUOUS
 62
     7
 10
-117.1661603858981
 20
258.7220901080937
 40
9.502969203845195
 50
326.7342010064264
 51
333.8720252279066
  0
ARC
  8
1
  6
CONTINUOUS
 62
     7
 10
-131.4921652252906
 20
265.7490029430083
 40
25.45953270128367
 50
333.8720252279053
 51
336.5347909030469
  0
ARC
  8
1
  6
CONTINUOUS
 62
     7
 10
-122.4377194699644
 20
261.8185536202541
 40
15.58879717575756
 50
336.5347909030471
 51
341.5203296233963
  0
ARC
  8
1
  6
CONTINUOUS
 62
     7
 10
-138.4723556352403
 20
267.1773422401166
 40
32.49519159991377
 50
341.5203296233978
 51
343.9114425964865
  0
ARC
  8
1
  6
CONTINUOUS
 62
     7
 10
-129.0215743159884
 20
264.451558927971
 40
22.65917806753734
 50
343.9114425964865
 51
347.7004487511214
  0
ARC
  8
1
  6
CONTINUOUS
 62
     7
 10
-147.3885923114478
 20
268.4560657876117
 40
41.4576733593004
 50
347.7004487511205
 51
349.7711098885617
  0
ARC
  8
1
  6
CONTINUOUS
 62
     7
 10
-138.5514861101712
 20
266.8614188274959
 40
32.47784346447239
 50
349.7711098885617
 51
355.5040160407539
  0
ARC
  8
1
  6
CONTINUOUS
 62
     7
 10
-147.4525716045375
 20
267.5613216825362
 40
41.40640364988371
 50
355.5040160407535
 51
0.0
  0
ARC
  8
1
  6
CONTINUOUS
 62
     7
 10
-147.452571604542
 20
267.5613216825362
 40
41.40640364988818
 50
0.0
 51
4.495983959245892
  0
ARC
  8
1
  6
CONTINUOUS
 62
     7
 10
-138.5514861101768
 20
268.2612245375757
 40
32.477843464478
 50
4.495983959246866
 51
10.22889011143787
  0
ARC
  8
1
  6
CONTINUOUS
 62
     7
 10
-147.3885923114478
 20
266.6665775774607
 40
41.4576733593004
 50
10.22889011143822
 51
12.2995512488795
  0
ARC
  8
1
  6
CONTINUOUS
 62
     7
 10
-129.0215743159885
 20
270.6710844371013
 40
22.65917806753751
 50
12.2995512488786
 51
16.08855740351308
  0
ARC
  8
1
  6
CONTINUOUS
 62
     7
 10
-138.4723556352399
 20
267.945301124956
 40
32.4951915999134
 50
16.08855740351351
 51
18.47967037660226
  0
ARC
  8
1
  6
CONTINUOUS
 62
     7
 10
-122.4377194699637
 20
273.3040897448186
 40
15.58879717575678
 50
18.47967037660361
 51
23.46520909695299
  0
ARC
  8
1
  6
CONTINUOUS
 62
     7
 10
-131.4921652252926
 20
269.3736404220632
 40
25.45953270128588
 50
23.46520909695305
 51
26.12797477209449
  0
ARC
  8
1
  6
CONTINUOUS
 62
     7
 10
-117.1661603858974
 20
276.4005532569792
 40
9.502969203844337
 50
26.12797477209299
 51
33.26579899357374
  0
ARC
  8
1
  6
CONTINUOUS
 62
     7
 10
-124.0495083905736
 20
271.8849181440654
 40
17.73531031840346
 50
33.26579899357374
 51
36.48800307781924
  0
ARC
  8
1
  6
CONTINUOUS
 62
     7
 10
-114.1312314469715
 20
279.2208436586067
 40
5.398859423397736
 50
36.48800307781825
 51
37.59761041640984
  0
ARC
  8
1
  6
CONTINUOUS
 62
     7
 10
-102.9328476605539
 20
281.6012734968631
 40
2.860048185673147
 50
89.23497008204703
 51
89.99999999999972
  0
ARC
  8
1
  6
CONTINUOUS
 62
     7
 10
-102.9328476605539
 20
281.6012734968631
 40
2.860048185673147
 50
75.55461913960893
 51
89.23497008204733
  0
ARC
  8
1
  6
CONTINUOUS
 62
     7
 10
-103.3453772824031
 20
279.9998435553803
 40
4.513758724546409
 50
66.41614690099891
 51
75.55461913960698
  0
ARC
  8
1
  6
CONTINUOUS
 62
     7
 10
-102.850611194564
 20
281.13318888654
 40
3.277124129632794
 50
51.90857021978098
 51
66.4161469009988
  0
ARC
  8
1
  6
CONTINUOUS
 62
     7
 10
-106.8971801895756
 20
275.9708180679483
 40
9.836452837666643
 50
47.08668750057103
 51
51.90857021978928
  0
ARC
  8
1
  6
CONTINUOUS
 62
     7
 10
-103.8756625294547
 20
279.2208436586057
 40
5.398859423399073
 50
36.48800307782091
 51
47.08668750057086
  0
ARC
  8
1
  6
CONTINUOUS
 62
     7
 10
-113.7939394730623
 20
271.8849181440613
 40
17.73531031841107
 50
33.26579899357358
 51
36.48800307781784
  0
ARC
  8
1
  6
CONTINUOUS
 62
     7
 10
-106.9105914683792
 20
276.4005532569796
 40
9.502969203843772
 50
26.12797477209205
 51
33.26579899357358
  0
ARC
  8
1
  6
CONTINUOUS
 62
     7
 10
-121.2365963077792
 20
269.3736404220615
 40
25.45953270129048
 50
23.46520909695272
 51
26.12797477209375
  0
ARC
  8
1
  6
CONTINUOUS
 62
     7
 10
-112.1821505524449
 20
273.3040897448192
 40
15.58879717575558
 50
18.47967037660288
 51
23.46520909695272
  0
ARC
  8
1
  6
CONTINUOUS
 62
     7
 10
-128.2167867177111
 20
267.9453011249591
 40
32.49519159990187
 50
16.08855740351356
 51
18.47967037660317
  0
ARC
  8
1
  6
CONTINUOUS
 62
     7
 10
-118.7660053984752
 20
270.6710844371
 40
22.65917806754208
 50
12.29955124887959
 51
16.08855740351362
  0
ARC
  8
1
  6
CONTINUOUS
 62
     7
 10
-137.1330233939355
 20
266.6665775774595
 40
41.45767335930598
 50
10.22889011143837
 51
12.29955124887937
  0
ARC
  8
1
  6
CONTINUOUS
 62
     7
 10
-128.2959171926563
 20
268.261224537576
 40
32.47784346447529
 50
4.495983959246644
 51
10.2288901114382
  0
ARC
  8
1
  6
CONTINUOUS
 62
     7
 10
-137.1970026870243
 20
267.5613216825362
 40
41.40640364988818
 50
0.0
 51
4.495983959245906
  0
ARC
  8
1
  6
CONTINUOUS
 62
     7
 10
-137.1970026870243
 20
267.5613216825362
 40
41.40640364988818
 50
355.5040160407541
 51
0.0
  0
ARC
  8
1
  6
CONTINUOUS
 62
     7
 10
-128.2959171926535
 20
266.861418827496
 40
32.4778434644724
 50
349.7711098885619
 51
355.5040160407537
  0
ARC
  8
1
  6
CONTINUOUS
 62
     7
 10
-137.133023393936
 20
268.4560657876129
 40
41.4576733593065
 50
347.7004487511207
 51
349.7711098885617
  0
ARC
  8
1
  6
CONTINUOUS
 62
     7
 10
-118.766005398475
 20
264.4515589279723
 40
22.65917806754192
 50
343.9114425964865
 51
347.7004487511205
  0
ARC
  8
1
  6
CONTINUOUS
 62
     7
 10
-128.2167867177114
 20
267.1773422401134
 40
32.49519159990219
 50
341.5203296233967
 51
343.9114425964863
  0
ARC
  8
1
  6
CONTINUOUS
 62
     7
 10
-112.1821505524449
 20
261.8185536202532
 40
15.58879717575558
 50
336.5347909030472
 51
341.5203296233972
  0
ARC
  8
1
  6
CONTINUOUS
 62
     7
 10
-121.2365963077794
 20
265.749002943011
 40
25.45953270129073
 50
333.872025227906
 51
336.5347909030472
  0
ARC
  8
1
  6
CONTINUOUS
 62
     7
 10
-106.9105914683797
 20
258.7220901080931
 40
9.502969203844318
 50
326.7342010064267
 51
333.8720252279077
  0
ARC
  8
1
  6
CONTINUOUS
 62
     7
 10
-113.793939473062
 20
263.237725221011
 40
17.73531031841079
 50
323.5119969221822
 51
326.7342010064264
  0
ARC
  8
1
  6
CONTINUOUS
 62
     7
 10
-103.8756625294547
 20
255.9017997064668
 40
5.39885942339922
 50
312.9133124994291
 51
323.5119969221787
  0
ARC
  8
1
  6
CONTINUOUS
 62
     7
 10
-106.8971801895756
 20
259.1518252971241
 40
9.836452837666624
 50
308.0914297802105
 51
312.9133124994289
  0
ARC
  8
1
  6
CONTINUOUS
 62
     7
 10
-102.850611194564
 20
253.9894544785323
 40
3.277124129632743
 50
293.5838530990015
 51
308.0914297802196
  0
ARC
  8
1
  6
CONTINUOUS
 62
     7
 10
-103.345377282403
 20
255.1227998096919
 40
4.513758724546172
 50
284.4453808603925
 51
293.5838530990013
  0
ARC
  8
1
  6
CONTINUOUS
 62
     7
 10
-102.9328476605539
 20
253.5213698682093
 40
2.860048185673092
 50
270.0000000000002
 51
284.4453808603911
  0
LINE
  8
1
  6
CONTINUOUS
 62
     7
 10
-125.8150331903428
 20
248.4583744441315
 11
-125.9087254033062
 21
248.3324371595068
  0
ARC
  8
1
  6
CONTINUOUS
 62
     7
 10
-131.6493244660633
 20
248.0852265647189
 40
1.163358763974937
 50
19.46531905350417
 51
28.8974167811753
  0
ARC
  8
1
  6
CONTINUOUS
 62
     7
 10
-131.6493244660632
 20
248.085226564719
 40
1.163358763974761
 50
6.926936584396571
 51
19.46531905350429
  0
LINE
  8
1
  6
CONTINUOUS
 62
     7
 10
-130.5505750474055
 20
242.9589857262933
 11
-130.4958367191876
 21
248.225364184131
  0
ARC
  8
1
  6
CONTINUOUS
 62
     7
 10
-133.9232771637319
 20
248.2038332111323
 40
1.035203388111563
 50
24.77769146164661
 51
25.3407162289808
  0
ARC
  8
1
  6
CONTINUOUS
 62
     7
 10
-133.7928641962374
 20
248.2640308546562
 40
0.8915673954893666
 50
359.9099374013023
 51
24.77769146164735
  0
ARC
  8
1
  6
CONTINUOUS
 62
     7
 10
-134.077370440502
 20
248.2644780672261
 40
1.176073991238208
 50
358.0893515211401
 51
359.9099374013116
  0
ARC
  8
0
  6
CONTINUOUS
 62
     7
 10
-92.82866724101615
 20
267.5613216825362
 40
16.90000000000003
 50
88.82687433871666
 51
90.0
  0
ARC
  8
0
  6
CONTINUOUS
 62
     7
 10
-92.82866724101615
 20
267.5613216825362
 40
16.89999999999998
 50
87.05391964673072
 51
88.82687433871666
  0
ARC
  8
0
  6
CONTINUOUS
 62
     7
 10
-92.82866724101615
 20
267.5613216825362
 40
16.90000000000002
 50
60.91158735450097
 51
87.05391964673072
  0
ARC
  8
0
  6
CONTINUOUS
 62
     7
 10
-92.82866724101615
 20
267.5613216825362
 40
16.89999999999998
 50
60.19554579267338
 51
60.91158735450097
  0
LINE
  8
1
  6
CONTINUOUS
 62
     7
 10
-102.9048683402208
 20
284.4613216825361
 11
-102.6293932457497
 21
284.4487464456615
  0
ARC
  8
0
  6
CONTINUOUS
 62
     7
 10
-92.82866724101615
 20
267.5613216825362
 40
16.90000000000001
 50
271.8364953953111
 51
299.8044542073266
  0
ARC
  8
0
  6
CONTINUOUS
 62
     7
 10
-92.82866724101615
 20
267.5613216825362
 40
16.90000000000001
 50
271.0863964389996
 51
271.8364953953111
  0
ARC
  8
0
  6
CONTINUOUS
 62
     7
 10
-92.82866724101615
 20
267.5613216825362
 40
16.90000000000001
 50
270.0
 51
271.0863964389996
  0
LINE
  8
1
  6
CONTINUOUS
 62
     7
 10
-84.42866724101614
 20
282.2258315965531
 11
-84.6048807381088
 21
282.3253738053825
  0
ARC
  8
0
  6
CONTINUOUS
 62
     7
 10
-92.82878630226283
 20
267.5613544524647
 40
16.89996716509987
 50
60.88116599872657
 51
87.05342364938804
  0
LINE
  8
1
  6
CONTINUOUS
 62
     7
 10
-91.96004699022006
 20
284.4389781652143
 11
-92.30735777058528
 21
284.4532756918816
  0
LINE
  8
1
  6
CONTINUOUS
 62
     7
 10
-132.9048734184442
 20
248.2253641841311
 11
-132.3498546421656
 21
242.9589857262933
  0
ARC
  8
1
  6
CONTINUOUS
 62
     7
 10
-129.6332580121032
 20
242.9282937998379
 40
0.9178303424956147
 50
178.0836918690411
 51
267.5220593442093
  0
ARC
  8
0
  6
CONTINUOUS
 62
     7
 10
-92.82878661278805
 20
267.5612898494088
 40
16.899968131476
 50
271.7680353194993
 51
299.8049824935716
  0
LINE
  8
1
  6
CONTINUOUS
 62
     7
 10
-102.6293962975697
 20
250.6738966406821
 11
-102.9048683402208
 21
250.6613216825363
  0
LINE
  8
1
  6
CONTINUOUS
 62
     7
 10
-93.73088640009017
 20
284.4537383660931
 11
-99.11682899766606
 21
284.4496312102121
  0
LINE
  8
1
  6
CONTINUOUS
 62
     7
 10
-99.11371095710786
 20
250.6730261232237
 11
-93.74336148686524
 21
250.6690295440442
  0
LINE
  8
1
  6
CONTINUOUS
 62
     7
 10
-83.67866724101613
 20
281.1928102155484
 11
-84.42866724101613
 21
281.8607837379471
  0
LINE
  8
1
  6
CONTINUOUS
 62
     7
 10
-82.92866724101614
 20
280.8133175076275
 11
-83.03291305752582
 21
280.7996235024208
  0
ARC
  8
1
  6
CONTINUOUS
 62
     7
 10
-81.52419904708509
 20
284.0043490699434
 40
3.542101625932487
 50
232.5372342758437
 51
244.7899796845861
  0
LINE
  8
0
  6
CONTINUOUS
 62
     7
 10
-82.92866724101614
 20
280.8133175076275
 11
-82.92866724101613
 21
281.2579428275594
  0
LINE
  8
1
  6
CONTINUOUS
 62
     7
 10
-82.92866724101614
 20
253.864700537513
 11
-82.76694967376476
 21
253.9830587491257
  0
ARC
  8
0
  6
CONTINUOUS
 62
     7
 10
-92.82907100748294
 20
267.5613220516644
 40
16.90016331422679
 50
306.5401570052736
 51
53.29774000111434
  0
LINE
  8
1
  6
CONTINUOUS
 62
     7
 10
-82.728573953356
 20
281.1110629830295
 11
-82.92866724101613
 21
281.2579428275594
  0
LINE
  8
0
  6
CONTINUOUS
 62
     7
 10
-82.92866724101614
 20
253.864700537513
 11
-82.92866724101613
 21
254.309325857445
  0
ARC
  8
1
  6
CONTINUOUS
 62
     7
 10
-81.43737934387568
 20
250.9924315482526
 40
3.694820645852817
 50
115.8991391604011
 51
127.3442538436933
  0
POLYLINE
  8
1
  6
CONTINUOUS
 62
     7
 66
     1
  0
VERTEX
  8
1
  6
CONTINUOUS
 62
     7
 10
-83.05123367254812
 20
254.3161604497795
  0
VERTEX
  8
1
  6
CONTINUOUS
 62
     7
 10
-82.95162749299841
 20
254.3370410375767
  0
VERTEX
  8
1
  6
CONTINUOUS
 62
     7
 10
-82.92866724101613
 20
254.309325857445
  0
SEQEND
  8
1
  6
CONTINUOUS
 62
     7
  0
LINE
  8
1
  6
CONTINUOUS
 62
     7
 10
-84.42866724101613
 20
253.2618596271253
 11
-83.67866724101613
 21
253.9298331495241
  0
LINE
  8
0
  6
CONTINUOUS
 62
     7
 10
-84.42866724101613
 20
253.2618596271253
 11
-84.42866724101617
 21
252.9944595800431
  0
LINE
  8
0
  6
CONTINUOUS
 62
     7
 10
-84.42866724101617
 20
252.9944595800431
 11
-84.42866724101613
 21
252.8968117685193
  0
LINE
  8
0
  6
CONTINUOUS
 62
     7
 10
-84.42866724101614
 20
282.2258315965531
 11
-84.42866724101613
 21
282.1281815456899
  0
LINE
  8
0
  6
CONTINUOUS
 62
     7
 10
-84.42866724101613
 20
282.1281815456899
 11
-84.42866724101613
 21
281.8607837379471
  0
ARC
  8
1
  6
CONTINUOUS
 62
     7
 10
-131.3524205446905
 20
243.002501620962
 40
0.9983828984386626
 50
182.4981069176628
 51
261.0298983186512
  0
LINE
  8
0
  6
CONTINUOUS
 62
     7
 10
-129.6729401705253
 20
242.0113216825362
 11
-131.4173580716203
 21
242.0113216825362
  0
LINE
  8
0
  6
CONTINUOUS
 62
     7
 10
-129.5804325493231
 20
242.0113216825362
 11
-129.6729401705253
 21
242.0113216825362
  0
ARC
  8
1
  6
CONTINUOUS
 62
     7
 10
-129.580432549323
 20
242.1190618730391
 40
0.1077401905028863
 50
270.0
 51
290.7050732943923
  0
LINE
  8
1
  6
CONTINUOUS
 62
     7
 10
-131.5080874519451
 20
242.0163291077166
 11
-131.4173580716202
 21
242.0113216825362
  0
ARC
  8
0
  6
CONTINUOUS
 62
     7
 10
-92.82866724101615
 20
267.5613216825362
 40
16.89999999999997
 50
53.29871689552897
 51
54.14055719497475
  0
ARC
  8
0
  6
CONTINUOUS
 62
     7
 10
-92.82866724101615
 20
267.5613216825362
 40
16.89999999999998
 50
306.539173859395
 51
53.29871689552897
  0
ARC
  8
0
  6
CONTINUOUS
 62
     7
 10
-92.82866724101615
 20
267.5613216825362
 40
16.9
 50
305.8594428050253
 51
306.539173859395
  0
ARC
  8
1
  6
CONTINUOUS
 62
     9
 10
-178.3325280806438
 20
260.5613216825362
 40
1.761195321659775
 50
0.0
 51
26.03808730201823
  0
ARC
  8
1
  6
CONTINUOUS
 62
     9
 10
-178.789493217165
 20
260.338068743531
 40
2.269780624996698
 50
26.03808730202215
 51
46.17189272925492
  0
ARC
  8
1
  6
CONTINUOUS
 62
     9
 10
-178.5979328284327
 20
260.5376300104253
 40
1.99315799075331
 50
46.17189272925435
 51
70.76128306513971
  0
ARC
  8
1
  6
CONTINUOUS
 62
     9
 10
-178.778088596909
 20
260.0214165403086
 40
2.539905142227572
 50
70.76128306514853
 51
90.00000000000001
  0
CIRCLE
  8
1
  6
CONTINUOUS
 62
     7
 10
-181.5713327589839
 20
267.5613216825362
 40
2.000000000000002
  0
ARC
  8
1
  6
CONTINUOUS
 62
     9
 10
-181.5713327589839
 20
267.5613216825362
 40
5.000000000000004
 50
89.99999999999795
 51
270.0
  0
ARC
  8
1
  6
CONTINUOUS
 62
     9
 10
-178.778088596909
 20
275.1012268247638
 40
2.539905142227572
 50
270.0
 51
289.2387169348515
  0
ARC
  8
1
  6
CONTINUOUS
 62
     9
 10
-178.5979328284327
 20
274.5850133546471
 40
1.99315799075331
 50
289.2387169348602
 51
313.8281072707456
  0
ARC
  8
1
  6
CONTINUOUS
 62
     9
 10
-178.7894932171647
 20
274.7845746215411
 40
2.269780624996246
 50
313.8281072707454
 51
333.9619126979817
  0
ARC
  8
1
  6
CONTINUOUS
 62
     9
 10
-178.3325280806436
 20
274.5613216825362
 40
1.761195321659553
 50
333.9619126979782
 51
0.0
  0
ARC
  8
1
  6
CONTINUOUS
 62
     7
 10
-92.82866724101615
 20
267.5613216825362
 40
19.40000000000001
 50
64.34255639890819
 51
115.6574436010918
  0
LINE
  8
1
  6
CONTINUOUS
 62
     7
 10
-101.2286672410162
 20
285.0484598131738
 11
-101.2286672410162
 21
284.4472204475293
  0
LINE
  8
1
  6
CONTINUOUS
 62
     7
 10
-84.42866724101613
 20
282.3259074023582
 11
-84.42866724101613
 21
285.0484598131738
  0
ARC
  8
0
  6
CONTINUOUS
 62
     7
 10
-92.82866724101615
 20
267.5613216825362
 40
19.39999999999997
 50
244.3425563989082
 51
270.0
  0
ARC
  8
0
  6
CONTINUOUS
 62
     7
 10
-92.82866724101615
 20
267.5613216825362
 40
19.40000000000001
 50
270.0
 51
295.6574436010918
  0
LINE
  8
1
  6
CONTINUOUS
 62
     7
 10
-101.2286672410162
 20
250.6750986765635
 11
-101.2286672410162
 21
250.0741835518986
  0
LINE
  8
1
  6
CONTINUOUS
 62
     7
 10
-84.42866724101613
 20
250.0741835518986
 11
-84.42866724101613
 21
252.7967249851011
  0
ARC
  8
1
  6
CONTINUOUS
 62
     7
 10
-92.82866724101615
 20
267.5613216825362
 40
19.39999999999999
 50
300.6844328128302
 51
59.3155671871698
  0
LINE
  8
0
  6
CONTINUOUS
 62
     7
 10
-82.92866724101614
 20
253.8646067479251
 11
-82.92866724101613
 21
250.8774971809419
  0
LINE
  8
0
  6
CONTINUOUS
 62
     7
 10
-82.92866724101614
 20
284.2451461841305
 11
-82.92866724101614
 21
281.2580366171473
  0
LINE
  8
1
  6
CONTINUOUS
 62
     7
 10
-128.1154216643705
 20
247.5613216825362
 11
-115.9979707178853
 21
247.5613216825362
  0
LINE
  8
1
  6
CONTINUOUS
 62
     7
 10
-156.3286672410161
 20
247.5613216825362
 11
-137.2962037132466
 21
247.5613216825362
  0
LINE
  8
1
  6
CONTINUOUS
 62
     7
 10
-115.9979707178853
 20
287.5613216825362
 11
-156.3286672410161
 21
287.5613216825362
  0
POLYLINE
  8
1
  6
CONTINUOUS
 62
     7
 66
     1
  0
VERTEX
  8
1
  6
CONTINUOUS
 62
     7
 10
-155.3857762668849
 20
285.0974887022788
  0
VERTEX
  8
1
  6
CONTINUOUS
 62
     7
 10
-155.1650914213033
 20
285.0834643623542
  0
VERTEX
  8
1
  6
CONTINUOUS
 62
     7
 10
-154.8311166387859
 20
285.0223399082959
  0
VERTEX
  8
1
  6
CONTINUOUS
 62
     7
 10
-154.5175183002563
 20
284.9216174965651
  0
SEQEND
  8
1
  6
CONTINUOUS
 62
     7
  0
ARC
  8
1
  6
CONTINUOUS
 62
     7
 10
-159.0097276149743
 20
277.4142901259228
 40
8.74870897774269
 50
14.83756270354979
 51
59.10468346137515
  0
ARC
  8
1
  6
CONTINUOUS
 62
     7
 10
-186.168104557062
 20
267.6552940674133
 40
37.58242944993215
 50
338.1780436517266
 51
18.61945775608382
  0
ARC
  8
1
  6
CONTINUOUS
 62
     7
 10
-158.1946912316845
 20
256.9215464251699
 40
7.635837843232689
 50
297.446012864046
 51
334.9214518349629
  0
POLYLINE
  8
1
  6
CONTINUOUS
 62
     7
 66
     1
  0
VERTEX
  8
1
  6
CONTINUOUS
 62
     7
 10
-154.6752372091647
 20
250.1451563130591
  0
VERTEX
  8
1
  6
CONTINUOUS
 62
     7
 10
-154.9914671196301
 20
250.064981233593
  0
VERTEX
  8
1
  6
CONTINUOUS
 62
     7
 10
-155.3282454260224
 20
250.026781529683
  0
VERTEX
  8
1
  6
CONTINUOUS
 62
     7
 10
-155.3868160951245
 20
250.0251384346461
  0
SEQEND
  8
1
  6
CONTINUOUS
 62
     7
  0
LINE
  8
1
  6
CONTINUOUS
 62
     7
 10
-112.0565680793686
 20
249.8688694167138
 11
-109.857931348525
 21
252.6111995179163
  0
LINE
  8
1
  6
CONTINUOUS
 62
     7
 10
-109.857931348525
 20
282.5114438471562
 11
-112.0565680793686
 21
285.2537739483586
  0
LINE
  8
1
  6
CONTINUOUS
 62
     7
 10
-111.4212271120965
 20
250.6613216825362
 11
-102.9328476605539
 21
250.6613216825362
  0
LINE
  8
0
  6
CONTINUOUS
 62
     7
 10
-102.9328476605539
 20
284.4613216825362
 11
-111.4212271120964
 21
284.4613216825362
  0
LINE
  8
1
  6
CONTINUOUS
 62
     7
 10
-128.0221933988006
 20
248.4459321409926
 11
-127.9870844315394
 21
248.6209435998103
  0
LINE
  8
0
  6
CONTINUOUS
 62
     7
 10
-102.9048359957095
 20
284.4613216825362
 11
-102.9328476605553
 21
284.4613216825362
  0
LINE
  8
1
  6
CONTINUOUS
 62
     7
 10
-128.603222636735
 20
242.9327493848607
 11
-128.0221863224206
 21
248.4459991337148
  0
LINE
  8
1
  6
CONTINUOUS
 62
     7
 10
-99.04746418210121
 20
284.4454856813007
 11
-102.6294668431044
 21
284.4487477026393
  0
LINE
  8
1
  6
CONTINUOUS
 62
     7
 10
-92.30605654331968
 20
284.4532234783827
 11
-93.65387351069484
 21
284.4496518981766
  0
LINE
  8
1
  6
CONTINUOUS
 62
     7
 10
-93.65744100657906
 20
250.6729991619556
 11
-92.30606184427212
 21
250.6694199036953
  0
LINE
  8
1
  6
CONTINUOUS
 62
     7
 10
-102.6294668431043
 20
250.6738956624331
 11
-99.04426872651531
 21
250.6771588326584
  0
ARC
  8
1
  6
CONTINUOUS
 62
     7
 10
-129.5962520958231
 20
243.0142428364344
 40
0.9963406640972122
 50
273.0787175307701
 51
355.3463990738641
  0
LINE
  8
1
  6
CONTINUOUS
 62
     7
 10
-133.0345263766682
 20
248.6471258551678
 11
-132.9694470478574
 21
248.3875752890269
  0
ARC
  8
1
  6
CONTINUOUS
 62
     7
 10
-131.38251198898
 20
243.0245795420061
 40
1.016180858679359
 50
185.1474685511401
 51
262.5903033457129
  0
LINE
  8
1
  6
CONTINUOUS
 62
     7
 10
-131.5135621516297
 20
242.0168844529956
 11
-131.507999244234
 21
242.016319367121
  0
LINE
  8
1
  6
CONTINUOUS
 62
     7
 10
-132.9694365543862
 20
248.3874755733556
 11
-132.3945679842083
 21
242.9327493848607
  0
ENDBLK
  8
0
  0
BLOCK
  8
0
  2
D_FRAME_VIEW_1490
 70
     0
 10
0.0
 20
0.0
  0
LINE
  8
0
  6
CONTINUOUS
 62
     7
 10
-156.9542817483814
 20
176.9876226520835
 11
-147.8763020062022
 21
196.4554130334325
  0
LINE
  8
0
  6
CONTINUOUS
 62
     7
 10
-139.8319132836905
 20
164.0164270739248
 11
-139.4092950219498
 21
164.9227348609616
  0
ARC
  8
1
  6
CONTINUOUS
 62
     7
 10
-139.3786740624215
 20
163.8051489998159
 40
0.5000642121725986
 50
155.0073567558351
 51
244.9926432441621
  0
LINE
  8
1
  6
CONTINUOUS
 62
     7
 10
-139.5900685210426
 20
163.3519640495361
 11
-131.8864523312313
 21
159.7597088247403
  0
ARC
  8
1
  6
CONTINUOUS
 62
     7
 10
-131.4639259386238
 20
160.6662690201461
 40
1.00018995213115
 50
245.0108803554636
 51
334.9891196445341
  0
LINE
  8
1
  6
CONTINUOUS
 62
     7
 10
-125.9087254033062
 20
170.2127840074394
 11
-130.5575262824539
 21
160.2433983500362
  0
ARC
  8
1
  6
CONTINUOUS
 62
     7
 10
-126.8152027062067
 20
170.6353405704515
 40
1.000127566672512
 50
335.0073076336746
 51
64.99269236632261
  0
LINE
  8
1
  6
CONTINUOUS
 62
     7
 10
-134.0960311184136
 20
175.1339652810128
 11
-126.3924149286021
 21
171.5417100562168
  0
ARC
  8
1
  6
CONTINUOUS
 62
     7
 10
-134.3072928019197
 20
174.6806810269324
 40
0.500098104290554
 50
65.0112386161119
 51
154.9887613838902
  0
LINE
  8
0
  6
CONTINUOUS
 62
     7
 10
-134.7604941428023
 20
174.8921205183647
 11
-135.183112404543
 21
173.9858127313281
  0
LINE
  8
0
  6
CONTINUOUS
 62
     7
 10
-135.183112404543
 20
173.9858127313281
 11
-139.40929502195
 21
164.9227348609616
  0
LINE
  8
0
  6
CONTINUOUS
 62
     7
 10
-173.8128879615778
 20
134.9187209998571
 11
-174.364576921059
 21
134.9187209998571
  0
LINE
  8
1
  6
CONTINUOUS
 62
     7
 10
-157.957819933853
 20
168.9200241104628
 11
-173.8128879615778
 21
134.9187209998571
  0
ARC
  8
1
  6
CONTINUOUS
 62
     7
 10
-134.8735413390741
 20
170.6291671377055
 40
3.381899345545481
 50
63.00001987492711
 51
94.46205771145269
  0
LINE
  8
1
  6
CONTINUOUS
 62
     7
 10
-135.1366493951988
 20
174.0008161903507
 11
-135.183112404543
 21
173.9858127313281
  0
LINE
  8
1
  6
CONTINUOUS
 62
     7
 10
-139.40929502195
 20
164.9227348609616
 11
-139.3516675297494
 21
164.8021684098418
  0
ARC
  8
1
  6
CONTINUOUS
 62
     7
 10
-136.6199263821808
 20
166.9086334577842
 40
3.449580365134575
 50
217.6360723548077
 51
247.1335222577559
  0
LINE
  8
1
  6
CONTINUOUS
 62
     7
 10
-120.3306652014894
 20
142.8960264329229
 11
-106.0461679546538
 21
173.5292296347616
  0
LINE
  8
0
  6
CONTINUOUS
 62
     7
 10
-174.364576921059
 20
134.9187209998571
 11
-176.5713327589838
 21
134.9187209998575
  0
LINE
  8
0
  6
CONTINUOUS
 62
     7
 10
-156.9542817483814
 20
176.9876226520835
 11
-176.5713327589838
 21
134.9187209998575
  0
LINE
  8
1
  6
CONTINUOUS
 62
     7
 10
-138.9102096897444
 20
163.6268252266094
 11
-131.8564047577671
 21
160.2973863706062
  0
LINE
  8
0
  6
CONTINUOUS
 62
     7
 10
-139.8144220257768
 20
164.0539371975693
 11
-139.7967163082538
 21
164.0455737831912
  0
LINE
  8
0
  6
CONTINUOUS
 62
     7
 10
-139.7967163082538
 20
164.0455737831912
 11
-138.9102096897444
 21
163.6268252266094
  0
LINE
  8
1
  6
CONTINUOUS
 62
     9
 10
-137.9603812998223
 20
163.7301455611118
 11
-131.9912594764439
 21
160.914022375373
  0
LINE
  8
0
  6
CONTINUOUS
 62
     7
 10
-131.8564047577671
 20
160.2973863706062
 11
-131.5913762800886
 21
160.1738015618355
  0
LINE
  8
1
  6
CONTINUOUS
 62
     9
 10
-127.3440391440306
 20
170.8800185393661
 11
-133.3381922103815
 21
173.6424620513214
  0
LINE
  8
0
  6
CONTINUOUS
 62
     7
 10
-133.8695821626452
 20
174.4364858421847
 11
-134.7779854007161
 21
174.8546103947203
  0
LINE
  8
0
  6
CONTINUOUS
 62
     7
 10
-126.7849856168803
 20
171.1730798150468
 11
-133.8695821626452
 21
174.4364858421847
  0
LINE
  8
0
  6
CONTINUOUS
 62
     7
 10
-126.7849856168803
 20
171.1730798150468
 11
-126.5199571392001
 21
171.0494950062754
  0
LINE
  8
0
  6
CONTINUOUS
 62
     7
 10
-101.2286672410162
 20
137.4187209998571
 11
-101.2286672410162
 21
134.9187209998571
  0
LINE
  8
1
  6
CONTINUOUS
 62
     7
 10
-84.42866724101613
 20
137.4187209998571
 11
-101.2286672410161
 21
137.4187209998571
  0
LINE
  8
0
  6
CONTINUOUS
 62
     7
 10
-84.42866724101613
 20
134.9187209998571
 11
-84.42866724101613
 21
137.4187209998571
  0
LINE
  8
1
  6
CONTINUOUS
 62
     7
 10
-84.42866724101613
 20
134.9187209998571
 11
-101.2286672410162
 21
134.9187209998571
  0
LINE
  8
0
  6
CONTINUOUS
 62
     7
 10
-84.42866724101613
 20
137.5699914357261
 11
-84.42866724101613
 21
137.6513916373542
  0
LINE
  8
0
  6
CONTINUOUS
 62
     7
 10
-101.2286672410162
 20
139.6687209998571
 11
-101.2286672410162
 21
137.5699914357261
  0
ARC
  8
1
  6
CONTINUOUS
 62
     7
 10
-101.9787630966334
 20
139.6686251442399
 40
0.750095861742
 50
0.0073218939152601
 51
89.99267810608472
  0
ARC
  8
1
  6
CONTINUOUS
 62
     7
 10
-101.9785482512334
 20
139.6686020100743
 40
0.7501189992203536
 50
90.00908870778474
 51
179.9909112922142
  0
LINE
  8
0
  6
CONTINUOUS
 62
     7
 10
-102.7286672410162
 20
137.5699914357261
 11
-102.7286672410162
 21
139.6687209998571
  0
LINE
  8
1
  6
CONTINUOUS
 62
     7
 10
-84.42866724101613
 20
128.9187209998571
 11
-101.2286672410162
 21
128.9187209998571
  0
LINE
  8
0
  6
CONTINUOUS
 62
     7
 10
-101.2286672410161
 20
128.9488506852776
 11
-101.2286672410161
 21
128.9187209998571
  0
LINE
  8
0
  6
CONTINUOUS
 62
     7
 10
-84.42866724101613
 20
128.9187209998571
 11
-84.42866724101609
 21
128.9488506852736
  0
LINE
  8
1
  6
CONTINUOUS
 62
     7
 10
-126.3129153726076
 20
170.5290966126481
 11
-131.059644100189
 21
160.3497040065681
  0
LINE
  8
0
  6
CONTINUOUS
 62
     7
 10
-84.42866724101609
 20
128.9488506852736
 11
-84.42866724101613
 21
128.9988606852736
  0
LINE
  8
0
  6
CONTINUOUS
 62
     7
 10
-84.42866724101613
 20
128.9988606852736
 11
-84.42866724101606
 21
132.4187209998571
  0
LINE
  8
0
  6
CONTINUOUS
 62
     7
 10
-101.2286672410162
 20
132.4187209998571
 11
-101.2286672410162
 21
128.9988606852777
  0
LINE
  8
0
  6
CONTINUOUS
 62
     7
 10
-101.2286672410162
 20
128.9988606852777
 11
-101.2286672410162
 21
128.9488506852776
  0
LINE
  8
0
  6
CONTINUOUS
 62
     7
 10
-131.5509071689673
 20
160.1549305054009
 11
-131.5913762800886
 21
160.1738015618355
  0
ARC
  8
1
  6
CONTINUOUS
 62
     7
 10
-131.3989841282645
 20
160.4886713899045
 40
0.3666927709753529
 50
245.5243760165358
 51
337.7297953669441
  0
LINE
  8
0
  6
CONTINUOUS
 62
     7
 10
-126.5199571392001
 20
171.0494950062754
 11
-126.4794880280958
 21
171.0306239498487
  0
ARC
  8
1
  6
CONTINUOUS
 62
     7
 10
-126.6383933123413
 20
170.6994209971782
 40
0.3673503575864007
 50
332.3766917521782
 51
64.36913686728197
  0
LINE
  8
0
  6
CONTINUOUS
 62
     7
 10
-84.42866724101613
 20
137.4187209998571
 11
-84.42866724101613
 21
137.5699914357261
  0
LINE
  8
0
  6
CONTINUOUS
 62
     7
 10
-101.2286672410162
 20
137.5699914357261
 11
-101.2286672410162
 21
137.4187209998571
  0
LINE
  8
1
  6
CONTINUOUS
 62
     7
 10
-82.92866724101613
 20
137.6543164749644
 11
-82.92866724101613
 21
139.6687209998571
  0
ARC
  8
1
  6
CONTINUOUS
 62
     7
 10
-83.6788009609583
 20
139.668587279915
 40
0.7501337318607044
 50
0.0102136299660742
 51
89.9897863700328
  0
ARC
  8
1
  6
CONTINUOUS
 62
     7
 10
-83.67860959059222
 20
139.6686633494332
 40
0.7500576526394654
 50
90.00440382945159
 51
179.9955961705474
  0
LINE
  8
0
  6
CONTINUOUS
 62
     7
 10
-84.42866724101613
 20
139.6687209998571
 11
-84.42866724101613
 21
137.7515303765892
  0
LINE
  8
0
  6
CONTINUOUS
 62
     7
 10
-84.42866724101613
 20
137.7515303765892
 11
-84.42866724101613
 21
137.6513916373542
  0
LINE
  8
1
  6
CONTINUOUS
 62
     7
 10
-73.42866724101619
 20
134.9187209998571
 11
-82.92866724101616
 21
134.9187209998571
  0
LINE
  8
1
  6
CONTINUOUS
 62
     7
 10
-75.92866724101617
 20
137.4187209998571
 11
-82.92866724101614
 21
137.4187209998571
  0
LINE
  8
0
  6
CONTINUOUS
 62
     7
 10
-82.92866724101613
 20
137.4187209998571
 11
-82.92866724101613
 21
134.9187209998571
  0
LINE
  8
0
  6
CONTINUOUS
 62
     7
 10
-102.7286672410162
 20
134.9187209998571
 11
-102.7286672410162
 21
137.4187209998571
  0
LINE
  8
1
  6
CONTINUOUS
 62
     7
 10
-102.7286672410162
 20
134.9187209998571
 11
-112.2286672410161
 21
134.9187209998571
  0
LINE
  8
1
  6
CONTINUOUS
 62
     7
 10
-102.7286672410161
 20
137.4187209998571
 11
-109.7286672410161
 21
137.4187209998571
  0
LINE
  8
0
  6
CONTINUOUS
 62
     7
 10
-84.42866724101606
 20
132.4187209998571
 11
-84.42866724101613
 21
134.9187209998571
  0
LINE
  8
0
  6
CONTINUOUS
 62
     7
 10
-101.2286672410161
 20
134.9187209998571
 11
-101.2286672410162
 21
132.4187209998571
  0
LINE
  8
0
  6
CONTINUOUS
 62
     7
 10
-102.7286672410162
 20
137.4187209998571
 11
-102.7286672410162
 21
137.5699914357261
  0
LINE
  8
0
  6
CONTINUOUS
 62
     7
 10
-82.92866724101613
 20
137.5699914357261
 11
-82.92866724101613
 21
137.4187209998571
  0
LINE
  8
0
  6
CONTINUOUS
 62
     7
 10
-77.02866724101615
 20
128.9187209998571
 11
-82.83531153835588
 21
128.9187209998571
  0
LINE
  8
0
  6
CONTINUOUS
 62
     7
 10
-82.83531153835588
 20
128.9187209998571
 11
-82.92866724101613
 21
128.9187209998571
  0
LINE
  8
0
  6
CONTINUOUS
 62
     7
 10
-82.92866724101613
 20
128.9187209998571
 11
-82.92866724101613
 21
129.9187209998572
  0
LINE
  8
1
  6
CONTINUOUS
 62
     7
 10
-102.7286672410162
 20
128.9187209998571
 11
-108.6286672410161
 21
128.9187209998571
  0
LINE
  8
0
  6
CONTINUOUS
 62
     7
 10
-102.7286672410162
 20
129.9187209998572
 11
-102.7286672410162
 21
128.9187209998571
  0
LINE
  8
0
  6
CONTINUOUS
 62
     7
 10
-82.92866724101614
 20
134.9187209998571
 11
-82.92866724101613
 21
129.9187209998572
  0
LINE
  8
0
  6
CONTINUOUS
 62
     7
 10
-102.7286672410162
 20
129.9187209998572
 11
-102.7286672410161
 21
134.9187209998571
  0
LINE
  8
0
  6
CONTINUOUS
 62
     7
 10
-175.172409784519
 20
137.9187209998573
 11
-177.379165622444
 21
137.9187209998573
  0
LINE
  8
0
  6
CONTINUOUS
 62
     7
 10
-178.778088596909
 20
134.9187209998571
 11
-176.5713327589841
 21
134.9187209998571
  0
LINE
  8
0
  6
CONTINUOUS
 62
     7
 10
-181.5713327589839
 20
137.9187209998573
 11
-186.5713327589839
 21
137.9187209998573
  0
LINE
  8
0
  6
CONTINUOUS
 62
     7
 10
-181.5713327589838
 20
134.9187209998573
 11
-186.5713327589838
 21
134.9187209998573
  0
LINE
  8
0
  6
CONTINUOUS
 62
     7
 10
-177.379165622444
 20
137.9187209998571
 11
-181.5713327589839
 21
137.9187209998571
  0
LINE
  8
0
  6
CONTINUOUS
 62
     7
 10
-178.778088596909
 20
134.9187209998571
 11
-181.5713327589838
 21
134.9187209998571
  0
LINE
  8
0
  6
CONTINUOUS
 62
     7
 10
-173.8128879615778
 20
134.9187209998571
 11
-172.7095100426153
 21
134.9187209998571
  0
ARC
  8
1
  6
CONTINUOUS
 62
     7
 10
-154.2239348618911
 20
154.184283187297
 40
1.114015285301444
 50
70.7516179051503
 51
149.1180505566172
  0
LINE
  8
1
  6
CONTINUOUS
 62
     7
 10
-155.2185287234204
 20
154.6817396117303
 11
-155.180012468266
 21
154.7560748158414
  0
ARC
  8
1
  6
CONTINUOUS
 62
     7
 10
-165.0712459112041
 20
135.9187209998571
 40
1.000000000000001
 50
270.0
 51
335.0000000000005
  0
LINE
  8
1
  6
CONTINUOUS
 62
     7
 10
-155.2185287234204
 20
154.6817396117303
 11
-164.1649381241675
 21
135.4961027381164
  0
LINE
  8
0
  6
CONTINUOUS
 62
     7
 10
-165.0712459112041
 20
134.9187209998571
 11
-172.7095100426153
 21
134.9187209998571
  0
LINE
  8
1
  6
CONTINUOUS
 62
     7
 10
-153.9053390313903
 20
155.1316824110781
 11
-124.4503359526993
 21
141.3965889045054
  0
LINE
  8
1
  6
CONTINUOUS
 62
     7
 10
-107.5456054830713
 20
177.6489003859715
 11
-147.8763020062022
 21
196.4554130334326
  0
LINE
  8
1
  6
CONTINUOUS
 62
     7
 10
-124.4503359526993
 20
141.3965889045054
 11
-120.3306652014895
 21
142.8960264329228
  0
LINE
  8
1
  6
CONTINUOUS
 62
     7
 10
-106.0461679546538
 20
173.5292296347616
 11
-107.5456054830713
 21
177.6489003859715
  0
ARC
  8
1
  6
CONTINUOUS
 62
     7
 10
-110.3286672410161
 20
137.569991435726
 40
0.5999999999999974
 50
0.000000000005457
 51
65.00000000000483
  0
ARC
  8
1
  6
CONTINUOUS
 62
     7
 10
-110.3286672410161
 20
137.569991435726
 40
34.39999999999998
 50
64.9486149629001
 51
65.00000000000493
  0
LINE
  8
1
  6
CONTINUOUS
 62
     7
 10
-120.3306652014895
 20
142.8960264329229
 11
-110.0750962839718
 21
138.113776107948
  0
LINE
  8
1
  6
CONTINUOUS
 62
     7
 10
-95.7905990371361
 20
168.7469793097868
 11
-106.0461679546538
 21
173.5292296347616
  0
ARC
  8
1
  6
CONTINUOUS
 62
     7
 10
-75.92866724101614
 20
134.9187209998571
 40
2.499999999999995
 50
0.0
 51
90.00000000000016
  0
ARC
  8
1
  6
CONTINUOUS
 62
     7
 10
-109.7286672410162
 20
134.9187209998571
 40
2.500000000000002
 50
89.99999999999983
 51
180.0
  0
LINE
  8
1
  6
CONTINUOUS
 62
     7
 10
-109.7286672410161
 20
137.569991435726
 11
-109.7286672410161
 21
137.4187209998571
  0
ARC
  8
1
  6
CONTINUOUS
 62
     7
 10
-77.02866724101615
 20
129.9187209998571
 40
1.000000000000001
 50
270.0000000000002
 51
0.0
  0
ARC
  8
1
  6
CONTINUOUS
 62
     7
 10
-108.6286672410161
 20
129.9187209998571
 40
1.000000000000001
 50
180.0
 51
269.9999999999998
  0
LINE
  8
1
  6
CONTINUOUS
 62
     7
 10
-76.02866724101614
 20
129.9187209998573
 11
-76.02866724101614
 21
134.9187209998572
  0
LINE
  8
1
  6
CONTINUOUS
 62
     7
 10
-109.6286672410161
 20
134.9187209998572
 11
-109.6286672410161
 21
129.9187209998573
  0
LINE
  8
1
  6
CONTINUOUS
 62
     7
 10
-186.5713327589839
 20
137.9187209998571
 11
-186.5713327589838
 21
134.9187209998571
  0
ARC
  8
1
  6
CONTINUOUS
 62
     7
 10
-154.327957293131
 20
154.2253746240415
 40
1.000000000000001
 50
65.00000000000004
 51
155.0000000000003
  0
ENDBLK
  8
0
  0
ENDSEC
  0
SECTION
  2
ENTITIES
  0
LINE
  8
1
  6
CONTINUOUS
 62
     7
 10
-178.778088596909
 20
262.5613216825362
 11
-181.5713327589839
 21
262.5613216825362
  0
ARC
  8
1
  6
CONTINUOUS
 62
     7
 10
-181.5713327589839
 20
267.5613216825362
 40
5.000000000000004
 50
90.0
 51
270.0
  0
LINE
  8
1
  6
CONTINUOUS
 62
     7
 10
-181.5713327589839
 20
272.5613216825362
 11
-178.778088596909
 21
272.5613216825362
  0
ARC
  8
1
  6
CONTINUOUS
 62
     7
 10
-178.778088596909
 20
275.1012268247638
 40
2.539905142227572
 50
270.0
 51
289.2387169348515
  0
ARC
  8
1
  6
CONTINUOUS
 62
     9
 10
-181.5713327589839
 20
267.5613216825362
 40
5.000000000000004
 50
89.99999999999795
 51
270.0
  0
LINE
  8
1
  6
CONTINUOUS
 62
     9
 10
-181.5713327589839
 20
262.5613216825362
 11
-178.778088596909
 21
262.5613216825362
  0
ARC
  8
1
  6
CONTINUOUS
 62
     9
 10
-178.778088596909
 20
260.0214165403086
 40
2.539905142227572
 50
70.76128306514853
 51
90.00000000000001
  0
INSERT
  8
1
  6
CONTINUOUS
 62
     7
  2
D_FRAME_VIEW_1714
 10
0.0
 20
0.0
 30
0.0
  0
TEXT
  8
1
  6
CONTINUOUS
 62
     7
 10
-77.76366345712975
 20
109.1617533658455
 40
3.0
  1
%%UCDE-28FD
  0
LINE
  8
1
  6
CONTINUOUS
 62
     2
 10
-77.67878787878787
 20
108.6037878787879
 11
-63.98787878787878
 21
108.6037878787879
  0
INSERT
  8
1
  6
CONTINUOUS
 62
     7
  2
D_FRAME_VIEW_1490
 10
0.0
 20
0.0
 30
0.0
  0
POINT
  8
1
 62
     7
 10
-190.0
 20
260.0
 30
0.0
  0
ARC
  8
1
  6
CONTINUOUS
 62
     7
 10
-92.82878630226283
 20
267.5613544524647
 40
16.89996716509987
 50
60.19514031338889
 51
89.99959634791918
  0
LINE
  8
1
  6
CONTINUOUS
 62
     7
 10
-102.9048359957095
 20
284.4613216825362
 11
-111.4212271120964
 21
284.4613216825362
  0
LINE
  8
1
  6
CONTINUOUS
 62
     7
 10
-165.0712459112041
 20
134.9187209998571
 11
-186.5713327589838
 21
134.9187209998571
  0
LINE
  8
1
  6
CONTINUOUS
 62
     7
 10
-84.42866724101629
 20
253.2618596271253
 11
-84.42866724101613
 21
252.8968117685193
  0
LINE
  8
1
  6
CONTINUOUS
 62
     7
 10
-102.7286672410162
 20
128.9187209998571
 11
-102.7286672410161
 21
139.6687209998571
  0
LINE
  8
1
  6
CONTINUOUS
 62
     7
 10
-82.92866724101614
 20
254.309325857445
 11
-82.92866724101613
 21
250.8774971809419
  0
LINE
  8
1
  6
CONTINUOUS
 62
     7
 10
-84.42866724101593
 20
128.9187209998571
 11
-84.4286672410163
 21
139.6687209998571
  0
LINE
  8
1
  6
CONTINUOUS
 62
     7
 10
-175.172409784519
 20
137.9187209998571
 11
-186.5713327589839
 21
137.9187209998571
  0
LINE
  8
1
  6
CONTINUOUS
 62
     7
 10
-82.92866724101614
 20
284.2451461841305
 11
-82.92866724101614
 21
280.8133175076275
  0
LINE
  8
1
  6
CONTINUOUS
 62
     7
 10
-84.42866724101613
 20
282.2258315965531
 11
-84.42866724101613
 21
281.8607837379471
  0
LINE
  8
1
  6
CONTINUOUS
 62
     7
 10
-126.7849856168803
 20
171.1730798150467
 11
-126.4794880280958
 21
171.0306239498487
  0
LINE
  8
1
  6
CONTINUOUS
 62
     7
 10
-147.8763020062022
 20
196.4554130334326
 11
-176.5713327589838
 21
134.9187209998575
  0
LINE
  8
1
  6
CONTINUOUS
 62
     7
 10
-77.02866724101615
 20
128.9187209998571
 11
-82.92866724101613
 21
128.9187209998571
  0
LINE
  8
1
  6
CONTINUOUS
 62
     7
 10
-126.7849856168803
 20
171.1730798150468
 11
-134.7778649919421
 21
174.8548717926515
  0
LINE
  8
1
  6
CONTINUOUS
 62
     7
 10
-131.5509071689673
 20
160.1549305054009
 11
-131.8564047577671
 21
160.2973863706063
  0
LINE
  8
1
  6
CONTINUOUS
 62
     7
 10
-139.8144220164297
 20
164.0539372173575
 11
-138.9102096897444
 21
163.6268252266094
  0
LINE
  8
1
  6
CONTINUOUS
 62
     7
 10
-101.2286672410161
 20
139.6687209998571
 11
-101.2286672410162
 21
128.9187209998571
  0
LINE
  8
1
  6
CONTINUOUS
 62
     7
 10
-134.7604941428023
 20
174.8921205183648
 11
-139.8319132836907
 21
164.0164270739249
  0
ARC
  8
1
  6
CONTINUOUS
 62
     7
 10
-92.82866724101615
 20
267.5613216825362
 40
19.40000000000001
 50
244.3425563989081
 51
295.6574436010918
  0
LINE
  8
1
  6
CONTINUOUS
 62
     7
 10
-82.92866724101614
 20
137.5699914357261
 11
-82.92866724101613
 21
128.9187209998571
  0
ARC
  8
1
  6
CONTINUOUS
 62
     7
 10
-92.82866724101615
 20
267.5613216825362
 40
16.9
 50
305.8594428050253
 51
54.1405571949748
  0
LINE
  8
1
  6
CONTINUOUS
 62
     7
 10
-129.5804325493231
 20
242.0113216825362
 11
-131.4173580716203
 21
242.0113216825362
  0
ARC
  8
1
  6
CONTINUOUS
 62
     7
 10
-92.82878661278805
 20
267.5612898494088
 40
16.899968131476
 50
270.0004047048288
 51
299.8049824935716
  0
ARC
  8
1
  6
CONTINUOUS
 62
     7
 10
-127.538632749618
 20
170.4189626132294
 40
0.5004390456003358
 50
334.0789365770653
 51
67.11730116621173
  0
ARC
  8
1
  6
CONTINUOUS
 62
     7
 10
235.3680507710215
 20
-5.067996963967953
 40
402.6086463552803
 50
154.1936142619483
 51
155.6326121412176
  0
ARC
  8
1
  6
CONTINUOUS
 62
     7
 10
-131.7628268581771
 20
161.3591032840972
 40
0.5000000000000079
 50
244.742913362685
 51
320.7423120676918
  0
LINE
  8
1
  6
CONTINUOUS
 62
     7
 10
-131.9761671603333
 20
160.9069020949392
 11
-137.9603812998223
 21
163.7301455611118
  0
ARC
  8
1
  6
CONTINUOUS
 62
     7
 10
-130.5064651003555
 20
124.6876278875466
 40
56.10000000000001
 50
13.11600803778322
 51
51.73359346146656
  0
LINE
  8
1
  6
CENTER
 62
     1
 10
-65.0
 20
267.5613216825362
 11
-190.0
 21
267.5613216825362
  0
LINE
  8
1
  6
CENTER
 62
     1
 10
-92.82866724101612
 20
148.7187209998571
 11
-92.82866724101612
 21
127.9187209998573
  0
LINE
  8
1
  6
CENTER
 62
     1
 10
-92.82866724101612
 20
148.7187209998571
 11
-158.1412828150895
 21
179.174493816181
  0
ENDSEC
  0
EOF
