  0
SECTION
  2
HEADER
  9
$ACADVER
  1
AC1004
  9
$INSBASE
 10
0.0
 20
0.0
  9
$EXTMIN
 10
30.0
 20
88.88834098015258
  9
$EXTMAX
 10
265.0
 20
150.0
  9
$LIMMIN
 10
0.0
 20
0.0
  9
$LIMMAX
 10
12.0
 20
9.0
  9
$ORTHOMODE
 70
     0
  9
$REGENMODE
 70
     1
  9
$FILLMODE
 70
     1
  9
$QTEXTMODE
 70
     0
  9
$DRAGMODE
 70
     2
  9
$LTSCALE
 40
1.0
  9
$OSMODE
 70
    37
  9
$ATTMODE
 70
     1
  9
$TEXTSIZE
 40
0.2
  9
$TRACEWID
 40
0.05
  9
$TEXTSTYLE
  7
STANDARD
  9
$CLAYER
  8
0
  9
$CELTYPE
  6
BYLAYER
  9
$CECOLOR
 62
   256
  9
$DIMSCALE
 40
1.0
  9
$DIMASZ
 40
3.0
  9
$DIMEXO
 40
0.0625
  9
$DIMDLI
 40
0.38
  9
$DIMRND
 40
0.0
  9
$DIMDLE
 40
0.0
  9
$DIMEXE
 40
1.5
  9
$DIMTP
 40
0.0
  9
$DIMTM
 40
0.0
  9
$DIMTXT
 40
3.0
  9
$DIMCEN
 40
0.09
  9
$DIMTSZ
 40
0.0
  9
$DIMTOL
 70
     0
  9
$DIMLIM
 70
     0
  9
$DIMTIH
 70
     1
  9
$DIMTOH
 70
     1
  9
$DIMSE1
 70
     0
  9
$DIMSE2
 70
     0
  9
$DIMTAD
 70
     1
  9
$DIMZIN
 70
     0
  9
$DIMBLK
  1

  9
$DIMASO
 70
     1
  9
$DIMSHO
 70
     1
  9
$DIMPOST
  1

  9
$DIMAPOST
  1

  9
$DIMALT
 70
     0
  9
$DIMALTD
 70
     2
  9
$DIMALTF
 40
25.4
  9
$DIMLFAC
 40
1.0
  9
$DIMTOFL
 70
     0
  9
$DIMTVP
 40
0.0
  9
$DIMTIX
 70
     0
  9
$DIMSOXD
 70
     0
  9
$DIMSAH
 70
     0
  9
$DIMBLK1
  1

  9
$DIMBLK2
  1

  9
$LUNITS
 70
     2
  9
$LUPREC
 70
     4
  9
$SKETCHINC
 40
0.1
  9
$FILLETRAD
 40
0.5
  9
$AUNITS
 70
     0
  9
$AUPREC
 70
     0
  9
$MENU
  1
.
  9
$ELEVATION
 40
0.0
  9
$THICKNESS
 40
0.0
  9
$LIMCHECK
 70
     0
  9
$CHAMFERA
 40
0.0
  9
$CHAMFERB
 40
0.0
  9
$SKPOLY
 70
     0
  9
$TDCREATE
 40
2458914.41391294
  9
$TDUPDATE
 40
2458914.41391331
  9
$TDINDWG
 40
0.0000000116
  9
$TDUSRTIMER
 40
0.0000000116
  9
$USRTIMER
 70
     1
  9
$ANGBASE
 50
0.0
  9
$ANGDIR
 70
     0
  9
$PDMODE
 70
     0
  9
$PDSIZE
 40
0.0
  9
$PLINEWID
 40
0.0
  9
$COORDS
 70
     1
  9
$SPLFRAME
 70
     0
  9
$SPLINETYPE
 70
     6
  9
$SPLINESEGS
 70
     8
  9
$ATTDIA
 70
     0
  9
$ATTREQ
 70
     1
  9
$SURFTAB1
 70
     6
  9
$SURFTAB2
 70
     6
  9
$SURFTYPE
 70
     6
  9
$SURFU
 70
     6
  9
$SURFV
 70
     6
  9
$UCSNAME
  2

  9
$UCSORG
 10
0.0
 20
0.0
 30
0.0
  9
$UCSXDIR
 10
1.0
 20
0.0
 30
0.0
  9
$UCSYDIR
 10
0.0
 20
1.0
 30
0.0
  9
$USERI1
 70
     0
  9
$USERI2
 70
     0
  9
$USERI3
 70
     0
  9
$USERI4
 70
     0
  9
$USERI5
 70
     0
  9
$USERR1
 40
0.0
  9
$USERR2
 40
0.0
  9
$USERR3
 40
0.0
  9
$USERR4
 40
0.0
  9
$USERR5
 40
0.0
  9
$WORLDVIEW
 70
     1
  0
ENDSEC
  0
SECTION
  2
TABLES
  0
TABLE
  2
LTYPE
 70
     2
  0
LTYPE
  2
CONTINUOUS
 70
     0
  3
Solid line
 72
    65
 73
     0
 40
0.0
  0
LTYPE
  2
CENTER
 70
     0
  3

 72
    65
 73
     0
 40
0.0
  0
ENDTAB
  0
TABLE
  2
LAYER
 70
     1
  0
LAYER
  2
0
 70
     0
 62
     7
  6
CONTINUOUS
  0
ENDTAB
  0
TABLE
  2
STYLE
 70
     2
  0
STYLE
  2
STANDARD
 70
     0
 40
0.0
 41
1.0
 50
0.0
 71
     0
 42
0.2
  3
txt
  4

  0
STYLE
  2
ＭＳ_ゴシック
 70
     0
 40
0.0
 41
1.0
 50
0.0
 71
     0
 42
0.2
  3
ＭＳ ゴシック.shx
  4

  0
ENDTAB
  0
TABLE
  2
VIEW
 70
     0
  0
ENDTAB
  0
ENDSEC
  0
SECTION
  2
BLOCKS
  0
BLOCK
  8
0
  2
D_FRAME_VIEW_1292
 70
     0
 10
0.0
 20
0.0
  0
ARC
  8
0
  6
CONTINUOUS
 62
     7
 10
55.11322597182311
 20
124.9405499737212
 40
20.44162492037859
 50
5.081772840358497
 51
76.78544101990184
  0
ARC
  8
0
  6
CONTINUOUS
 62
     7
 10
54.96322098389114
 20
124.8899890318748
 40
20.5217413399507
 50
79.27051851697695
 51
174.7961383457725
  0
LINE
  8
0
  6
CONTINUOUS
 62
     7
 10
58.78379857665438
 20
145.0529514749563
 11
59.7861456806063
 21
144.8408979802316
  0
ARC
  8
0
  6
CONTINUOUS
 62
     7
 10
55.11281963005553
 20
124.9401955484545
 40
20.44206120006481
 50
5.082825989150734
 51
76.7827822698914
  0
ARC
  8
0
  6
CONTINUOUS
 62
     7
 10
54.99972092771574
 20
125.1631186765675
 40
20.56331325117316
 50
185.3358746331484
 51
354.6643493004838
  0
LINE
  8
0
  6
CONTINUOUS
 62
     7
 10
58.16266027162006
 20
140.1750399660756
 11
57.92770385139571
 21
138.6915835120014
  0
LINE
  8
0
  6
CONTINUOUS
 62
     7
 10
60.67848520539729
 20
137.797800470056
 11
61.36035529462117
 21
139.1360458705566
  0
ARC
  8
0
  6
CONTINUOUS
 62
     7
 10
55.00000000006716
 20
125.0011288022806
 40
14.00000000000001
 50
66.07088681107486
 51
77.92911318892509
  0
LINE
  8
0
  6
CONTINUOUS
 62
     7
 10
48.63964470551315
 20
139.1360458705566
 11
49.32151479473703
 21
137.7978004700561
  0
LINE
  8
0
  6
CONTINUOUS
 62
     7
 10
52.07229614873862
 20
138.6915835120014
 11
51.83733972851427
 21
140.1750399660756
  0
ARC
  8
0
  6
CONTINUOUS
 62
     7
 10
55.00000000006716
 20
125.0011288022806
 40
13.99999999999999
 50
102.0708868110749
 51
113.9291131889251
  0
LINE
  8
0
  6
CONTINUOUS
 62
     7
 10
60.67848520539729
 20
112.2044571345052
 11
61.36035529462117
 21
110.8662117340047
  0
ARC
  8
0
  6
CONTINUOUS
 62
     7
 10
55.00000000006716
 20
125.0011288022806
 40
14.00000000000001
 50
282.070886811075
 51
293.9291131889252
  0
LINE
  8
0
  6
CONTINUOUS
 62
     7
 10
58.16266027162006
 20
109.8272176384857
 11
57.9277038513957
 21
111.3106740925598
  0
LINE
  8
0
  6
CONTINUOUS
 62
     7
 10
52.07229614873862
 20
111.3106740925598
 11
51.83733972851427
 21
109.8272176384857
  0
ARC
  8
0
  6
CONTINUOUS
 62
     7
 10
55.00000000006716
 20
125.0011288022806
 40
14.0
 50
246.0708868110749
 51
257.9291131889252
  0
LINE
  8
0
  6
CONTINUOUS
 62
     7
 10
48.63964470551315
 20
110.8662117340047
 11
49.32151479473703
 21
112.2044571345052
  0
LINE
  8
0
  6
CONTINUOUS
 62
     7
 10
56.44617134050299
 20
138.9262352095617
 11
56.68112776072736
 21
140.4096916636359
  0
ARC
  8
0
  6
CONTINUOUS
 62
     7
 10
55.00000000006716
 20
125.0011288022806
 40
13.99999999999999
 50
84.07088681107487
 51
95.92911318892509
  0
LINE
  8
0
  6
CONTINUOUS
 62
     7
 10
53.31887223940697
 20
140.4096916636359
 11
53.55382865963134
 21
138.9262352095617
  0
LINE
  8
0
  6
CONTINUOUS
 62
     7
 10
56.44617134050299
 20
111.0760223949995
 11
56.68112776072735
 21
109.5925659409253
  0
ARC
  8
0
  6
CONTINUOUS
 62
     7
 10
55.00000000006716
 20
125.0011288022806
 40
14.0
 50
264.070886811075
 51
275.9291131889252
  0
LINE
  8
0
  6
CONTINUOUS
 62
     7
 10
53.31887223940697
 20
109.5925659409253
 11
53.55382865963133
 21
111.0760223949995
  0
LINE
  8
0
  6
CONTINUOUS
 62
     7
 10
66.0917845471505
 20
135.9974410141595
 11
64.9803034875396
 21
134.9966589729254
  0
LINE
  8
0
  6
CONTINUOUS
 62
     7
 10
62.0718481208836
 20
137.2283952690928
 11
62.75085687449987
 21
138.5610249822701
  0
LINE
  8
0
  6
CONTINUOUS
 62
     7
 10
43.90821545298382
 20
114.0048165904017
 11
45.01969651259471
 21
115.0055986316358
  0
LINE
  8
0
  6
CONTINUOUS
 62
     7
 10
47.92815187925071
 20
112.7738623354684
 11
47.24914312563445
 21
111.4412326222911
  0
LINE
  8
0
  6
CONTINUOUS
 62
     7
 10
62.75085687449987
 20
111.4412326222911
 11
62.0718481208836
 21
112.7738623354684
  0
LINE
  8
0
  6
CONTINUOUS
 62
     7
 10
64.9803034875396
 20
115.0055986316358
 11
66.0917845471505
 21
114.0048165904017
  0
LINE
  8
0
  6
CONTINUOUS
 62
     7
 10
69.29579880807928
 20
131.2921305620064
 11
67.89949363834536
 21
130.7561392254115
  0
LINE
  8
0
  6
CONTINUOUS
 62
     7
 10
65.98399939707791
 20
133.8819417347093
 11
67.09548045668879
 21
134.8827237759434
  0
LINE
  8
0
  6
CONTINUOUS
 62
     7
 10
40.70420119205503
 20
118.7101270425548
 11
42.10050636178894
 21
119.2461183791497
  0
LINE
  8
0
  6
CONTINUOUS
 62
     7
 10
44.0160006030564
 20
116.1203158698519
 11
42.90451954344552
 21
115.1195338286178
  0
LINE
  8
0
  6
CONTINUOUS
 62
     7
 10
42.90451954344552
 20
134.8827237759434
 11
44.01600060305641
 21
133.8819417347093
  0
LINE
  8
0
  6
CONTINUOUS
 62
     7
 10
42.10050636178894
 20
130.7561392254115
 11
40.70420119205504
 21
131.2921305620064
  0
LINE
  8
0
  6
CONTINUOUS
 62
     7
 10
67.89949363834536
 20
119.2461183791497
 11
69.29579880807927
 21
118.7101270425548
  0
LINE
  8
0
  6
CONTINUOUS
 62
     7
 10
67.09548045668879
 20
115.1195338286178
 11
65.98399939707791
 21
116.1203158698519
  0
LINE
  8
0
  6
CONTINUOUS
 62
     7
 10
39.3992286505462
 20
124.2511288022806
 11
40.89487394269618
 21
124.2511288022806
  0
LINE
  8
0
  6
CONTINUOUS
 62
     7
 10
41.56295443747099
 20
120.6464890188955
 11
40.16664926773708
 21
120.1104976823006
  0
LINE
  8
0
  6
CONTINUOUS
 62
     7
 10
47.24914312563445
 20
138.5610249822701
 11
47.92815187925072
 21
137.2283952690928
  0
LINE
  8
0
  6
CONTINUOUS
 62
     7
 10
45.01969651259471
 20
134.9966589729254
 11
43.90821545298383
 21
135.9974410141595
  0
LINE
  8
0
  6
CONTINUOUS
 62
     7
 10
68.43704556266333
 20
129.3557685856657
 11
69.83335073239724
 21
129.8917599222606
  0
LINE
  8
0
  6
CONTINUOUS
 62
     7
 10
70.60077134958811
 20
125.7511288022806
 11
69.10512605743814
 21
125.7511288022806
  0
LINE
  8
0
  6
CONTINUOUS
 62
     7
 10
40.89487394269618
 20
125.7511288022806
 11
39.3992286505462
 21
125.7511288022806
  0
LINE
  8
0
  6
CONTINUOUS
 62
     7
 10
40.16664926773707
 20
129.8917599222606
 11
41.56295443747099
 21
129.3557685856657
  0
LINE
  8
0
  6
CONTINUOUS
 62
     7
 10
69.10512605743814
 20
124.2511288022806
 11
70.60077134958811
 21
124.2511288022806
  0
LINE
  8
0
  6
CONTINUOUS
 62
     7
 10
69.83335073239724
 20
120.1104976823006
 11
68.43704556266333
 21
120.6464890188955
  0
ARC
  8
0
  6
CONTINUOUS
 62
     7
 10
55.00000000006716
 20
125.0011288022806
 40
16.55000000000001
 50
96.40262498900074
 51
101.5973750109991
  0
ARC
  8
0
  6
CONTINUOUS
 62
     7
 10
55.00000000006716
 20
125.0011288022806
 40
16.54999999999999
 50
114.4026249890008
 51
119.5973750109994
  0
ARC
  8
0
  6
CONTINUOUS
 62
     7
 10
55.00000000006716
 20
125.0011288022806
 40
16.55
 50
135.4026249890007
 51
140.5973750109994
  0
ARC
  8
0
  6
CONTINUOUS
 62
     7
 10
55.00000000006716
 20
125.0011288022806
 40
16.55
 50
156.4026249890007
 51
161.5973750109993
  0
ARC
  8
0
  6
CONTINUOUS
 62
     7
 10
55.00000000006716
 20
125.0011288022806
 40
16.55
 50
177.4026249890006
 51
182.5973750109993
  0
ARC
  8
0
  6
CONTINUOUS
 62
     7
 10
55.00000000006716
 20
125.0011288022806
 40
16.55000000000001
 50
198.4026249890008
 51
203.5973750109995
  0
ARC
  8
0
  6
CONTINUOUS
 62
     7
 10
55.00000000006716
 20
125.0011288022806
 40
16.55
 50
219.4026249890007
 51
224.5973750109993
  0
ARC
  8
0
  6
CONTINUOUS
 62
     7
 10
55.00000000006716
 20
125.0011288022806
 40
16.55000000000001
 50
240.4026249890008
 51
245.5973750109994
  0
ARC
  8
0
  6
CONTINUOUS
 62
     7
 10
55.00000000006716
 20
125.0011288022806
 40
16.55
 50
258.4026249890007
 51
263.5973750109992
  0
ARC
  8
0
  6
CONTINUOUS
 62
     7
 10
55.00000000006716
 20
125.0011288022806
 40
16.55000000000001
 50
276.4026249890007
 51
281.5973750109993
  0
ARC
  8
0
  6
CONTINUOUS
 62
     7
 10
55.00000000006716
 20
125.0011288022806
 40
16.55000000000001
 50
294.4026249890007
 51
299.5973750109991
  0
ARC
  8
0
  6
CONTINUOUS
 62
     7
 10
55.00000000006716
 20
125.0011288022806
 40
16.55
 50
315.4026249890007
 51
320.5973750109992
  0
ARC
  8
0
  6
CONTINUOUS
 62
     7
 10
55.00000000006716
 20
125.0011288022806
 40
16.54999999999999
 50
336.4026249890007
 51
341.5973750109994
  0
ARC
  8
0
  6
CONTINUOUS
 62
     7
 10
55.00000000006716
 20
125.0011288022806
 40
16.55
 50
357.4026249890006
 51
2.597375010999258
  0
ARC
  8
0
  6
CONTINUOUS
 62
     7
 10
55.00000000006716
 20
125.0011288022806
 40
16.54999999999999
 50
18.40262498900078
 51
23.5973750109994
  0
ARC
  8
0
  6
CONTINUOUS
 62
     7
 10
55.00000000006716
 20
125.0011288022806
 40
16.55
 50
39.40262498900076
 51
44.59737501099923
  0
ARC
  8
0
  6
CONTINUOUS
 62
     7
 10
55.00000000006716
 20
125.0011288022806
 40
16.55
 50
60.40262498900076
 51
65.59737501099923
  0
ARC
  8
0
  6
CONTINUOUS
 62
     7
 10
55.00000000006716
 20
125.0011288022806
 40
16.54999999999998
 50
78.40262498900077
 51
83.59737501099924
  0
LINE
  8
0
  6
CONTINUOUS
 62
     7
 10
61.36035529462117
 20
110.8662117340047
 11
61.837568817165
 21
109.929627461291
  0
LINE
  8
0
  6
CONTINUOUS
 62
     7
 10
51.83733972851427
 20
140.1750399660756
 11
51.6729031551676
 21
141.213251630111
  0
LINE
  8
0
  6
CONTINUOUS
 62
     7
 10
56.68112776072735
 20
109.5925659409253
 11
56.84556433407401
 21
108.5543542768899
  0
LINE
  8
0
  6
CONTINUOUS
 62
     7
 10
61.36035529462117
 20
139.1360458705566
 11
61.837568817165
 21
140.0726301432702
  0
LINE
  8
0
  6
CONTINUOUS
 62
     7
 10
51.83733972851427
 20
109.8272176384857
 11
51.6729031551676
 21
108.7890059744502
  0
LINE
  8
0
  6
CONTINUOUS
 62
     7
 10
56.68112776072736
 20
140.4096916636359
 11
56.84556433407401
 21
141.4479033276714
  0
LINE
  8
0
  6
CONTINUOUS
 62
     7
 10
39.3992286505462
 20
125.7511288022806
 11
38.4670026916539
 21
125.7511288022806
  0
LINE
  8
0
  6
CONTINUOUS
 62
     7
 10
69.29579880807927
 20
118.7101270425548
 11
70.16610671637372
 21
118.3760471371537
  0
LINE
  8
0
  6
CONTINUOUS
 62
     7
 10
67.09548045668879
 20
134.8827237759434
 11
67.78825935421531
 21
135.5065046970805
  0
LINE
  8
0
  6
CONTINUOUS
 62
     7
 10
43.90821545298383
 20
135.9974410141595
 11
43.21543655545732
 21
136.6212219352966
  0
LINE
  8
0
  6
CONTINUOUS
 62
     7
 10
40.16664926773708
 20
120.1104976823006
 11
39.29634135944264
 21
119.7764177768995
  0
LINE
  8
0
  6
CONTINUOUS
 62
     7
 10
62.75085687449987
 20
138.5610249822701
 11
63.17407860344756
 21
139.3916443936609
  0
LINE
  8
0
  6
CONTINUOUS
 62
     7
 10
69.83335073239724
 20
129.8917599222606
 11
70.70365864069167
 21
130.2258398276617
  0
LINE
  8
0
  6
CONTINUOUS
 62
     7
 10
47.24914312563445
 20
111.4412326222911
 11
46.82592139668676
 21
110.6106132109003
  0
LINE
  8
0
  6
CONTINUOUS
 62
     7
 10
70.60077134958811
 20
124.2511288022806
 11
71.53299730848042
 21
124.2511288022806
  0
LINE
  8
0
  6
CONTINUOUS
 62
     7
 10
66.0917845471505
 20
114.0048165904017
 11
66.784563444677
 21
113.3810356692646
  0
LINE
  8
0
  6
CONTINUOUS
 62
     7
 10
42.90451954344552
 20
115.1195338286178
 11
42.21174064591901
 21
114.4957529074807
  0
LINE
  8
0
  6
CONTINUOUS
 62
     7
 10
40.70420119205504
 20
131.2921305620064
 11
39.8338932837606
 21
131.6262104674076
  0
LINE
  8
0
  6
CONTINUOUS
 62
     7
 10
70.16610671637372
 20
131.6262104674076
 11
69.29579880807928
 21
131.2921305620064
  0
LINE
  8
0
  6
CONTINUOUS
 62
     7
 10
46.82592139668676
 20
139.3916443936609
 11
47.24914312563445
 21
138.5610249822701
  0
LINE
  8
0
  6
CONTINUOUS
 62
     7
 10
39.29634135944264
 20
130.2258398276617
 11
40.16664926773707
 21
129.8917599222606
  0
LINE
  8
0
  6
CONTINUOUS
 62
     7
 10
43.21543655545731
 20
113.3810356692646
 11
43.90821545298382
 21
114.0048165904017
  0
LINE
  8
0
  6
CONTINUOUS
 62
     7
 10
38.4670026916539
 20
124.2511288022806
 11
39.3992286505462
 21
124.2511288022806
  0
LINE
  8
0
  6
CONTINUOUS
 62
     7
 10
63.17407860344756
 20
110.6106132109003
 11
62.75085687449987
 21
111.4412326222911
  0
LINE
  8
0
  6
CONTINUOUS
 62
     7
 10
42.21174064591901
 20
135.5065046970805
 11
42.90451954344552
 21
134.8827237759434
  0
LINE
  8
0
  6
CONTINUOUS
 62
     7
 10
70.70365864069169
 20
119.7764177768995
 11
69.83335073239724
 21
120.1104976823006
  0
LINE
  8
0
  6
CONTINUOUS
 62
     7
 10
39.8338932837606
 20
118.3760471371537
 11
40.70420119205503
 21
118.7101270425548
  0
LINE
  8
0
  6
CONTINUOUS
 62
     7
 10
66.784563444677
 20
136.6212219352966
 11
66.0917845471505
 21
135.9974410141595
  0
LINE
  8
0
  6
CONTINUOUS
 62
     7
 10
71.53299730848042
 20
125.7511288022806
 11
70.60077134958811
 21
125.7511288022806
  0
LINE
  8
0
  6
CONTINUOUS
 62
     7
 10
67.78825935421531
 20
114.4957529074807
 11
67.09548045668879
 21
115.1195338286178
  0
LINE
  8
0
  6
CONTINUOUS
 62
     7
 10
53.1544356660603
 20
108.5543542768899
 11
53.31887223940697
 21
109.5925659409253
  0
LINE
  8
0
  6
CONTINUOUS
 62
     7
 10
53.15443566606032
 20
141.4479033276714
 11
53.31887223940697
 21
140.4096916636359
  0
LINE
  8
0
  6
CONTINUOUS
 62
     7
 10
48.16243118296931
 20
109.929627461291
 11
48.63964470551315
 21
110.8662117340047
  0
LINE
  8
0
  6
CONTINUOUS
 62
     7
 10
48.16243118296931
 20
140.0726301432702
 11
48.63964470551315
 21
139.1360458705566
  0
LINE
  8
0
  6
CONTINUOUS
 62
     7
 10
58.32709684496672
 20
108.7890059744502
 11
58.16266027162006
 21
109.8272176384857
  0
LINE
  8
0
  6
CONTINUOUS
 62
     7
 10
58.32709684496672
 20
141.213251630111
 11
58.16266027162006
 21
140.1750399660756
  0
ARC
  8
0
  6
CONTINUOUS
 62
     7
 10
55.00000000006716
 20
125.0011288022806
 40
18.05
 50
0.0
 51
4.638145909599643
  0
ARC
  8
0
  6
CONTINUOUS
 62
     7
 10
55.00000000006716
 20
125.0011288022806
 40
18.05
 50
4.638145909599649
 51
170.6929605006773
  0
ARC
  8
0
  6
CONTINUOUS
 62
     7
 10
55.00000000006716
 20
125.0011288022806
 40
18.04999999999999
 50
350.6929605006773
 51
0.0
  0
ARC
  8
0
  6
CONTINUOUS
 62
     7
 10
55.00000000006716
 20
125.0011288022806
 40
18.05
 50
184.6381459095996
 51
350.6929605006773
  0
ARC
  8
0
  6
CONTINUOUS
 62
     7
 10
55.00000000006716
 20
125.0011288022806
 40
18.05000000000001
 50
170.6929605006773
 51
184.6381459095996
  0
LINE
  8
0
  6
CONTINUOUS
 62
     7
 10
73.30580509025644
 20
122.5011288022806
 11
73.50319441000147
 21
122.5011288022806
  0
POLYLINE
  8
0
  6
CONTINUOUS
 62
     7
 66
     1
  0
VERTEX
  8
0
  6
CONTINUOUS
 62
     7
 10
72.81238716329716
 20
122.0819913359733
  0
VERTEX
  8
0
  6
CONTINUOUS
 62
     7
 10
72.81534403565253
 20
122.0982776226653
  0
VERTEX
  8
0
  6
CONTINUOUS
 62
     7
 10
72.81885433981181
 20
122.114483753073
  0
VERTEX
  8
0
  6
CONTINUOUS
 62
     7
 10
72.82289675690868
 20
122.1305629680036
  0
VERTEX
  8
0
  6
CONTINUOUS
 62
     7
 10
72.82744996807673
 20
122.1464685082645
  0
VERTEX
  8
0
  6
CONTINUOUS
 62
     7
 10
72.83249265444964
 20
122.1621536146629
  0
VERTEX
  8
0
  6
CONTINUOUS
 62
     7
 10
72.83800349716105
 20
122.1775715280061
  0
VERTEX
  8
0
  6
CONTINUOUS
 62
     7
 10
72.84396117734462
 20
122.1926754891014
  0
VERTEX
  8
0
  6
CONTINUOUS
 62
     7
 10
72.85034437613395
 20
122.207418738756
  0
VERTEX
  8
0
  6
CONTINUOUS
 62
     7
 10
72.85945934690189
 20
122.2264475724602
  0
VERTEX
  8
0
  6
CONTINUOUS
 62
     7
 10
72.86927858401798
 20
122.2449048172008
  0
VERTEX
  8
0
  6
CONTINUOUS
 62
     7
 10
72.879738681765
 20
122.2627481331853
  0
VERTEX
  8
0
  6
CONTINUOUS
 62
     7
 10
72.89077623442573
 20
122.2799351806213
  0
VERTEX
  8
0
  6
CONTINUOUS
 62
     7
 10
72.90232783628291
 20
122.2964236197161
  0
VERTEX
  8
0
  6
CONTINUOUS
 62
     7
 10
72.9143300816193
 20
122.3121711106772
  0
VERTEX
  8
0
  6
CONTINUOUS
 62
     7
 10
72.92958923468325
 20
122.3304583387519
  0
VERTEX
  8
0
  6
CONTINUOUS
 62
     7
 10
72.94546268287567
 20
122.3477446256167
  0
VERTEX
  8
0
  6
CONTINUOUS
 62
     7
 10
72.96187671577471
 20
122.3640294766706
  0
VERTEX
  8
0
  6
CONTINUOUS
 62
     7
 10
72.97875762295847
 20
122.3793123973125
  0
VERTEX
  8
0
  6
CONTINUOUS
 62
     7
 10
72.99603169400504
 20
122.3935928929414
  0
VERTEX
  8
0
  6
CONTINUOUS
 62
     7
 10
73.01362521849255
 20
122.4068704689562
  0
VERTEX
  8
0
  6
CONTINUOUS
 62
     7
 10
73.03146448599912
 20
122.4191446307557
  0
VERTEX
  8
0
  6
CONTINUOUS
 62
     7
 10
73.05683406339762
 20
122.4347356877204
  0
VERTEX
  8
0
  6
CONTINUOUS
 62
     7
 10
73.08267449638251
 20
122.4485831945964
  0
VERTEX
  8
0
  6
CONTINUOUS
 62
     7
 10
73.1088924401054
 20
122.4607234466709
  0
VERTEX
  8
0
  6
CONTINUOUS
 62
     7
 10
73.13539454971793
 20
122.4711927392311
  0
VERTEX
  8
0
  6
CONTINUOUS
 62
     7
 10
73.16208748037171
 20
122.4800273675641
  0
VERTEX
  8
0
  6
CONTINUOUS
 62
     7
 10
73.18887788721837
 20
122.4872636269573
  0
VERTEX
  8
0
  6
CONTINUOUS
 62
     7
 10
73.21567242540951
 20
122.4929378126979
  0
VERTEX
  8
0
  6
CONTINUOUS
 62
     7
 10
73.24574200756531
 20
122.4975082085904
  0
VERTEX
  8
0
  6
CONTINUOUS
 62
     7
 10
73.27581457030838
 20
122.5002286153896
  0
VERTEX
  8
0
  6
CONTINUOUS
 62
     7
 10
73.30580509025644
 20
122.5011288022806
  0
SEQEND
  8
0
  6
CONTINUOUS
 62
     7
  0
POLYLINE
  8
0
  6
CONTINUOUS
 62
     7
 66
     1
  0
VERTEX
  8
0
  6
CONTINUOUS
 62
     7
 10
73.4892536356253
 20
126.0011288022806
  0
VERTEX
  8
0
  6
CONTINUOUS
 62
     7
 10
73.45688717435077
 20
126.002178128347
  0
VERTEX
  8
0
  6
CONTINUOUS
 62
     7
 10
73.42442659381932
 20
126.0053493978235
  0
VERTEX
  8
0
  6
CONTINUOUS
 62
     7
 10
73.3919933591651
 20
126.0106775476258
  0
VERTEX
  8
0
  6
CONTINUOUS
 62
     7
 10
73.35970893552224
 20
126.0181975146696
  0
VERTEX
  8
0
  6
CONTINUOUS
 62
     7
 10
73.32769478802489
 20
126.0279442358707
  0
VERTEX
  8
0
  6
CONTINUOUS
 62
     7
 10
73.29607238180716
 20
126.0399526481448
  0
VERTEX
  8
0
  6
CONTINUOUS
 62
     7
 10
73.26496318200317
 20
126.0542576884077
  0
VERTEX
  8
0
  6
CONTINUOUS
 62
     7
 10
73.24095435693825
 20
126.0671413843307
  0
VERTEX
  8
0
  6
CONTINUOUS
 62
     7
 10
73.21727075822601
 20
126.0815812297364
  0
VERTEX
  8
0
  6
CONTINUOUS
 62
     7
 10
73.19402982488728
 20
126.0975972993791
  0
VERTEX
  8
0
  6
CONTINUOUS
 62
     7
 10
73.1713489959429
 20
126.1152096680126
  0
VERTEX
  8
0
  6
CONTINUOUS
 62
     7
 10
73.14934571041375
 20
126.1344384103911
  0
VERTEX
  8
0
  6
CONTINUOUS
 62
     7
 10
73.12813740732065
 20
126.1553036012686
  0
VERTEX
  8
0
  6
CONTINUOUS
 62
     7
 10
73.11495805200985
 20
126.1696211757617
  0
VERTEX
  8
0
  6
CONTINUOUS
 62
     7
 10
73.102136669276
 20
126.1847028941718
  0
VERTEX
  8
0
  6
CONTINUOUS
 62
     7
 10
73.08973117852793
 20
126.2005287529538
  0
VERTEX
  8
0
  6
CONTINUOUS
 62
     7
 10
73.07779949917439
 20
126.2170787485626
  0
VERTEX
  8
0
  6
CONTINUOUS
 62
     7
 10
73.06639955062417
 20
126.2343328774533
  0
VERTEX
  8
0
  6
CONTINUOUS
 62
     7
 10
73.05558925228605
 20
126.2522711360809
  0
VERTEX
  8
0
  6
CONTINUOUS
 62
     7
 10
73.0454265235688
 20
126.2708735209002
  0
VERTEX
  8
0
  6
CONTINUOUS
 62
     7
 10
73.0377529737775
 20
126.286328442528
  0
VERTEX
  8
0
  6
CONTINUOUS
 62
     7
 10
73.03052790570119
 20
126.3022605162875
  0
VERTEX
  8
0
  6
CONTINUOUS
 62
     7
 10
73.02378595313341
 20
126.318623956659
  0
VERTEX
  8
0
  6
CONTINUOUS
 62
     7
 10
73.01756174986767
 20
126.3353729781232
  0
VERTEX
  8
0
  6
CONTINUOUS
 62
     7
 10
73.01188992969745
 20
126.3524617951606
  0
VERTEX
  8
0
  6
CONTINUOUS
 62
     7
 10
73.00680512641632
 20
126.3698446222519
  0
VERTEX
  8
0
  6
CONTINUOUS
 62
     7
 10
73.00234197381778
 20
126.3874756738774
  0
VERTEX
  8
0
  6
CONTINUOUS
 62
     7
 10
72.99920537117154
 20
126.4018798138446
  0
VERTEX
  8
0
  6
CONTINUOUS
 62
     7
 10
72.99648293133802
 20
126.4164424868288
  0
VERTEX
  8
0
  6
CONTINUOUS
 62
     7
 10
72.9941836958397
 20
126.431125275985
  0
VERTEX
  8
0
  6
CONTINUOUS
 62
     7
 10
72.99231670619902
 20
126.4458897644684
  0
VERTEX
  8
0
  6
CONTINUOUS
 62
     7
 10
72.9908910039391
 20
126.4606975354343
  0
SEQEND
  8
0
  6
CONTINUOUS
 62
     7
  0
LINE
  8
0
  6
CONTINUOUS
 62
     7
 10
73.64452207417347
 20
126.0011288022806
 11
73.4892536356253
 21
126.0011288022806
  0
LINE
  8
0
  6
CONTINUOUS
 62
     7
 10
36.69419490987787
 20
127.5011288022806
 11
36.49680559013284
 21
127.5011288022806
  0
LINE
  8
0
  6
CONTINUOUS
 62
     7
 10
36.35547792596086
 20
124.0011288022806
 11
36.51074636450902
 21
124.0011288022806
  0
POLYLINE
  8
0
  6
CONTINUOUS
 62
     7
 66
     1
  0
VERTEX
  8
0
  6
CONTINUOUS
 62
     7
 10
37.18761283683715
 20
127.9202662685879
  0
VERTEX
  8
0
  6
CONTINUOUS
 62
     7
 10
37.1846559644818
 20
127.9039799818959
  0
VERTEX
  8
0
  6
CONTINUOUS
 62
     7
 10
37.1811456603225
 20
127.8877738514882
  0
VERTEX
  8
0
  6
CONTINUOUS
 62
     7
 10
37.17710324322565
 20
127.8716946365576
  0
VERTEX
  8
0
  6
CONTINUOUS
 62
     7
 10
37.17255003205759
 20
127.8557890962967
  0
VERTEX
  8
0
  6
CONTINUOUS
 62
     7
 10
37.16750734568466
 20
127.8401039898983
  0
VERTEX
  8
0
  6
CONTINUOUS
 62
     7
 10
37.16199650297325
 20
127.8246860765551
  0
VERTEX
  8
0
  6
CONTINUOUS
 62
     7
 10
37.1560388227897
 20
127.8095821154598
  0
VERTEX
  8
0
  6
CONTINUOUS
 62
     7
 10
37.14965562400036
 20
127.7948388658052
  0
VERTEX
  8
0
  6
CONTINUOUS
 62
     7
 10
37.14054065323243
 20
127.7758100321011
  0
VERTEX
  8
0
  6
CONTINUOUS
 62
     7
 10
37.13072141611633
 20
127.7573527873604
  0
VERTEX
  8
0
  6
CONTINUOUS
 62
     7
 10
37.1202613183693
 20
127.7395094713759
  0
VERTEX
  8
0
  6
CONTINUOUS
 62
     7
 10
37.10922376570858
 20
127.7223224239399
  0
VERTEX
  8
0
  6
CONTINUOUS
 62
     7
 10
37.0976721638514
 20
127.7058339848451
  0
VERTEX
  8
0
  6
CONTINUOUS
 62
     7
 10
37.08566991851502
 20
127.690086493884
  0
VERTEX
  8
0
  6
CONTINUOUS
 62
     7
 10
37.07041076545107
 20
127.6717992658093
  0
VERTEX
  8
0
  6
CONTINUOUS
 62
     7
 10
37.05453731725864
 20
127.6545129789445
  0
VERTEX
  8
0
  6
CONTINUOUS
 62
     7
 10
37.03812328435961
 20
127.6382281278906
  0
VERTEX
  8
0
  6
CONTINUOUS
 62
     7
 10
37.02124237717585
 20
127.6229452072487
  0
VERTEX
  8
0
  6
CONTINUOUS
 62
     7
 10
37.00396830612928
 20
127.6086647116198
  0
VERTEX
  8
0
  6
CONTINUOUS
 62
     7
 10
36.98637478164176
 20
127.5953871356051
  0
VERTEX
  8
0
  6
CONTINUOUS
 62
     7
 10
36.9685355141352
 20
127.5831129738055
  0
VERTEX
  8
0
  6
CONTINUOUS
 62
     7
 10
36.9431659367367
 20
127.5675219168408
  0
VERTEX
  8
0
  6
CONTINUOUS
 62
     7
 10
36.91732550375182
 20
127.5536744099648
  0
VERTEX
  8
0
  6
CONTINUOUS
 62
     7
 10
36.89110756002892
 20
127.5415341578903
  0
VERTEX
  8
0
  6
CONTINUOUS
 62
     7
 10
36.86460545041638
 20
127.5310648653302
  0
VERTEX
  8
0
  6
CONTINUOUS
 62
     7
 10
36.83791251976261
 20
127.5222302369971
  0
VERTEX
  8
0
  6
CONTINUOUS
 62
     7
 10
36.81112211291595
 20
127.5149939776039
  0
VERTEX
  8
0
  6
CONTINUOUS
 62
     7
 10
36.7843275747248
 20
127.5093197918634
  0
VERTEX
  8
0
  6
CONTINUOUS
 62
     7
 10
36.75425799256901
 20
127.5047493959708
  0
VERTEX
  8
0
  6
CONTINUOUS
 62
     7
 10
36.72418542982593
 20
127.5020289891716
  0
VERTEX
  8
0
  6
CONTINUOUS
 62
     7
 10
36.69419490987787
 20
127.5011288022806
  0
SEQEND
  8
0
  6
CONTINUOUS
 62
     7
  0
POLYLINE
  8
0
  6
CONTINUOUS
 62
     7
 66
     1
  0
VERTEX
  8
0
  6
CONTINUOUS
 62
     7
 10
36.51074636450902
 20
124.0011288022806
  0
VERTEX
  8
0
  6
CONTINUOUS
 62
     7
 10
36.54311282578355
 20
124.0000794762142
  0
VERTEX
  8
0
  6
CONTINUOUS
 62
     7
 10
36.575573406315
 20
123.9969082067377
  0
VERTEX
  8
0
  6
CONTINUOUS
 62
     7
 10
36.60800664096922
 20
123.9915800569354
  0
VERTEX
  8
0
  6
CONTINUOUS
 62
     7
 10
36.64029106461207
 20
123.9840600898916
  0
VERTEX
  8
0
  6
CONTINUOUS
 62
     7
 10
36.67230521210943
 20
123.9743133686905
  0
VERTEX
  8
0
  6
CONTINUOUS
 62
     7
 10
36.70392761832716
 20
123.9623049564164
  0
VERTEX
  8
0
  6
CONTINUOUS
 62
     7
 10
36.73503681813113
 20
123.9479999161535
  0
VERTEX
  8
0
  6
CONTINUOUS
 62
     7
 10
36.75904564319606
 20
123.9351162202306
  0
VERTEX
  8
0
  6
CONTINUOUS
 62
     7
 10
36.78272924190831
 20
123.9206763748248
  0
VERTEX
  8
0
  6
CONTINUOUS
 62
     7
 10
36.80597017524705
 20
123.9046603051821
  0
VERTEX
  8
0
  6
CONTINUOUS
 62
     7
 10
36.8286510041914
 20
123.8870479365486
  0
VERTEX
  8
0
  6
CONTINUOUS
 62
     7
 10
36.85065428972056
 20
123.8678191941701
  0
VERTEX
  8
0
  6
CONTINUOUS
 62
     7
 10
36.87186259281366
 20
123.8469540032927
  0
VERTEX
  8
0
  6
CONTINUOUS
 62
     7
 10
36.88504194812447
 20
123.8326364287995
  0
VERTEX
  8
0
  6
CONTINUOUS
 62
     7
 10
36.89786333085831
 20
123.8175547103894
  0
VERTEX
  8
0
  6
CONTINUOUS
 62
     7
 10
36.91026882160639
 20
123.8017288516075
  0
VERTEX
  8
0
  6
CONTINUOUS
 62
     7
 10
36.92220050095992
 20
123.7851788559986
  0
VERTEX
  8
0
  6
CONTINUOUS
 62
     7
 10
36.93360044951013
 20
123.7679247271079
  0
VERTEX
  8
0
  6
CONTINUOUS
 62
     7
 10
36.94441074784827
 20
123.7499864684804
  0
VERTEX
  8
0
  6
CONTINUOUS
 62
     7
 10
36.95457347656551
 20
123.7313840836611
  0
VERTEX
  8
0
  6
CONTINUOUS
 62
     7
 10
36.96224702635681
 20
123.7159291620332
  0
VERTEX
  8
0
  6
CONTINUOUS
 62
     7
 10
36.96947209443312
 20
123.6999970882737
  0
VERTEX
  8
0
  6
CONTINUOUS
 62
     7
 10
36.97621404700091
 20
123.6836336479022
  0
VERTEX
  8
0
  6
CONTINUOUS
 62
     7
 10
36.98243825026666
 20
123.666884626438
  0
VERTEX
  8
0
  6
CONTINUOUS
 62
     7
 10
36.98811007043685
 20
123.6497958094006
  0
VERTEX
  8
0
  6
CONTINUOUS
 62
     7
 10
36.993194873718
 20
123.6324129823094
  0
VERTEX
  8
0
  6
CONTINUOUS
 62
     7
 10
36.99765802631655
 20
123.6147819306838
  0
VERTEX
  8
0
  6
CONTINUOUS
 62
     7
 10
37.00079462896277
 20
123.6003777907166
  0
VERTEX
  8
0
  6
CONTINUOUS
 62
     7
 10
37.00351706879628
 20
123.5858151177324
  0
VERTEX
  8
0
  6
CONTINUOUS
 62
     7
 10
37.00581630429463
 20
123.5711323285762
  0
VERTEX
  8
0
  6
CONTINUOUS
 62
     7
 10
37.00768329393529
 20
123.5563678400929
  0
VERTEX
  8
0
  6
CONTINUOUS
 62
     7
 10
37.00910899619522
 20
123.541560069127
  0
SEQEND
  8
0
  6
CONTINUOUS
 62
     7
  0
LINE
  8
0
  6
CONTINUOUS
 62
     7
 10
41.91614720069698
 20
120.7820670181327
 11
41.56295443747099
 21
120.6464890188955
  0
LINE
  8
0
  6
CONTINUOUS
 62
     7
 10
40.89487394269618
 20
124.2511288022806
 11
41.27319460281453
 21
124.2511288022806
  0
LINE
  8
0
  6
CONTINUOUS
 62
     7
 10
61.90009413533468
 20
136.8913090926922
 11
62.0718481208836
 21
137.2283952690928
  0
LINE
  8
0
  6
CONTINUOUS
 62
     7
 10
64.9803034875396
 20
134.9966589729254
 11
64.69915644660146
 21
134.7435130402224
  0
LINE
  8
0
  6
CONTINUOUS
 62
     7
 10
48.09990586479964
 20
113.1109485118691
 11
47.92815187925071
 21
112.7738623354684
  0
LINE
  8
0
  6
CONTINUOUS
 62
     7
 10
45.01969651259471
 20
115.0055986316358
 11
45.30084355353284
 21
115.2587445643389
  0
LINE
  8
0
  6
CONTINUOUS
 62
     7
 10
41.27319460281453
 20
125.7511288022806
 11
40.89487394269618
 21
125.7511288022806
  0
LINE
  8
0
  6
CONTINUOUS
 62
     7
 10
41.56295443747099
 20
129.3557685856657
 11
41.91614720069698
 21
129.2201905864285
  0
LINE
  8
0
  6
CONTINUOUS
 62
     7
 10
45.30084355353285
 20
134.7435130402224
 11
45.01969651259471
 21
134.9966589729254
  0
LINE
  8
0
  6
CONTINUOUS
 62
     7
 10
47.92815187925072
 20
137.2283952690928
 11
48.09990586479964
 21
136.8913090926922
  0
LINE
  8
0
  6
CONTINUOUS
 62
     7
 10
67.54630087511939
 20
119.3816963783869
 11
67.89949363834536
 21
119.2461183791497
  0
LINE
  8
0
  6
CONTINUOUS
 62
     7
 10
65.98399939707791
 20
116.1203158698519
 11
65.70285235613977
 21
116.373461802555
  0
LINE
  8
0
  6
CONTINUOUS
 62
     7
 10
65.70285235613977
 20
133.6287958020063
 11
65.98399939707791
 21
133.8819417347093
  0
LINE
  8
0
  6
CONTINUOUS
 62
     7
 10
67.89949363834536
 20
130.7561392254115
 11
67.54630087511939
 21
130.6205612261743
  0
LINE
  8
0
  6
CONTINUOUS
 62
     7
 10
68.7268053973198
 20
124.2511288022806
 11
69.10512605743814
 21
124.2511288022806
  0
LINE
  8
0
  6
CONTINUOUS
 62
     7
 10
68.43704556266333
 20
120.6464890188955
 11
68.08385279943735
 21
120.7820670181327
  0
LINE
  8
0
  6
CONTINUOUS
 62
     7
 10
64.69915644660146
 20
115.2587445643388
 11
64.9803034875396
 21
115.0055986316358
  0
LINE
  8
0
  6
CONTINUOUS
 62
     7
 10
62.0718481208836
 20
112.7738623354684
 11
61.90009413533468
 21
113.1109485118691
  0
LINE
  8
0
  6
CONTINUOUS
 62
     7
 10
44.29714764399455
 20
116.373461802555
 11
44.0160006030564
 21
116.1203158698519
  0
LINE
  8
0
  6
CONTINUOUS
 62
     7
 10
42.10050636178894
 20
119.2461183791497
 11
42.45369912501494
 21
119.3816963783869
  0
LINE
  8
0
  6
CONTINUOUS
 62
     7
 10
42.45369912501494
 20
130.6205612261743
 11
42.10050636178894
 21
130.7561392254115
  0
LINE
  8
0
  6
CONTINUOUS
 62
     7
 10
44.01600060305641
 20
133.8819417347093
 11
44.29714764399455
 21
133.6287958020063
  0
LINE
  8
0
  6
CONTINUOUS
 62
     7
 10
68.08385279943735
 20
129.2201905864285
 11
68.43704556266333
 21
129.3557685856657
  0
LINE
  8
0
  6
CONTINUOUS
 62
     7
 10
69.10512605743814
 20
125.7511288022806
 11
68.7268053973198
 21
125.7511288022806
  0
ARC
  8
0
  6
CONTINUOUS
 62
     7
 10
55.00000000006716
 20
125.0011288022806
 40
19.55
 50
0.0
 51
2.932009917639732
  0
ARC
  8
0
  6
CONTINUOUS
 62
     7
 10
55.00000000006716
 20
125.0011288022806
 40
19.55
 50
352.6530568243079
 51
0.0
  0
LINE
  8
0
  6
CONTINUOUS
 62
     7
 10
74.52440780158574
 20
126.0011288022806
 11
73.80941921891068
 21
126.0011288022806
  0
LINE
  8
0
  6
CONTINUOUS
 62
     7
 10
73.80941921891068
 20
126.0011288022806
 11
73.64452207417347
 21
126.0011288022806
  0
LINE
  8
0
  6
CONTINUOUS
 62
     7
 10
73.50319441000147
 20
122.5011288022806
 11
73.66258438876977
 21
122.5011288022806
  0
LINE
  8
0
  6
CONTINUOUS
 62
     7
 10
73.66258438876977
 20
122.5011288022806
 11
73.73233285340613
 21
122.5011288022806
  0
LINE
  8
0
  6
CONTINUOUS
 62
     7
 10
73.73233285340613
 20
122.5011288022806
 11
74.38949457831751
 21
122.5011288022806
  0
ARC
  8
0
  6
CONTINUOUS
 62
     7
 10
55.00000000006716
 20
125.0011288022806
 40
19.55
 50
172.6530568243077
 51
182.9320099176396
  0
LINE
  8
0
  6
CONTINUOUS
 62
     7
 10
35.47559219854857
 20
124.0011288022806
 11
36.19058078122364
 21
124.0011288022806
  0
LINE
  8
0
  6
CONTINUOUS
 62
     7
 10
36.19058078122364
 20
124.0011288022806
 11
36.35547792596086
 21
124.0011288022806
  0
LINE
  8
0
  6
CONTINUOUS
 62
     7
 10
36.49680559013284
 20
127.5011288022806
 11
36.33741561136455
 21
127.5011288022806
  0
LINE
  8
0
  6
CONTINUOUS
 62
     7
 10
36.33741561136455
 20
127.5011288022806
 11
36.26766714672817
 21
127.5011288022806
  0
LINE
  8
0
  6
CONTINUOUS
 62
     7
 10
36.26766714672817
 20
127.5011288022806
 11
35.6105054218168
 21
127.5011288022806
  0
LINE
  8
0
  6
CONTINUOUS
 62
     7
 10
48.32535399427844
 20
113.5534153792307
 11
48.10798100972739
 21
113.1267968761377
  0
LINE
  8
0
  6
CONTINUOUS
 62
     7
 10
48.10798100972739
 20
113.1267968761377
 11
48.09990586479964
 21
113.1109485118691
  0
LINE
  8
0
  6
CONTINUOUS
 62
     7
 10
45.30084355353284
 20
115.2587445643389
 11
45.31186729527687
 21
115.2686703859885
  0
LINE
  8
0
  6
CONTINUOUS
 62
     7
 10
45.31186729527687
 20
115.2686703859885
 11
45.66988345840277
 21
115.591029587191
  0
LINE
  8
0
  6
CONTINUOUS
 62
     7
 10
65.33381245126985
 20
133.2965107791541
 11
65.68963401308748
 21
133.6168939524631
  0
LINE
  8
0
  6
CONTINUOUS
 62
     7
 10
65.68963401308748
 20
133.6168939524631
 11
65.70285235613977
 21
133.6287958020063
  0
LINE
  8
0
  6
CONTINUOUS
 62
     7
 10
67.54630087511939
 20
130.6205612261743
 11
67.53245222924828
 21
130.6152452290904
  0
LINE
  8
0
  6
CONTINUOUS
 62
     7
 10
67.53245222924828
 20
130.6152452290904
 11
67.0826921410323
 21
130.44259850683
  0
LINE
  8
0
  6
CONTINUOUS
 62
     7
 10
64.33011654173154
 20
115.591029587191
 11
64.68593810354919
 21
115.270646413882
  0
LINE
  8
0
  6
CONTINUOUS
 62
     7
 10
64.68593810354919
 20
115.270646413882
 11
64.69915644660145
 21
115.2587445643388
  0
LINE
  8
0
  6
CONTINUOUS
 62
     7
 10
61.90009413533468
 20
113.1109485118691
 11
61.89335968216782
 21
113.1241656204032
  0
LINE
  8
0
  6
CONTINUOUS
 62
     7
 10
61.89335968216782
 20
113.1241656204032
 11
61.67464600585587
 21
113.5534153792307
  0
LINE
  8
0
  6
CONTINUOUS
 62
     7
 10
67.0826921410323
 20
119.5596590977312
 11
67.52969524735846
 21
119.3880706816635
  0
LINE
  8
0
  6
CONTINUOUS
 62
     7
 10
67.52969524735846
 20
119.3880706816635
 11
67.54630087511939
 21
119.3816963783869
  0
LINE
  8
0
  6
CONTINUOUS
 62
     7
 10
65.70285235613976
 20
116.373461802555
 11
65.69182861439575
 21
116.3833876242046
  0
LINE
  8
0
  6
CONTINUOUS
 62
     7
 10
65.69182861439575
 20
116.3833876242046
 11
65.33381245126986
 21
116.7057468254071
  0
LINE
  8
0
  6
CONTINUOUS
 62
     7
 10
44.66618754886446
 20
116.7057468254071
 11
44.31036598704683
 21
116.3853636520981
  0
LINE
  8
0
  6
CONTINUOUS
 62
     7
 10
44.31036598704683
 20
116.3853636520981
 11
44.29714764399455
 21
116.373461802555
  0
LINE
  8
0
  6
CONTINUOUS
 62
     7
 10
42.45369912501494
 20
119.3816963783869
 11
42.46754777088604
 21
119.3870123754708
  0
LINE
  8
0
  6
CONTINUOUS
 62
     7
 10
42.46754777088604
 20
119.3870123754708
 11
42.91730785910202
 21
119.5596590977313
  0
LINE
  8
0
  6
CONTINUOUS
 62
     7
 10
67.62024406535025
 20
129.0422278670842
 11
68.06724717167643
 21
129.2138162831519
  0
LINE
  8
0
  6
CONTINUOUS
 62
     7
 10
68.06724717167643
 20
129.2138162831519
 11
68.08385279943735
 21
129.2201905864285
  0
LINE
  8
0
  6
CONTINUOUS
 62
     7
 10
68.7268053973198
 20
125.7511288022806
 11
68.71197148962631
 21
125.7511288022806
  0
LINE
  8
0
  6
CONTINUOUS
 62
     7
 10
68.71197148962631
 20
125.7511288022806
 11
68.23021322279601
 21
125.7511288022806
  0
LINE
  8
0
  6
CONTINUOUS
 62
     7
 10
45.66988345840277
 20
134.4112280173702
 11
45.31406189658513
 21
134.7316111906792
  0
LINE
  8
0
  6
CONTINUOUS
 62
     7
 10
45.31406189658513
 20
134.7316111906792
 11
45.30084355353284
 21
134.7435130402224
  0
LINE
  8
0
  6
CONTINUOUS
 62
     7
 10
48.09990586479964
 20
136.8913090926922
 11
48.1066403179665
 21
136.878091984158
  0
LINE
  8
0
  6
CONTINUOUS
 62
     7
 10
48.1066403179665
 20
136.878091984158
 11
48.32535399427844
 21
136.4488422253306
  0
LINE
  8
0
  6
CONTINUOUS
 62
     7
 10
42.91730785910202
 20
130.44259850683
 11
42.47030475277585
 21
130.6141869228977
  0
LINE
  8
0
  6
CONTINUOUS
 62
     7
 10
42.47030475277585
 20
130.6141869228977
 11
42.45369912501494
 21
130.6205612261743
  0
LINE
  8
0
  6
CONTINUOUS
 62
     7
 10
44.29714764399456
 20
133.6287958020063
 11
44.30817138573858
 21
133.6188699803567
  0
LINE
  8
0
  6
CONTINUOUS
 62
     7
 10
44.30817138573858
 20
133.6188699803567
 11
44.66618754886446
 21
133.2965107791541
  0
LINE
  8
0
  6
CONTINUOUS
 62
     7
 10
41.76978677733831
 20
125.7511288022806
 11
41.29098163785684
 21
125.7511288022806
  0
LINE
  8
0
  6
CONTINUOUS
 62
     7
 10
41.29098163785684
 20
125.7511288022806
 11
41.27319460281453
 21
125.7511288022806
  0
LINE
  8
0
  6
CONTINUOUS
 62
     7
 10
41.91614720069698
 20
129.2201905864285
 11
41.92999584656808
 21
129.2148745893446
  0
LINE
  8
0
  6
CONTINUOUS
 62
     7
 10
41.92999584656808
 20
129.2148745893446
 11
42.37975593478406
 21
129.0422278670842
  0
LINE
  8
0
  6
CONTINUOUS
 62
     7
 10
68.230213222796
 20
124.2511288022806
 11
68.70901836227748
 21
124.2511288022806
  0
LINE
  8
0
  6
CONTINUOUS
 62
     7
 10
68.70901836227748
 20
124.2511288022806
 11
68.7268053973198
 21
124.2511288022806
  0
LINE
  8
0
  6
CONTINUOUS
 62
     7
 10
68.08385279943735
 20
120.7820670181328
 11
68.07000415356625
 21
120.7873830152166
  0
LINE
  8
0
  6
CONTINUOUS
 62
     7
 10
68.07000415356625
 20
120.7873830152166
 11
67.62024406535025
 21
120.9600297374771
  0
LINE
  8
0
  6
CONTINUOUS
 62
     7
 10
61.67464600585588
 20
136.4488422253306
 11
61.89201899040694
 21
136.8754607284235
  0
LINE
  8
0
  6
CONTINUOUS
 62
     7
 10
61.89201899040694
 20
136.8754607284235
 11
61.90009413533468
 21
136.8913090926922
  0
LINE
  8
0
  6
CONTINUOUS
 62
     7
 10
64.69915644660148
 20
134.7435130402224
 11
64.68813270485744
 21
134.7335872185728
  0
LINE
  8
0
  6
CONTINUOUS
 62
     7
 10
64.68813270485744
 20
134.7335872185728
 11
64.33011654173156
 21
134.4112280173702
  0
LINE
  8
0
  6
CONTINUOUS
 62
     7
 10
42.37975593478406
 20
120.9600297374771
 11
41.93275282845789
 21
120.7884413214093
  0
LINE
  8
0
  6
CONTINUOUS
 62
     7
 10
41.93275282845789
 20
120.7884413214093
 11
41.91614720069698
 21
120.7820670181327
  0
LINE
  8
0
  6
CONTINUOUS
 62
     7
 10
41.27319460281453
 20
124.2511288022806
 11
41.28802851050801
 21
124.2511288022806
  0
LINE
  8
0
  6
CONTINUOUS
 62
     7
 10
41.28802851050801
 20
124.2511288022806
 11
41.76978677733831
 21
124.2511288022806
  0
LINE
  8
0
  6
CONTINUOUS
 62
     7
 10
48.4624362493245
 20
113.8224544531024
 11
48.32535399427844
 21
113.5534153792307
  0
LINE
  8
0
  6
CONTINUOUS
 62
     7
 10
45.66988345840277
 20
115.591029587191
 11
45.89427574978483
 21
115.7930733138607
  0
LINE
  8
0
  6
CONTINUOUS
 62
     7
 10
42.66165018192032
 20
121.0682388006361
 11
42.37975593478406
 21
120.9600297374771
  0
LINE
  8
0
  6
CONTINUOUS
 62
     7
 10
41.76978677733831
 20
124.2511288022806
 11
42.07173638889338
 21
124.2511288022806
  0
LINE
  8
0
  6
CONTINUOUS
 62
     7
 10
45.89427574978484
 20
134.2091842907005
 11
45.66988345840277
 21
134.4112280173702
  0
LINE
  8
0
  6
CONTINUOUS
 62
     7
 10
48.32535399427844
 20
136.4488422253306
 11
48.4624362493245
 21
136.1798031514589
  0
LINE
  8
0
  6
CONTINUOUS
 62
     7
 10
65.10942015988779
 20
133.0944670524844
 11
65.33381245126985
 21
133.2965107791541
  0
LINE
  8
0
  6
CONTINUOUS
 62
     7
 10
67.0826921410323
 20
130.44259850683
 11
66.80079789389603
 21
130.334389443671
  0
LINE
  8
0
  6
CONTINUOUS
 62
     7
 10
64.10572425034948
 20
115.7930733138607
 11
64.33011654173154
 21
115.591029587191
  0
LINE
  8
0
  6
CONTINUOUS
 62
     7
 10
61.67464600585587
 20
113.5534153792307
 11
61.53756375080982
 21
113.8224544531024
  0
LINE
  8
0
  6
CONTINUOUS
 62
     7
 10
66.80079789389603
 20
119.6678681608902
 11
67.0826921410323
 21
119.5596590977312
  0
LINE
  8
0
  6
CONTINUOUS
 62
     7
 10
65.33381245126986
 20
116.7057468254071
 11
65.10942015988779
 21
116.9077905520768
  0
LINE
  8
0
  6
CONTINUOUS
 62
     7
 10
67.92826361124094
 20
124.2511288022806
 11
68.230213222796
 21
124.2511288022806
  0
LINE
  8
0
  6
CONTINUOUS
 62
     7
 10
67.62024406535025
 20
120.9600297374771
 11
67.338349818214
 21
121.0682388006361
  0
LINE
  8
0
  6
CONTINUOUS
 62
     7
 10
44.89057984024653
 20
116.9077905520768
 11
44.66618754886446
 21
116.7057468254071
  0
LINE
  8
0
  6
CONTINUOUS
 62
     7
 10
42.91730785910202
 20
119.5596590977313
 11
43.19920210623827
 21
119.6678681608902
  0
LINE
  8
0
  6
CONTINUOUS
 62
     7
 10
61.53756375080982
 20
136.1798031514588
 11
61.67464600585588
 21
136.4488422253306
  0
LINE
  8
0
  6
CONTINUOUS
 62
     7
 10
64.33011654173156
 20
134.4112280173702
 11
64.1057242503495
 21
134.2091842907005
  0
LINE
  8
0
  6
CONTINUOUS
 62
     7
 10
42.07173638889338
 20
125.7511288022806
 11
41.76978677733831
 21
125.7511288022806
  0
LINE
  8
0
  6
CONTINUOUS
 62
     7
 10
42.37975593478406
 20
129.0422278670842
 11
42.66165018192032
 21
128.9340188039252
  0
LINE
  8
0
  6
CONTINUOUS
 62
     7
 10
43.19920210623828
 20
130.334389443671
 11
42.91730785910202
 21
130.44259850683
  0
LINE
  8
0
  6
CONTINUOUS
 62
     7
 10
44.66618754886446
 20
133.2965107791541
 11
44.89057984024653
 21
133.0944670524844
  0
LINE
  8
0
  6
CONTINUOUS
 62
     7
 10
67.338349818214
 20
128.9340188039252
 11
67.62024406535025
 21
129.0422278670842
  0
LINE
  8
0
  6
CONTINUOUS
 62
     7
 10
68.23021322279601
 20
125.7511288022806
 11
67.92826361124094
 21
125.7511288022806
  0
ARC
  8
0
  6
CONTINUOUS
 62
     7
 10
55.00000000006716
 20
125.0011288022806
 40
12.7
 50
24.38557884600362
 51
38.61442115399628
  0
LINE
  8
0
  6
CONTINUOUS
 62
     7
 10
64.92331542492428
 20
132.9268975964603
 11
65.10942015988779
 21
133.0944670524844
  0
LINE
  8
0
  6
CONTINUOUS
 62
     7
 10
66.80079789389603
 20
130.334389443671
 11
66.56700263369389
 21
130.2446438517176
  0
ARC
  8
0
  6
CONTINUOUS
 62
     7
 10
55.00000000006716
 20
125.0011288022806
 40
12.70000000000001
 50
225.3855788460036
 51
239.6144211539963
  0
LINE
  8
0
  6
CONTINUOUS
 62
     7
 10
48.57612846480308
 20
114.0455879895948
 11
48.4624362493245
 21
113.8224544531024
  0
LINE
  8
0
  6
CONTINUOUS
 62
     7
 10
45.89427574978483
 20
115.7930733138607
 11
46.08038048474833
 21
115.9606427698848
  0
ARC
  8
0
  6
CONTINUOUS
 62
     7
 10
55.00000000006716
 20
125.0011288022806
 40
12.7
 50
120.3855788460037
 51
134.6144211539964
  0
LINE
  8
0
  6
CONTINUOUS
 62
     7
 10
46.08038048474834
 20
134.0416148346764
 11
45.89427574978484
 21
134.2091842907005
  0
LINE
  8
0
  6
CONTINUOUS
 62
     7
 10
48.4624362493245
 20
136.1798031514589
 11
48.57612846480309
 21
135.9566696149664
  0
ARC
  8
0
  6
CONTINUOUS
 62
     7
 10
55.00000000006716
 20
125.0011288022806
 40
12.7
 50
342.3855788460036
 51
356.6144211539963
  0
LINE
  8
0
  6
CONTINUOUS
 62
     7
 10
67.67783498873932
 20
124.2511288022806
 11
67.92826361124094
 21
124.2511288022806
  0
LINE
  8
0
  6
CONTINUOUS
 62
     7
 10
67.338349818214
 20
121.0682388006361
 11
67.10666470668663
 21
121.1571743824046
  0
LINE
  8
0
  6
CONTINUOUS
 62
     7
 10
67.10665995585602
 20
121.1571762060776
 11
67.10455455801178
 21
121.1579843925894
  0
ARC
  8
0
  6
CONTINUOUS
 62
     7
 10
55.00000000006716
 20
125.0011288022806
 40
12.7
 50
204.3855788460036
 51
218.6144211539964
  0
LINE
  8
0
  6
CONTINUOUS
 62
     7
 10
45.07668457521003
 20
117.0753600081009
 11
44.89057984024653
 21
116.9077905520768
  0
LINE
  8
0
  6
CONTINUOUS
 62
     7
 10
43.19920210623827
 20
119.6678681608902
 11
43.43299736644043
 21
119.7576137528436
  0
ARC
  8
0
  6
CONTINUOUS
 62
     7
 10
55.00000000006716
 20
125.0011288022806
 40
12.70000000000001
 50
183.3855788460037
 51
197.6144211539964
  0
LINE
  8
0
  6
CONTINUOUS
 62
     7
 10
42.89544544212248
 20
121.1579843925894
 11
42.66165018192032
 21
121.0682388006361
  0
LINE
  8
0
  6
CONTINUOUS
 62
     7
 10
42.07173638889338
 20
124.2511288022806
 11
42.322165011395
 21
124.2511288022806
  0
ARC
  8
0
  6
CONTINUOUS
 62
     7
 10
55.00000000006716
 20
125.0011288022806
 40
12.7
 50
162.3855788460036
 51
176.6144211539963
  0
LINE
  8
0
  6
CONTINUOUS
 62
     7
 10
42.322165011395
 20
125.7511288022806
 11
42.07173638889338
 21
125.7511288022806
  0
LINE
  8
0
  6
CONTINUOUS
 62
     7
 10
42.66165018192032
 20
128.9340188039252
 11
42.89544544212248
 21
128.8442732119718
  0
ARC
  8
0
  6
CONTINUOUS
 62
     7
 10
55.00000000006716
 20
125.0011288022806
 40
12.69999999999999
 50
45.38557884600365
 51
59.61442115399633
  0
LINE
  8
0
  6
CONTINUOUS
 62
     7
 10
61.42387153533124
 20
135.9566696149664
 11
61.53756375080982
 21
136.1798031514588
  0
LINE
  8
0
  6
CONTINUOUS
 62
     7
 10
64.1057242503495
 20
134.2091842907005
 11
63.91961951538598
 21
134.0416148346764
  0
ARC
  8
0
  6
CONTINUOUS
 62
     7
 10
55.00000000006716
 20
125.0011288022806
 40
12.7
 50
300.3855788460036
 51
314.6144211539963
  0
LINE
  8
0
  6
CONTINUOUS
 62
     7
 10
63.91961951538598
 20
115.9606427698848
 11
64.10572425034948
 21
115.7930733138607
  0
LINE
  8
0
  6
CONTINUOUS
 62
     7
 10
61.53756375080982
 20
113.8224544531024
 11
61.42387153533123
 21
114.0455879895948
  0
ARC
  8
0
  6
CONTINUOUS
 62
     7
 10
55.00000000006716
 20
125.0011288022806
 40
12.70000000000001
 50
321.3855788460036
 51
335.6144211539963
  0
LINE
  8
0
  6
CONTINUOUS
 62
     7
 10
66.56700263369389
 20
119.7576137528436
 11
66.80079789389603
 21
119.6678681608902
  0
LINE
  8
0
  6
CONTINUOUS
 62
     7
 10
65.10942015988779
 20
116.9077905520768
 11
64.92331542492428
 21
117.0753600081009
  0
ARC
  8
0
  6
CONTINUOUS
 62
     7
 10
55.00000000006716
 20
125.0011288022806
 40
12.7
 50
141.3855788460036
 51
155.6144211539964
  0
LINE
  8
0
  6
CONTINUOUS
 62
     7
 10
43.43299736644044
 20
130.2446438517176
 11
43.19920210623828
 21
130.334389443671
  0
LINE
  8
0
  6
CONTINUOUS
 62
     7
 10
44.89057984024653
 20
133.0944670524844
 11
45.07668457521004
 21
132.9268975964603
  0
ARC
  8
0
  6
CONTINUOUS
 62
     7
 10
55.00000000006716
 20
125.0011288022806
 40
12.7
 50
3.38557884600364
 51
17.61442115399635
  0
LINE
  8
0
  6
CONTINUOUS
 62
     7
 10
67.10455455801184
 20
128.8442732119718
 11
67.338349818214
 21
128.9340188039252
  0
LINE
  8
0
  6
CONTINUOUS
 62
     7
 10
67.92826361124094
 20
125.7511288022806
 11
67.67783498873932
 21
125.7511288022806
  0
LINE
  8
0
  6
CONTINUOUS
 62
     7
 10
67.84104270572868
 20
130.451828044706
 11
68.85359804452636
 21
130.8816322860442
  0
ARC
  8
0
  6
CONTINUOUS
 62
     7
 10
55.00000000006716
 20
125.0011288022806
 40
15.05
 50
18.1426981338214
 51
23.0
  0
ARC
  8
0
  6
CONTINUOUS
 62
     7
 10
55.00000000006716
 20
125.0011288022806
 40
13.95000000000001
 50
17.91706047396558
 51
23.00000000000001
  0
ARC
  8
0
  6
CONTINUOUS
 62
     7
 10
55.00000000006716
 20
125.0011288022806
 40
15.04999999999999
 50
315.1426981338215
 51
320.0
  0
LINE
  8
0
  6
CONTINUOUS
 62
     7
 10
65.6863199815769
 20
116.0342416471534
 11
66.52896886900777
 21
115.3271752764982
  0
ARC
  8
0
  6
CONTINUOUS
 62
     7
 10
55.00000000006716
 20
125.0011288022806
 40
13.95
 50
314.9170604739656
 51
315.2871878783327
  0
ARC
  8
0
  6
CONTINUOUS
 62
     7
 10
55.00000000006716
 20
125.0011288022806
 40
13.95
 50
315.2871878783327
 51
320.0000000000001
  0
ARC
  8
0
  6
CONTINUOUS
 62
     7
 10
55.00000000006715
 20
125.0011288022806
 40
15.05
 50
177.1426981338216
 51
182.0
  0
LINE
  8
0
  6
CONTINUOUS
 62
     7
 10
41.05849796315078
 20
124.5142808232807
 11
39.95916805342978
 21
124.475891376908
  0
ARC
  8
0
  6
CONTINUOUS
 62
     7
 10
55.00000000006715
 20
125.0011288022806
 40
13.95
 50
176.9170604739656
 51
182.0
  0
ARC
  8
0
  6
CONTINUOUS
 62
     7
 10
55.00000000006715
 20
125.0011288022806
 40
15.05
 50
198.1426981338215
 51
203.0
  0
LINE
  8
0
  6
CONTINUOUS
 62
     7
 10
42.15895729440562
 20
119.5504295598553
 11
41.14640195560794
 21
119.1206253185171
  0
ARC
  8
0
  6
CONTINUOUS
 62
     7
 10
55.00000000006715
 20
125.0011288022806
 40
13.95
 50
197.9170604739656
 51
203.0
  0
ARC
  8
0
  6
CONTINUOUS
 62
     7
 10
55.00000000006716
 20
125.0011288022806
 40
15.05
 50
39.1426981338214
 51
44.0
  0
ARC
  8
0
  6
CONTINUOUS
 62
     7
 10
55.00000000006716
 20
125.0011288022806
 40
13.94999999999999
 50
38.91706047396559
 51
43.99999999999995
  0
LINE
  8
0
  6
CONTINUOUS
 62
     7
 10
65.03479021479131
 20
134.6916130701836
 11
65.82606399516385
 21
135.4557372776885
  0
ARC
  8
0
  6
CONTINUOUS
 62
     7
 10
55.00000000006715
 20
125.0011288022806
 40
13.94999999999999
 50
218.9170604739656
 51
223.9999999999999
  0
LINE
  8
0
  6
CONTINUOUS
 62
     7
 10
44.96520978534299
 20
115.3106445343776
 11
44.17393600497047
 21
114.5465203268727
  0
ARC
  8
0
  6
CONTINUOUS
 62
     7
 10
55.00000000006715
 20
125.0011288022806
 40
15.05
 50
219.1426981338215
 51
224.0
  0
LINE
  8
0
  6
CONTINUOUS
 62
     7
 10
41.8100158704567
 20
129.5428045569579
 11
40.76994543729745
 21
129.9009295268608
  0
ARC
  8
0
  6
CONTINUOUS
 62
     7
 10
55.00000000006715
 20
125.0011288022806
 40
13.95
 50
155.9170604739656
 51
161.0000000000001
  0
ARC
  8
0
  6
CONTINUOUS
 62
     7
 10
55.00000000006715
 20
125.0011288022806
 40
15.05
 50
156.1426981338215
 51
161.0
  0
LINE
  8
0
  6
CONTINUOUS
 62
     7
 10
68.18998412967761
 20
120.4594530476033
 11
69.23005456283686
 21
120.1013280777004
  0
ARC
  8
0
  6
CONTINUOUS
 62
     7
 10
55.00000000006716
 20
125.0011288022806
 40
15.04999999999999
 50
336.1426981338216
 51
340.9999999999999
  0
ARC
  8
0
  6
CONTINUOUS
 62
     7
 10
55.00000000006716
 20
125.0011288022806
 40
13.94999999999999
 50
335.9170604739657
 51
336.2871878783327
  0
ARC
  8
0
  6
CONTINUOUS
 62
     7
 10
55.00000000006716
 20
125.0011288022806
 40
13.95
 50
336.2871878783326
 51
340.9999999999999
  0
ARC
  8
0
  6
CONTINUOUS
 62
     7
 10
55.00000000006716
 20
125.0011288022806
 40
13.94999999999999
 50
356.9170604739656
 51
2.0
  0
LINE
  8
0
  6
CONTINUOUS
 62
     7
 10
68.94150203698352
 20
125.4879767812805
 11
70.04083194670453
 21
125.5263662276533
  0
ARC
  8
0
  6
CONTINUOUS
 62
     7
 10
55.00000000006716
 20
125.0011288022806
 40
15.04999999999999
 50
357.1426981338214
 51
2.0
  0
ARC
  8
0
  6
CONTINUOUS
 62
     7
 10
55.00000000006715
 20
125.0011288022806
 40
15.05000000000001
 50
135.1426981338217
 51
140.0
  0
LINE
  8
0
  6
CONTINUOUS
 62
     7
 10
44.31368001855743
 20
133.9680159574078
 11
43.47103113112654
 21
134.675082328063
  0
ARC
  8
0
  6
CONTINUOUS
 62
     7
 10
55.00000000006715
 20
125.0011288022806
 40
13.94999999999999
 50
134.9170604739656
 51
135.2871878783327
  0
ARC
  8
0
  6
CONTINUOUS
 62
     7
 10
55.00000000006715
 20
125.0011288022806
 40
13.95
 50
135.2871878783327
 51
140.0000000000001
  0
ARC
  8
0
  6
CONTINUOUS
 62
     7
 10
55.00000000006715
 20
125.0011288022806
 40
13.95000000000001
 50
114.0286956290014
 51
119.0
  0
ARC
  8
0
  6
CONTINUOUS
 62
     7
 10
55.00000000006715
 20
125.0011288022806
 40
13.95
 50
101.970671280484
 51
114.0286956290016
  0
ARC
  8
0
  6
CONTINUOUS
 62
     7
 10
55.00000000006715
 20
125.0011288022806
 40
13.95
 50
83.97067128048378
 51
101.9706712804841
  0
ARC
  8
0
  6
CONTINUOUS
 62
     7
 10
55.00000000006715
 20
125.0011288022806
 40
13.95
 50
65.97067128048349
 51
83.97067128048378
  0
ARC
  8
0
  6
CONTINUOUS
 62
     7
 10
55.00000000006715
 20
125.0011288022806
 40
13.95000000000001
 50
60.28589840335201
 51
65.97067128048349
  0
ARC
  8
0
  6
CONTINUOUS
 62
     7
 10
55.00000000006715
 20
125.0011288022806
 40
13.94999999999999
 50
59.91731104524315
 51
60.28589840335218
  0
LINE
  8
0
  6
CONTINUOUS
 62
     7
 10
47.07336270903954
 20
139.3011610140098
 11
48.23690579763075
 21
137.2020737168752
  0
ARC
  8
0
  6
CONTINUOUS
 62
     7
 10
55.00000000006715
 20
125.0011288022806
 40
15.05
 50
60.14259743080432
 51
65.8573342340852
  0
ARC
  8
0
  6
CONTINUOUS
 62
     7
 10
55.00000000006715
 20
125.0011288022806
 40
15.05000000000001
 50
78.14259743080447
 51
83.85733423408543
  0
ARC
  8
0
  6
CONTINUOUS
 62
     7
 10
55.00000000006715
 20
125.0011288022806
 40
15.05
 50
96.1425974308046
 51
101.8573342340855
  0
ARC
  8
0
  6
CONTINUOUS
 62
     7
 10
55.00000000006715
 20
125.0011288022806
 40
16.35000000000001
 50
114.3708306333432
 51
119.0000000000001
  0
LINE
  8
0
  6
CONTINUOUS
 62
     7
 10
62.92663729109476
 20
110.7010965905515
 11
61.76309420250356
 21
112.8001838876861
  0
ARC
  8
0
  6
CONTINUOUS
 62
     7
 10
55.00000000006716
 20
125.0011288022806
 40
15.05
 50
240.1425974308044
 51
245.8573342340854
  0
ARC
  8
0
  6
CONTINUOUS
 62
     7
 10
55.00000000006716
 20
125.0011288022806
 40
15.05
 50
258.1425974308046
 51
263.8573342340855
  0
ARC
  8
0
  6
CONTINUOUS
 62
     7
 10
55.00000000006716
 20
125.0011288022806
 40
15.05
 50
276.1425974308046
 51
281.8573342340856
  0
ARC
  8
0
  6
CONTINUOUS
 62
     7
 10
55.00000000006716
 20
125.0011288022806
 40
13.94999999999999
 50
281.9706712804843
 51
299.0
  0
ARC
  8
0
  6
CONTINUOUS
 62
     7
 10
55.00000000006716
 20
125.0011288022806
 40
13.94999999999999
 50
263.9706712804841
 51
281.9706712804843
  0
ARC
  8
0
  6
CONTINUOUS
 62
     7
 10
55.00000000006716
 20
125.0011288022806
 40
13.94999999999999
 50
258.0286956290033
 51
263.9706712804842
  0
ARC
  8
0
  6
CONTINUOUS
 62
     7
 10
55.00000000006716
 20
125.0011288022806
 40
13.94999999999999
 50
245.9706712804841
 51
258.0286956290036
  0
ARC
  8
0
  6
CONTINUOUS
 62
     7
 10
55.00000000006716
 20
125.0011288022806
 40
13.94999999999999
 50
240.2858984033521
 51
245.9706712804841
  0
ARC
  8
0
  6
CONTINUOUS
 62
     7
 10
55.00000000006716
 20
125.0011288022806
 40
13.94999999999999
 50
239.9173110452432
 51
240.2858984033524
  0
ARC
  8
0
  6
CONTINUOUS
 62
     7
 10
55.00000000006716
 20
125.0011288022806
 40
16.35
 50
294.3708306333432
 51
299.0000000000002
  0
LINE
  8
0
  6
CONTINUOUS
 62
     7
 10
69.12974950056211
 20
130.998851624591
 11
68.85359804452638
 21
130.8816322860442
  0
LINE
  8
0
  6
CONTINUOUS
 62
     7
 10
43.24121779819085
 20
134.867918610969
 11
43.47103113112653
 21
134.675082328063
  0
LINE
  8
0
  6
CONTINUOUS
 62
     7
 10
66.75878220194348
 20
115.1343389935923
 11
66.52896886900777
 21
115.3271752764982
  0
LINE
  8
0
  6
CONTINUOUS
 62
     7
 10
39.65935080532404
 20
124.4654215278972
 11
39.95916805342976
 21
124.475891376908
  0
LINE
  8
0
  6
CONTINUOUS
 62
     7
 10
66.04186593526545
 20
135.6641347888262
 11
65.82606399516386
 21
135.4557372776885
  0
LINE
  8
0
  6
CONTINUOUS
 62
     7
 10
70.34064919481028
 20
125.536836076664
 11
70.04083194670454
 21
125.5263662276533
  0
LINE
  8
0
  6
CONTINUOUS
 62
     7
 10
43.95813406486887
 20
114.338122815735
 11
44.17393600497046
 21
114.5465203268727
  0
LINE
  8
0
  6
CONTINUOUS
 62
     7
 10
40.48628986461764
 20
129.998599973198
 11
40.76994543729744
 21
129.9009295268608
  0
LINE
  8
0
  6
CONTINUOUS
 62
     7
 10
69.51371013551667
 20
120.0036576313633
 11
69.23005456283687
 21
120.1013280777004
  0
LINE
  8
0
  6
CONTINUOUS
 62
     7
 10
40.8702504995722
 20
119.0034059799703
 11
41.14640195560793
 21
119.1206253185171
  0
ARC
  8
0
  6
CONTINUOUS
 62
     7
 10
55.00000000006715
 20
125.0011288022806
 40
13.94999999999999
 50
140.0
 51
141.0829678125796
  0
ARC
  8
0
  6
CONTINUOUS
 62
     7
 10
55.00000000006715
 20
125.0011288022806
 40
13.94999999999999
 50
161.0
 51
162.0829678125796
  0
ARC
  8
0
  6
CONTINUOUS
 62
     7
 10
55.00000000006715
 20
125.0011288022806
 40
13.94999999999999
 50
182.0
 51
183.0829678125796
  0
ARC
  8
0
  6
CONTINUOUS
 62
     7
 10
55.00000000006715
 20
125.0011288022806
 40
13.94999999999999
 50
203.0
 51
204.0829678125796
  0
ARC
  8
0
  6
CONTINUOUS
 62
     7
 10
55.00000000006715
 20
125.0011288022806
 40
13.94999999999999
 50
224.0
 51
225.0829678125796
  0
ARC
  8
0
  6
CONTINUOUS
 62
     7
 10
55.00000000006715
 20
125.0011288022806
 40
13.94999999999999
 50
119.0
 51
120.0829678125796
  0
ARC
  8
0
  6
CONTINUOUS
 62
     7
 10
55.00000000006715
 20
125.0011288022806
 40
16.35
 50
119.0
 51
119.6291693666568
  0
ARC
  8
0
  6
CONTINUOUS
 62
     7
 10
55.00000000006715
 20
125.0011288022806
 40
16.35000000000001
 50
135.3708306333432
 51
140.6291693666568
  0
ARC
  8
0
  6
CONTINUOUS
 62
     7
 10
55.00000000006715
 20
125.0011288022806
 40
16.35
 50
156.3708306333432
 51
161.629169366657
  0
ARC
  8
0
  6
CONTINUOUS
 62
     7
 10
55.00000000006715
 20
125.0011288022806
 40
16.35
 50
177.3708306333432
 51
182.6291693666568
  0
ARC
  8
0
  6
CONTINUOUS
 62
     7
 10
55.00000000006715
 20
125.0011288022806
 40
16.35
 50
198.3708306333432
 51
203.6291693666568
  0
ARC
  8
0
  6
CONTINUOUS
 62
     7
 10
55.00000000006715
 20
125.0011288022806
 40
16.35
 50
219.3708306333432
 51
224.6291693666568
  0
ARC
  8
0
  6
CONTINUOUS
 62
     7
 10
55.00000000006715
 20
125.0011288022806
 40
16.35
 50
240.3708306333432
 51
245.6291693666568
  0
ARC
  8
0
  6
CONTINUOUS
 62
     7
 10
55.00000000006715
 20
125.0011288022806
 40
13.94999999999999
 50
44.0
 51
45.08296781257955
  0
ARC
  8
0
  6
CONTINUOUS
 62
     7
 10
55.00000000006715
 20
125.0011288022806
 40
13.94999999999999
 50
23.00000000000003
 51
24.08296781257954
  0
ARC
  8
0
  6
CONTINUOUS
 62
     7
 10
55.00000000006715
 20
125.0011288022806
 40
13.94999999999999
 50
2.000000000000016
 51
3.08296781257956
  0
ARC
  8
0
  6
CONTINUOUS
 62
     7
 10
55.00000000006715
 20
125.0011288022806
 40
13.95
 50
340.9999999999999
 51
342.0829678125796
  0
ARC
  8
0
  6
CONTINUOUS
 62
     7
 10
55.00000000006715
 20
125.0011288022806
 40
13.94999999999999
 50
320.0
 51
321.0829678125795
  0
ARC
  8
0
  6
CONTINUOUS
 62
     7
 10
55.00000000006715
 20
125.0011288022806
 40
13.94999999999999
 50
299.0
 51
300.0829678125796
  0
ARC
  8
0
  6
CONTINUOUS
 62
     7
 10
55.00000000006715
 20
125.0011288022806
 40
16.34999999999999
 50
299.0
 51
299.6291693666569
  0
ARC
  8
0
  6
CONTINUOUS
 62
     7
 10
55.00000000006715
 20
125.0011288022806
 40
16.35
 50
315.3708306333431
 51
320.6291693666569
  0
ARC
  8
0
  6
CONTINUOUS
 62
     7
 10
55.00000000006715
 20
125.0011288022806
 40
16.35
 50
336.3708306333431
 51
341.6291693666568
  0
ARC
  8
0
  6
CONTINUOUS
 62
     7
 10
55.00000000006715
 20
125.0011288022806
 40
16.35000000000001
 50
357.3708306333432
 51
2.629169366656811
  0
ARC
  8
0
  6
CONTINUOUS
 62
     7
 10
55.00000000006715
 20
125.0011288022806
 40
16.35
 50
18.37083063334313
 51
23.62916936665684
  0
ARC
  8
0
  6
CONTINUOUS
 62
     7
 10
55.00000000006715
 20
125.0011288022806
 40
16.35000000000001
 50
39.37083063334315
 51
44.62916936665685
  0
ARC
  8
0
  6
CONTINUOUS
 62
     7
 10
55.00000000006715
 20
125.0011288022806
 40
16.34999999999999
 50
60.37083063334315
 51
65.62916936665687
  0
ARC
  8
0
  6
CONTINUOUS
 62
     7
 10
55.00000000006715
 20
125.0011288022806
 40
15.89999999999999
 50
258.2963656643968
 51
263.7036343356032
  0
ARC
  8
0
  6
CONTINUOUS
 62
     7
 10
55.00000000006715
 20
125.0011288022806
 40
15.89999999999999
 50
276.2963656643968
 51
281.7036343356032
  0
ARC
  8
0
  6
CONTINUOUS
 62
     7
 10
55.00000000006715
 20
125.0011288022806
 40
15.90000000000001
 50
78.29636566439679
 51
83.70363433560306
  0
ARC
  8
0
  6
CONTINUOUS
 62
     7
 10
55.00000000006715
 20
125.0011288022806
 40
15.90000000000001
 50
96.2963656643968
 51
101.7036343356031
  0
LINE
  8
0
  6
CONTINUOUS
 62
     7
 10
72.964965905963
 20
126.7511288022806
 11
74.47151766048593
 21
126.7511288022806
  0
ARC
  8
0
  6
CONTINUOUS
 62
     7
 10
55.00000000006716
 20
125.0011288022806
 40
19.55
 50
2.932009917639676
 51
5.135652317583549
  0
ARC
  8
0
  6
CONTINUOUS
 62
     7
 10
55.00000000006716
 20
125.0011288022806
 40
19.55
 50
182.9320099176397
 51
185.1356523175836
  0
LINE
  8
0
  6
CONTINUOUS
 62
     7
 10
35.52848233964839
 20
123.2511288022806
 11
37.03503409417132
 21
123.2511288022806
  0
ARC
  8
0
  6
CONTINUOUS
 62
     7
 10
55.00000000006716
 20
125.0011288022806
 40
11.4
 50
180.0
 51
270.0
  0
ARC
  8
0
  6
CONTINUOUS
 62
     7
 10
55.00000000006716
 20
125.0011288022806
 40
11.39999999999999
 50
270.0
 51
180.0
  0
LINE
  8
0
  6
CONTINUOUS
 62
     7
 10
35.52637195766456
 20
123.2511288022806
 11
34.79431814779708
 21
123.2511288022806
  0
LINE
  8
0
  6
CONTINUOUS
 62
     7
 10
34.79431814779576
 20
126.7511288022806
 11
35.52637195766425
 21
126.7511288022806
  0
LINE
  8
0
  6
CONTINUOUS
 62
     7
 10
75.20568185233888
 20
126.7511288022806
 11
74.47362804247052
 21
126.7511288022806
  0
LINE
  8
0
  6
CONTINUOUS
 62
     7
 10
74.47153766048692
 20
123.2511288022806
 11
75.20568185233265
 21
123.2511288022806
  0
ARC
  8
0
  6
CONTINUOUS
 62
     7
 10
55.00000000006681
 20
125.0011288022806
 40
21.14999999999965
 50
175.2537882609903
 51
184.7462117390097
  0
LINE
  8
0
  6
CONTINUOUS
 62
     7
 10
33.92252387032146
 20
126.7511288022806
 11
34.63172377565466
 21
126.7511288022806
  0
LINE
  8
0
  6
CONTINUOUS
 62
     7
 10
34.63172377565466
 20
126.7511288022806
 11
34.79431814779576
 21
126.7511288022806
  0
LINE
  8
0
  6
CONTINUOUS
 62
     7
 10
34.79431814779708
 20
123.2511288022806
 11
33.92252387032146
 21
123.2511288022806
  0
ARC
  8
0
  6
CONTINUOUS
 62
     7
 10
55.00000000006707
 20
125.0011288022806
 40
21.15000000000008
 50
355.2537882609905
 51
4.746211739009482
  0
LINE
  8
0
  6
CONTINUOUS
 62
     7
 10
75.20568185233888
 20
126.7511288022806
 11
75.3828561366108
 21
126.7511288022806
  0
LINE
  8
0
  6
CONTINUOUS
 62
     7
 10
75.3828561366108
 20
126.7511288022806
 11
76.07747612981287
 21
126.7511288022806
  0
LINE
  8
0
  6
CONTINUOUS
 62
     7
 10
76.07747612981287
 20
123.2511288022806
 11
75.36820523118145
 21
123.2511288022806
  0
LINE
  8
0
  6
CONTINUOUS
 62
     7
 10
75.36820523118145
 20
123.2511288022806
 11
75.20568185233265
 21
123.2511288022806
  0
ENDBLK
  8
0
  0
BLOCK
  8
0
  2
D_FRAME_VIEW_4354
 70
     0
 10
0.0
 20
0.0
  0
LINE
  8
0
  6
CONTINUOUS
 62
     7
 10
252.2061336440072
 20
134.7557450012042
 11
253.3281003024624
 21
135.7442510544697
  0
LINE
  8
0
  6
CONTINUOUS
 62
     7
 10
255.77043801941
 20
131.6604244162023
 11
254.3687430204769
 21
131.1396514042748
  0
LINE
  8
0
  6
CONTINUOUS
 62
     7
 10
253.09310487601
 20
113.9728225812958
 11
251.9927365117536
 21
114.9853159703966
  0
LINE
  8
0
  6
CONTINUOUS
 62
     7
 10
254.2328953871286
 20
118.553887173277
 11
255.6230229337106
 21
118.0029799177241
  0
LINE
  8
0
  6
CONTINUOUS
 62
     7
 10
247.8996656474448
 20
138.4821346394648
 11
248.5928628715344
 21
139.8070614331425
  0
LINE
  8
0
  6
CONTINUOUS
 62
     7
 10
252.3364941376269
 20
136.8697363781679
 11
251.2145274791717
 21
135.8812303249025
  0
LINE
  8
0
  6
CONTINUOUS
 62
     7
 10
227.6635058622387
 20
113.1325212263933
 11
228.7854725208404
 21
114.121027279658
  0
LINE
  8
0
  6
CONTINUOUS
 62
     7
 10
232.1003343525674
 20
111.5201229650957
 11
231.4071371283312
 21
110.1951961714187
  0
LINE
  8
0
  6
CONTINUOUS
 62
     7
 10
225.7671046128835
 20
131.4483704312835
 11
224.376977066155
 21
131.9992776868372
  0
LINE
  8
0
  6
CONTINUOUS
 62
     7
 10
226.9068951238556
 20
136.0294350232654
 11
228.0072634882586
 21
135.016941634164
  0
LINE
  8
0
  6
CONTINUOUS
 62
     7
 10
224.2295619804556
 20
118.3418331883589
 11
225.6312569795352
 21
118.8626062002858
  0
LINE
  8
0
  6
CONTINUOUS
 62
     7
 10
227.7938663560049
 20
115.2465126033563
 11
226.6718996974032
 21
114.2580065500916
  0
LINE
  8
0
  6
CONTINUOUS
 62
     7
 10
254.8911492590642
 20
129.7335604677116
 11
256.2928442579973
 21
130.2543334796392
  0
LINE
  8
0
  6
CONTINUOUS
 62
     7
 10
257.1094503667811
 20
125.5664973052253
 11
255.6142269954001
 21
125.5826363773235
  0
LINE
  8
0
  6
CONTINUOUS
 62
     7
 10
225.1088507409479
 20
120.2686971368489
 11
223.7071557418683
 21
119.7479241249221
  0
LINE
  8
0
  6
CONTINUOUS
 62
     7
 10
222.8905496330845
 20
124.435760299336
 11
224.385773004612
 21
124.4196212272371
  0
ARC
  8
0
  6
CONTINUOUS
 62
     7
 10
240.0000000000134
 20
125.0011288022802
 40
15.55
 50
65.1461220980307
 51
77.61705292199639
  0
LINE
  8
0
  6
CONTINUOUS
 62
     7
 10
243.3346140127748
 20
140.1893758830297
 11
243.58550870147
 21
141.6698608281787
  0
LINE
  8
0
  6
CONTINUOUS
 62
     7
 10
247.2318609114656
 20
140.4414230921005
 11
246.535750874915
 21
139.1109289603697
  0
ARC
  8
0
  6
CONTINUOUS
 62
     7
 10
240.0000000000134
 20
125.0011288022802
 40
15.55
 50
281.1461220980305
 51
293.6170529219962
  0
LINE
  8
0
  6
CONTINUOUS
 62
     7
 10
246.2296682362474
 20
110.7535418603992
 11
246.8968973861481
 21
109.4083321819172
  0
LINE
  8
0
  6
CONTINUOUS
 62
     7
 10
243.2248788961585
 20
108.2588871332365
 11
243.0059989169361
 21
109.7444427102267
  0
ARC
  8
0
  6
CONTINUOUS
 62
     7
 10
240.0000000000134
 20
125.0011288022802
 40
15.54999999999999
 50
83.14612209803063
 51
95.61705292199632
  0
LINE
  8
0
  6
CONTINUOUS
 62
     7
 10
238.477979923462
 20
140.476462559152
 11
238.2590999440783
 21
141.962018136143
  0
LINE
  8
0
  6
CONTINUOUS
 62
     7
 10
242.1065951110816
 20
141.9204892227482
 11
241.8557004223864
 21
140.4400042775992
  0
ARC
  8
0
  6
CONTINUOUS
 62
     7
 10
240.0000000000134
 20
125.0011288022802
 40
15.55000000000001
 50
263.1461220980306
 51
275.6170529219962
  0
LINE
  8
0
  6
CONTINUOUS
 62
     7
 10
241.5220200765649
 20
109.5257950454085
 11
241.7409000557873
 21
108.0402394684182
  0
LINE
  8
0
  6
CONTINUOUS
 62
     7
 10
237.893404888784
 20
108.0817683818131
 11
238.1442995776405
 21
109.5622533269613
  0
ARC
  8
0
  6
CONTINUOUS
 62
     7
 10
240.0000000000134
 20
125.0011288022802
 40
15.54999999999999
 50
101.1461220980305
 51
113.6170529219961
  0
LINE
  8
0
  6
CONTINUOUS
 62
     7
 10
233.7703317637795
 20
139.2487157441612
 11
233.1031026137175
 21
140.593925422644
  0
LINE
  8
0
  6
CONTINUOUS
 62
     7
 10
236.7751211037071
 20
141.7433704713248
 11
236.9940010830908
 21
140.2578148943338
  0
ARC
  8
0
  6
CONTINUOUS
 62
     7
 10
240.0000000000134
 20
125.0011288022802
 40
15.55
 50
245.1461220980307
 51
257.6170529219963
  0
LINE
  8
0
  6
CONTINUOUS
 62
     7
 10
236.6653859872521
 20
109.8128817215307
 11
236.4144912983956
 21
108.3323967763825
  0
LINE
  8
0
  6
CONTINUOUS
 62
     7
 10
232.7681390883999
 20
109.5608345124608
 11
233.4642491251118
 21
110.8913286441907
  0
LINE
  8
0
  6
CONTINUOUS
 62
     7
 10
248.2712749469415
 20
110.0131688293305
 11
247.6068377599202
 21
111.3527495938221
  0
LINE
  8
0
  6
CONTINUOUS
 62
     7
 10
250.977067782997
 20
113.881496676569
 11
252.0774361472534
 21
112.8690032874682
  0
LINE
  8
0
  6
CONTINUOUS
 62
     7
 10
229.0229322170151
 20
136.1207609279915
 11
227.9225638526122
 21
137.133254317093
  0
LINE
  8
0
  6
CONTINUOUS
 62
     7
 10
231.728725052924
 20
139.9890887752308
 11
232.3931622400919
 21
138.6495080107384
  0
LINE
  8
0
  6
CONTINUOUS
 62
     7
 10
256.1756579216855
 20
119.3974671245732
 11
254.7855303751035
 21
119.9483743801262
  0
LINE
  8
0
  6
CONTINUOUS
 62
     7
 10
255.5980373086149
 20
124.0827237485208
 11
257.0932606799959
 21
124.0665846764226
  0
LINE
  8
0
  6
CONTINUOUS
 62
     7
 10
224.4019626913972
 20
125.9195338560397
 11
222.9067393198697
 21
125.9356729281386
  0
LINE
  8
0
  6
CONTINUOUS
 62
     7
 10
223.8243420781801
 20
130.604790479988
 11
225.2144696249086
 21
130.0538832244344
  0
ARC
  8
0
  6
CONTINUOUS
 62
     7
 10
239.7074622005542
 20
125.0039954451272
 40
20.25744830219509
 50
166.3181840747768
 51
179.3807646745479
  0
ARC
  8
0
  6
CONTINUOUS
 62
     7
 10
239.9461882405336
 20
124.9608455465655
 40
20.49961170184094
 50
318.8322012505876
 51
166.3588238590606
  0
ARC
  8
0
  6
CONTINUOUS
 62
     7
 10
240.0207269248617
 20
125.1511274222595
 40
20.56965525192525
 50
179.8000039198171
 51
318.296529773181
  0
ARC
  8
0
  6
CONTINUOUS
 62
     7
 10
239.9999999999328
 20
125.0011288022806
 40
18.15
 50
114.0133190058749
 51
118.7498560141516
  0
ARC
  8
0
  6
CONTINUOUS
 62
     7
 10
239.9999999999328
 20
125.0011288022806
 40
18.15000000000001
 50
135.013319005875
 51
139.7498560141516
  0
ARC
  8
0
  6
CONTINUOUS
 62
     7
 10
239.9999999999328
 20
125.0011288022806
 40
18.15000000000001
 50
156.013319005875
 51
160.7498560141516
  0
ARC
  8
0
  6
CONTINUOUS
 62
     7
 10
239.9999999999328
 20
125.0011288022806
 40
18.14999999999999
 50
177.013319005875
 51
181.7498560141518
  0
ARC
  8
0
  6
CONTINUOUS
 62
     7
 10
239.9999999999328
 20
125.0011288022806
 40
18.14999999999999
 50
198.0133190058751
 51
202.7498560141519
  0
ARC
  8
0
  6
CONTINUOUS
 62
     7
 10
239.9999999999328
 20
125.0011288022806
 40
18.15
 50
219.0133190058753
 51
223.7498560141518
  0
ARC
  8
0
  6
CONTINUOUS
 62
     7
 10
239.9999999999328
 20
125.0011288022806
 40
18.15
 50
240.0133190058751
 51
244.7498560141519
  0
ARC
  8
0
  6
CONTINUOUS
 62
     7
 10
239.9999999999328
 20
125.0011288022806
 40
18.14999999999999
 50
258.013319005875
 51
262.7498560141519
  0
ARC
  8
0
  6
CONTINUOUS
 62
     7
 10
239.9999999999328
 20
125.0011288022806
 40
18.15
 50
276.013319005875
 51
280.7498560141516
  0
ARC
  8
0
  6
CONTINUOUS
 62
     7
 10
239.9999999999328
 20
125.0011288022806
 40
18.15
 50
294.0133190058749
 51
298.7498560141516
  0
ARC
  8
0
  6
CONTINUOUS
 62
     7
 10
239.9999999999328
 20
125.0011288022806
 40
18.15
 50
315.013319005875
 51
319.7498560141516
  0
ARC
  8
0
  6
CONTINUOUS
 62
     7
 10
239.9999999999328
 20
125.0011288022806
 40
18.15000000000001
 50
336.013319005875
 51
340.7498560141516
  0
ARC
  8
0
  6
CONTINUOUS
 62
     7
 10
239.9999999999328
 20
125.0011288022806
 40
18.15000000000002
 50
357.0133190058753
 51
1.749856014151817
  0
ARC
  8
0
  6
CONTINUOUS
 62
     7
 10
239.9999999999328
 20
125.0011288022806
 40
18.15000000000002
 50
18.01331900587496
 51
22.74985601415187
  0
ARC
  8
0
  6
CONTINUOUS
 62
     7
 10
239.9999999999328
 20
125.0011288022806
 40
18.15000000000001
 50
39.01331900587519
 51
43.74985601415192
  0
ARC
  8
0
  6
CONTINUOUS
 62
     7
 10
239.9999999999328
 20
125.0011288022806
 40
18.15000000000001
 50
60.01331900587514
 51
64.74985601415187
  0
ARC
  8
0
  6
CONTINUOUS
 62
     7
 10
239.9999999999328
 20
125.0011288022806
 40
18.14999999999999
 50
78.0133190058749
 51
82.74985601415182
  0
ARC
  8
0
  6
CONTINUOUS
 62
     7
 10
239.9999999999328
 20
125.0011288022806
 40
18.15
 50
96.01331900587503
 51
100.7498560141517
  0
LINE
  8
0
  6
CONTINUOUS
 62
     7
 10
233.1031026137175
 20
140.593925422644
 11
232.6138757348154
 21
141.5802623242788
  0
LINE
  8
0
  6
CONTINUOUS
 62
     7
 10
236.4144912983956
 20
108.3323967763825
 11
236.2305298729597
 21
107.2468731163371
  0
LINE
  8
0
  6
CONTINUOUS
 62
     7
 10
238.2590999440783
 20
141.962018136143
 11
238.0986123977359
 21
143.0512596933908
  0
LINE
  8
0
  6
CONTINUOUS
 62
     7
 10
241.7409000557873
 20
108.0402394684182
 11
241.9013876021297
 21
106.9509979111704
  0
LINE
  8
0
  6
CONTINUOUS
 62
     7
 10
243.58550870147
 20
141.6698608281787
 11
243.7694701269058
 21
142.7553844882241
  0
LINE
  8
0
  6
CONTINUOUS
 62
     7
 10
246.8968973861481
 20
109.4083321819172
 11
247.3861242650502
 21
108.4219952802825
  0
LINE
  8
0
  6
CONTINUOUS
 62
     7
 10
223.7071557418683
 20
119.7479241249221
 11
222.739628487135
 21
119.3884578480741
  0
LINE
  8
0
  6
CONTINUOUS
 62
     7
 10
224.376977066155
 20
131.9992776868372
 11
223.4174343054987
 21
132.3795442818924
  0
LINE
  8
0
  6
CONTINUOUS
 62
     7
 10
226.6718996974032
 20
114.2580065500916
 11
225.8974563828463
 21
113.5756851116325
  0
LINE
  8
0
  6
CONTINUOUS
 62
     7
 10
227.9225638526122
 20
137.133254317093
 11
227.1630288728269
 21
137.8321331387248
  0
LINE
  8
0
  6
CONTINUOUS
 62
     7
 10
231.4071371283312
 20
110.1951961714187
 11
230.9286541432606
 21
109.2806585692171
  0
LINE
  8
0
  6
CONTINUOUS
 62
     7
 10
248.5928628715344
 20
139.8070614331425
 11
249.071345856605
 21
140.7215990353441
  0
LINE
  8
0
  6
CONTINUOUS
 62
     7
 10
252.0774361472534
 20
112.8690032874682
 11
252.8369711270387
 21
112.1701244658365
  0
LINE
  8
0
  6
CONTINUOUS
 62
     7
 10
253.3281003024624
 20
135.7442510544697
 11
254.1025436170193
 21
136.4265724929287
  0
LINE
  8
0
  6
CONTINUOUS
 62
     7
 10
255.6230229337106
 20
118.0029799177241
 11
256.5825656943668
 21
117.6227133226688
  0
LINE
  8
0
  6
CONTINUOUS
 62
     7
 10
256.2928442579973
 20
130.2543334796392
 11
257.2603715127306
 21
130.6137997564871
  0
LINE
  8
0
  6
CONTINUOUS
 62
     7
 10
222.9067393198697
 20
125.9356729281386
 11
221.8746536201834
 21
125.9468130064955
  0
LINE
  8
0
  6
CONTINUOUS
 62
     7
 10
257.0932606799959
 20
124.0665846764226
 11
258.1253463796822
 21
124.0554445980657
  0
LINE
  8
0
  6
CONTINUOUS
 62
     7
 10
222.8647993175238
 20
130.9850570750433
 11
223.8243420781801
 21
130.604790479988
  0
LINE
  8
0
  6
CONTINUOUS
 62
     7
 10
257.1352006823417
 20
119.017200529518
 11
256.1756579216855
 21
119.3974671245732
  0
LINE
  8
0
  6
CONTINUOUS
 62
     7
 10
231.2700938328454
 20
140.9137413569131
 11
231.728725052924
 21
139.9890887752308
  0
LINE
  8
0
  6
CONTINUOUS
 62
     7
 10
248.7299061670202
 20
109.0885162476481
 11
248.2712749469415
 21
110.0131688293305
  0
LINE
  8
0
  6
CONTINUOUS
 62
     7
 10
232.2577361172421
 20
108.5852873687512
 11
232.7681390883999
 21
109.5608345124608
  0
LINE
  8
0
  6
CONTINUOUS
 62
     7
 10
236.6146335573647
 20
142.8326120285726
 11
236.7751211037071
 21
141.7433704713248
  0
LINE
  8
0
  6
CONTINUOUS
 62
     7
 10
237.7094434633481
 20
106.9962447217677
 11
237.893404888784
 21
108.0817683818131
  0
LINE
  8
0
  6
CONTINUOUS
 62
     7
 10
242.2905565365174
 20
143.0060128827936
 11
242.1065951110816
 21
141.9204892227482
  0
LINE
  8
0
  6
CONTINUOUS
 62
     7
 10
243.3853664425009
 20
107.1696455759886
 11
243.2248788961585
 21
108.2588871332365
  0
LINE
  8
0
  6
CONTINUOUS
 62
     7
 10
247.7422638826235
 20
141.4169702358101
 11
247.2318609114656
 21
140.4414230921005
  0
LINE
  8
0
  6
CONTINUOUS
 62
     7
 10
221.8584639333982
 20
124.4469003776929
 11
222.8905496330845
 21
124.435760299336
  0
LINE
  8
0
  6
CONTINUOUS
 62
     7
 10
258.1415360664674
 20
125.5553572268684
 11
257.1094503667811
 21
125.5664973052253
  0
LINE
  8
0
  6
CONTINUOUS
 62
     7
 10
223.2620347257223
 20
117.982366911511
 11
224.2295619804556
 21
118.3418331883589
  0
LINE
  8
0
  6
CONTINUOUS
 62
     7
 10
226.1473601440704
 20
136.7283138448972
 11
226.9068951238556
 21
136.0294350232654
  0
LINE
  8
0
  6
CONTINUOUS
 62
     7
 10
226.8890625476818
 20
112.4501997879343
 11
227.6635058622387
 21
113.1325212263933
  0
LINE
  8
0
  6
CONTINUOUS
 62
     7
 10
253.1109374521838
 20
137.552057816627
 11
252.3364941376269
 21
136.8697363781679
  0
LINE
  8
0
  6
CONTINUOUS
 62
     7
 10
253.8526398557952
 20
113.273943759664
 11
253.09310487601
 21
113.9728225812958
  0
LINE
  8
0
  6
CONTINUOUS
 62
     7
 10
256.7379652741433
 20
132.0198906930503
 11
255.77043801941
 21
131.6604244162023
  0
LINE
  8
0
  6
CONTINUOUS
 62
     7
 10
243.6205004556483
 20
104.919641716254
 11
243.7837985785868
 21
104.9493061295947
  0
LINE
  8
0
  6
CONTINUOUS
 62
     7
 10
254.5366089874316
 20
129.6018377995453
 11
254.8911492590642
 21
129.7335604677116
  0
LINE
  8
0
  6
CONTINUOUS
 62
     7
 10
255.6142269954001
 20
125.5826363773235
 11
255.2360299549146
 21
125.5867185428529
  0
LINE
  8
0
  6
CONTINUOUS
 62
     7
 10
255.2198402681294
 20
124.0868059140502
 11
255.5980373086149
 21
124.0827237485208
  0
LINE
  8
0
  6
CONTINUOUS
 62
     7
 10
254.7855303751035
 20
119.9483743801262
 11
254.4339159380526
 21
120.0877191079644
  0
LINE
  8
0
  6
CONTINUOUS
 62
     7
 10
251.9223469685197
 20
134.5057154262225
 11
252.2061336440072
 21
134.7557450012042
  0
LINE
  8
0
  6
CONTINUOUS
 62
     7
 10
254.3687430204769
 20
131.1396514042748
 11
254.0142027488443
 21
131.0079287361084
  0
LINE
  8
0
  6
CONTINUOUS
 62
     7
 10
253.8812809500777
 20
118.6932319011152
 11
254.2328953871286
 21
118.553887173277
  0
LINE
  8
0
  6
CONTINUOUS
 62
     7
 10
251.9927365117536
 20
114.9853159703966
 11
251.7144128400595
 21
115.2414128257577
  0
LINE
  8
0
  6
CONTINUOUS
 62
     7
 10
247.7243305480352
 20
138.1470118731343
 11
247.8996656474448
 21
138.4821346394648
  0
LINE
  8
0
  6
CONTINUOUS
 62
     7
 10
251.2145274791717
 20
135.8812303249025
 11
250.9307408036842
 21
135.6312007499207
  0
LINE
  8
0
  6
CONTINUOUS
 62
     7
 10
250.6987441113029
 20
114.1375935319301
 11
250.977067782997
 21
113.881496676569
  0
LINE
  8
0
  6
CONTINUOUS
 62
     7
 10
247.6068377599202
 20
111.3527495938221
 11
247.4387771327516
 21
111.691578888889
  0
LINE
  8
0
  6
CONTINUOUS
 62
     7
 10
229.3012558891523
 20
135.8646640726282
 11
229.0229322170151
 21
136.1207609279915
  0
LINE
  8
0
  6
CONTINUOUS
 62
     7
 10
232.3931622400919
 20
138.6495080107384
 11
232.5612228677035
 21
138.3106787156694
  0
LINE
  8
0
  6
CONTINUOUS
 62
     7
 10
232.27566945242
 20
111.8552457314241
 11
232.1003343525674
 21
111.5201229650957
  0
LINE
  8
0
  6
CONTINUOUS
 62
     7
 10
228.7854725208404
 20
114.121027279658
 11
229.069259196771
 21
114.3710568546376
  0
LINE
  8
0
  6
CONTINUOUS
 62
     7
 10
226.1187190503775
 20
131.3090257034431
 11
225.7671046128835
 21
131.4483704312835
  0
LINE
  8
0
  6
CONTINUOUS
 62
     7
 10
228.0072634882586
 20
135.016941634164
 11
228.2855871603957
 21
134.7608447788006
  0
LINE
  8
0
  6
CONTINUOUS
 62
     7
 10
228.0776530319355
 20
115.4965421783359
 11
227.7938663560049
 21
115.2465126033563
  0
LINE
  8
0
  6
CONTINUOUS
 62
     7
 10
225.6312569795352
 20
118.8626062002858
 11
225.9857972516109
 21
118.9943288684499
  0
LINE
  8
0
  6
CONTINUOUS
 62
     7
 10
224.7801597323258
 20
125.9154516905081
 11
224.4019626913972
 21
125.9195338560397
  0
LINE
  8
0
  6
CONTINUOUS
 62
     7
 10
225.2144696249086
 20
130.0538832244344
 11
225.5660840624026
 21
129.9145384965939
  0
LINE
  8
0
  6
CONTINUOUS
 62
     7
 10
225.4633910130236
 20
120.4004198050131
 11
225.1088507409479
 21
120.2686971368489
  0
LINE
  8
0
  6
CONTINUOUS
 62
     7
 10
224.385773004612
 20
124.4196212272371
 11
224.7639700455406
 21
124.4155390617054
  0
LINE
  8
0
  6
CONTINUOUS
 62
     7
 10
254.0712434381517
 20
129.4289401157128
 11
254.5199399853627
 21
129.5956447501139
  0
LINE
  8
0
  6
CONTINUOUS
 62
     7
 10
254.5199399853627
 20
129.5956447501139
 11
254.5366089874316
 21
129.6018377995453
  0
LINE
  8
0
  6
CONTINUOUS
 62
     7
 10
255.2360299549146
 20
125.5867185428529
 11
255.2048029549787
 21
125.5870555993845
  0
LINE
  8
0
  6
CONTINUOUS
 62
     7
 10
255.2048029549787
 20
125.5870555993845
 11
254.7396127985074
 21
125.5920767471397
  0
LINE
  8
0
  6
CONTINUOUS
 62
     7
 10
254.7234231117222
 20
124.092164118337
 11
255.2037925964095
 21
124.0869791286588
  0
LINE
  8
0
  6
CONTINUOUS
 62
     7
 10
255.2037925964095
 20
124.0869791286588
 11
255.2198402681294
 21
124.0868059140502
  0
LINE
  8
0
  6
CONTINUOUS
 62
     7
 10
254.4339159380526
 20
120.0877191079644
 11
254.4201259266119
 21
120.0931840866119
  0
LINE
  8
0
  6
CONTINUOUS
 62
     7
 10
254.4201259266119
 20
120.0931840866119
 11
253.9723908061398
 21
120.2706214210833
  0
LINE
  8
0
  6
CONTINUOUS
 62
     7
 10
251.5498517889847
 20
134.1775294351104
 11
251.8615343984826
 21
134.4521366561619
  0
LINE
  8
0
  6
CONTINUOUS
 62
     7
 10
251.8615369940372
 20
134.452138942969
 11
251.9223469685197
 21
134.5057154262225
  0
LINE
  8
0
  6
CONTINUOUS
 62
     7
 10
254.0142027488443
 20
131.0079287361084
 11
254.0002979887241
 21
131.002762687991
  0
LINE
  8
0
  6
CONTINUOUS
 62
     7
 10
254.0002979887241
 20
131.002762687991
 11
253.5488371995643
 21
130.835031052276
  0
LINE
  8
0
  6
CONTINUOUS
 62
     7
 10
253.4197558181649
 20
118.8761342142342
 11
253.8647495085248
 21
118.6997833079424
  0
LINE
  8
0
  6
CONTINUOUS
 62
     7
 10
253.8647495085248
 20
118.6997833079424
 11
253.8812809500777
 21
118.6932319011152
  0
LINE
  8
0
  6
CONTINUOUS
 62
     7
 10
251.7144128400595
 20
115.2414128257577
 11
251.6969444321994
 21
115.2574862135954
  0
LINE
  8
0
  6
CONTINUOUS
 62
     7
 10
251.6969444321994
 20
115.2574862135954
 11
251.6845502003028
 21
115.2688906471181
  0
LINE
  8
0
  6
CONTINUOUS
 62
     7
 10
251.6845502003028
 20
115.2688906471181
 11
251.3490883374915
 21
115.5775626604487
  0
LINE
  8
0
  6
CONTINUOUS
 62
     7
 10
247.4941876801637
 20
137.707133521861
 11
247.6876602970128
 21
138.07692302044
  0
LINE
  8
0
  6
CONTINUOUS
 62
     7
 10
247.6876602970128
 20
138.07692302044
 11
247.7243305480352
 21
138.1470118731343
  0
LINE
  8
0
  6
CONTINUOUS
 62
     7
 10
250.9307408036842
 20
135.6312007499207
 11
250.9048695267061
 21
135.6084069229259
  0
LINE
  8
0
  6
CONTINUOUS
 62
     7
 10
250.9048695267061
 20
135.6084069229259
 11
250.5582456241491
 21
135.3030147588086
  0
LINE
  8
0
  6
CONTINUOUS
 62
     7
 10
250.3334196087349
 20
114.4737433666212
 11
250.6683892276487
 21
114.1655242867885
  0
LINE
  8
0
  6
CONTINUOUS
 62
     7
 10
250.6683892276487
 20
114.1655242867885
 11
250.6987441113029
 21
114.1375935319301
  0
LINE
  8
0
  6
CONTINUOUS
 62
     7
 10
247.4387771327516
 20
111.691578888889
 11
247.4234559734823
 21
111.7224680845252
  0
LINE
  8
0
  6
CONTINUOUS
 62
     7
 10
247.4234559734823
 20
111.7224680845252
 11
247.4043008098231
 21
111.7610870680584
  0
LINE
  8
0
  6
CONTINUOUS
 62
     7
 10
247.4043008098231
 20
111.7610870680584
 11
247.2181826548354
 21
112.1363223878457
  0
LINE
  8
0
  6
CONTINUOUS
 62
     7
 10
229.6665803918036
 20
135.5285142379368
 11
229.3316107728265
 21
135.8367333177718
  0
LINE
  8
0
  6
CONTINUOUS
 62
     7
 10
229.3316107728265
 20
135.8367333177718
 11
229.3012558891523
 21
135.8646640726282
  0
LINE
  8
0
  6
CONTINUOUS
 62
     7
 10
232.5612228677035
 20
138.3106787156694
 11
232.5717708382635
 21
138.2894128101321
  0
LINE
  8
0
  6
CONTINUOUS
 62
     7
 10
232.5717708382635
 20
138.2894128101321
 11
232.5995506587112
 21
138.233405539885
  0
LINE
  8
0
  6
CONTINUOUS
 62
     7
 10
232.5995506587112
 20
138.233405539885
 11
232.7818173457031
 21
137.8659352167122
  0
LINE
  8
0
  6
CONTINUOUS
 62
     7
 10
232.5058123203748
 20
112.2951240826969
 11
232.3123397232239
 21
111.9253346218637
  0
LINE
  8
0
  6
CONTINUOUS
 62
     7
 10
232.3123397232239
 20
111.9253346218637
 11
232.27566945242
 21
111.8552457314241
  0
LINE
  8
0
  6
CONTINUOUS
 62
     7
 10
229.069259196771
 20
114.3710568546376
 11
229.0870704787462
 21
114.3867494422091
  0
LINE
  8
0
  6
CONTINUOUS
 62
     7
 10
229.0870704787462
 20
114.3867494422091
 11
229.0997079876061
 21
114.3978836892992
  0
LINE
  8
0
  6
CONTINUOUS
 62
     7
 10
229.0997079876061
 20
114.3978836892992
 11
229.4417543763893
 21
114.6992428457493
  0
LINE
  8
0
  6
CONTINUOUS
 62
     7
 10
226.5802441823736
 20
131.1261233903238
 11
226.135250491943
 21
131.3024742966159
  0
LINE
  8
0
  6
CONTINUOUS
 62
     7
 10
226.135250491943
 20
131.3024742966159
 11
226.1187190503775
 21
131.3090257034431
  0
LINE
  8
0
  6
CONTINUOUS
 62
     7
 10
228.2855871603957
 20
134.7608447788006
 11
228.3030555582128
 21
134.744771400218
  0
LINE
  8
0
  6
CONTINUOUS
 62
     7
 10
228.3030555582128
 20
134.744771400218
 11
228.3154498001743
 21
134.7333669574401
  0
LINE
  8
0
  6
CONTINUOUS
 62
     7
 10
228.3154498001743
 20
134.7333669574401
 11
228.650911663047
 21
134.4246949441092
  0
LINE
  8
0
  6
CONTINUOUS
 62
     7
 10
228.4501482115538
 20
115.8247281694475
 11
228.1384656020061
 21
115.5501209483963
  0
LINE
  8
0
  6
CONTINUOUS
 62
     7
 10
228.1384630064516
 20
115.5501186615892
 11
228.0776530319355
 21
115.4965421783359
  0
LINE
  8
0
  6
CONTINUOUS
 62
     7
 10
225.9857972516109
 20
118.9943288684499
 11
225.9997020117421
 21
118.9994949165673
  0
LINE
  8
0
  6
CONTINUOUS
 62
     7
 10
225.9997020117421
 20
118.9994949165673
 11
226.4511628009741
 21
119.167226552282
  0
LINE
  8
0
  6
CONTINUOUS
 62
     7
 10
225.2765768888162
 20
125.9100934862209
 11
224.7962074040574
 21
125.9152784758995
  0
LINE
  8
0
  6
CONTINUOUS
 62
     7
 10
224.7962074040574
 20
125.9152784758995
 11
224.7801597323258
 21
125.9154516905081
  0
LINE
  8
0
  6
CONTINUOUS
 62
     7
 10
225.5660840624026
 20
129.914538496594
 11
225.5798740738543
 21
129.9090735179463
  0
LINE
  8
0
  6
CONTINUOUS
 62
     7
 10
225.5798740738543
 20
129.9090735179463
 11
226.0276091943987
 21
129.7316361834746
  0
LINE
  8
0
  6
CONTINUOUS
 62
     7
 10
225.9287565623868
 20
120.5733174888451
 11
225.4800600151051
 21
120.4066128544444
  0
LINE
  8
0
  6
CONTINUOUS
 62
     7
 10
225.4800600151051
 20
120.4066128544444
 11
225.4633910130236
 21
120.4004198050131
  0
LINE
  8
0
  6
CONTINUOUS
 62
     7
 10
224.7639700455406
 20
124.4155390617054
 11
224.795197045495
 21
124.4152020051738
  0
LINE
  8
0
  6
CONTINUOUS
 62
     7
 10
224.795197045495
 20
124.4152020051738
 11
225.2603872020311
 21
124.4101808574183
  0
LINE
  8
0
  6
CONTINUOUS
 62
     7
 10
253.8821534234829
 20
129.3586873313785
 11
254.0712434381517
 21
129.4289401157128
  0
LINE
  8
0
  6
CONTINUOUS
 62
     7
 10
254.7396127985074
 20
125.5920767471397
 11
254.5379057156953
 21
125.5942539236168
  0
LINE
  8
0
  6
CONTINUOUS
 62
     7
 10
254.5217160289101
 20
124.0943412948141
 11
254.7234231117222
 21
124.092164118337
  0
LINE
  8
0
  6
CONTINUOUS
 62
     7
 10
253.9723908061398
 20
120.2706214210833
 11
253.7848612520109
 21
120.3449393441058
  0
LINE
  8
0
  6
CONTINUOUS
 62
     7
 10
251.398497398716
 20
134.0441790099104
 11
251.5498517889847
 21
134.1775294351104
  0
LINE
  8
0
  6
CONTINUOUS
 62
     7
 10
253.5488371995643
 20
130.835031052276
 11
253.3597471848956
 21
130.7647782679416
  0
LINE
  8
0
  6
CONTINUOUS
 62
     7
 10
253.232226264036
 20
118.9504521372566
 11
253.4197558181649
 21
118.8761342142342
  0
LINE
  8
0
  6
CONTINUOUS
 62
     7
 10
251.3490883374915
 20
115.5775626604487
 11
251.2006475780554
 21
115.714149000515
  0
LINE
  8
0
  6
CONTINUOUS
 62
     7
 10
247.4006747023948
 20
137.5283996125317
 11
247.4941876801637
 21
137.707133521861
  0
LINE
  8
0
  6
CONTINUOUS
 62
     7
 10
250.5582456241491
 20
135.3030147588086
 11
250.4068912338805
 21
135.1696643336086
  0
LINE
  8
0
  6
CONTINUOUS
 62
     7
 10
250.1849788492989
 20
114.6103297066874
 11
250.3334196087349
 21
114.4737433666212
  0
LINE
  8
0
  6
CONTINUOUS
 62
     7
 10
247.2181826548354
 20
112.1363223878457
 11
247.1285494339574
 21
112.3170331320487
  0
LINE
  8
0
  6
CONTINUOUS
 62
     7
 10
229.8150211512521
 20
135.3919278978705
 11
229.6665803918036
 21
135.5285142379368
  0
LINE
  8
0
  6
CONTINUOUS
 62
     7
 10
232.7818173457031
 20
137.8659352167122
 11
232.8714505665936
 21
137.6852244725092
  0
LINE
  8
0
  6
CONTINUOUS
 62
     7
 10
232.5993252981562
 20
112.4738579920262
 11
232.5058123203748
 21
112.2951240826969
  0
LINE
  8
0
  6
CONTINUOUS
 62
     7
 10
229.4417543763893
 20
114.6992428457493
 11
229.5931087666705
 21
114.8325932709493
  0
LINE
  8
0
  6
CONTINUOUS
 62
     7
 10
226.767773736515
 20
131.0518054673013
 11
226.5802441823736
 21
131.1261233903238
  0
LINE
  8
0
  6
CONTINUOUS
 62
     7
 10
228.650911663047
 20
134.4246949441092
 11
228.7993524224956
 21
134.2881086040429
  0
LINE
  8
0
  6
CONTINUOUS
 62
     7
 10
228.6015026018349
 20
115.9580785946475
 11
228.4501482115538
 21
115.8247281694475
  0
LINE
  8
0
  6
CONTINUOUS
 62
     7
 10
226.4511628009741
 20
119.167226552282
 11
226.6402528156554
 21
119.2374793366162
  0
LINE
  8
0
  6
CONTINUOUS
 62
     7
 10
225.4782839716409
 20
125.9079163097438
 11
225.2765768888162
 21
125.9100934862209
  0
LINE
  8
0
  6
CONTINUOUS
 62
     7
 10
226.0276091943987
 20
129.7316361834746
 11
226.2151387485401
 21
129.6573182604521
  0
LINE
  8
0
  6
CONTINUOUS
 62
     7
 10
226.1178465770681
 20
120.6435702731794
 11
225.9287565623868
 21
120.5733174888451
  0
LINE
  8
0
  6
CONTINUOUS
 62
     7
 10
225.2603872020311
 20
124.4101808574183
 11
225.4620942848557
 21
124.4080036809411
  0
ARC
  8
0
  6
CONTINUOUS
 62
     7
 10
240.0000000002988
 20
125.0011288022788
 40
14.29999999999998
 50
2.387990295078322
 51
17.37518472494866
  0
LINE
  8
0
  6
CONTINUOUS
 62
     7
 10
253.6474875117887
 20
129.2715016927563
 11
253.8821534234829
 21
129.3586873313785
  0
LINE
  8
0
  6
CONTINUOUS
 62
     7
 10
254.5379057156953
 20
125.5942539236168
 11
254.2875816752302
 21
125.5969558595378
  0
ARC
  8
0
  6
CONTINUOUS
 62
     7
 10
240.0000000002988
 20
125.0011288022788
 40
14.3
 50
341.3879902950782
 51
356.3751847249486
  0
LINE
  8
0
  6
CONTINUOUS
 62
     7
 10
254.271391988445
 20
124.0970432307351
 11
254.5217160289101
 21
124.0943412948141
  0
LINE
  8
0
  6
CONTINUOUS
 62
     7
 10
253.7848612520109
 20
120.3449393441058
 11
253.5521319147883
 21
120.437169931707
  0
ARC
  8
0
  6
CONTINUOUS
 62
     7
 10
240.0000000002988
 20
125.0011288022788
 40
14.29999999999997
 50
23.38799029507842
 51
38.37518472494867
  0
LINE
  8
0
  6
CONTINUOUS
 62
     7
 10
251.2106624353365
 20
133.8786874626106
 11
251.398497398716
 21
134.0441790099104
  0
LINE
  8
0
  6
CONTINUOUS
 62
     7
 10
253.3597471848956
 20
130.7647782679416
 11
253.1250812732013
 21
130.6775926293194
  0
ARC
  8
0
  6
CONTINUOUS
 62
     7
 10
240.0000000002988
 20
125.0011288022788
 40
14.29999999999998
 50
320.3879902950781
 51
335.3751847249484
  0
LINE
  8
0
  6
CONTINUOUS
 62
     7
 10
252.9994969268134
 20
119.0426827248579
 11
253.232226264036
 21
118.9504521372566
  0
LINE
  8
0
  6
CONTINUOUS
 62
     7
 10
251.2006475780554
 20
115.714149000515
 11
251.0164285107184
 21
115.8836564072116
  0
ARC
  8
0
  6
CONTINUOUS
 62
     7
 10
240.0000000002988
 20
125.0011288022788
 40
14.29999999999998
 50
44.38799029507847
 51
59.37518472494869
  0
LINE
  8
0
  6
CONTINUOUS
 62
     7
 10
247.2846225236463
 20
137.3065859125343
 11
247.4006747023948
 21
137.5283996125317
  0
LINE
  8
0
  6
CONTINUOUS
 62
     7
 10
250.4068912338805
 20
135.1696643336086
 11
250.219056270501
 21
135.0041727863089
  0
ARC
  8
0
  6
CONTINUOUS
 62
     7
 10
240.0000000002988
 20
125.0011288022788
 40
14.29999999999999
 50
299.3879902950782
 51
314.3751847249484
  0
LINE
  8
0
  6
CONTINUOUS
 62
     7
 10
250.0007597819618
 20
114.779837113384
 11
250.1849788492989
 21
114.6103297066874
  0
LINE
  8
0
  6
CONTINUOUS
 62
     7
 10
247.1285494339574
 20
112.3170331320487
 11
247.0910300363463
 21
112.3926764950569
  0
LINE
  8
0
  6
CONTINUOUS
 62
     7
 10
247.0910300363463
 20
112.3926764950569
 11
247.0173121402762
 21
112.541300138524
  0
ARC
  8
0
  6
CONTINUOUS
 62
     7
 10
240.0000000002988
 20
125.0011288022788
 40
14.3
 50
119.3879902950782
 51
134.3751847249484
  0
LINE
  8
0
  6
CONTINUOUS
 62
     7
 10
229.9992402186357
 20
135.2224204911736
 11
229.8150211512521
 21
135.3919278978705
  0
LINE
  8
0
  6
CONTINUOUS
 62
     7
 10
232.8714505665936
 20
137.6852244725092
 11
232.9089699642113
 21
137.6095811095009
  0
LINE
  8
0
  6
CONTINUOUS
 62
     7
 10
232.9089699642113
 20
137.6095811095009
 11
232.9826878603214
 21
137.4609574660336
  0
ARC
  8
0
  6
CONTINUOUS
 62
     7
 10
240.0000000002988
 20
125.0011288022788
 40
14.3
 50
224.3879902950785
 51
239.3751847249487
  0
LINE
  8
0
  6
CONTINUOUS
 62
     7
 10
232.7153774769513
 20
112.6956716920233
 11
232.5993252981562
 21
112.4738579920262
  0
LINE
  8
0
  6
CONTINUOUS
 62
     7
 10
229.5931087666705
 20
114.8325932709493
 11
229.7809437300965
 21
114.9980848182488
  0
ARC
  8
0
  6
CONTINUOUS
 62
     7
 10
240.0000000002988
 20
125.0011288022788
 40
14.3
 50
140.3879902950781
 51
155.3751847249484
  0
LINE
  8
0
  6
CONTINUOUS
 62
     7
 10
227.0005030737841
 20
130.9595748796998
 11
226.767773736515
 21
131.0518054673013
  0
LINE
  8
0
  6
CONTINUOUS
 62
     7
 10
228.7993524224956
 20
134.2881086040429
 11
228.9835714898792
 21
134.118601197346
  0
ARC
  8
0
  6
CONTINUOUS
 62
     7
 10
240.0000000002988
 20
125.0011288022788
 40
14.29999999999999
 50
203.3879902950784
 51
218.3751847249487
  0
LINE
  8
0
  6
CONTINUOUS
 62
     7
 10
228.789337565261
 20
116.123570141947
 11
228.6015026018349
 21
115.9580785946475
  0
LINE
  8
0
  6
CONTINUOUS
 62
     7
 10
226.6402528156554
 20
119.2374793366162
 11
226.8749187273962
 21
119.3246649752382
  0
ARC
  8
0
  6
CONTINUOUS
 62
     7
 10
240.0000000002988
 20
125.0011288022788
 40
14.30000000000001
 50
161.3879902950782
 51
176.3751847249486
  0
LINE
  8
0
  6
CONTINUOUS
 62
     7
 10
225.7286080121526
 20
125.9052143738225
 11
225.4782839716409
 21
125.9079163097438
  0
LINE
  8
0
  6
CONTINUOUS
 62
     7
 10
226.2151387485401
 20
129.6573182604521
 11
226.4478680858092
 21
129.5650876728506
  0
ARC
  8
0
  6
CONTINUOUS
 62
     7
 10
240.0000000002988
 20
125.0011288022788
 40
14.3
 50
182.3879902950783
 51
197.3751847249486
  0
LINE
  8
0
  6
CONTINUOUS
 62
     7
 10
226.3525124888089
 20
120.7307559118014
 11
226.1178465770681
 21
120.6435702731794
  0
LINE
  8
0
  6
CONTINUOUS
 62
     7
 10
225.4620942848557
 20
124.4080036809411
 11
225.7124183253674
 21
124.4053017450199
  0
ARC
  8
0
  6
CONTINUOUS
 62
     7
 10
239.9999999999232
 20
125.0011288022765
 40
15.44999999998956
 50
197.9300495809181
 51
202.9999999999289
  0
ARC
  8
0
  6
CONTINUOUS
 62
     7
 10
239.9999999999232
 20
125.0011288022765
 40
15.44999999998956
 50
197.5986672657858
 51
197.9300495809181
  0
ARC
  8
0
  6
CONTINUOUS
 62
     7
 10
239.9999999998991
 20
125.001128802271
 40
16.54999999996495
 50
197.7832906875509
 51
203.0000000000046
  0
ARC
  8
0
  6
CONTINUOUS
 62
     7
 10
239.9999999999352
 20
125.0011288022844
 40
16.5499999999955
 50
59.78329068752505
 51
64.97984358149567
  0
ARC
  8
0
  6
CONTINUOUS
 62
     7
 10
239.9999999999352
 20
125.0011288022844
 40
16.54999999999552
 50
77.78329068752859
 51
82.97984358149884
  0
ARC
  8
0
  6
CONTINUOUS
 62
     7
 10
239.9999999999352
 20
125.0011288022844
 40
16.54999999999552
 50
95.78329068753274
 51
100.979843581503
  0
ARC
  8
0
  6
CONTINUOUS
 62
     7
 10
239.9999999999351
 20
125.0011288022764
 40
15.45000000000481
 50
113.7907092956049
 51
118.9999999999875
  0
ARC
  8
0
  6
CONTINUOUS
 62
     7
 10
239.9999999999351
 20
125.0011288022764
 40
15.45000000000483
 50
107.7925281089363
 51
113.790709295605
  0
ARC
  8
0
  6
CONTINUOUS
 62
     7
 10
239.9999999999351
 20
125.0011288022764
 40
15.45000000000481
 50
101.0267223905819
 51
107.7925281089363
  0
ARC
  8
0
  6
CONTINUOUS
 62
     7
 10
239.9999999999351
 20
125.0011288022764
 40
15.45000000000482
 50
95.79070929553485
 51
101.0267223905819
  0
ARC
  8
0
  6
CONTINUOUS
 62
     7
 10
239.9999999999351
 20
125.0011288022764
 40
15.45000000000481
 50
89.79252812586338
 51
95.79070929553473
  0
ARC
  8
0
  6
CONTINUOUS
 62
     7
 10
239.9999999999351
 20
125.0011288022764
 40
15.4500000000048
 50
83.02672239054003
 51
89.79252812586321
  0
ARC
  8
0
  6
CONTINUOUS
 62
     7
 10
239.9999999999351
 20
125.0011288022764
 40
15.45000000000481
 50
77.79068053851137
 51
83.02672239053987
  0
ARC
  8
0
  6
CONTINUOUS
 62
     7
 10
239.9999999999351
 20
125.0011288022764
 40
15.45000000000482
 50
71.79252814199786
 51
77.79068053851125
  0
ARC
  8
0
  6
CONTINUOUS
 62
     7
 10
239.9999999999351
 20
125.0011288022764
 40
15.4500000000048
 50
65.02672239056245
 51
71.79252814199786
  0
ARC
  8
0
  6
CONTINUOUS
 62
     7
 10
239.9999999999351
 20
125.0011288022764
 40
15.45000000000482
 50
59.59866726498564
 51
65.02672239056245
  0
ARC
  8
0
  6
CONTINUOUS
 62
     7
 10
239.9999999999304
 20
125.0011288022768
 40
16.5499999999955
 50
239.7832906875628
 51
244.9798435815244
  0
ARC
  8
0
  6
CONTINUOUS
 62
     7
 10
239.9999999999304
 20
125.0011288022768
 40
16.5499999999955
 50
257.7832906875607
 51
262.9798435815309
  0
ARC
  8
0
  6
CONTINUOUS
 62
     7
 10
239.9999999999304
 20
125.0011288022768
 40
16.5499999999955
 50
275.783290687565
 51
280.9798435815352
  0
ARC
  8
0
  6
CONTINUOUS
 62
     7
 10
239.9999999999305
 20
125.0011288022848
 40
15.45000000000481
 50
293.7906805409217
 51
298.9999999999875
  0
ARC
  8
0
  6
CONTINUOUS
 62
     7
 10
239.9999999999305
 20
125.0011288022848
 40
15.45000000000481
 50
287.7925281329183
 51
293.7906805409218
  0
ARC
  8
0
  6
CONTINUOUS
 62
     7
 10
239.9999999999305
 20
125.0011288022848
 40
15.4500000000048
 50
281.0799112011691
 51
287.7925281329184
  0
ARC
  8
0
  6
CONTINUOUS
 62
     7
 10
239.9999999999305
 20
125.0011288022848
 40
15.45000000000481
 50
275.7906805410021
 51
281.079911201169
  0
ARC
  8
0
  6
CONTINUOUS
 62
     7
 10
239.9999999999305
 20
125.0011288022848
 40
15.45000000000481
 50
269.7925281150904
 51
275.790680541002
  0
ARC
  8
0
  6
CONTINUOUS
 62
     7
 10
239.9999999999305
 20
125.0011288022848
 40
15.4500000000048
 50
263.0799112012182
 51
269.7925281150905
  0
ARC
  8
0
  6
CONTINUOUS
 62
     7
 10
239.9999999999305
 20
125.0011288022848
 40
15.45000000000481
 50
257.7906805409566
 51
263.0799112012182
  0
ARC
  8
0
  6
CONTINUOUS
 62
     7
 10
239.9999999999305
 20
125.0011288022848
 40
15.4500000000048
 50
251.7925280975224
 51
257.7906805409567
  0
ARC
  8
0
  6
CONTINUOUS
 62
     7
 10
239.9999999999305
 20
125.0011288022848
 40
15.45000000000481
 50
245.0799112012025
 51
251.7925280975222
  0
ARC
  8
0
  6
CONTINUOUS
 62
     7
 10
239.9999999999305
 20
125.0011288022848
 40
15.4500000000048
 50
239.9300495813051
 51
245.0799112012025
  0
ARC
  8
0
  6
CONTINUOUS
 62
     7
 10
239.9999999999305
 20
125.0011288022848
 40
15.45000000000481
 50
239.5986672661584
 51
239.9300495813051
  0
ARC
  8
0
  6
CONTINUOUS
 62
     7
 10
239.9999999999224
 20
125.0011288022803
 40
15.44999999998957
 50
176.5986672655486
 51
181.999999999929
  0
LINE
  8
0
  6
CONTINUOUS
 62
     7
 10
223.5928793858324
 20
124.4281795252972
 11
224.5594117224871
 21
124.4619315782461
  0
ARC
  8
0
  6
CONTINUOUS
 62
     7
 10
239.9999999998979
 20
125.0011288022837
 40
16.54999999996494
 50
176.7832906875431
 51
182.0000000000047
  0
ARC
  8
0
  6
CONTINUOUS
 62
     7
 10
239.9999999999432
 20
125.001128802281
 40
15.44999999998957
 50
356.5986672655564
 51
1.999999999928946
  0
LINE
  8
0
  6
CONTINUOUS
 62
     7
 10
256.4071206140356
 20
125.5740780792641
 11
255.4405882773785
 21
125.5403260263151
  0
ARC
  8
0
  6
CONTINUOUS
 62
     7
 10
239.9999999999677
 20
125.0011288022776
 40
16.54999999996496
 50
356.7832906875436
 51
2.000000000004832
  0
ARC
  8
0
  6
CONTINUOUS
 62
     7
 10
239.9999999999403
 20
125.0011288022879
 40
15.44999999998956
 50
38.59866726511416
 51
43.99999999992895
  0
ARC
  8
0
  6
CONTINUOUS
 62
     7
 10
239.9999999999608
 20
125.0011288023017
 40
16.54999999996497
 50
38.78329068752937
 51
44.00000000000475
  0
ARC
  8
0
  6
CONTINUOUS
 62
     7
 10
239.9999999999408
 20
125.0011288022739
 40
15.44999999998956
 50
314.9300495813301
 51
319.9999999999289
  0
ARC
  8
0
  6
CONTINUOUS
 62
     7
 10
239.9999999999408
 20
125.0011288022739
 40
15.44999999998955
 50
314.5986672659972
 51
314.9300495813301
  0
ARC
  8
0
  6
CONTINUOUS
 62
     7
 10
239.9999999999567
 20
125.001128802255
 40
16.54999999996493
 50
314.7832906875575
 51
320.0000000000046
  0
ARC
  8
0
  6
CONTINUOUS
 62
     7
 10
239.9999999999424
 20
125.0011288022847
 40
15.44999999998959
 50
17.93004958076648
 51
22.99999999992895
  0
ARC
  8
0
  6
CONTINUOUS
 62
     7
 10
239.9999999999424
 20
125.0011288022847
 40
15.44999999998958
 50
17.59866726531993
 51
17.93004958076654
  0
ARC
  8
0
  6
CONTINUOUS
 62
     7
 10
239.9999999999665
 20
125.0011288022903
 40
16.54999999996492
 50
17.78329068753594
 51
23.00000000000474
  0
ARC
  8
0
  6
CONTINUOUS
 62
     7
 10
239.9999999999229
 20
125.001128802284
 40
15.44999999998953
 50
155.9300495805062
 51
160.9999999999289
  0
ARC
  8
0
  6
CONTINUOUS
 62
     7
 10
239.9999999999229
 20
125.001128802284
 40
15.44999999998956
 50
155.5986672653125
 51
155.9300495805064
  0
ARC
  8
0
  6
CONTINUOUS
 62
     7
 10
239.9999999999013
 20
125.001128802296
 40
16.54999999996496
 50
155.7832906875355
 51
161.0000000000047
  0
ARC
  8
0
  6
CONTINUOUS
 62
     7
 10
239.9999999999048
 20
125.0011288022595
 40
16.54999999996496
 50
218.7832906875576
 51
224.0000000000047
  0
ARC
  8
0
  6
CONTINUOUS
 62
     7
 10
239.9999999999253
 20
125.0011288022734
 40
15.44999999998956
 50
218.5986672659916
 51
223.999999999929
  0
ARC
  8
0
  6
CONTINUOUS
 62
     7
 10
239.9999999999427
 20
125.0011288022772
 40
15.44999999998954
 50
335.9300495811781
 51
340.9999999999289
  0
ARC
  8
0
  6
CONTINUOUS
 62
     7
 10
239.9999999999427
 20
125.0011288022772
 40
15.44999999998958
 50
335.5986672657928
 51
335.9300495811781
  0
ARC
  8
0
  6
CONTINUOUS
 62
     7
 10
239.9999999999643
 20
125.0011288022653
 40
16.54999999996496
 50
335.7832906875509
 51
341.0000000000047
  0
ARC
  8
0
  6
CONTINUOUS
 62
     7
 10
239.9999999999089
 20
125.0011288023062
 40
16.54999999996497
 50
134.7832906875288
 51
140.0000000000046
  0
ARC
  8
0
  6
CONTINUOUS
 62
     7
 10
239.9999999999248
 20
125.0011288022873
 40
15.44999999998956
 50
134.9300495803545
 51
139.9999999999289
  0
ARC
  8
0
  6
CONTINUOUS
 62
     7
 10
239.9999999999248
 20
125.0011288022873
 40
15.44999999998958
 50
134.598667265108
 51
134.9300495803545
  0
ARC
  8
0
  6
CONTINUOUS
 62
     7
 10
239.9999999999328
 20
125.0011288022806
 40
17.94999999999997
 50
176.9869163225897
 51
181.7762586974369
  0
ARC
  8
0
  6
CONTINUOUS
 62
     7
 10
239.9999999999328
 20
125.0011288022806
 40
17.69999999999993
 50
257.9530731553116
 51
262.810101864715
  0
ARC
  8
0
  6
CONTINUOUS
 62
     7
 10
239.9999999999328
 20
125.0011288022806
 40
17.69999999999994
 50
275.9530731553116
 51
280.810101864715
  0
ARC
  8
0
  6
CONTINUOUS
 62
     7
 10
239.9999999999328
 20
125.0011288022806
 40
17.69999999999995
 50
77.9530731553119
 51
82.81010186471522
  0
ARC
  8
0
  6
CONTINUOUS
 62
     7
 10
239.9999999999328
 20
125.0011288022806
 40
17.69999999999993
 50
95.95307315531181
 51
100.8101018647152
  0
LINE
  8
0
  6
CONTINUOUS
 62
     7
 10
219.5274625656943
 20
123.2511288022806
 11
218.9225238701871
 21
123.2511288022806
  0
LINE
  8
0
  6
CONTINUOUS
 62
     7
 10
218.9225238701871
 20
126.7511288022806
 11
219.5262031780304
 21
126.7511288022806
  0
ARC
  8
0
  6
CONTINUOUS
 62
     7
 10
239.9999999999328
 20
125.0011288022806
 40
21.15000000000002
 50
175.2537882609904
 51
184.7462117390095
  0
LINE
  8
0
  6
CONTINUOUS
 62
     7
 10
261.0774761296785
 20
126.7511288022806
 11
260.470346639591
 21
126.7511288022806
  0
LINE
  8
0
  6
CONTINUOUS
 62
     7
 10
260.4738112505262
 20
123.2511288022806
 11
261.0774761296785
 21
123.2511288022806
  0
ARC
  8
0
  6
CONTINUOUS
 62
     7
 10
239.9999999999328
 20
125.0011288022806
 40
21.14999999999996
 50
355.2537882609906
 51
4.746211739009652
  0
ARC
  8
0
  6
CONTINUOUS
 62
     7
 10
239.9999999999328
 20
125.0011288022806
 40
11.39999999999999
 50
180.0
 51
270.0
  0
ARC
  8
0
  6
CONTINUOUS
 62
     7
 10
239.9999999999328
 20
125.0011288022806
 40
11.39999999999999
 50
270.0
 51
180.0
  0
ARC
  8
0
  6
CONTINUOUS
 62
     7
 10
239.966816082833
 20
125.08757919355
 40
20.4663987624844
 50
166.8174501949861
 51
31.28866980508701
  0
ARC
  8
0
  6
CONTINUOUS
 62
     7
 10
240.0114684648889
 20
124.807335084054
 40
20.57546216094733
 50
32.02015463802204
 51
166.0859653620511
  0
ENDBLK
  8
0
  0
BLOCK
  8
0
  2
D_FRAME_VIEW_4903
 70
     0
 10
0.0
 20
0.0
  0
INSERT
  8
0
 62
     9
  2
*X5
 10
0.0
 20
0.0
 30
0.0
  0
INSERT
  8
0
 62
     7
  2
*X6
 10
0.0
 20
0.0
 30
0.0
  0
INSERT
  8
0
 62
     7
  2
*X7
 10
0.0
 20
0.0
 30
0.0
  0
ARC
  8
0
  6
CONTINUOUS
 62
     7
 10
186.3911167729926
 20
144.1511460819816
 40
1.250000003198443
 50
12.68071173614703
 51
89.99999975262409
  0
POLYLINE
  8
0
  6
CONTINUOUS
 62
     7
 66
     1
  0
VERTEX
  8
0
  6
CONTINUOUS
 62
     7
 10
187.6106273992486
 20
144.425543313099
  0
VERTEX
  8
0
  6
CONTINUOUS
 62
     7
 10
187.6333769481391
 20
144.290033329505
  0
VERTEX
  8
0
  6
CONTINUOUS
 62
     7
 10
187.6411167783899
 20
144.1511460687889
  0
SEQEND
  8
0
  6
CONTINUOUS
 62
     7
  0
LINE
  8
0
  6
CONTINUOUS
 62
     7
 10
187.6411167773575
 20
125.0011288022806
 11
187.6411167784002
 21
105.8511112643419
  0
LINE
  8
0
  6
CONTINUOUS
 62
     7
 10
168.8911167783896
 20
145.4011460851755
 11
186.3911167783895
 21
145.40114608518
  0
LINE
  8
0
  6
CONTINUOUS
 62
     7
 10
167.9411167786037
 20
104.9493061295944
 11
168.0255259403025
 21
104.9493061295944
  0
LINE
  8
0
  6
CONTINUOUS
 62
     7
 10
167.6411167784006
 20
105.8511125307956
 11
167.6411167773576
 21
125.0011288022806
  0
LINE
  8
0
  6
CONTINUOUS
 62
     7
 10
170.5411167783902
 20
143.1511288022761
 11
167.641116778395
 21
143.1511288022753
  0
LINE
  8
0
  6
CONTINUOUS
 62
     7
 10
180.1411167784007
 20
143.1511288022786
 11
173.4411167783902
 21
143.1511288022769
  0
LINE
  8
0
  6
CONTINUOUS
 62
     7
 10
187.64111677915
 20
136.4265724929288
 11
187.4831765331647
 21
136.4265724929287
  0
LINE
  8
0
  6
CONTINUOUS
 62
     7
 10
187.6411167793213
 20
130.6137997564871
 11
185.6411167793213
 21
130.6137997564866
  0
LINE
  8
0
  6
CONTINUOUS
 62
     7
 10
185.64111677937
 20
125.5553572268679
 11
187.64111677937
 21
125.5553572268684
  0
LINE
  8
0
  6
CONTINUOUS
 62
     7
 10
167.641116778395
 20
142.9511288022806
 11
167.641116778395
 21
143.1511288022753
  0
LINE
  8
0
  6
CONTINUOUS
 62
     7
 10
187.6411167783949
 20
125.1011582526844
 11
187.6411167783948
 21
125.5553572268684
  0
LINE
  8
0
  6
CONTINUOUS
 62
     7
 10
187.6411167783932
 20
131.6491725381557
 11
187.6411167783931
 21
132.0198906930503
  0
LINE
  8
0
  6
CONTINUOUS
 62
     7
 10
187.6411167783935
 20
130.6137997564871
 11
187.6411167783932
 21
131.6491725381557
  0
LINE
  8
0
  6
CONTINUOUS
 62
     7
 10
187.6411167783919
 20
136.4265724929287
 11
187.6411167783918
 21
136.7705521696652
  0
LINE
  8
0
  6
CONTINUOUS
 62
     7
 10
187.6411167783908
 20
140.7215990353441
 11
187.6411167783906
 21
141.41697023581
  0
ARC
  8
0
  6
CONTINUOUS
 62
     7
 10
168.8911167907184
 20
144.1511460749366
 40
1.2500000123285
 50
102.6807112234129
 51
180.0000002820249
  0
POLYLINE
  8
0
  6
CONTINUOUS
 62
     7
 66
     1
  0
VERTEX
  8
0
  6
CONTINUOUS
 62
     7
 10
168.6167195685101
 20
145.3706567125554
  0
VERTEX
  8
0
  6
CONTINUOUS
 62
     7
 10
168.7522295354007
 20
145.3934062565961
  0
VERTEX
  8
0
  6
CONTINUOUS
 62
     7
 10
168.8911167783896
 20
145.4011460851755
  0
SEQEND
  8
0
  6
CONTINUOUS
 62
     7
  0
ARC
  8
0
  6
CONTINUOUS
 62
     7
 10
186.1410295182957
 20
142.0512160623749
 40
1.500087262632667
 50
270.0033328965665
 51
359.9966671038069
  0
LINE
  8
0
  6
CONTINUOUS
 62
     7
 10
186.1411167783998
 20
140.5511288022802
 11
180.1411167783908
 21
140.5511288022786
  0
LINE
  8
0
  6
CONTINUOUS
 62
     7
 10
180.1411167783908
 20
140.5511288022786
 11
180.1411167784007
 21
143.1511288022786
  0
LINE
  8
0
  6
CONTINUOUS
 62
     7
 10
173.4411167783999
 20
141.7011288022769
 11
173.4411167783902
 21
143.1511288022769
  0
LINE
  8
0
  6
CONTINUOUS
 62
     7
 10
172.4411167787224
 20
141.7011288021218
 11
173.4411167783999
 21
141.7011288022769
  0
LINE
  8
0
  6
CONTINUOUS
 62
     7
 10
170.5411167783903
 20
142.5871133527706
 11
172.4411167787224
 21
141.7011288021218
  0
LINE
  8
0
  6
CONTINUOUS
 62
     7
 10
170.5411167783902
 20
143.1511288022761
 11
170.5411167783902
 21
142.9511288022817
  0
LINE
  8
0
  6
CONTINUOUS
 62
     7
 10
170.5411167783902
 20
142.9511288022817
 11
170.5411167783903
 21
142.5871133527706
  0
LINE
  8
0
  6
CONTINUOUS
 62
     7
 10
167.6411167783899
 20
144.1511460687838
 11
167.641116778395
 21
143.1511288022753
  0
LINE
  8
0
  6
CONTINUOUS
 62
     7
 10
187.6411167783899
 20
144.1511460687889
 11
187.6411167783905
 21
142.0511288022806
  0
LINE
  8
0
  6
CONTINUOUS
 62
     7
 10
172.4411167783906
 20
141.7011288022765
 11
172.4411167783906
 21
141.6011288022843
  0
LINE
  8
0
  6
CONTINUOUS
 62
     7
 10
173.4411167783906
 20
141.7011288022768
 11
173.4411167783906
 21
141.6011288022844
  0
LINE
  8
0
  6
CONTINUOUS
 62
     7
 10
186.1411167784906
 20
140.4400042775992
 11
180.1411167784906
 21
140.4400042775976
  0
LINE
  8
0
  6
CONTINUOUS
 62
     7
 10
180.1411167783908
 20
140.5511288022786
 11
180.1411167783909
 21
140.4400042775975
  0
ARC
  8
0
  6
CONTINUOUS
 62
     7
 10
186.1511301569133
 20
141.9299875266824
 40
1.490016895976648
 50
269.6149515871897
 51
359.634758226395
  0
LINE
  8
0
  6
CONTINUOUS
 62
     7
 10
187.6411167783905
 20
141.9204892227481
 11
187.6411167783905
 21
142.0511288022805
  0
LINE
  8
0
  6
CONTINUOUS
 62
     7
 10
180.1411167785702
 20
140.1893758830282
 11
180.1411167785315
 21
140.4400042775976
  0
ARC
  8
0
  6
CONTINUOUS
 62
     7
 10
186.1503650092607
 20
141.680134365662
 40
1.49078716901874
 50
269.6445582600102
 51
359.605151553575
  0
LINE
  8
0
  6
CONTINUOUS
 62
     7
 10
186.1411167785702
 20
140.1893758830298
 11
180.1411167785702
 21
140.1893758830282
  0
ARC
  8
0
  6
CONTINUOUS
 62
     7
 10
186.2241015114242
 20
140.5281694978099
 40
1.419667991757841
 50
266.6489441227083
 51
356.4968563249308
  0
LINE
  8
0
  6
CONTINUOUS
 62
     7
 10
187.6411167783909
 20
140.4414230921004
 11
187.6411167783905
 21
141.6698608281787
  0
LINE
  8
0
  6
CONTINUOUS
 62
     7
 10
180.1411167783909
 20
140.1893758830281
 11
180.1411167783912
 21
139.1109289603681
  0
LINE
  8
0
  6
CONTINUOUS
 62
     7
 10
186.1411167787426
 20
139.1109289603698
 11
180.1411167787425
 21
139.1109289603682
  0
POLYLINE
  8
0
  6
CONTINUOUS
 62
     7
 66
     1
  0
VERTEX
  8
0
  6
CONTINUOUS
 62
     7
 10
167.6411167786038
 20
105.2551412894563
  0
VERTEX
  8
0
  6
CONTINUOUS
 62
     7
 10
167.6413843399507
 20
105.2422476937067
  0
VERTEX
  8
0
  6
CONTINUOUS
 62
     7
 10
167.6421853697291
 20
105.2293651457315
  0
VERTEX
  8
0
  6
CONTINUOUS
 62
     7
 10
167.6435173865456
 20
105.216526646807
  0
VERTEX
  8
0
  6
CONTINUOUS
 62
     7
 10
167.6453779090067
 20
105.2037651982098
  0
VERTEX
  8
0
  6
CONTINUOUS
 62
     7
 10
167.6478440556986
 20
105.1907280041683
  0
VERTEX
  8
0
  6
CONTINUOUS
 62
     7
 10
167.6508667188489
 20
105.1777960319837
  0
VERTEX
  8
0
  6
CONTINUOUS
 62
     7
 10
167.6544375861934
 20
105.1650046201005
  0
VERTEX
  8
0
  6
CONTINUOUS
 62
     7
 10
167.6585483454681
 20
105.1523891069633
  0
VERTEX
  8
0
  6
CONTINUOUS
 62
     7
 10
167.6630603940848
 20
105.1403066271182
  0
VERTEX
  8
0
  6
CONTINUOUS
 62
     7
 10
167.6680766802382
 20
105.1284123807664
  0
VERTEX
  8
0
  6
CONTINUOUS
 62
     7
 10
167.6735843544027
 20
105.1167376061903
  0
VERTEX
  8
0
  6
CONTINUOUS
 62
     7
 10
167.6795705670527
 20
105.1053135416725
  0
VERTEX
  8
0
  6
CONTINUOUS
 62
     7
 10
167.6862307899387
 20
105.0938256105126
  0
VERTEX
  8
0
  6
CONTINUOUS
 62
     7
 10
167.6933886298301
 20
105.0826260776075
  0
VERTEX
  8
0
  6
CONTINUOUS
 62
     7
 10
167.7010243457514
 20
105.0717468307103
  0
VERTEX
  8
0
  6
CONTINUOUS
 62
     7
 10
167.7091181967276
 20
105.0612197575744
  0
VERTEX
  8
0
  6
CONTINUOUS
 62
     7
 10
167.7173308591552
 20
105.0514376231949
  0
VERTEX
  8
0
  6
CONTINUOUS
 62
     7
 10
167.725954995233
 20
105.0420008367953
  0
VERTEX
  8
0
  6
CONTINUOUS
 62
     7
 10
167.7349680842567
 20
105.0329349051677
  0
VERTEX
  8
0
  6
CONTINUOUS
 62
     7
 10
167.7443476055221
 20
105.0242653351044
  0
VERTEX
  8
0
  6
CONTINUOUS
 62
     7
 10
167.7543861799511
 20
105.015759619767
  0
VERTEX
  8
0
  6
CONTINUOUS
 62
     7
 10
167.7647969516818
 20
105.0076930361967
  0
VERTEX
  8
0
  6
CONTINUOUS
 62
     7
 10
167.7755502767618
 20
105.0000892284814
  0
VERTEX
  8
0
  6
CONTINUOUS
 62
     7
 10
167.7866165112386
 20
104.9929718407088
  0
VERTEX
  8
0
  6
CONTINUOUS
 62
     7
 10
167.7974427569836
 20
104.9866520269282
  0
VERTEX
  8
0
  6
CONTINUOUS
 62
     7
 10
167.8085348701358
 20
104.9807875231655
  0
VERTEX
  8
0
  6
CONTINUOUS
 62
     7
 10
167.8198635014296
 20
104.9753941771975
  0
VERTEX
  8
0
  6
CONTINUOUS
 62
     7
 10
167.8313993015994
 20
104.970487836801
  0
VERTEX
  8
0
  6
CONTINUOUS
 62
     7
 10
167.8434883002959
 20
104.9659505571943
  0
VERTEX
  8
0
  6
CONTINUOUS
 62
     7
 10
167.8557753248629
 20
104.9619407179997
  0
VERTEX
  8
0
  6
CONTINUOUS
 62
     7
 10
167.8682252604215
 20
104.9584697244717
  0
VERTEX
  8
0
  6
CONTINUOUS
 62
     7
 10
167.8808029920932
 20
104.955548981865
  0
VERTEX
  8
0
  6
CONTINUOUS
 62
     7
 10
167.8957309989352
 20
104.9528277329121
  0
VERTEX
  8
0
  6
CONTINUOUS
 62
     7
 10
167.910799305784
 20
104.950875730587
  0
VERTEX
  8
0
  6
CONTINUOUS
 62
     7
 10
167.9259479024151
 20
104.9496996408332
  0
VERTEX
  8
0
  6
CONTINUOUS
 62
     7
 10
167.9411167786037
 20
104.9493061295944
  0
SEQEND
  8
0
  6
CONTINUOUS
 62
     7
  0
LINE
  8
0
  6
CONTINUOUS
 62
     7
 10
167.6411167786038
 20
105.2551412894563
 11
167.641116778604
 21
105.8511112643115
  0
ARC
  8
0
  6
CONTINUOUS
 62
     7
 10
186.2411419410791
 20
139.8837210918195
 40
1.402072127127719
 50
271.5081264705947
 51
356.8657345164075
  0
LINE
  8
0
  6
CONTINUOUS
 62
     7
 10
182.1568902709686
 20
138.1470118731343
 11
186.2780427031935
 21
138.4821346394649
  0
POLYLINE
  8
0
  6
CONTINUOUS
 62
     7
 66
     1
  0
VERTEX
  8
0
  6
CONTINUOUS
 62
     7
 10
181.3821488167569
 20
137.7071335218611
  0
VERTEX
  8
0
  6
CONTINUOUS
 62
     7
 10
181.4064336651358
 20
137.7425170080495
  0
VERTEX
  8
0
  6
CONTINUOUS
 62
     7
 10
181.4296135774924
 20
137.773153577646
  0
VERTEX
  8
0
  6
CONTINUOUS
 62
     7
 10
181.454232016562
 20
137.8029357079346
  0
VERTEX
  8
0
  6
CONTINUOUS
 62
     7
 10
181.480223620469
 20
137.8317872793117
  0
VERTEX
  8
0
  6
CONTINUOUS
 62
     7
 10
181.5075230273383
 20
137.8596321721737
  0
VERTEX
  8
0
  6
CONTINUOUS
 62
     7
 10
181.5369618270793
 20
137.8872073636961
  0
VERTEX
  8
0
  6
CONTINUOUS
 62
     7
 10
181.5677340100803
 20
137.9136650538905
  0
VERTEX
  8
0
  6
CONTINUOUS
 62
     7
 10
181.599753501859
 20
137.9389339850979
  0
VERTEX
  8
0
  6
CONTINUOUS
 62
     7
 10
181.6329342279327
 20
137.9629428996597
  0
VERTEX
  8
0
  6
CONTINUOUS
 62
     7
 10
181.6662230660513
 20
137.985015117726
  0
VERTEX
  8
0
  6
CONTINUOUS
 62
     7
 10
181.700548372366
 20
138.0058601739433
  0
VERTEX
  8
0
  6
CONTINUOUS
 62
     7
 10
181.7358200904103
 20
138.0254255295336
  0
VERTEX
  8
0
  6
CONTINUOUS
 62
     7
 10
181.7719481637177
 20
138.0436586457188
  0
VERTEX
  8
0
  6
CONTINUOUS
 62
     7
 10
181.809991509287
 20
138.0610101405207
  0
VERTEX
  8
0
  6
CONTINUOUS
 62
     7
 10
181.8488738528386
 20
138.07691756268
  0
VERTEX
  8
0
  6
CONTINUOUS
 62
     7
 10
181.8884874486911
 20
138.0913390893937
  0
VERTEX
  8
0
  6
CONTINUOUS
 62
     7
 10
181.9287245511637
 20
138.1042328978586
  0
VERTEX
  8
0
  6
CONTINUOUS
 62
     7
 10
181.9733062721828
 20
138.1165363872026
  0
VERTEX
  8
0
  6
CONTINUOUS
 62
     7
 10
182.0185634215664
 20
138.1269942266054
  0
VERTEX
  8
0
  6
CONTINUOUS
 62
     7
 10
182.064346282421
 20
138.1355782188639
  0
VERTEX
  8
0
  6
CONTINUOUS
 62
     7
 10
182.1105051378529
 20
138.1422601667747
  0
VERTEX
  8
0
  6
CONTINUOUS
 62
     7
 10
182.1568902709686
 20
138.1470118731343
  0
SEQEND
  8
0
  6
CONTINUOUS
 62
     7
  0
LINE
  8
0
  6
CONTINUOUS
 62
     7
 10
181.2658391038162
 20
137.5283996125317
 11
181.3821488167569
 21
137.7071335218611
  0
POLYLINE
  8
0
  6
CONTINUOUS
 62
     7
 66
     1
  0
VERTEX
  8
0
  6
CONTINUOUS
 62
     7
 10
180.8328264019178
 20
137.3065859125344
  0
VERTEX
  8
0
  6
CONTINUOUS
 62
     7
 10
180.8535497484591
 20
137.3069686072398
  0
VERTEX
  8
0
  6
CONTINUOUS
 62
     7
 10
180.8742551761026
 20
137.3081140512905
  0
VERTEX
  8
0
  6
CONTINUOUS
 62
     7
 10
180.894889305878
 20
137.310018284588
  0
VERTEX
  8
0
  6
CONTINUOUS
 62
     7
 10
180.9153987588149
 20
137.3126773470339
  0
VERTEX
  8
0
  6
CONTINUOUS
 62
     7
 10
180.9363532557461
 20
137.3162014209737
  0
VERTEX
  8
0
  6
CONTINUOUS
 62
     7
 10
180.9571377979136
 20
137.3205190002677
  0
VERTEX
  8
0
  6
CONTINUOUS
 62
     7
 10
180.977695909756
 20
137.3256171503426
  0
VERTEX
  8
0
  6
CONTINUOUS
 62
     7
 10
180.9979711157122
 20
137.3314829366248
  0
VERTEX
  8
0
  6
CONTINUOUS
 62
     7
 10
181.0174078721409
 20
137.3379239066456
  0
VERTEX
  8
0
  6
CONTINUOUS
 62
     7
 10
181.0365425118132
 20
137.3450806888922
  0
VERTEX
  8
0
  6
CONTINUOUS
 62
     7
 10
181.0553260706466
 20
137.3529337928899
  0
VERTEX
  8
0
  6
CONTINUOUS
 62
     7
 10
181.0737095845585
 20
137.3614637281638
  0
VERTEX
  8
0
  6
CONTINUOUS
 62
     7
 10
181.0921905349609
 20
137.3709418911855
  0
VERTEX
  8
0
  6
CONTINUOUS
 62
     7
 10
181.1102142412804
 20
137.3811200474129
  0
VERTEX
  8
0
  6
CONTINUOUS
 62
     7
 10
181.1277322042149
 20
137.3919693455461
  0
VERTEX
  8
0
  6
CONTINUOUS
 62
     7
 10
181.1446959244623
 20
137.4034609342852
  0
VERTEX
  8
0
  6
CONTINUOUS
 62
     7
 10
181.1622879731119
 20
137.4165164654227
  0
VERTEX
  8
0
  6
CONTINUOUS
 62
     7
 10
181.1792035701466
 20
137.4302876561798
  0
VERTEX
  8
0
  6
CONTINUOUS
 62
     7
 10
181.1953906758612
 20
137.4447299144572
  0
VERTEX
  8
0
  6
CONTINUOUS
 62
     7
 10
181.2107972505508
 20
137.4597986481557
  0
VERTEX
  8
0
  6
CONTINUOUS
 62
     7
 10
181.2259116547582
 20
137.4760523333478
  0
VERTEX
  8
0
  6
CONTINUOUS
 62
     7
 10
181.2401543534835
 20
137.4929424630112
  0
VERTEX
  8
0
  6
CONTINUOUS
 62
     7
 10
181.2534789640588
 20
137.5104109263408
  0
VERTEX
  8
0
  6
CONTINUOUS
 62
     7
 10
181.2658391038162
 20
137.5283996125317
  0
SEQEND
  8
0
  6
CONTINUOUS
 62
     7
  0
LINE
  8
0
  6
CONTINUOUS
 62
     7
 10
180.1411167787833
 20
137.3065859125342
 11
180.8328264019178
 21
137.3065859125344
  0
LINE
  8
0
  6
CONTINUOUS
 62
     7
 10
180.1411167788303
 20
138.9921373762633
 11
180.1411167787833
 21
137.3065859125342
  0
LINE
  8
0
  6
CONTINUOUS
 62
     7
 10
181.5953793249202
 20
138.9921373762637
 11
180.1411167788303
 21
138.9921373762633
  0
LINE
  8
0
  6
CONTINUOUS
 62
     7
 10
183.0564023094223
 20
139.110930442742
 11
181.5953793249202
 21
138.9921373762637
  0
LINE
  8
0
  6
CONTINUOUS
 62
     7
 10
187.641116778853
 20
139.8070614331426
 11
187.6411167788698
 21
140.4138699638805
  0
LINE
  8
0
  6
CONTINUOUS
 62
     7
 10
187.6411167788698
 20
140.4138699638805
 11
187.6411167788251
 21
140.4414230921006
  0
LINE
  8
0
  6
CONTINUOUS
 62
     7
 10
181.2658391039784
 20
135.1696643336087
 11
180.8328264020761
 21
135.0041727863089
  0
LINE
  8
0
  6
CONTINUOUS
 62
     7
 10
180.8328264020761
 20
135.0041727863089
 11
180.1411167789416
 21
135.0041727863087
  0
LINE
  8
0
  6
CONTINUOUS
 62
     7
 10
180.1411167783917
 20
137.3065859125341
 11
180.1411167783923
 21
135.0041727863087
  0
LINE
  8
0
  6
CONTINUOUS
 62
     7
 10
181.3821488169222
 20
135.3030147588087
 11
181.2658391039784
 21
135.1696643336087
  0
ARC
  8
0
  6
CONTINUOUS
 62
     7
 10
182.2238733582498
 20
134.3161702056597
 40
1.316735382033202
 50
92.91592786739398
 51
118.9328608126584
  0
POLYLINE
  8
0
  6
CONTINUOUS
 62
     7
 66
     1
  0
VERTEX
  8
0
  6
CONTINUOUS
 62
     7
 10
181.5868573104774
 20
135.4685601662106
  0
VERTEX
  8
0
  6
CONTINUOUS
 62
     7
 10
181.491423804544
 20
135.404751778405
  0
VERTEX
  8
0
  6
CONTINUOUS
 62
     7
 10
181.4068364442552
 20
135.3298260306213
  0
VERTEX
  8
0
  6
CONTINUOUS
 62
     7
 10
181.3821488169222
 20
135.3030147588087
  0
SEQEND
  8
0
  6
CONTINUOUS
 62
     7
  0
LINE
  8
0
  6
CONTINUOUS
 62
     7
 10
186.2780427033723
 20
135.8812303249025
 11
182.1568902711417
 21
135.6312007499208
  0
POLYLINE
  8
0
  6
CONTINUOUS
 62
     7
 66
     1
  0
VERTEX
  8
0
  6
CONTINUOUS
 62
     7
 10
187.641116779055
 20
136.869736378168
  0
VERTEX
  8
0
  6
CONTINUOUS
 62
     7
 10
187.6331906284815
 20
136.7678335431356
  0
VERTEX
  8
0
  6
CONTINUOUS
 62
     7
 10
187.6091560070815
 20
136.6659307081032
  0
VERTEX
  8
0
  6
CONTINUOUS
 62
     7
 10
187.5594774871344
 20
136.5467408429357
  0
VERTEX
  8
0
  6
CONTINUOUS
 62
     7
 10
187.4861536128043
 20
136.4303564615403
  0
VERTEX
  8
0
  6
CONTINUOUS
 62
     7
 10
187.3909015057924
 20
136.3208370681992
  0
SEQEND
  8
0
  6
CONTINUOUS
 62
     7
  0
ARC
  8
0
  6
CONTINUOUS
 62
     7
 10
186.2303773334459
 20
137.6302918205588
 40
1.749710862707759
 50
271.5610364475066
 51
311.5494543315715
  0
LINE
  8
0
  6
CONTINUOUS
 62
     7
 10
187.6411167783911
 20
139.8070614331425
 11
187.6411167783918
 21
136.8697363781679
  0
POLYLINE
  8
0
  6
CONTINUOUS
 62
     7
 66
     1
  0
VERTEX
  8
0
  6
CONTINUOUS
 62
     7
 10
179.8411167789259
 20
137.6675895364275
  0
VERTEX
  8
0
  6
CONTINUOUS
 62
     7
 10
179.8535401034566
 20
137.6677484589428
  0
VERTEX
  8
0
  6
CONTINUOUS
 62
     7
 10
179.8659421234815
 20
137.6682246558337
  0
VERTEX
  8
0
  6
CONTINUOUS
 62
     7
 10
179.8783871982088
 20
137.6690241438939
  0
VERTEX
  8
0
  6
CONTINUOUS
 62
     7
 10
179.8907674680372
 20
137.6701429519765
  0
VERTEX
  8
0
  6
CONTINUOUS
 62
     7
 10
179.9033277270758
 20
137.6716140487852
  0
VERTEX
  8
0
  6
CONTINUOUS
 62
     7
 10
179.9157750591772
 20
137.6734134740296
  0
VERTEX
  8
0
  6
CONTINUOUS
 62
     7
 10
179.9281767916352
 20
137.6755548675834
  0
VERTEX
  8
0
  6
CONTINUOUS
 62
     7
 10
179.9404181571481
 20
137.6780216773945
  0
VERTEX
  8
0
  6
CONTINUOUS
 62
     7
 10
179.9520559494276
 20
137.6807059805022
  0
VERTEX
  8
0
  6
CONTINUOUS
 62
     7
 10
179.9635034935226
 20
137.6836838112161
  0
VERTEX
  8
0
  6
CONTINUOUS
 62
     7
 10
179.9748182669244
 20
137.6869736653567
  0
VERTEX
  8
0
  6
CONTINUOUS
 62
     7
 10
179.9859005613112
 20
137.6905495296474
  0
VERTEX
  8
0
  6
CONTINUOUS
 62
     7
 10
179.996963619864
 20
137.6944919983446
  0
VERTEX
  8
0
  6
CONTINUOUS
 62
     7
 10
180.0077437765565
 20
137.6987185514766
  0
VERTEX
  8
0
  6
CONTINUOUS
 62
     7
 10
180.0182971259628
 20
137.7032554492112
  0
VERTEX
  8
0
  6
CONTINUOUS
 62
     7
 10
180.0285240966073
 20
137.7080635221566
  0
VERTEX
  8
0
  6
CONTINUOUS
 62
     7
 10
180.0380641022042
 20
137.7129510092448
  0
VERTEX
  8
0
  6
CONTINUOUS
 62
     7
 10
180.0472663677825
 20
137.7180733857996
  0
VERTEX
  8
0
  6
CONTINUOUS
 62
     7
 10
180.0561750106974
 20
137.7234595195455
  0
VERTEX
  8
0
  6
CONTINUOUS
 62
     7
 10
180.0647097139077
 20
137.7290645880762
  0
VERTEX
  8
0
  6
CONTINUOUS
 62
     7
 10
180.0730281325922
 20
137.7350073200622
  0
VERTEX
  8
0
  6
CONTINUOUS
 62
     7
 10
180.0809255749591
 20
137.7411566416584
  0
VERTEX
  8
0
  6
CONTINUOUS
 62
     7
 10
180.0884405808783
 20
137.7475484563334
  0
VERTEX
  8
0
  6
CONTINUOUS
 62
     7
 10
180.0955000060474
 20
137.7541258012359
  0
VERTEX
  8
0
  6
CONTINUOUS
 62
     7
 10
180.1018664710409
 20
137.7606357399031
  0
VERTEX
  8
0
  6
CONTINUOUS
 62
     7
 10
180.107785841114
 20
137.7672950697724
  0
VERTEX
  8
0
  6
CONTINUOUS
 62
     7
 10
180.1132839006335
 20
137.7741397637532
  0
VERTEX
  8
0
  6
CONTINUOUS
 62
     7
 10
180.1183087974008
 20
137.7811116633921
  0
VERTEX
  8
0
  6
CONTINUOUS
 62
     7
 10
180.1229448084614
 20
137.7883537799658
  0
VERTEX
  8
0
  6
CONTINUOUS
 62
     7
 10
180.1270693389018
 20
137.7957021695707
  0
VERTEX
  8
0
  6
CONTINUOUS
 62
     7
 10
180.1306990315093
 20
137.8031983229982
  0
VERTEX
  8
0
  6
CONTINUOUS
 62
     7
 10
180.1337954413187
 20
137.810774365673
  0
VERTEX
  8
0
  6
CONTINUOUS
 62
     7
 10
180.1360132443914
 20
137.8172986103765
  0
VERTEX
  8
0
  6
CONTINUOUS
 62
     7
 10
180.1378354110433
 20
137.8238640926023
  0
VERTEX
  8
0
  6
CONTINUOUS
 62
     7
 10
180.1392582819987
 20
137.830457470245
  0
VERTEX
  8
0
  6
CONTINUOUS
 62
     7
 10
180.1402899371762
 20
137.8371539113363
  0
VERTEX
  8
0
  6
CONTINUOUS
 62
     7
 10
180.1409098577028
 20
137.8438650581457
  0
VERTEX
  8
0
  6
CONTINUOUS
 62
     7
 10
180.141116778913
 20
137.8505770115122
  0
SEQEND
  8
0
  6
CONTINUOUS
 62
     7
  0
LINE
  8
0
  6
CONTINUOUS
 62
     7
 10
178.1411167789632
 20
137.2584379097726
 11
178.1411167789634
 21
136.4163239017847
  0
POLYLINE
  8
0
  6
CONTINUOUS
 62
     7
 66
     1
  0
VERTEX
  8
0
  6
CONTINUOUS
 62
     7
 10
180.1411167789658
 20
135.4013398553509
  0
VERTEX
  8
0
  6
CONTINUOUS
 62
     7
 10
180.1408594023584
 20
135.4095635196003
  0
VERTEX
  8
0
  6
CONTINUOUS
 62
     7
 10
180.1400859409343
 20
135.4177871838498
  0
VERTEX
  8
0
  6
CONTINUOUS
 62
     7
 10
180.1387896609235
 20
135.426025157186
  0
VERTEX
  8
0
  6
CONTINUOUS
 62
     7
 10
180.1369718597429
 20
135.4342345123486
  0
VERTEX
  8
0
  6
CONTINUOUS
 62
     7
 10
180.1345857201871
 20
135.4425484055569
  0
VERTEX
  8
0
  6
CONTINUOUS
 62
     7
 10
180.1316607040733
 20
135.4508025348058
  0
VERTEX
  8
0
  6
CONTINUOUS
 62
     7
 10
180.1281854279035
 20
135.4590114586735
  0
VERTEX
  8
0
  6
CONTINUOUS
 62
     7
 10
180.1241730144002
 20
135.4671291693464
  0
VERTEX
  8
0
  6
CONTINUOUS
 62
     7
 10
180.1198131021663
 20
135.4748330964923
  0
VERTEX
  8
0
  6
CONTINUOUS
 62
     7
 10
180.1149659152748
 20
135.4824240529844
  0
VERTEX
  8
0
  6
CONTINUOUS
 62
     7
 10
180.1096178712688
 20
135.4899140731416
  0
VERTEX
  8
0
  6
CONTINUOUS
 62
     7
 10
180.1037916723243
 20
135.497262870376
  0
VERTEX
  8
0
  6
CONTINUOUS
 62
     7
 10
180.0973762345795
 20
135.5045860175745
  0
VERTEX
  8
0
  6
CONTINUOUS
 62
     7
 10
180.0904817672449
 20
135.5117346706799
  0
VERTEX
  8
0
  6
CONTINUOUS
 62
     7
 10
180.0830901617082
 20
135.5187200850332
  0
VERTEX
  8
0
  6
CONTINUOUS
 62
     7
 10
180.0752368836109
 20
135.5255016244881
  0
VERTEX
  8
0
  6
CONTINUOUS
 62
     7
 10
180.0672680197057
 20
135.5318122207552
  0
VERTEX
  8
0
  6
CONTINUOUS
 62
     7
 10
180.0588960240382
 20
135.5379095543081
  0
VERTEX
  8
0
  6
CONTINUOUS
 62
     7
 10
180.0501020241624
 20
135.5438020009311
  0
VERTEX
  8
0
  6
CONTINUOUS
 62
     7
 10
180.0409276335425
 20
135.5494564959989
  0
VERTEX
  8
0
  6
CONTINUOUS
 62
     7
 10
180.0312100090792
 20
135.5549578003041
  0
VERTEX
  8
0
  6
CONTINUOUS
 62
     7
 10
180.0211278274035
 20
135.5601895336662
  0
VERTEX
  8
0
  6
CONTINUOUS
 62
     7
 10
180.0106583399004
 20
135.5651583508887
  0
VERTEX
  8
0
  6
CONTINUOUS
 62
     7
 10
179.9998554155511
 20
135.5698336566237
  0
VERTEX
  8
0
  6
CONTINUOUS
 62
     7
 10
179.9891859838652
 20
135.5740368572674
  0
VERTEX
  8
0
  6
CONTINUOUS
 62
     7
 10
179.9782434329419
 20
135.5779508704506
  0
VERTEX
  8
0
  6
CONTINUOUS
 62
     7
 10
179.9669129580097
 20
135.5816077754994
  0
VERTEX
  8
0
  6
CONTINUOUS
 62
     7
 10
179.9553600160548
 20
135.5849466658569
  0
VERTEX
  8
0
  6
CONTINUOUS
 62
     7
 10
179.9435199187145
 20
135.5879817328183
  0
VERTEX
  8
0
  6
CONTINUOUS
 62
     7
 10
179.9314960690184
 20
135.5906827122002
  0
VERTEX
  8
0
  6
CONTINUOUS
 62
     7
 10
179.9191421255041
 20
135.5930744464157
  0
VERTEX
  8
0
  6
CONTINUOUS
 62
     7
 10
179.9066209635679
 20
135.5951167239574
  0
VERTEX
  8
0
  6
CONTINUOUS
 62
     7
 10
179.8986035023187
 20
135.5962281858894
  0
VERTEX
  8
0
  6
CONTINUOUS
 62
     7
 10
179.8905430884973
 20
135.5971943902695
  0
VERTEX
  8
0
  6
CONTINUOUS
 62
     7
 10
179.8824213462574
 20
135.5980167993949
  0
VERTEX
  8
0
  6
CONTINUOUS
 62
     7
 10
179.8742685539746
 20
135.598691723085
  0
VERTEX
  8
0
  6
CONTINUOUS
 62
     7
 10
179.8660156420419
 20
135.5992227450674
  0
VERTEX
  8
0
  6
CONTINUOUS
 62
     7
 10
179.8577436664594
 20
135.5996026315283
  0
VERTEX
  8
0
  6
CONTINUOUS
 62
     7
 10
179.8494334262421
 20
135.5998315005817
  0
VERTEX
  8
0
  6
CONTINUOUS
 62
     7
 10
179.8411167789778
 20
135.5999078296468
  0
SEQEND
  8
0
  6
CONTINUOUS
 62
     7
  0
LINE
  8
0
  6
CONTINUOUS
 62
     7
 10
179.8411167789259
 20
137.6675895364275
 11
179.641116778395
 21
137.6675895364275
  0
LINE
  8
0
  6
CONTINUOUS
 62
     7
 10
179.8411167789778
 20
135.5999078296468
 11
178.1411167789778
 21
135.5999078296463
  0
LINE
  8
0
  6
CONTINUOUS
 62
     7
 10
178.1411167783922
 20
135.5999078296463
 11
178.1411167783919
 21
136.4163239017847
  0
LINE
  8
0
  6
CONTINUOUS
 62
     7
 10
181.2658391041383
 20
130.7647782679417
 11
180.8328264022335
 21
130.6775926293194
  0
LINE
  8
0
  6
CONTINUOUS
 62
     7
 10
180.8328264021298
 20
133.8786874626106
 11
181.265839104032
 21
134.0441790099104
  0
ARC
  8
0
  6
CONTINUOUS
 62
     7
 10
186.2322221780161
 20
136.4910539282239
 40
1.735913763048991
 50
271.5125334731149
 51
313.0382757248699
  0
POLYLINE
  8
0
  6
CONTINUOUS
 62
     7
 66
     1
  0
VERTEX
  8
0
  6
CONTINUOUS
 62
     7
 10
187.4169603716299
 20
135.222278138206
  0
VERTEX
  8
0
  6
CONTINUOUS
 62
     7
 10
187.5066185819924
 20
135.3334505446913
  0
VERTEX
  8
0
  6
CONTINUOUS
 62
     7
 10
187.5732507673944
 20
135.4490659720452
  0
VERTEX
  8
0
  6
CONTINUOUS
 62
     7
 10
187.6185642590546
 20
135.5728013863509
  0
VERTEX
  8
0
  6
CONTINUOUS
 62
     7
 10
187.6396880304889
 20
135.7009806723379
  0
VERTEX
  8
0
  6
CONTINUOUS
 62
     7
 10
187.6411167791086
 20
135.7442510544697
  0
SEQEND
  8
0
  6
CONTINUOUS
 62
     7
  0
LINE
  8
0
  6
CONTINUOUS
 62
     7
 10
182.1568902711952
 20
134.5057154262225
 11
186.278042703426
 21
134.7557450012043
  0
POLYLINE
  8
0
  6
CONTINUOUS
 62
     7
 66
     1
  0
VERTEX
  8
0
  6
CONTINUOUS
 62
     7
 10
181.3821488169758
 20
134.1775294351104
  0
VERTEX
  8
0
  6
CONTINUOUS
 62
     7
 10
181.4766934501698
 20
134.267717646403
  0
VERTEX
  8
0
  6
CONTINUOUS
 62
     7
 10
181.5643544068412
 20
134.3295351309394
  0
VERTEX
  8
0
  6
CONTINUOUS
 62
     7
 10
181.661346889554
 20
134.3825258405584
  0
SEQEND
  8
0
  6
CONTINUOUS
 62
     7
  0
ARC
  8
0
  6
CONTINUOUS
 62
     7
 10
182.2263612876151
 20
133.1679776615684
 40
1.339540424587499
 50
92.972797566174
 51
114.9481042244843
  0
LINE
  8
0
  6
CONTINUOUS
 62
     7
 10
181.265839104032
 20
134.0441790099104
 11
181.3821488169758
 21
134.1775294351104
  0
LINE
  8
0
  6
CONTINUOUS
 62
     7
 10
180.1411167789952
 20
133.8786874626105
 11
180.8328264021298
 21
133.8786874626106
  0
LINE
  8
0
  6
CONTINUOUS
 62
     7
 10
180.1411167790636
 20
135.0041727863087
 11
180.1411167789952
 21
133.8786874626105
  0
LINE
  8
0
  6
CONTINUOUS
 62
     7
 10
181.5953793251616
 20
135.1362496410929
 11
181.2324256508481
 21
135.1362496410928
  0
LINE
  8
0
  6
CONTINUOUS
 62
     7
 10
185.1867587538773
 20
135.3541095516099
 11
181.5953793251616
 21
135.1362496410929
  0
POLYLINE
  8
0
  6
CONTINUOUS
 62
     7
 66
     1
  0
VERTEX
  8
0
  6
CONTINUOUS
 62
     7
 10
185.6411167791049
 20
135.6835943445757
  0
VERTEX
  8
0
  6
CONTINUOUS
 62
     7
 10
185.6404474072403
 20
135.6665309563985
  0
VERTEX
  8
0
  6
CONTINUOUS
 62
     7
 10
185.6384463337257
 20
135.649490352343
  0
VERTEX
  8
0
  6
CONTINUOUS
 62
     7
 10
185.6351241216766
 20
135.6325401697927
  0
VERTEX
  8
0
  6
CONTINUOUS
 62
     7
 10
185.6304913342086
 20
135.6157480461311
  0
VERTEX
  8
0
  6
CONTINUOUS
 62
     7
 10
185.6258035233743
 20
135.6023428441196
  0
VERTEX
  8
0
  6
CONTINUOUS
 62
     7
 10
185.6202725927956
 20
135.5890664745792
  0
VERTEX
  8
0
  6
CONTINUOUS
 62
     7
 10
185.6139138757274
 20
135.5759530929377
  0
VERTEX
  8
0
  6
CONTINUOUS
 62
     7
 10
185.6067427054246
 20
135.5630368546233
  0
VERTEX
  8
0
  6
CONTINUOUS
 62
     7
 10
185.5985188532073
 20
135.5499636835663
  0
VERTEX
  8
0
  6
CONTINUOUS
 62
     7
 10
185.5894485947537
 20
135.5371231768501
  0
VERTEX
  8
0
  6
CONTINUOUS
 62
     7
 10
185.5795578457991
 20
135.5245502017081
  0
VERTEX
  8
0
  6
CONTINUOUS
 62
     7
 10
185.568872522079
 20
135.5122796253737
  0
VERTEX
  8
0
  6
CONTINUOUS
 62
     7
 10
185.557738326552
 20
135.500660606156
  0
VERTEX
  8
0
  6
CONTINUOUS
 62
     7
 10
185.5458730765647
 20
135.4893477170552
  0
VERTEX
  8
0
  6
CONTINUOUS
 62
     7
 10
185.5333083269154
 20
135.4783698631936
  0
VERTEX
  8
0
  6
CONTINUOUS
 62
     7
 10
185.5200756324026
 20
135.4677559496936
  0
VERTEX
  8
0
  6
CONTINUOUS
 62
     7
 10
185.505770605134
 20
135.4572243047096
  0
VERTEX
  8
0
  6
CONTINUOUS
 62
     7
 10
185.4907833012865
 20
135.4470976270363
  0
VERTEX
  8
0
  6
CONTINUOUS
 62
     7
 10
185.4751556632253
 20
135.4374031810879
  0
VERTEX
  8
0
  6
CONTINUOUS
 62
     7
 10
185.4589296333156
 20
135.4281682312786
  0
VERTEX
  8
0
  6
CONTINUOUS
 62
     7
 10
185.4426151483257
 20
135.419650910476
  0
VERTEX
  8
0
  6
CONTINUOUS
 62
     7
 10
185.4257646678027
 20
135.4115822321988
  0
VERTEX
  8
0
  6
CONTINUOUS
 62
     7
 10
185.4084224261215
 20
135.4039825495029
  0
VERTEX
  8
0
  6
CONTINUOUS
 62
     7
 10
185.3906326576574
 20
135.3968722154437
  0
VERTEX
  8
0
  6
CONTINUOUS
 62
     7
 10
185.371872919124
 20
135.3900741293116
  0
VERTEX
  8
0
  6
CONTINUOUS
 62
     7
 10
185.3526726969227
 20
135.3838072119762
  0
VERTEX
  8
0
  6
CONTINUOUS
 62
     7
 10
185.3330852086837
 20
135.3780879770778
  0
VERTEX
  8
0
  6
CONTINUOUS
 62
     7
 10
185.3131636720373
 20
135.3729329382564
  0
VERTEX
  8
0
  6
CONTINUOUS
 62
     7
 10
185.2885759432595
 20
135.3674497019696
  0
VERTEX
  8
0
  6
CONTINUOUS
 62
     7
 10
185.2635391333303
 20
135.3628104247715
  0
VERTEX
  8
0
  6
CONTINUOUS
 62
     7
 10
185.238155695974
 20
135.3590304270523
  0
VERTEX
  8
0
  6
CONTINUOUS
 62
     7
 10
185.2125280849149
 20
135.3561250292018
  0
VERTEX
  8
0
  6
CONTINUOUS
 62
     7
 10
185.1867587538773
 20
135.3541095516099
  0
SEQEND
  8
0
  6
CONTINUOUS
 62
     7
  0
LINE
  8
0
  6
CONTINUOUS
 62
     7
 10
185.6411167791146
 20
135.8425881439214
 11
185.6411167791049
 21
135.6835943445757
  0
LINE
  8
0
  6
CONTINUOUS
 62
     7
 10
187.6411167791086
 20
135.7442510544697
 11
187.64111677915
 21
136.4265724929288
  0
LINE
  8
0
  6
CONTINUOUS
 62
     7
 10
180.8328264022335
 20
130.6775926293194
 11
180.141116779099
 21
130.6775926293192
  0
LINE
  8
0
  6
CONTINUOUS
 62
     7
 10
180.1411167783926
 20
133.8786874626104
 11
180.1411167783935
 21
130.6775926293192
  0
LINE
  8
0
  6
CONTINUOUS
 62
     7
 10
181.3821488170842
 20
130.835031052276
 11
181.2658391041383
 21
130.7647782679417
  0
LINE
  8
0
  6
CONTINUOUS
 62
     7
 10
182.1568902713086
 20
131.0079287361084
 11
181.3821488170842
 21
130.835031052276
  0
LINE
  8
0
  6
CONTINUOUS
 62
     7
 10
186.2780427035432
 20
131.1396514042748
 11
182.1568902713086
 21
131.0079287361084
  0
POLYLINE
  8
0
  6
CONTINUOUS
 62
     7
 66
     1
  0
VERTEX
  8
0
  6
CONTINUOUS
 62
     7
 10
187.6411167792409
 20
131.6604244162024
  0
VERTEX
  8
0
  6
CONTINUOUS
 62
     7
 10
187.6091560072643
 20
131.553053811544
  0
VERTEX
  8
0
  6
CONTINUOUS
 62
     7
 10
187.5378472618306
 20
131.4697518547275
  0
VERTEX
  8
0
  6
CONTINUOUS
 62
     7
 10
187.456411150568
 20
131.4090305737272
  0
VERTEX
  8
0
  6
CONTINUOUS
 62
     7
 10
187.3554133920946
 20
131.3534209386139
  0
SEQEND
  8
0
  6
CONTINUOUS
 62
     7
  0
ARC
  8
0
  6
CONTINUOUS
 62
     7
 10
186.27276067471
 20
133.988061081098
 40
2.848414574258604
 50
270.1062479231746
 51
292.33923195393
  0
LINE
  8
0
  6
CONTINUOUS
 62
     7
 10
187.6411167783921
 20
135.7442510544697
 11
187.6411167783932
 21
131.6604244162023
  0
LINE
  8
0
  6
CONTINUOUS
 62
     7
 10
180.1411167791292
 20
130.8868315005434
 11
179.8411167791443
 21
130.9914427385877
  0
LINE
  8
0
  6
CONTINUOUS
 62
     7
 10
178.1411167791593
 20
133.0737316271201
 11
178.1411167791595
 21
132.0613360836235
  0
LINE
  8
0
  6
CONTINUOUS
 62
     7
 10
178.1411167783934
 20
130.9914427385872
 11
178.1411167783931
 21
132.0613360836235
  0
LINE
  8
0
  6
CONTINUOUS
 62
     7
 10
179.8411167791443
 20
130.9914427385877
 11
178.1411167791443
 21
130.9914427385872
  0
LINE
  8
0
  6
CONTINUOUS
 62
     7
 10
181.265839104203
 20
125.5942539236168
 11
180.8328264022974
 21
125.5969558595378
  0
LINE
  8
0
  6
CONTINUOUS
 62
     7
 10
180.832826402262
 20
129.2715016927563
 11
181.2658391041668
 21
129.3586873313785
  0
ARC
  8
0
  6
CONTINUOUS
 62
     7
 10
186.2835495031381
 20
132.4697133785187
 40
2.736158452312269
 50
269.8846862883551
 51
294.4711102732366
  0
POLYLINE
  8
0
  6
CONTINUOUS
 62
     7
 66
     1
  0
VERTEX
  8
0
  6
CONTINUOUS
 62
     7
 10
187.4169603717827
 20
129.9793433499893
  0
VERTEX
  8
0
  6
CONTINUOUS
 62
     7
 10
187.5066185821469
 20
130.037912125342
  0
VERTEX
  8
0
  6
CONTINUOUS
 62
     7
 10
187.5910047548156
 20
130.1203063044544
  0
VERTEX
  8
0
  6
CONTINUOUS
 62
     7
 10
187.6396880306491
 20
130.2315374156641
  0
VERTEX
  8
0
  6
CONTINUOUS
 62
     7
 10
187.6411167792694
 20
130.2543334796392
  0
SEQEND
  8
0
  6
CONTINUOUS
 62
     7
  0
LINE
  8
0
  6
CONTINUOUS
 62
     7
 10
182.1568902713371
 20
129.6018377995453
 11
186.2780427035716
 21
129.7335604677116
  0
LINE
  8
0
  6
CONTINUOUS
 62
     7
 10
181.3821488171126
 20
129.4289401157128
 11
182.1568902713371
 21
129.6018377995453
  0
LINE
  8
0
  6
CONTINUOUS
 62
     7
 10
181.2658391041668
 20
129.3586873313785
 11
181.3821488171126
 21
129.4289401157128
  0
LINE
  8
0
  6
CONTINUOUS
 62
     7
 10
180.1411167791275
 20
129.2715016927561
 11
180.832826402262
 21
129.2715016927563
  0
LINE
  8
0
  6
CONTINUOUS
 62
     7
 10
180.1411167792232
 20
129.934021098895
 11
180.1411167791275
 21
129.2715016927561
  0
LINE
  8
0
  6
CONTINUOUS
 62
     7
 10
181.5953793253131
 20
129.9340210988954
 11
180.1411167792232
 21
129.934021098895
  0
LINE
  8
0
  6
CONTINUOUS
 62
     7
 10
185.1867587540322
 20
130.0487958758467
 11
181.5953793253131
 21
129.9340210988954
  0
POLYLINE
  8
0
  6
CONTINUOUS
 62
     7
 66
     1
  0
VERTEX
  8
0
  6
CONTINUOUS
 62
     7
 10
185.6411167792648
 20
130.2223778053153
  0
VERTEX
  8
0
  6
CONTINUOUS
 62
     7
 10
185.6404474073999
 20
130.2133883286951
  0
VERTEX
  8
0
  6
CONTINUOUS
 62
     7
 10
185.6384463338851
 20
130.2044108553962
  0
VERTEX
  8
0
  6
CONTINUOUS
 62
     7
 10
185.6351241218358
 20
130.1954810187095
  0
VERTEX
  8
0
  6
CONTINUOUS
 62
     7
 10
185.6304913343674
 20
130.1866344519262
  0
VERTEX
  8
0
  6
CONTINUOUS
 62
     7
 10
185.6258035235329
 20
130.1795722114837
  0
VERTEX
  8
0
  6
CONTINUOUS
 62
     7
 10
185.6202725929541
 20
130.1725778436392
  0
VERTEX
  8
0
  6
CONTINUOUS
 62
     7
 10
185.6139138758857
 20
130.1656693424405
  0
VERTEX
  8
0
  6
CONTINUOUS
 62
     7
 10
185.6067427055826
 20
130.1588647019352
  0
VERTEX
  8
0
  6
CONTINUOUS
 62
     7
 10
185.5985188533651
 20
130.1519773848122
  0
VERTEX
  8
0
  6
CONTINUOUS
 62
     7
 10
185.5894485949113
 20
130.1452126418598
  0
VERTEX
  8
0
  6
CONTINUOUS
 62
     7
 10
185.5795578459566
 20
130.1385888421248
  0
VERTEX
  8
0
  6
CONTINUOUS
 62
     7
 10
185.5688725222362
 20
130.1321243546545
  0
VERTEX
  8
0
  6
CONTINUOUS
 62
     7
 10
185.5577383267091
 20
130.1260031259441
  0
VERTEX
  8
0
  6
CONTINUOUS
 62
     7
 10
185.5458730767216
 20
130.1200431752577
  0
VERTEX
  8
0
  6
CONTINUOUS
 62
     7
 10
185.5333083270721
 20
130.1142597306333
  0
VERTEX
  8
0
  6
CONTINUOUS
 62
     7
 10
185.5200756325592
 20
130.1086680201086
  0
VERTEX
  8
0
  6
CONTINUOUS
 62
     7
 10
185.5057706052905
 20
130.1031196509704
  0
VERTEX
  8
0
  6
CONTINUOUS
 62
     7
 10
185.4907833014428
 20
130.0977846300918
  0
VERTEX
  8
0
  6
CONTINUOUS
 62
     7
 10
185.4751556633814
 20
130.0926773211393
  0
VERTEX
  8
0
  6
CONTINUOUS
 62
     7
 10
185.4589296334715
 20
130.087812087779
  0
VERTEX
  8
0
  6
CONTINUOUS
 62
     7
 10
185.4426151484815
 20
130.0833249217234
  0
VERTEX
  8
0
  6
CONTINUOUS
 62
     7
 10
185.4257646679584
 20
130.0790741132688
  0
VERTEX
  8
0
  6
CONTINUOUS
 62
     7
 10
185.4084224262771
 20
130.0750703849819
  0
VERTEX
  8
0
  6
CONTINUOUS
 62
     7
 10
185.3906326578129
 20
130.0713244594293
  0
VERTEX
  8
0
  6
CONTINUOUS
 62
     7
 10
185.3718729192793
 20
130.0677430349365
  0
VERTEX
  8
0
  6
CONTINUOUS
 62
     7
 10
185.352672697078
 20
130.064441445224
  0
VERTEX
  8
0
  6
CONTINUOUS
 62
     7
 10
185.3330852088389
 20
130.0614283901454
  0
VERTEX
  8
0
  6
CONTINUOUS
 62
     7
 10
185.3131636721924
 20
130.0587125695546
  0
VERTEX
  8
0
  6
CONTINUOUS
 62
     7
 10
185.2885759434145
 20
130.055823845235
  0
VERTEX
  8
0
  6
CONTINUOUS
 62
     7
 10
185.2635391334853
 20
130.0533797424886
  0
VERTEX
  8
0
  6
CONTINUOUS
 62
     7
 10
185.238155696129
 20
130.0513883325313
  0
VERTEX
  8
0
  6
CONTINUOUS
 62
     7
 10
185.2125280850698
 20
130.0498576865788
  0
VERTEX
  8
0
  6
CONTINUOUS
 62
     7
 10
185.1867587540322
 20
130.0487958758467
  0
SEQEND
  8
0
  6
CONTINUOUS
 62
     7
  0
LINE
  8
0
  6
CONTINUOUS
 62
     7
 10
185.6411167793213
 20
130.6137997564866
 11
185.6411167792648
 21
130.2223778053153
  0
LINE
  8
0
  6
CONTINUOUS
 62
     7
 10
187.6411167792694
 20
130.2543334796392
 11
187.6411167793213
 21
130.6137997564871
  0
POLYLINE
  8
0
  6
CONTINUOUS
 62
     7
 66
     1
  0
VERTEX
  8
0
  6
CONTINUOUS
 62
     7
 10
179.8411167791355
 20
133.264703014687
  0
VERTEX
  8
0
  6
CONTINUOUS
 62
     7
 10
179.8535401036663
 20
133.26492396811
  0
VERTEX
  8
0
  6
CONTINUOUS
 62
     7
 10
179.8659421236912
 20
133.2655860540401
  0
VERTEX
  8
0
  6
CONTINUOUS
 62
     7
 10
179.8783871984186
 20
133.2666976767462
  0
VERTEX
  8
0
  6
CONTINUOUS
 62
     7
 10
179.8907674682469
 20
133.2682533922229
  0
VERTEX
  8
0
  6
CONTINUOUS
 62
     7
 10
179.9033277272856
 20
133.2702991469721
  0
VERTEX
  8
0
  6
CONTINUOUS
 62
     7
 10
179.915775059387
 20
133.2728017673421
  0
VERTEX
  8
0
  6
CONTINUOUS
 62
     7
 10
179.9281767918451
 20
133.2757803911775
  0
VERTEX
  8
0
  6
CONTINUOUS
 62
     7
 10
179.940418157358
 20
133.2792122024889
  0
VERTEX
  8
0
  6
CONTINUOUS
 62
     7
 10
179.9520559496376
 20
133.2829472442713
  0
VERTEX
  8
0
  6
CONTINUOUS
 62
     7
 10
179.9635034937326
 20
133.2870915149177
  0
VERTEX
  8
0
  6
CONTINUOUS
 62
     7
 10
179.9748182671346
 20
133.2916710115306
  0
VERTEX
  8
0
  6
CONTINUOUS
 62
     7
 10
179.9859005615215
 20
133.2966498074346
  0
VERTEX
  8
0
  6
CONTINUOUS
 62
     7
 10
179.9969636200743
 20
133.3021404532028
  0
VERTEX
  8
0
  6
CONTINUOUS
 62
     7
 10
180.0077437767669
 20
133.3080283925084
  0
VERTEX
  8
0
  6
CONTINUOUS
 62
     7
 10
180.0182971261733
 20
133.3143505714886
  0
VERTEX
  8
0
  6
CONTINUOUS
 62
     7
 10
180.0285240968179
 20
133.3210527893065
  0
VERTEX
  8
0
  6
CONTINUOUS
 62
     7
 10
180.0380641024149
 20
133.3278679845762
  0
VERTEX
  8
0
  6
CONTINUOUS
 62
     7
 10
180.0472663679934
 20
133.3350131822133
  0
VERTEX
  8
0
  6
CONTINUOUS
 62
     7
 10
180.0561750109085
 20
133.3425290266881
  0
VERTEX
  8
0
  6
CONTINUOUS
 62
     7
 10
180.0647097141188
 20
133.3503533517539
  0
VERTEX
  8
0
  6
CONTINUOUS
 62
     7
 10
180.0730281328035
 20
133.3586523614291
  0
VERTEX
  8
0
  6
CONTINUOUS
 62
     7
 10
180.0809255751705
 20
133.3672434827222
  0
VERTEX
  8
0
  6
CONTINUOUS
 62
     7
 10
180.0884405810899
 20
133.3761772931473
  0
VERTEX
  8
0
  6
CONTINUOUS
 62
     7
 10
180.0955000062592
 20
133.385374579519
  0
VERTEX
  8
0
  6
CONTINUOUS
 62
     7
 10
180.1018664712528
 20
133.3944817825036
  0
VERTEX
  8
0
  6
CONTINUOUS
 62
     7
 10
180.1077858413261
 20
133.4038022793804
  0
VERTEX
  8
0
  6
CONTINUOUS
 62
     7
 10
180.1132839008457
 20
133.4133867655918
  0
VERTEX
  8
0
  6
CONTINUOUS
 62
     7
 10
180.1183087976132
 20
133.4231541238284
  0
VERTEX
  8
0
  6
CONTINUOUS
 62
     7
 10
180.1229448086739
 20
133.4333051421872
  0
VERTEX
  8
0
  6
CONTINUOUS
 62
     7
 10
180.1270693391145
 20
133.4436104347149
  0
VERTEX
  8
0
  6
CONTINUOUS
 62
     7
 10
180.1306990317222
 20
133.454128491557
  0
VERTEX
  8
0
  6
CONTINUOUS
 62
     7
 10
180.1337954415317
 20
133.4647643373902
  0
VERTEX
  8
0
  6
CONTINUOUS
 62
     7
 10
180.1360132446047
 20
133.4739281991201
  0
VERTEX
  8
0
  6
CONTINUOUS
 62
     7
 10
180.1378354112567
 20
133.4831542906398
  0
VERTEX
  8
0
  6
CONTINUOUS
 62
     7
 10
180.1392582822123
 20
133.4924239428964
  0
VERTEX
  8
0
  6
CONTINUOUS
 62
     7
 10
180.1402899373899
 20
133.5018429956615
  0
VERTEX
  8
0
  6
CONTINUOUS
 62
     7
 10
180.1409098579166
 20
133.511287280117
  0
VERTEX
  8
0
  6
CONTINUOUS
 62
     7
 10
180.1411167791271
 20
133.5207372648753
  0
SEQEND
  8
0
  6
CONTINUOUS
 62
     7
  0
LINE
  8
0
  6
CONTINUOUS
 62
     7
 10
180.8328264022974
 20
125.5969558595378
 11
180.1411167791628
 21
125.5969558595376
  0
LINE
  8
0
  6
CONTINUOUS
 62
     7
 10
180.1411167783938
 20
129.2715016927561
 11
180.1411167783948
 21
125.5969558595376
  0
LINE
  8
0
  6
CONTINUOUS
 62
     7
 10
179.8411167791355
 20
133.264703014687
 11
179.641116778395
 21
133.2647030146869
  0
LINE
  8
0
  6
CONTINUOUS
 62
     7
 10
181.3821488171496
 20
125.5920767471397
 11
181.265839104203
 21
125.5942539236168
  0
LINE
  8
0
  6
CONTINUOUS
 62
     7
 10
182.1568902713757
 20
125.5867185428529
 11
181.3821488171496
 21
125.5920767471397
  0
LINE
  8
0
  6
CONTINUOUS
 62
     7
 10
185.1867587540753
 20
125.5728670404655
 11
185.6411167793096
 21
125.5674876309906
  0
LINE
  8
0
  6
CONTINUOUS
 62
     7
 10
181.595379325355
 20
125.5764239805476
 11
185.1867587540753
 21
125.5728670404655
  0
LINE
  8
0
  6
CONTINUOUS
 62
     7
 10
180.1411167792651
 20
125.5764239805472
 11
181.595379325355
 21
125.5764239805476
  0
LINE
  8
0
  6
CONTINUOUS
 62
     7
 10
180.1411167792597
 20
125.5775044587403
 11
178.1411167792597
 21
125.5775044587398
  0
LINE
  8
0
  6
CONTINUOUS
 62
     7
 10
178.1411167792113
 20
125.5872294539331
 11
178.1411167792597
 21
125.5775044587398
  0
LINE
  8
0
  6
CONTINUOUS
 62
     7
 10
179.8411167792113
 20
125.5872294539335
 11
178.1411167792113
 21
125.5872294539331
  0
LINE
  8
0
  6
CONTINUOUS
 62
     7
 10
180.1411167791951
 20
125.5904714197699
 11
179.8411167792113
 21
125.5872294539335
  0
LINE
  8
0
  6
CONTINUOUS
 62
     7
 10
186.2780427036116
 20
125.5826363773235
 11
182.1568902713757
 21
125.5867185428529
  0
LINE
  8
0
  6
CONTINUOUS
 62
     7
 10
187.6411167793145
 20
125.5664973052253
 11
186.2780427036116
 21
125.5826363773235
  0
LINE
  8
0
  6
CONTINUOUS
 62
     7
 10
185.6411167793096
 20
125.5674876309906
 11
185.64111677937
 21
125.5553572268679
  0
LINE
  8
0
  6
CONTINUOUS
 62
     7
 10
180.1411167792597
 20
125.5775044587404
 11
180.1411167792651
 21
125.5764239805472
  0
LINE
  8
0
  6
CONTINUOUS
 62
     7
 10
180.1411167791628
 20
125.5969558595376
 11
180.1411167791951
 21
125.5904714197699
  0
LINE
  8
0
  6
CONTINUOUS
 62
     7
 10
187.64111677937
 20
125.5553572268684
 11
187.6411167793145
 21
125.5664973052253
  0
LINE
  8
0
  6
CONTINUOUS
 62
     7
 10
187.6411167783936
 20
130.2543334796392
 11
187.6411167783948
 21
125.5664973052253
  0
LINE
  8
0
  6
CONTINUOUS
 62
     7
 10
178.1411167792538
 20
127.7597700047185
 11
178.1411167792541
 21
126.7684763525257
  0
LINE
  8
0
  6
CONTINUOUS
 62
     7
 10
178.1411167783948
 20
125.5872294539331
 11
178.1411167783945
 21
126.7684763525257
  0
POLYLINE
  8
0
  6
CONTINUOUS
 62
     7
 66
     1
  0
VERTEX
  8
0
  6
CONTINUOUS
 62
     7
 10
179.8411167792468
 20
127.7640903433527
  0
VERTEX
  8
0
  6
CONTINUOUS
 62
     7
 10
179.8535401037776
 20
127.7643439764191
  0
VERTEX
  8
0
  6
CONTINUOUS
 62
     7
 10
179.8659421238026
 20
127.7651040004583
  0
VERTEX
  8
0
  6
CONTINUOUS
 62
     7
 10
179.8783871985299
 20
127.7663800907982
  0
VERTEX
  8
0
  6
CONTINUOUS
 62
     7
 10
179.8907674683583
 20
127.7681660537521
  0
VERTEX
  8
0
  6
CONTINUOUS
 62
     7
 10
179.903327727397
 20
127.770514710126
  0
VERTEX
  8
0
  6
CONTINUOUS
 62
     7
 10
179.9157750594985
 20
127.7733880796663
  0
VERTEX
  8
0
  6
CONTINUOUS
 62
     7
 10
179.9281767919566
 20
127.7768082559337
  0
VERTEX
  8
0
  6
CONTINUOUS
 62
     7
 10
179.9404181574696
 20
127.7807491898582
  0
VERTEX
  8
0
  6
CONTINUOUS
 62
     7
 10
179.9520559497493
 20
127.7850388105508
  0
VERTEX
  8
0
  6
CONTINUOUS
 62
     7
 10
179.9635034938444
 20
127.7897989997521
  0
VERTEX
  8
0
  6
CONTINUOUS
 62
     7
 10
179.9748182672465
 20
127.7950598024136
  0
VERTEX
  8
0
  6
CONTINUOUS
 62
     7
 10
179.9859005616335
 20
127.8007801509299
  0
VERTEX
  8
0
  6
CONTINUOUS
 62
     7
 10
179.9969636201865
 20
127.8070896010687
  0
VERTEX
  8
0
  6
CONTINUOUS
 62
     7
 10
180.0077437768792
 20
127.8138567777129
  0
VERTEX
  8
0
  6
CONTINUOUS
 62
     7
 10
180.0182971262857
 20
127.8211244050757
  0
VERTEX
  8
0
  6
CONTINUOUS
 62
     7
 10
180.0285240969304
 20
127.8288304508682
  0
VERTEX
  8
0
  6
CONTINUOUS
 62
     7
 10
180.0380641025276
 20
127.836668029593
  0
VERTEX
  8
0
  6
CONTINUOUS
 62
     7
 10
180.0472663681062
 20
127.8448868863532
  0
VERTEX
  8
0
  6
CONTINUOUS
 62
     7
 10
180.0561750110215
 20
127.8535340431879
  0
VERTEX
  8
0
  6
CONTINUOUS
 62
     7
 10
180.0647097142319
 20
127.8625382481212
  0
VERTEX
  8
0
  6
CONTINUOUS
 62
     7
 10
180.0730281329168
 20
127.8720911021193
  0
VERTEX
  8
0
  6
CONTINUOUS
 62
     7
 10
180.080925575284
 20
127.8819827858847
  0
VERTEX
  8
0
  6
CONTINUOUS
 62
     7
 10
180.0884405812036
 20
127.8922718323036
  0
VERTEX
  8
0
  6
CONTINUOUS
 62
     7
 10
180.095500006373
 20
127.9028673004682
  0
VERTEX
  8
0
  6
CONTINUOUS
 62
     7
 10
180.1018664713669
 20
127.9133619746941
  0
VERTEX
  8
0
  6
CONTINUOUS
 62
     7
 10
180.1077858414403
 20
127.9241055117237
  0
VERTEX
  8
0
  6
CONTINUOUS
 62
     7
 10
180.1132839009602
 20
127.9351565951929
  0
VERTEX
  8
0
  6
CONTINUOUS
 62
     7
 10
180.1183087977278
 20
127.9464219244904
  0
VERTEX
  8
0
  6
CONTINUOUS
 62
     7
 10
180.1229448087888
 20
127.9581333920144
  0
VERTEX
  8
0
  6
CONTINUOUS
 62
     7
 10
180.1270693392297
 20
127.9700266411959
  0
VERTEX
  8
0
  6
CONTINUOUS
 62
     7
 10
180.1306990318376
 20
127.9821693917535
  0
VERTEX
  8
0
  6
CONTINUOUS
 62
     7
 10
180.1337954416474
 20
127.9944521840569
  0
VERTEX
  8
0
  6
CONTINUOUS
 62
     7
 10
180.1360132447205
 20
128.0050383432378
  0
VERTEX
  8
0
  6
CONTINUOUS
 62
     7
 10
180.1378354113727
 20
128.0156994579237
  0
VERTEX
  8
0
  6
CONTINUOUS
 62
     7
 10
180.1392582823285
 20
128.0264140120953
  0
VERTEX
  8
0
  6
CONTINUOUS
 62
     7
 10
180.1402899375063
 20
128.0373044575994
  0
VERTEX
  8
0
  6
CONTINUOUS
 62
     7
 10
180.1409098580332
 20
128.0482273090099
  0
VERTEX
  8
0
  6
CONTINUOUS
 62
     7
 10
180.1411167792439
 20
128.0591599972454
  0
SEQEND
  8
0
  6
CONTINUOUS
 62
     7
  0
LINE
  8
0
  6
CONTINUOUS
 62
     7
 10
179.8411167792468
 20
127.7640903433527
 11
178.1411167792469
 21
127.7640903433522
  0
LINE
  8
0
  6
CONTINUOUS
 62
     7
 10
178.1411167792469
 20
127.7640903433522
 11
178.1411167792456
 21
127.7597700047185
  0
LINE
  8
0
  6
CONTINUOUS
 62
     7
 10
113.2124371218545
 20
122.5011288022806
 11
115.3337574654141
 21
122.5011288022806
  0
LINE
  8
0
  6
CONTINUOUS
 62
     7
 10
131.3411167782948
 20
122.5011288022806
 11
131.3411167782948
 21
125.0011288022806
  0
LINE
  8
0
  6
CONTINUOUS
 62
     7
 10
115.3337574654141
 20
122.5011288022806
 11
131.3411167782948
 21
122.5011288022806
  0
POLYLINE
  8
0
  6
CONTINUOUS
 62
     7
 66
     1
  0
VERTEX
  8
0
  6
CONTINUOUS
 62
     7
 10
112.5911167782948
 20
122.0819913359733
  0
VERTEX
  8
0
  6
CONTINUOUS
 62
     7
 10
112.5913925142754
 20
122.09805164532
  0
VERTEX
  8
0
  6
CONTINUOUS
 62
     7
 10
112.5922149309517
 20
122.1140080466079
  0
VERTEX
  8
0
  6
CONTINUOUS
 62
     7
 10
112.5935768414253
 20
122.1298103521389
  0
VERTEX
  8
0
  6
CONTINUOUS
 62
     7
 10
112.5954710587978
 20
122.145408374215
  0
VERTEX
  8
0
  6
CONTINUOUS
 62
     7
 10
112.5979876178717
 20
122.1613259920296
  0
VERTEX
  8
0
  6
CONTINUOUS
 62
     7
 10
112.6010545914738
 20
122.1769953707753
  0
VERTEX
  8
0
  6
CONTINUOUS
 62
     7
 10
112.6046511946677
 20
122.1923738423761
  0
VERTEX
  8
0
  6
CONTINUOUS
 62
     7
 10
112.6087566425167
 20
122.207418738756
  0
VERTEX
  8
0
  6
CONTINUOUS
 62
     7
 10
112.6148311313335
 20
122.2264475724602
  0
VERTEX
  8
0
  6
CONTINUOUS
 62
     7
 10
112.6217114560082
 20
122.2449048172008
  0
VERTEX
  8
0
  6
CONTINUOUS
 62
     7
 10
112.6293395770446
 20
122.2627481331853
  0
VERTEX
  8
0
  6
CONTINUOUS
 62
     7
 10
112.6376574549467
 20
122.2799351806213
  0
VERTEX
  8
0
  6
CONTINUOUS
 62
     7
 10
112.6466070502185
 20
122.2964236197161
  0
VERTEX
  8
0
  6
CONTINUOUS
 62
     7
 10
112.6561303233639
 20
122.3121711106772
  0
VERTEX
  8
0
  6
CONTINUOUS
 62
     7
 10
112.6668007483538
 20
122.328055352347
  0
VERTEX
  8
0
  6
CONTINUOUS
 62
     7
 10
112.6780462530946
 20
122.3431775604342
  0
VERTEX
  8
0
  6
CONTINUOUS
 62
     7
 10
112.6898106850331
 20
122.3575298832281
  0
VERTEX
  8
0
  6
CONTINUOUS
 62
     7
 10
112.7020378916159
 20
122.3711044690175
  0
VERTEX
  8
0
  6
CONTINUOUS
 62
     7
 10
112.7194965204704
 20
122.3884880482047
  0
VERTEX
  8
0
  6
CONTINUOUS
 62
     7
 10
112.7376878222583
 20
122.404496811319
  0
VERTEX
  8
0
  6
CONTINUOUS
 62
     7
 10
112.7565046075295
 20
122.4191446307557
  0
VERTEX
  8
0
  6
CONTINUOUS
 62
     7
 10
112.7762876240834
 20
122.4327370759635
  0
VERTEX
  8
0
  6
CONTINUOUS
 62
     7
 10
112.7966038788214
 20
122.445006796883
  0
VERTEX
  8
0
  6
CONTINUOUS
 62
     7
 10
112.8173748189349
 20
122.455978524197
  0
VERTEX
  8
0
  6
CONTINUOUS
 62
     7
 10
112.8385218916156
 20
122.465676988588
  0
VERTEX
  8
0
  6
CONTINUOUS
 62
     7
 10
112.8680578667462
 20
122.4769771546447
  0
VERTEX
  8
0
  6
CONTINUOUS
 62
     7
 10
112.8981500843429
 20
122.4860460604679
  0
VERTEX
  8
0
  6
CONTINUOUS
 62
     7
 10
112.9286599515304
 20
122.4929378126979
  0
VERTEX
  8
0
  6
CONTINUOUS
 62
     7
 10
112.9578269596742
 20
122.4975082085904
  0
VERTEX
  8
0
  6
CONTINUOUS
 62
     7
 10
112.9872517771395
 20
122.5002286153896
  0
VERTEX
  8
0
  6
CONTINUOUS
 62
     7
 10
113.0168440982138
 20
122.5011288022806
  0
SEQEND
  8
0
  6
CONTINUOUS
 62
     7
  0
LINE
  8
0
  6
CONTINUOUS
 62
     7
 10
112.5911167782948
 20
122.0819913359733
 11
112.5911167782948
 21
125.0011288022806
  0
LINE
  8
0
  6
CONTINUOUS
 62
     7
 10
113.0168440982138
 20
122.5011288022806
 11
113.2124371218545
 21
122.5011288022806
  0
LINE
  8
0
  6
CONTINUOUS
 62
     7
 10
131.3411167782948
 20
122.5011288022806
 11
131.3411167782948
 21
122.4939069780152
  0
LINE
  8
0
  6
CONTINUOUS
 62
     7
 10
131.3411167782948
 20
122.4939069780152
 11
131.3411167782948
 21
122.0011288022806
  0
LINE
  8
0
  6
CONTINUOUS
 62
     7
 10
111.3411167782948
 20
108.2011288022806
 11
111.3411167782948
 21
125.0011288022806
  0
ARC
  8
0
  6
CONTINUOUS
 62
     7
 10
112.5911167782948
 20
141.8011288022806
 40
1.249999999999973
 50
90.0
 51
180.0
  0
LINE
  8
0
  6
CONTINUOUS
 62
     7
 10
131.3411167782948
 20
108.2011288022806
 11
131.3411167782948
 21
122.0011288022806
  0
LINE
  8
0
  6
CONTINUOUS
 62
     7
 10
113.8411167782948
 20
130.2258398276617
 11
111.3411167782948
 21
130.2258398276617
  0
LINE
  8
0
  6
CONTINUOUS
 62
     7
 10
111.532335468433
 20
135.5065046970805
 11
111.3411167782948
 21
135.5065046970805
  0
LINE
  8
0
  6
CONTINUOUS
 62
     7
 10
118.8411167782948
 20
141.5511288022806
 11
125.5411167782948
 21
141.5511288022806
  0
LINE
  8
0
  6
CONTINUOUS
 62
     7
 10
128.4411167782948
 20
141.5511288022806
 11
131.3411167782948
 21
141.5511288022806
  0
LINE
  8
0
  6
CONTINUOUS
 62
     7
 10
111.3411167782948
 20
135.5065046970805
 11
111.3411167782948
 21
135.9976540280796
  0
LINE
  8
0
  6
CONTINUOUS
 62
     7
 10
111.3411167782948
 20
130.2258398276617
 11
111.3411167782948
 21
131.2942114454071
  0
LINE
  8
0
  6
CONTINUOUS
 62
     7
 10
111.3411167782948
 20
125.0011288022806
 11
111.3411167782948
 21
125.7511288022806
  0
LINE
  8
0
  6
CONTINUOUS
 62
     7
 10
131.3411167782948
 20
141.3511288022806
 11
131.3411167782948
 21
141.5511288022806
  0
LINE
  8
0
  6
CONTINUOUS
 62
     7
 10
128.4411167782948
 20
141.5511288022806
 11
128.4411167782948
 21
141.3511288022806
  0
LINE
  8
0
  6
CONTINUOUS
 62
     7
 10
128.4411167782948
 20
141.3511288022806
 11
128.4411167782948
 21
140.6667655184498
  0
LINE
  8
0
  6
CONTINUOUS
 62
     7
 10
128.4411167782948
 20
140.6667655184498
 11
127.0411167782948
 21
140.1011288022806
  0
LINE
  8
0
  6
CONTINUOUS
 62
     7
 10
127.0411167782948
 20
140.1011288022806
 11
125.5411167782948
 21
140.1011288022806
  0
LINE
  8
0
  6
CONTINUOUS
 62
     7
 10
125.5411167782948
 20
140.1011288022806
 11
125.5411167782948
 21
141.5511288022806
  0
LINE
  8
0
  6
CONTINUOUS
 62
     7
 10
118.8411167782948
 20
141.5511288022806
 11
118.8411167782948
 21
139.0011288022806
  0
LINE
  8
0
  6
CONTINUOUS
 62
     7
 10
118.8411167782948
 20
139.0011288022806
 11
112.8411167782948
 21
139.0011288022806
  0
ARC
  8
0
  6
CONTINUOUS
 62
     7
 10
112.8411167782948
 20
140.5011288022806
 40
1.500000000000001
 50
180.0
 51
270.0
  0
LINE
  8
0
  6
CONTINUOUS
 62
     7
 10
130.0911167782948
 20
143.0511288022806
 11
112.5911167782948
 21
143.0511288022806
  0
ARC
  8
0
  6
CONTINUOUS
 62
     7
 10
130.0911167782948
 20
141.8011288022806
 40
1.250000000000001
 50
0.0
 51
89.99999999999983
  0
LINE
  8
0
  6
CONTINUOUS
 62
     7
 10
111.3411167782948
 20
141.8011288022806
 11
111.3411167782948
 21
140.5011288022806
  0
LINE
  8
0
  6
CONTINUOUS
 62
     7
 10
131.3411167782948
 20
141.5511288022806
 11
131.3411167782948
 21
141.8011288022806
  0
ARC
  8
0
  6
CONTINUOUS
 62
     7
 10
112.8325328460933
 20
140.4176477961521
 40
1.491437289104786
 50
180.3056481018965
 51
270.3297663305855
  0
LINE
  8
0
  6
CONTINUOUS
 62
     7
 10
111.3411167782948
 20
140.4096916636359
 11
111.3411167782948
 21
140.5011288022806
  0
LINE
  8
0
  6
CONTINUOUS
 62
     7
 10
112.8411167782948
 20
138.9262352095617
 11
118.8411167782948
 21
138.9262352095617
  0
LINE
  8
0
  6
CONTINUOUS
 62
     7
 10
118.8411167782948
 20
138.9262352095617
 11
118.8411167782948
 21
139.0011288022806
  0
LINE
  8
0
  6
CONTINUOUS
 62
     7
 10
127.0411167782948
 20
140.0011288022806
 11
127.0411167782948
 21
140.1011288022806
  0
LINE
  8
0
  6
CONTINUOUS
 62
     7
 10
125.5411167782948
 20
140.0011288022806
 11
125.5411167782948
 21
140.1011288022806
  0
LINE
  8
0
  6
CONTINUOUS
 62
     7
 10
118.8411167782948
 20
138.6915835120014
 11
112.8411167782948
 21
138.6915835120014
  0
ARC
  8
0
  6
CONTINUOUS
 62
     7
 10
112.8333141179308
 20
140.1837860831936
 40
1.492222970933425
 50
180.3358200998937
 51
270.2995943325876
  0
LINE
  8
0
  6
CONTINUOUS
 62
     7
 10
118.8411167782948
 20
138.9262352095617
 11
118.8411167782948
 21
138.6915835120014
  0
LINE
  8
0
  6
CONTINUOUS
 62
     7
 10
111.3411167782948
 20
139.1360458705566
 11
111.3467776771418
 21
139.0199043803027
  0
ARC
  8
0
  6
CONTINUOUS
 62
     7
 10
112.7700818790394
 20
139.2356024573512
 40
1.439555664634726
 50
188.6174554290469
 51
272.8284098576894
  0
LINE
  8
0
  6
CONTINUOUS
 62
     7
 10
111.3411167782948
 20
139.1360458705566
 11
111.3411167782948
 21
140.1750399660756
  0
LINE
  8
0
  6
CONTINUOUS
 62
     7
 10
112.8411167782948
 20
137.7978004700561
 11
118.8411167782948
 21
137.7978004700561
  0
LINE
  8
0
  6
CONTINUOUS
 62
     7
 10
118.8411167782948
 20
137.7978004700561
 11
118.8411167782948
 21
138.6915835120014
  0
POLYLINE
  8
0
  6
CONTINUOUS
 62
     7
 66
     1
  0
VERTEX
  8
0
  6
CONTINUOUS
 62
     7
 10
117.774129480187
 20
136.1798031514589
  0
VERTEX
  8
0
  6
CONTINUOUS
 62
     7
 10
117.7848597633913
 20
136.1639847579006
  0
VERTEX
  8
0
  6
CONTINUOUS
 62
     7
 10
117.7963256483266
 20
136.1485624800236
  0
VERTEX
  8
0
  6
CONTINUOUS
 62
     7
 10
117.8084968889525
 20
136.1335754854854
  0
VERTEX
  8
0
  6
CONTINUOUS
 62
     7
 10
117.821343239229
 20
136.1190629419433
  0
VERTEX
  8
0
  6
CONTINUOUS
 62
     7
 10
117.8352555951329
 20
136.1046416001411
  0
VERTEX
  8
0
  6
CONTINUOUS
 62
     7
 10
117.8498585280967
 20
136.0907491149992
  0
VERTEX
  8
0
  6
CONTINUOUS
 62
     7
 10
117.865111493384
 20
136.0774227010562
  0
VERTEX
  8
0
  6
CONTINUOUS
 62
     7
 10
117.8809739462585
 20
136.0646995728509
  0
VERTEX
  8
0
  6
CONTINUOUS
 62
     7
 10
117.897001435533
 20
136.0528977855068
  0
VERTEX
  8
0
  6
CONTINUOUS
 62
     7
 10
117.913579945836
 20
136.0416900423815
  0
VERTEX
  8
0
  6
CONTINUOUS
 62
     7
 10
117.9306659660927
 20
136.0311047065504
  0
VERTEX
  8
0
  6
CONTINUOUS
 62
     7
 10
117.9482159852282
 20
136.0211701410888
  0
VERTEX
  8
0
  6
CONTINUOUS
 62
     7
 10
117.9667467310041
 20
136.0116372932225
  0
VERTEX
  8
0
  6
CONTINUOUS
 62
     7
 10
117.9857359149515
 20
136.0028118665946
  0
VERTEX
  8
0
  6
CONTINUOUS
 62
     7
 10
118.0051308631163
 20
135.9947172443452
  0
VERTEX
  8
0
  6
CONTINUOUS
 62
     7
 10
118.024878901544
 20
135.9873768096141
  0
VERTEX
  8
0
  6
CONTINUOUS
 62
     7
 10
118.0463826651208
 20
135.9803680656804
  0
VERTEX
  8
0
  6
CONTINUOUS
 62
     7
 10
118.0682474072746
 20
135.9742384727033
  0
VERTEX
  8
0
  6
CONTINUOUS
 62
     7
 10
118.0904038169798
 20
135.9690060478246
  0
VERTEX
  8
0
  6
CONTINUOUS
 62
     7
 10
118.1127825832108
 20
135.9646888081865
  0
VERTEX
  8
0
  6
CONTINUOUS
 62
     7
 10
118.1361722996614
 20
135.9611906729917
  0
VERTEX
  8
0
  6
CONTINUOUS
 62
     7
 10
118.1597487543218
 20
135.9586835349061
  0
VERTEX
  8
0
  6
CONTINUOUS
 62
     7
 10
118.1834320231438
 20
135.9571742351557
  0
VERTEX
  8
0
  6
CONTINUOUS
 62
     7
 10
118.2071421820793
 20
135.9566696149664
  0
SEQEND
  8
0
  6
CONTINUOUS
 62
     7
  0
LINE
  8
0
  6
CONTINUOUS
 62
     7
 10
118.2071421820793
 20
134.0416148346764
 11
117.774129480187
 21
134.2091842907005
  0
LINE
  8
0
  6
CONTINUOUS
 62
     7
 10
117.3868542322049
 20
137.7413734059874
 11
116.696866336534
 21
137.7978017566272
  0
LINE
  8
0
  6
CONTINUOUS
 62
     7
 10
118.8411167782948
 20
137.7413734059874
 11
117.3868542322049
 21
137.7413734059874
  0
LINE
  8
0
  6
CONTINUOUS
 62
     7
 10
118.8411167782948
 20
137.6521557610876
 11
118.8411167782948
 21
137.7413734059874
  0
LINE
  8
0
  6
CONTINUOUS
 62
     7
 10
119.3411167782948
 20
137.6521557610876
 11
118.8411167782948
 21
137.6521557610876
  0
LINE
  8
0
  6
CONTINUOUS
 62
     7
 10
120.8411167782948
 20
136.8491199348979
 11
120.8411167782948
 21
137.2020737168752
  0
LINE
  8
0
  6
CONTINUOUS
 62
     7
 10
120.8411167782948
 20
136.8491199348979
 11
119.1411167782948
 21
136.8491199348979
  0
POLYLINE
  8
0
  6
CONTINUOUS
 62
     7
 66
     1
  0
VERTEX
  8
0
  6
CONTINUOUS
 62
     7
 10
118.8411167782948
 20
136.581407519475
  0
VERTEX
  8
0
  6
CONTINUOUS
 62
     7
 10
118.8413772793914
 20
136.5925404215435
  0
VERTEX
  8
0
  6
CONTINUOUS
 62
     7
 10
118.8421570078671
 20
136.6036636911463
  0
VERTEX
  8
0
  6
CONTINUOUS
 62
     7
 10
118.8434533015011
 20
136.6147486234314
  0
VERTEX
  8
0
  6
CONTINUOUS
 62
     7
 10
118.8452634980723
 20
136.6257665135469
  0
VERTEX
  8
0
  6
CONTINUOUS
 62
     7
 10
118.8476627586276
 20
136.6370238207417
  0
VERTEX
  8
0
  6
CONTINUOUS
 62
     7
 10
118.850602432643
 20
136.6481897051383
  0
VERTEX
  8
0
  6
CONTINUOUS
 62
     7
 10
118.8540737962807
 20
136.6592337422572
  0
VERTEX
  8
0
  6
CONTINUOUS
 62
     7
 10
118.8580681257031
 20
136.6701255076189
  0
VERTEX
  8
0
  6
CONTINUOUS
 62
     7
 10
118.8624490124994
 20
136.6805543346237
  0
VERTEX
  8
0
  6
CONTINUOUS
 62
     7
 10
118.8673166338165
 20
136.6908208537967
  0
VERTEX
  8
0
  6
CONTINUOUS
 62
     7
 10
118.8726578438223
 20
136.7008987006875
  0
VERTEX
  8
0
  6
CONTINUOUS
 62
     7
 10
118.8784594966847
 20
136.7107615108455
  0
VERTEX
  8
0
  6
CONTINUOUS
 62
     7
 10
118.8849068156675
 20
136.720676796469
  0
VERTEX
  8
0
  6
CONTINUOUS
 62
     7
 10
118.8918306825596
 20
136.7303460976694
  0
VERTEX
  8
0
  6
CONTINUOUS
 62
     7
 10
118.8992115452154
 20
136.7397431923326
  0
VERTEX
  8
0
  6
CONTINUOUS
 62
     7
 10
118.9070298514894
 20
136.7488418583445
  0
VERTEX
  8
0
  6
CONTINUOUS
 62
     7
 10
118.9150347074019
 20
136.7573823533708
  0
VERTEX
  8
0
  6
CONTINUOUS
 62
     7
 10
118.9234384227271
 20
136.7656260758918
  0
VERTEX
  8
0
  6
CONTINUOUS
 62
     7
 10
118.9322187932933
 20
136.7735520055785
  0
VERTEX
  8
0
  6
CONTINUOUS
 62
     7
 10
118.9413536149286
 20
136.7811391221024
  0
VERTEX
  8
0
  6
CONTINUOUS
 62
     7
 10
118.9511173571825
 20
136.7885852633756
  0
VERTEX
  8
0
  6
CONTINUOUS
 62
     7
 10
118.9612392685805
 20
136.7956585801412
  0
VERTEX
  8
0
  6
CONTINUOUS
 62
     7
 10
118.9716911234759
 20
136.8023400890138
  0
VERTEX
  8
0
  6
CONTINUOUS
 62
     7
 10
118.9824446962221
 20
136.808610806608
  0
VERTEX
  8
0
  6
CONTINUOUS
 62
     7
 10
118.9931586623885
 20
136.8142957588303
  0
VERTEX
  8
0
  6
CONTINUOUS
 62
     7
 10
119.0041381357608
 20
136.8195834913391
  0
VERTEX
  8
0
  6
CONTINUOUS
 62
     7
 10
119.0153543820894
 20
136.824460766902
  0
VERTEX
  8
0
  6
CONTINUOUS
 62
     7
 10
119.0267786671251
 20
136.8289143482867
  0
VERTEX
  8
0
  6
CONTINUOUS
 62
     7
 10
119.0387429663174
 20
136.8330496631801
  0
VERTEX
  8
0
  6
CONTINUOUS
 62
     7
 10
119.0509061488047
 20
136.8367282088008
  0
VERTEX
  8
0
  6
CONTINUOUS
 62
     7
 10
119.0632345778913
 20
136.8399404659027
  0
VERTEX
  8
0
  6
CONTINUOUS
 62
     7
 10
119.0756946168813
 20
136.8426769152396
  0
VERTEX
  8
0
  6
CONTINUOUS
 62
     7
 10
119.0886139377964
 20
136.8449863615415
  0
VERTEX
  8
0
  6
CONTINUOUS
 62
     7
 10
119.1016538259188
 20
136.8467891519492
  0
VERTEX
  8
0
  6
CONTINUOUS
 62
     7
 10
119.114776269725
 20
136.8480815211719
  0
VERTEX
  8
0
  6
CONTINUOUS
 62
     7
 10
119.1279432576915
 20
136.8488597039188
  0
VERTEX
  8
0
  6
CONTINUOUS
 62
     7
 10
119.1411167782948
 20
136.8491199348979
  0
SEQEND
  8
0
  6
CONTINUOUS
 62
     7
  0
LINE
  8
0
  6
CONTINUOUS
 62
     7
 10
118.8411167782948
 20
135.9566696149664
 11
118.8411167782948
 21
136.581407519475
  0
LINE
  8
0
  6
CONTINUOUS
 62
     7
 10
118.2071421820793
 20
135.9566696149664
 11
118.8411167782948
 21
135.9566696149664
  0
LINE
  8
0
  6
CONTINUOUS
 62
     7
 10
117.6000847403324
 20
136.4488422253306
 11
117.774129480187
 21
136.1798031514589
  0
POLYLINE
  8
0
  6
CONTINUOUS
 62
     7
 66
     1
  0
VERTEX
  8
0
  6
CONTINUOUS
 62
     7
 10
116.8253432861329
 20
136.8913090926922
  0
VERTEX
  8
0
  6
CONTINUOUS
 62
     7
 10
116.8665649873075
 20
136.8871632686979
  0
VERTEX
  8
0
  6
CONTINUOUS
 62
     7
 10
116.9075933110387
 20
136.8814906491037
  0
VERTEX
  8
0
  6
CONTINUOUS
 62
     7
 10
116.9483225578104
 20
136.8743079454823
  0
VERTEX
  8
0
  6
CONTINUOUS
 62
     7
 10
116.9886470281064
 20
136.8656318694061
  0
VERTEX
  8
0
  6
CONTINUOUS
 62
     7
 10
117.0296808745073
 20
136.8551482028492
  0
VERTEX
  8
0
  6
CONTINUOUS
 62
     7
 10
117.0702115906033
 20
136.8431009788383
  0
VERTEX
  8
0
  6
CONTINUOUS
 62
     7
 10
117.1101291783287
 20
136.829525428182
  0
VERTEX
  8
0
  6
CONTINUOUS
 62
     7
 10
117.1493236396178
 20
136.8144567816884
  0
VERTEX
  8
0
  6
CONTINUOUS
 62
     7
 10
117.1867048811193
 20
136.7983818920584
  0
VERTEX
  8
0
  6
CONTINUOUS
 62
     7
 10
117.2233363614253
 20
136.7809227493734
  0
VERTEX
  8
0
  6
CONTINUOUS
 62
     7
 10
117.259124626331
 20
136.7621264093499
  0
VERTEX
  8
0
  6
CONTINUOUS
 62
     7
 10
117.2939762216317
 20
136.742039927705
  0
VERTEX
  8
0
  6
CONTINUOUS
 62
     7
 10
117.3288256401949
 20
136.7200387141382
  0
VERTEX
  8
0
  6
CONTINUOUS
 62
     7
 10
117.3626197642867
 20
136.6967103926059
  0
VERTEX
  8
0
  6
CONTINUOUS
 62
     7
 10
117.3952680274569
 20
136.6721206708461
  0
VERTEX
  8
0
  6
CONTINUOUS
 62
     7
 10
117.4266798632555
 20
136.6463352565968
  0
VERTEX
  8
0
  6
CONTINUOUS
 62
     7
 10
117.4594885471871
 20
136.6168784234087
  0
VERTEX
  8
0
  6
CONTINUOUS
 62
     7
 10
117.490741802894
 20
136.5860777520024
  0
VERTEX
  8
0
  6
CONTINUOUS
 62
     7
 10
117.5203385647327
 20
136.5540334717792
  0
VERTEX
  8
0
  6
CONTINUOUS
 62
     7
 10
117.5487716099288
 20
136.5201125025384
  0
VERTEX
  8
0
  6
CONTINUOUS
 62
     7
 10
117.5753834496818
 20
136.485009208337
  0
VERTEX
  8
0
  6
CONTINUOUS
 62
     7
 10
117.6000847403324
 20
136.4488422253306
  0
SEQEND
  8
0
  6
CONTINUOUS
 62
     7
  0
LINE
  8
0
  6
CONTINUOUS
 62
     7
 10
112.7041908539174
 20
137.2283952690928
 11
116.8253432861329
 21
136.8913090926922
  0
LINE
  8
0
  6
CONTINUOUS
 62
     7
 10
111.3411167782948
 20
138.5610249822701
 11
111.3491413022541
 21
138.42298703634
  0
ARC
  8
0
  6
CONTINUOUS
 62
     7
 10
112.7599417720858
 20
138.6574605718963
 40
1.430152371096692
 50
189.4362454790901
 51
267.7659010606121
  0
LINE
  8
0
  6
CONTINUOUS
 62
     7
 10
111.3411167782948
 20
139.1360458705566
 11
111.3411167782948
 21
138.5610249822701
  0
LINE
  8
0
  6
CONTINUOUS
 62
     7
 10
118.8411167782948
 20
134.0416148346764
 11
118.8411167782948
 21
135.9566696149664
  0
LINE
  8
0
  6
CONTINUOUS
 62
     7
 10
118.8411167782948
 20
134.0416148346764
 11
118.2071421820793
 21
134.0416148346764
  0
LINE
  8
0
  6
CONTINUOUS
 62
     7
 10
117.774129480187
 20
134.2091842907005
 11
117.6000847403324
 21
134.4112280173702
  0
POLYLINE
  8
0
  6
CONTINUOUS
 62
     7
 66
     1
  0
VERTEX
  8
0
  6
CONTINUOUS
 62
     7
 10
117.6000847403324
 20
134.4112280173702
  0
VERTEX
  8
0
  6
CONTINUOUS
 62
     7
 10
117.5055476154502
 20
134.502537608301
  0
VERTEX
  8
0
  6
CONTINUOUS
 62
     7
 10
117.4178904910366
 20
134.5651264140857
  0
VERTEX
  8
0
  6
CONTINUOUS
 62
     7
 10
117.3208975937809
 20
134.6187807071329
  0
SEQEND
  8
0
  6
CONTINUOUS
 62
     7
  0
ARC
  8
0
  6
CONTINUOUS
 62
     7
 10
116.7554478674343
 20
133.4190522119648
 40
1.326303832137967
 50
64.76480700110123
 51
86.97914732052577
  0
LINE
  8
0
  6
CONTINUOUS
 62
     7
 10
120.8411167782948
 20
136.8491199348979
 11
120.8411167782948
 21
136.3635106609622
  0
LINE
  8
0
  6
CONTINUOUS
 62
     7
 10
116.8253432861329
 20
134.7435130402224
 11
112.7041908539174
 21
134.9966589729254
  0
ARC
  8
0
  6
CONTINUOUS
 62
     7
 10
112.7518979110718
 20
136.7211340950971
 40
1.72513489625922
 50
226.5571385018784
 51
268.4153346211936
  0
POLYLINE
  8
0
  6
CONTINUOUS
 62
     7
 66
     1
  0
VERTEX
  8
0
  6
CONTINUOUS
 62
     7
 10
111.5656419354505
 20
135.4685818324772
  0
VERTEX
  8
0
  6
CONTINUOUS
 62
     7
 10
111.4758214108574
 20
135.581234441673
  0
VERTEX
  8
0
  6
CONTINUOUS
 62
     7
 10
111.4090597791197
 20
135.6984311543871
  0
VERTEX
  8
0
  6
CONTINUOUS
 62
     7
 10
111.3637633983203
 20
135.8234857594638
  0
VERTEX
  8
0
  6
CONTINUOUS
 62
     7
 10
111.3443477754702
 20
135.931522063773
  0
VERTEX
  8
0
  6
CONTINUOUS
 62
     7
 10
111.3411167782948
 20
135.9974410141595
  0
SEQEND
  8
0
  6
CONTINUOUS
 62
     7
  0
LINE
  8
0
  6
CONTINUOUS
 62
     7
 10
111.3411167782948
 20
135.9974410141595
 11
111.3411167782948
 21
138.5610249822701
  0
LINE
  8
0
  6
CONTINUOUS
 62
     7
 10
120.8411167782948
 20
136.2099445056931
 11
120.8411167782948
 21
136.3635106609622
  0
LINE
  8
0
  6
CONTINUOUS
 62
     7
 10
117.3868542322049
 20
134.2671795107197
 11
113.7954748035023
 21
134.4877448166341
  0
LINE
  8
0
  6
CONTINUOUS
 62
     7
 10
117.7241711709268
 20
134.2671795107197
 11
117.3868542322049
 21
134.2671795107197
  0
LINE
  8
0
  6
CONTINUOUS
 62
     7
 10
119.3411167782948
 20
134.2001785907387
 11
118.8411167782948
 21
134.2001785907387
  0
LINE
  8
0
  6
CONTINUOUS
 62
     7
 10
120.8411167782948
 20
133.5971124686408
 11
120.8411167782948
 21
133.9680159574078
  0
LINE
  8
0
  6
CONTINUOUS
 62
     7
 10
120.8411167782948
 20
133.5971124686408
 11
119.1411167782948
 21
133.5971124686408
  0
POLYLINE
  8
0
  6
CONTINUOUS
 62
     7
 66
     1
  0
VERTEX
  8
0
  6
CONTINUOUS
 62
     7
 10
118.8411167782948
 20
133.3960650396953
  0
VERTEX
  8
0
  6
CONTINUOUS
 62
     7
 10
118.8413772793914
 20
133.4044256580628
  0
VERTEX
  8
0
  6
CONTINUOUS
 62
     7
 10
118.8421570078671
 20
133.4127790426138
  0
VERTEX
  8
0
  6
CONTINUOUS
 62
     7
 10
118.8434533015011
 20
133.4211036364973
  0
VERTEX
  8
0
  6
CONTINUOUS
 62
     7
 10
118.8452634980723
 20
133.4293778828621
  0
VERTEX
  8
0
  6
CONTINUOUS
 62
     7
 10
118.8476627586276
 20
133.4378319273441
  0
VERTEX
  8
0
  6
CONTINUOUS
 62
     7
 10
118.850602432643
 20
133.4462173148738
  0
VERTEX
  8
0
  6
CONTINUOUS
 62
     7
 10
118.8540737962807
 20
133.4545111971893
  0
VERTEX
  8
0
  6
CONTINUOUS
 62
     7
 10
118.8580681257031
 20
133.4626907260289
  0
VERTEX
  8
0
  6
CONTINUOUS
 62
     7
 10
118.8624490124994
 20
133.4705225961082
  0
VERTEX
  8
0
  6
CONTINUOUS
 62
     7
 10
118.8673166338165
 20
133.4782325757918
  0
VERTEX
  8
0
  6
CONTINUOUS
 62
     7
 10
118.8726578438223
 20
133.4858008658298
  0
VERTEX
  8
0
  6
CONTINUOUS
 62
     7
 10
118.8784594966847
 20
133.4932076669725
  0
VERTEX
  8
0
  6
CONTINUOUS
 62
     7
 10
118.8849068156675
 20
133.500653876289
  0
VERTEX
  8
0
  6
CONTINUOUS
 62
     7
 10
118.8918306825596
 20
133.5079153555258
  0
VERTEX
  8
0
  6
CONTINUOUS
 62
     7
 10
118.8992115452154
 20
133.5149724123254
  0
VERTEX
  8
0
  6
CONTINUOUS
 62
     7
 10
118.9070298514894
 20
133.5218053543301
  0
VERTEX
  8
0
  6
CONTINUOUS
 62
     7
 10
118.9150347074019
 20
133.5282191195051
  0
VERTEX
  8
0
  6
CONTINUOUS
 62
     7
 10
118.9234384227271
 20
133.5344100136224
  0
VERTEX
  8
0
  6
CONTINUOUS
 62
     7
 10
118.9322187932933
 20
133.5403622507759
  0
VERTEX
  8
0
  6
CONTINUOUS
 62
     7
 10
118.9413536149286
 20
133.5460600450595
  0
VERTEX
  8
0
  6
CONTINUOUS
 62
     7
 10
118.9511173571825
 20
133.5516519693495
  0
VERTEX
  8
0
  6
CONTINUOUS
 62
     7
 10
118.9612392685805
 20
133.5569639088335
  0
VERTEX
  8
0
  6
CONTINUOUS
 62
     7
 10
118.9716911234759
 20
133.5619816073149
  0
VERTEX
  8
0
  6
CONTINUOUS
 62
     7
 10
118.9824446962221
 20
133.566690808597
  0
VERTEX
  8
0
  6
CONTINUOUS
 62
     7
 10
118.9931586623885
 20
133.570960110139
  0
VERTEX
  8
0
  6
CONTINUOUS
 62
     7
 10
119.0041381357608
 20
133.574931106494
  0
VERTEX
  8
0
  6
CONTINUOUS
 62
     7
 10
119.0153543820894
 20
133.5785938567278
  0
VERTEX
  8
0
  6
CONTINUOUS
 62
     7
 10
119.0267786671251
 20
133.5819384199061
  0
VERTEX
  8
0
  6
CONTINUOUS
 62
     7
 10
119.0387429663174
 20
133.5850439704122
  0
VERTEX
  8
0
  6
CONTINUOUS
 62
     7
 10
119.0509061488047
 20
133.5878064950345
  0
VERTEX
  8
0
  6
CONTINUOUS
 62
     7
 10
119.0632345778913
 20
133.5902188449826
  0
VERTEX
  8
0
  6
CONTINUOUS
 62
     7
 10
119.0756946168813
 20
133.5922738714659
  0
VERTEX
  8
0
  6
CONTINUOUS
 62
     7
 10
119.0886139377964
 20
133.5940082259991
  0
VERTEX
  8
0
  6
CONTINUOUS
 62
     7
 10
119.1016538259188
 20
133.5953620906521
  0
VERTEX
  8
0
  6
CONTINUOUS
 62
     7
 10
119.114776269725
 20
133.596332637756
  0
VERTEX
  8
0
  6
CONTINUOUS
 62
     7
 10
119.1279432576915
 20
133.5969170396421
  0
VERTEX
  8
0
  6
CONTINUOUS
 62
     7
 10
119.1411167782948
 20
133.5971124686408
  0
SEQEND
  8
0
  6
CONTINUOUS
 62
     7
  0
LINE
  8
0
  6
CONTINUOUS
 62
     7
 10
118.8411167782948
 20
132.9268975964603
 11
118.8411167782948
 21
133.3960650396953
  0
LINE
  8
0
  6
CONTINUOUS
 62
     7
 10
118.2071421820793
 20
132.9268975964603
 11
118.8411167782948
 21
132.9268975964603
  0
LINE
  8
0
  6
CONTINUOUS
 62
     7
 10
117.774129480187
 20
133.0944670524844
 11
118.2071421820793
 21
132.9268975964603
  0
LINE
  8
0
  6
CONTINUOUS
 62
     7
 10
117.6000847403324
 20
133.2965107791541
 11
117.774129480187
 21
133.0944670524844
  0
ARC
  8
0
  6
CONTINUOUS
 62
     7
 10
116.757875172003
 20
132.3262577692168
 40
1.304284199585045
 50
60.74537333770228
 51
87.03487613081813
  0
POLYLINE
  8
0
  6
CONTINUOUS
 62
     7
 66
     1
  0
VERTEX
  8
0
  6
CONTINUOUS
 62
     7
 10
117.3952680274569
 20
133.4641890593673
  0
VERTEX
  8
0
  6
CONTINUOUS
 62
     7
 10
117.490741802894
 20
133.3995723041631
  0
VERTEX
  8
0
  6
CONTINUOUS
 62
     7
 10
117.5753834496818
 20
133.323671562619
  0
VERTEX
  8
0
  6
CONTINUOUS
 62
     7
 10
117.6000847403324
 20
133.2965107791541
  0
SEQEND
  8
0
  6
CONTINUOUS
 62
     7
  0
LINE
  8
0
  6
CONTINUOUS
 62
     7
 10
112.7041908539174
 20
133.8819417347093
 11
116.8253432861329
 21
133.6287958020063
  0
POLYLINE
  8
0
  6
CONTINUOUS
 62
     7
 66
     1
  0
VERTEX
  8
0
  6
CONTINUOUS
 62
     7
 10
111.3411167782948
 20
134.8827237759434
  0
VERTEX
  8
0
  6
CONTINUOUS
 62
     7
 10
111.3491413022541
 20
134.7790596478442
  0
VERTEX
  8
0
  6
CONTINUOUS
 62
     7
 10
111.3730449726315
 20
134.6764962412434
  0
VERTEX
  8
0
  6
CONTINUOUS
 62
     7
 10
111.4228178483496
 20
134.5556140992708
  0
VERTEX
  8
0
  6
CONTINUOUS
 62
     7
 10
111.4962606779726
 20
134.437665222198
  0
VERTEX
  8
0
  6
CONTINUOUS
 62
     7
 10
111.5914465116335
 20
134.3269064364776
  0
SEQEND
  8
0
  6
CONTINUOUS
 62
     7
  0
ARC
  8
0
  6
CONTINUOUS
 62
     7
 10
112.7536256038732
 20
135.6193941973554
 40
1.738155589830257
 50
228.0387565833323
 51
268.3702353587304
  0
LINE
  8
0
  6
CONTINUOUS
 62
     7
 10
113.3411167782724
 20
134.8213155458207
 11
113.3411167782948
 21
134.9575351574787
  0
POLYLINE
  8
0
  6
CONTINUOUS
 62
     7
 66
     1
  0
VERTEX
  8
0
  6
CONTINUOUS
 62
     7
 10
113.7954748035023
 20
134.4877448166341
  0
VERTEX
  8
0
  6
CONTINUOUS
 62
     7
 10
113.7748718856092
 20
134.4893004445506
  0
VERTEX
  8
0
  6
CONTINUOUS
 62
     7
 10
113.7543655278945
 20
134.4914287912763
  0
VERTEX
  8
0
  6
CONTINUOUS
 62
     7
 10
113.7340084952959
 20
134.4941235971366
  0
VERTEX
  8
0
  6
CONTINUOUS
 62
     7
 10
113.7138535527509
 20
134.4973786024569
  0
VERTEX
  8
0
  6
CONTINUOUS
 62
     7
 10
113.6933445313903
 20
134.5013115404183
  0
VERTEX
  8
0
  6
CONTINUOUS
 62
     7
 10
113.6730866849136
 20
134.5058309795251
  0
VERTEX
  8
0
  6
CONTINUOUS
 62
     7
 10
113.65313492697
 20
134.5109237260649
  0
VERTEX
  8
0
  6
CONTINUOUS
 62
     7
 10
113.6335441712086
 20
134.5165765863255
  0
VERTEX
  8
0
  6
CONTINUOUS
 62
     7
 10
113.6148479021738
 20
134.5226108054903
  0
VERTEX
  8
0
  6
CONTINUOUS
 62
     7
 10
113.5965264147682
 20
134.5291649723141
  0
VERTEX
  8
0
  6
CONTINUOUS
 62
     7
 10
113.5786264641366
 20
134.5362214299626
  0
VERTEX
  8
0
  6
CONTINUOUS
 62
     7
 10
113.5611948054235
 20
134.5437625216016
  0
VERTEX
  8
0
  6
CONTINUOUS
 62
     7
 10
113.543763951194
 20
134.5520228050241
  0
VERTEX
  8
0
  6
CONTINUOUS
 62
     7
 10
113.5268607479195
 20
134.5607816457167
  0
VERTEX
  8
0
  6
CONTINUOUS
 62
     7
 10
113.510530529113
 20
134.5700143804774
  0
VERTEX
  8
0
  6
CONTINUOUS
 62
     7
 10
113.4948186282878
 20
134.5796963461042
  0
VERTEX
  8
0
  6
CONTINUOUS
 62
     7
 10
113.4801473082496
 20
134.5895357208641
  0
VERTEX
  8
0
  6
CONTINUOUS
 62
     7
 10
113.4660868265988
 20
134.5997829165304
  0
VERTEX
  8
0
  6
CONTINUOUS
 62
     7
 10
113.452672559335
 20
134.6104109248409
  0
VERTEX
  8
0
  6
CONTINUOUS
 62
     7
 10
113.4399398824578
 20
134.6213927375333
  0
VERTEX
  8
0
  6
CONTINUOUS
 62
     7
 10
113.4275636284969
 20
134.6330530366838
  0
VERTEX
  8
0
  6
CONTINUOUS
 62
     7
 10
113.4159318237609
 20
134.6450671373451
  0
VERTEX
  8
0
  6
CONTINUOUS
 62
     7
 10
113.4050750691776
 20
134.6574017522768
  0
VERTEX
  8
0
  6
CONTINUOUS
 62
     7
 10
113.3950239656748
 20
134.6700235942389
  0
VERTEX
  8
0
  6
CONTINUOUS
 62
     7
 10
113.3860285356741
 20
134.682570239307
  0
VERTEX
  8
0
  6
CONTINUOUS
 62
     7
 10
113.3778121019796
 20
134.6953669640298
  0
VERTEX
  8
0
  6
CONTINUOUS
 62
     7
 10
113.3703947779065
 20
134.7083804141452
  0
VERTEX
  8
0
  6
CONTINUOUS
 62
     7
 10
113.3637966767702
 20
134.721577235391
  0
VERTEX
  8
0
  6
CONTINUOUS
 62
     7
 10
113.3578711581663
 20
134.7353364499044
  0
VERTEX
  8
0
  6
CONTINUOUS
 62
     7
 10
113.3528244137384
 20
134.7492651281895
  0
VERTEX
  8
0
  6
CONTINUOUS
 62
     7
 10
113.3486689697965
 20
134.7633250159766
  0
VERTEX
  8
0
  6
CONTINUOUS
 62
     7
 10
113.3454173526505
 20
134.7774778589957
  0
VERTEX
  8
0
  6
CONTINUOUS
 62
     7
 10
113.3430308747154
 20
134.7920415598525
  0
VERTEX
  8
0
  6
CONTINUOUS
 62
     7
 10
113.3415959848963
 20
134.8066680697907
  0
VERTEX
  8
0
  6
CONTINUOUS
 62
     7
 10
113.3411167782724
 20
134.8213155458207
  0
SEQEND
  8
0
  6
CONTINUOUS
 62
     7
  0
LINE
  8
0
  6
CONTINUOUS
 62
     7
 10
111.3411167782948
 20
135.5065046970805
 11
111.3411167782948
 21
134.8827237759434
  0
LINE
  8
0
  6
CONTINUOUS
 62
     7
 10
118.2071421820793
 20
130.2446438517176
 11
117.774129480187
 21
130.334389443671
  0
LINE
  8
0
  6
CONTINUOUS
 62
     7
 10
118.8411167782948
 20
130.2446438517176
 11
118.8411167782948
 21
132.9268975964603
  0
LINE
  8
0
  6
CONTINUOUS
 62
     7
 10
118.8411167782948
 20
130.2446438517176
 11
118.2071421820793
 21
130.2446438517176
  0
LINE
  8
0
  6
CONTINUOUS
 62
     7
 10
117.774129480187
 20
130.334389443671
 11
117.6000847403324
 21
130.44259850683
  0
LINE
  8
0
  6
CONTINUOUS
 62
     7
 10
117.6000847403324
 20
130.44259850683
 11
116.8253432861329
 21
130.6205612261743
  0
LINE
  8
0
  6
CONTINUOUS
 62
     7
 10
120.8411167782948
 20
133.5971124686408
 11
120.8411167782948
 21
132.8658178294185
  0
LINE
  8
0
  6
CONTINUOUS
 62
     7
 10
116.8253432861329
 20
130.6205612261743
 11
112.7041908539174
 21
130.7561392254115
  0
ARC
  8
0
  6
CONTINUOUS
 62
     7
 10
112.7000381142124
 20
133.4281972072495
 40
2.672061208795768
 50
244.8784658777909
 51
270.0890453233291
  0
POLYLINE
  8
0
  6
CONTINUOUS
 62
     7
 66
     1
  0
VERTEX
  8
0
  6
CONTINUOUS
 62
     7
 10
111.5656419354505
 20
131.0088881296074
  0
VERTEX
  8
0
  6
CONTINUOUS
 62
     7
 10
111.4758214108574
 20
131.0692217687876
  0
VERTEX
  8
0
  6
CONTINUOUS
 62
     7
 10
111.3913567293787
 20
131.1540091286666
  0
VERTEX
  8
0
  6
CONTINUOUS
 62
     7
 10
111.3443477754702
 20
131.2568261851603
  0
VERTEX
  8
0
  6
CONTINUOUS
 62
     7
 10
111.3411167782948
 20
131.2921305620064
  0
SEQEND
  8
0
  6
CONTINUOUS
 62
     7
  0
LINE
  8
0
  6
CONTINUOUS
 62
     7
 10
111.3411167782948
 20
131.2921305620064
 11
111.3411167782948
 21
134.8827237759434
  0
LINE
  8
0
  6
CONTINUOUS
 62
     7
 10
120.8411167782948
 20
132.4824762326611
 11
120.8411167782948
 21
132.8658178294185
  0
LINE
  8
0
  6
CONTINUOUS
 62
     7
 10
117.774129480187
 20
128.9340188039252
 11
118.2071421820793
 21
128.8442732119718
  0
LINE
  8
0
  6
CONTINUOUS
 62
     7
 10
118.2071421820793
 20
125.7511288022806
 11
117.774129480187
 21
125.7511288022806
  0
LINE
  8
0
  6
CONTINUOUS
 62
     7
 10
117.3868542322049
 20
129.5620913432324
 11
113.7954748035023
 21
129.6802200548325
  0
LINE
  8
0
  6
CONTINUOUS
 62
     7
 10
118.8411167782948
 20
129.5620913432324
 11
117.3868542322049
 21
129.5620913432324
  0
LINE
  8
0
  6
CONTINUOUS
 62
     7
 10
118.8411167782948
 20
129.526207493229
 11
118.8411167782948
 21
129.5620913432324
  0
LINE
  8
0
  6
CONTINUOUS
 62
     7
 10
120.8411167782948
 20
129.5262074932291
 11
118.8411167782948
 21
129.5262074932291
  0
LINE
  8
0
  6
CONTINUOUS
 62
     7
 10
120.8411167782948
 20
129.2032218644704
 11
120.8411167782948
 21
129.5262074932291
  0
LINE
  8
0
  6
CONTINUOUS
 62
     7
 10
120.8411167782948
 20
129.2032218644704
 11
119.1411167782948
 21
129.2032218644704
  0
LINE
  8
0
  6
CONTINUOUS
 62
     7
 10
118.8411167782948
 20
129.0955463909712
 11
119.1411167782948
 21
129.2032218644704
  0
LINE
  8
0
  6
CONTINUOUS
 62
     7
 10
118.8411167782948
 20
128.8442732119718
 11
118.8411167782948
 21
129.0955463909712
  0
LINE
  8
0
  6
CONTINUOUS
 62
     7
 10
118.2071421820793
 20
128.8442732119718
 11
118.8411167782948
 21
128.8442732119718
  0
LINE
  8
0
  6
CONTINUOUS
 62
     7
 10
117.6000847403324
 20
129.0422278670842
 11
117.774129480187
 21
128.9340188039252
  0
LINE
  8
0
  6
CONTINUOUS
 62
     7
 10
116.8253432861329
 20
129.2201905864285
 11
117.6000847403324
 21
129.0422278670842
  0
LINE
  8
0
  6
CONTINUOUS
 62
     7
 10
112.7041908539174
 20
129.3557685856657
 11
116.8253432861329
 21
129.2201905864285
  0
POLYLINE
  8
0
  6
CONTINUOUS
 62
     7
 66
     1
  0
VERTEX
  8
0
  6
CONTINUOUS
 62
     7
 10
111.3411167782948
 20
129.8917599222606
  0
VERTEX
  8
0
  6
CONTINUOUS
 62
     7
 10
111.3730449726315
 20
129.7813101265886
  0
VERTEX
  8
0
  6
CONTINUOUS
 62
     7
 10
111.4443461638604
 20
129.6955561381638
  0
VERTEX
  8
0
  6
CONTINUOUS
 62
     7
 10
111.5259499765542
 20
129.6329447496414
  0
VERTEX
  8
0
  6
CONTINUOUS
 62
     7
 10
111.627063528343
 20
129.5756743408002
  0
SEQEND
  8
0
  6
CONTINUOUS
 62
     7
  0
ARC
  8
0
  6
CONTINUOUS
 62
     7
 10
112.7106131421518
 20
132.1351343648664
 40
2.779373199190446
 50
247.054588093072
 51
269.8676067185902
  0
POLYLINE
  8
0
  6
CONTINUOUS
 62
     7
 66
     1
  0
VERTEX
  8
0
  6
CONTINUOUS
 62
     7
 10
113.3411167782948
 20
130.0464658285174
  0
VERTEX
  8
0
  6
CONTINUOUS
 62
     7
 10
113.341550640131
 20
130.0539224909092
  0
VERTEX
  8
0
  6
CONTINUOUS
 62
     7
 10
113.3428492633232
 20
130.0613726999657
  0
VERTEX
  8
0
  6
CONTINUOUS
 62
     7
 10
113.3450082043965
 20
130.0687972257391
  0
VERTEX
  8
0
  6
CONTINUOUS
 62
     7
 10
113.3480230198761
 20
130.0761768382822
  0
VERTEX
  8
0
  6
CONTINUOUS
 62
     7
 10
113.3520188959133
 20
130.083716834021
  0
VERTEX
  8
0
  6
CONTINUOUS
 62
     7
 10
113.3569147691837
 20
130.0911955854005
  0
VERTEX
  8
0
  6
CONTINUOUS
 62
     7
 10
113.3626960835355
 20
130.098592715662
  0
VERTEX
  8
0
  6
CONTINUOUS
 62
     7
 10
113.3693482828168
 20
130.105887848047
  0
VERTEX
  8
0
  6
CONTINUOUS
 62
     7
 10
113.3766441146923
 20
130.1128728604988
  0
VERTEX
  8
0
  6
CONTINUOUS
 62
     7
 10
113.3847504235096
 20
130.1197491635122
  0
VERTEX
  8
0
  6
CONTINUOUS
 62
     7
 10
113.3936452875799
 20
130.1264991086687
  0
VERTEX
  8
0
  6
CONTINUOUS
 62
     7
 10
113.4033067852145
 20
130.1331050475494
  0
VERTEX
  8
0
  6
CONTINUOUS
 62
     7
 10
113.4140431955428
 20
130.1397460889762
  0
VERTEX
  8
0
  6
CONTINUOUS
 62
     7
 10
113.4255729581947
 20
130.1462224225461
  0
VERTEX
  8
0
  6
CONTINUOUS
 62
     7
 10
113.4378634941696
 20
130.1525165071451
  0
VERTEX
  8
0
  6
CONTINUOUS
 62
     7
 10
113.450882224467
 20
130.158610801659
  0
VERTEX
  8
0
  6
CONTINUOUS
 62
     7
 10
113.4642145447693
 20
130.1643326579627
  0
VERTEX
  8
0
  6
CONTINUOUS
 62
     7
 10
113.478211072819
 20
130.1698557656588
  0
VERTEX
  8
0
  6
CONTINUOUS
 62
     7
 10
113.492834815412
 20
130.175166063455
  0
VERTEX
  8
0
  6
CONTINUOUS
 62
     7
 10
113.5080487793441
 20
130.1802494900589
  0
VERTEX
  8
0
  6
CONTINUOUS
 62
     7
 10
113.5243096400866
 20
130.1852385009972
  0
VERTEX
  8
0
  6
CONTINUOUS
 62
     7
 10
113.5411668316079
 20
130.1899779113408
  0
VERTEX
  8
0
  6
CONTINUOUS
 62
     7
 10
113.5585733710531
 20
130.1944550315355
  0
VERTEX
  8
0
  6
CONTINUOUS
 62
     7
 10
113.5764822755674
 20
130.198657172027
  0
VERTEX
  8
0
  6
CONTINUOUS
 62
     7
 10
113.5943337249465
 20
130.2024688419208
  0
VERTEX
  8
0
  6
CONTINUOUS
 62
     7
 10
113.6126276513513
 20
130.2060143916067
  0
VERTEX
  8
0
  6
CONTINUOUS
 62
     7
 10
113.6313161911121
 20
130.2092849639143
  0
VERTEX
  8
0
  6
CONTINUOUS
 62
     7
 10
113.6503514805592
 20
130.2122717016732
  0
VERTEX
  8
0
  6
CONTINUOUS
 62
     7
 10
113.670286186909
 20
130.215045278221
  0
VERTEX
  8
0
  6
CONTINUOUS
 62
     7
 10
113.6905523809323
 20
130.2175129016549
  0
VERTEX
  8
0
  6
CONTINUOUS
 62
     7
 10
113.7110940664684
 20
130.2196682031499
  0
VERTEX
  8
0
  6
CONTINUOUS
 62
     7
 10
113.7318552473567
 20
130.2215048138806
  0
VERTEX
  8
0
  6
CONTINUOUS
 62
     7
 10
113.7534308960708
 20
130.2230586534926
  0
VERTEX
  8
0
  6
CONTINUOUS
 62
     7
 10
113.775208565521
 20
130.2242716116826
  0
VERTEX
  8
0
  6
CONTINUOUS
 62
     7
 10
113.7971245637081
 20
130.2251411514448
  0
VERTEX
  8
0
  6
CONTINUOUS
 62
     7
 10
113.8191151986325
 20
130.2256647357732
  0
VERTEX
  8
0
  6
CONTINUOUS
 62
     7
 10
113.8411167782948
 20
130.2258398276617
  0
SEQEND
  8
0
  6
CONTINUOUS
 62
     7
  0
LINE
  8
0
  6
CONTINUOUS
 62
     7
 10
113.3411167782724
 20
129.8588713631286
 11
113.3411167782948
 21
130.0464658285174
  0
POLYLINE
  8
0
  6
CONTINUOUS
 62
     7
 66
     1
  0
VERTEX
  8
0
  6
CONTINUOUS
 62
     7
 10
113.7954748035023
 20
129.6802200548325
  0
VERTEX
  8
0
  6
CONTINUOUS
 62
     7
 10
113.7748718856092
 20
129.6810532063598
  0
VERTEX
  8
0
  6
CONTINUOUS
 62
     7
 10
113.7543655278945
 20
129.6821930903298
  0
VERTEX
  8
0
  6
CONTINUOUS
 62
     7
 10
113.7340084952959
 20
129.6836363542329
  0
VERTEX
  8
0
  6
CONTINUOUS
 62
     7
 10
113.7138535527509
 20
129.6853796455594
  0
VERTEX
  8
0
  6
CONTINUOUS
 62
     7
 10
113.6933445313903
 20
129.6874860189633
  0
VERTEX
  8
0
  6
CONTINUOUS
 62
     7
 10
113.6730866849136
 20
129.6899065062499
  0
VERTEX
  8
0
  6
CONTINUOUS
 62
     7
 10
113.65313492697
 20
129.6926340412299
  0
VERTEX
  8
0
  6
CONTINUOUS
 62
     7
 10
113.6335441712086
 20
129.6956615577138
  0
VERTEX
  8
0
  6
CONTINUOUS
 62
     7
 10
113.6148479021738
 20
129.6988933195383
  0
VERTEX
  8
0
  6
CONTINUOUS
 62
     7
 10
113.5965264147682
 20
129.7024035510287
  0
VERTEX
  8
0
  6
CONTINUOUS
 62
     7
 10
113.5786264641366
 20
129.7061827956702
  0
VERTEX
  8
0
  6
CONTINUOUS
 62
     7
 10
113.5611948054235
 20
129.710221596948
  0
VERTEX
  8
0
  6
CONTINUOUS
 62
     7
 10
113.543763951194
 20
129.714645577565
  0
VERTEX
  8
0
  6
CONTINUOUS
 62
     7
 10
113.5268607479195
 20
129.719336571744
  0
VERTEX
  8
0
  6
CONTINUOUS
 62
     7
 10
113.510530529113
 20
129.7242813705523
  0
VERTEX
  8
0
  6
CONTINUOUS
 62
     7
 10
113.4948186282878
 20
129.7294667650571
  0
VERTEX
  8
0
  6
CONTINUOUS
 62
     7
 10
113.4801473082496
 20
129.7347364635644
  0
VERTEX
  8
0
  6
CONTINUOUS
 62
     7
 10
113.4660868265988
 20
129.7402245797328
  0
VERTEX
  8
0
  6
CONTINUOUS
 62
     7
 10
113.452672559335
 20
129.7459166486798
  0
VERTEX
  8
0
  6
CONTINUOUS
 62
     7
 10
113.4399398824578
 20
129.7517982055231
  0
VERTEX
  8
0
  6
CONTINUOUS
 62
     7
 10
113.4275636284969
 20
129.7580431410528
  0
VERTEX
  8
0
  6
CONTINUOUS
 62
     7
 10
113.4159318237609
 20
129.764477562941
  0
VERTEX
  8
0
  6
CONTINUOUS
 62
     7
 10
113.4050750691776
 20
129.7710836434573
  0
VERTEX
  8
0
  6
CONTINUOUS
 62
     7
 10
113.3950239656748
 20
129.7778435548714
  0
VERTEX
  8
0
  6
CONTINUOUS
 62
     7
 10
113.3860285356741
 20
129.7845631928972
  0
VERTEX
  8
0
  6
CONTINUOUS
 62
     7
 10
113.3778121019796
 20
129.791416766708
  0
VERTEX
  8
0
  6
CONTINUOUS
 62
     7
 10
113.3703947779065
 20
129.7983864126786
  0
VERTEX
  8
0
  6
CONTINUOUS
 62
     7
 10
113.3637966767702
 20
129.8054542671832
  0
VERTEX
  8
0
  6
CONTINUOUS
 62
     7
 10
113.3578711581663
 20
129.8128233240544
  0
VERTEX
  8
0
  6
CONTINUOUS
 62
     7
 10
113.3528244137384
 20
129.820283141061
  0
VERTEX
  8
0
  6
CONTINUOUS
 62
     7
 10
113.3486689697965
 20
129.8278132302681
  0
VERTEX
  8
0
  6
CONTINUOUS
 62
     7
 10
113.3454173526505
 20
129.8353931037409
  0
VERTEX
  8
0
  6
CONTINUOUS
 62
     7
 10
113.3430308747154
 20
129.8431930213717
  0
VERTEX
  8
0
  6
CONTINUOUS
 62
     7
 10
113.3415959848963
 20
129.8510265778191
  0
VERTEX
  8
0
  6
CONTINUOUS
 62
     7
 10
113.3411167782724
 20
129.8588713631286
  0
SEQEND
  8
0
  6
CONTINUOUS
 62
     7
  0
LINE
  8
0
  6
CONTINUOUS
 62
     7
 10
111.3411167782948
 20
130.2258398276617
 11
111.3411167782948
 21
129.8917599222606
  0
LINE
  8
0
  6
CONTINUOUS
 62
     7
 10
118.8411167782948
 20
125.7511288022806
 11
118.8411167782948
 21
128.8442732119718
  0
LINE
  8
0
  6
CONTINUOUS
 62
     7
 10
118.8411167782948
 20
125.7511288022806
 11
118.2071421820793
 21
125.7511288022806
  0
LINE
  8
0
  6
CONTINUOUS
 62
     7
 10
117.774129480187
 20
125.7511288022806
 11
117.6000847403324
 21
125.7511288022806
  0
LINE
  8
0
  6
CONTINUOUS
 62
     7
 10
117.6000847403324
 20
125.7511288022806
 11
117.5525650382641
 21
125.7511288022806
  0
LINE
  8
0
  6
CONTINUOUS
 62
     7
 10
117.5525650382641
 20
125.7511288022806
 11
116.8253432861329
 21
125.7511288022806
  0
LINE
  8
0
  6
CONTINUOUS
 62
     7
 10
120.8411167782948
 20
129.2032218644704
 11
120.8411167782948
 21
128.3233864160455
  0
LINE
  8
0
  6
CONTINUOUS
 62
     7
 10
116.8253432861329
 20
125.7511288022806
 11
112.7041908539174
 21
125.7511288022806
  0
LINE
  8
0
  6
CONTINUOUS
 62
     7
 10
120.8411167782948
 20
127.6416369162199
 11
120.8411167782948
 21
128.3233864160455
  0
LINE
  8
0
  6
CONTINUOUS
 62
     7
 10
112.7041908539174
 20
125.7511288022806
 11
111.3411167782948
 21
125.7511288022806
  0
LINE
  8
0
  6
CONTINUOUS
 62
     7
 10
111.3411167782948
 20
125.7511288022806
 11
111.3411167782948
 21
129.8917599222606
  0
LINE
  8
0
  6
CONTINUOUS
 62
     7
 10
153.904180141768
 20
123.2511288022806
 11
151.7936233697583
 21
123.2511288022806
  0
LINE
  8
0
  6
CONTINUOUS
 62
     7
 10
167.0411167783948
 20
123.2511288022806
 11
167.0411167783948
 21
125.0011288022806
  0
LINE
  8
0
  6
CONTINUOUS
 62
     7
 10
167.0411167783948
 20
123.2511288022806
 11
153.904180141768
 21
123.2511288022806
  0
LINE
  8
0
  6
CONTINUOUS
 62
     7
 10
149.4412548224822
 20
125.0011288022806
 11
149.4411167783948
 21
123.2511288022806
  0
LINE
  8
0
  6
CONTINUOUS
 62
     7
 10
149.4411167783948
 20
123.2511288022806
 11
151.7936233697583
 21
123.2511288022806
  0
LINE
  8
0
  6
CONTINUOUS
 62
     7
 10
144.0822634061275
 20
123.2511288022806
 11
141.9739395986978
 21
123.2511288022806
  0
LINE
  8
0
  6
CONTINUOUS
 62
     7
 10
131.6411167782948
 20
125.0011288022806
 11
131.6411167782948
 21
123.2511288022806
  0
LINE
  8
0
  6
CONTINUOUS
 62
     7
 10
131.6411167782948
 20
123.2511288022806
 11
141.9739395986978
 21
123.2511288022806
  0
POLYLINE
  8
0
  6
CONTINUOUS
 62
     7
 66
     1
  0
VERTEX
  8
0
  6
CONTINUOUS
 62
     7
 10
145.9955011565846
 20
123.2511288022806
  0
VERTEX
  8
0
  6
CONTINUOUS
 62
     7
 10
146.0232149398502
 20
123.2503645897446
  0
VERTEX
  8
0
  6
CONTINUOUS
 62
     7
 10
146.0508247925325
 20
123.2480578629002
  0
VERTEX
  8
0
  6
CONTINUOUS
 62
     7
 10
146.0782607387443
 20
123.2441874878931
  0
VERTEX
  8
0
  6
CONTINUOUS
 62
     7
 10
146.1054528026001
 20
123.2387323308689
  0
VERTEX
  8
0
  6
CONTINUOUS
 62
     7
 10
146.1331626860646
 20
123.2314243840429
  0
VERTEX
  8
0
  6
CONTINUOUS
 62
     7
 10
146.1605468762119
 20
123.2223502172035
  0
VERTEX
  8
0
  6
CONTINUOUS
 62
     7
 10
146.1875007509422
 20
123.2114717640563
  0
VERTEX
  8
0
  6
CONTINUOUS
 62
     7
 10
146.2139196881557
 20
123.198750958307
  0
VERTEX
  8
0
  6
CONTINUOUS
 62
     7
 10
146.2362206016501
 20
123.1862505675564
  0
VERTEX
  8
0
  6
CONTINUOUS
 62
     7
 10
146.2580746450161
 20
123.1722485487242
  0
VERTEX
  8
0
  6
CONTINUOUS
 62
     7
 10
146.279364495051
 20
123.1567254162569
  0
VERTEX
  8
0
  6
CONTINUOUS
 62
     7
 10
146.2999728285521
 20
123.1396616846011
  0
VERTEX
  8
0
  6
CONTINUOUS
 62
     7
 10
146.3197823223169
 20
123.1210378682035
  0
VERTEX
  8
0
  6
CONTINUOUS
 62
     7
 10
146.3386756531426
 20
123.1008344815107
  0
VERTEX
  8
0
  6
CONTINUOUS
 62
     7
 10
146.3522802319479
 20
123.08449939911
  0
VERTEX
  8
0
  6
CONTINUOUS
 62
     7
 10
146.3652714750565
 20
123.067204879367
  0
VERTEX
  8
0
  6
CONTINUOUS
 62
     7
 10
146.3775711504906
 20
123.048966183772
  0
VERTEX
  8
0
  6
CONTINUOUS
 62
     7
 10
146.3865186263937
 20
123.0342935756371
  0
VERTEX
  8
0
  6
CONTINUOUS
 62
     7
 10
146.3949976276464
 20
123.0190456511798
  0
VERTEX
  8
0
  6
CONTINUOUS
 62
     7
 10
146.402965887311
 20
123.0032461069584
  0
VERTEX
  8
0
  6
CONTINUOUS
 62
     7
 10
146.4103811384499
 20
122.9869186395313
  0
VERTEX
  8
0
  6
CONTINUOUS
 62
     7
 10
146.4163643771609
 20
122.972267995446
  0
VERTEX
  8
0
  6
CONTINUOUS
 62
     7
 10
146.4218883085169
 20
122.9572166205628
  0
VERTEX
  8
0
  6
CONTINUOUS
 62
     7
 10
146.4269247985263
 20
122.9417969897217
  0
VERTEX
  8
0
  6
CONTINUOUS
 62
     7
 10
146.4314457131979
 20
122.9260415777626
  0
VERTEX
  8
0
  6
CONTINUOUS
 62
     7
 10
146.4355567359804
 20
122.9094026089827
  0
VERTEX
  8
0
  6
CONTINUOUS
 62
     7
 10
146.4390795355675
 20
122.8924239910802
  0
VERTEX
  8
0
  6
CONTINUOUS
 62
     7
 10
146.4419912900222
 20
122.8751621836663
  0
VERTEX
  8
0
  6
CONTINUOUS
 62
     7
 10
146.4442691774074
 20
122.8576736463522
  0
SEQEND
  8
0
  6
CONTINUOUS
 62
     7
  0
LINE
  8
0
  6
CONTINUOUS
 62
     7
 10
146.4410616859593
 20
125.0011288022806
 11
146.4442691774074
 21
122.8576736463522
  0
LINE
  8
0
  6
CONTINUOUS
 62
     7
 10
144.0822634061275
 20
123.2511288022806
 11
145.9955011565846
 21
123.2511288022806
  0
LINE
  8
0
  6
CONTINUOUS
 62
     7
 10
149.4411167782948
 20
107.0511288022807
 11
149.4411167782948
 21
122.8121044120367
  0
POLYLINE
  8
0
  6
CONTINUOUS
 62
     7
 66
     1
  0
VERTEX
  8
0
  6
CONTINUOUS
 62
     7
 10
149.4411167782948
 20
122.8121044120367
  0
VERTEX
  8
0
  6
CONTINUOUS
 62
     7
 10
149.4413245650533
 20
122.8223568474295
  0
VERTEX
  8
0
  6
CONTINUOUS
 62
     7
 10
149.4419437726638
 20
122.8325727242965
  0
VERTEX
  8
0
  6
CONTINUOUS
 62
     7
 10
149.4429681721286
 20
122.8427226272602
  0
VERTEX
  8
0
  6
CONTINUOUS
 62
     7
 10
149.4443915344502
 20
122.8527771409431
  0
VERTEX
  8
0
  6
CONTINUOUS
 62
     7
 10
149.4462724931597
 20
122.8630411028268
  0
VERTEX
  8
0
  6
CONTINUOUS
 62
     7
 10
149.4485592571775
 20
122.8731871077803
  0
VERTEX
  8
0
  6
CONTINUOUS
 62
     7
 10
149.451234668341
 20
122.8831916254115
  0
VERTEX
  8
0
  6
CONTINUOUS
 62
     7
 10
149.4542815684875
 20
122.8930311253281
  0
VERTEX
  8
0
  6
CONTINUOUS
 62
     7
 10
149.4584146082268
 20
122.9046269548263
  0
VERTEX
  8
0
  6
CONTINUOUS
 62
     7
 10
149.463037109035
 20
122.9159775440023
  0
VERTEX
  8
0
  6
CONTINUOUS
 62
     7
 10
149.4681137010293
 20
122.9270626232486
  0
VERTEX
  8
0
  6
CONTINUOUS
 62
     7
 10
149.4736090143268
 20
122.9378619229579
  0
VERTEX
  8
0
  6
CONTINUOUS
 62
     7
 10
149.4817795315365
 20
122.9522131744805
  0
VERTEX
  8
0
  6
CONTINUOUS
 62
     7
 10
149.4906231915114
 20
122.9660465568453
  0
VERTEX
  8
0
  6
CONTINUOUS
 62
     7
 10
149.5000617046704
 20
122.9793498412919
  0
VERTEX
  8
0
  6
CONTINUOUS
 62
     7
 10
149.5158869378594
 20
122.9991582622953
  0
VERTEX
  8
0
  6
CONTINUOUS
 62
     7
 10
149.5328606154413
 20
123.0178088780167
  0
VERTEX
  8
0
  6
CONTINUOUS
 62
     7
 10
149.550826321689
 20
123.0353470466301
  0
VERTEX
  8
0
  6
CONTINUOUS
 62
     7
 10
149.5696276408754
 20
123.051818126309
  0
VERTEX
  8
0
  6
CONTINUOUS
 62
     7
 10
149.5891081572733
 20
123.0672674752273
  0
VERTEX
  8
0
  6
CONTINUOUS
 62
     7
 10
149.6091114551554
 20
123.0817404515587
  0
VERTEX
  8
0
  6
CONTINUOUS
 62
     7
 10
149.6490223015241
 20
123.1073194407473
  0
VERTEX
  8
0
  6
CONTINUOUS
 62
     7
 10
149.6904513006965
 20
123.1300899247228
  0
VERTEX
  8
0
  6
CONTINUOUS
 62
     7
 10
149.7331288380449
 20
123.1502690331601
  0
VERTEX
  8
0
  6
CONTINUOUS
 62
     7
 10
149.7767852989412
 20
123.1680738957345
  0
VERTEX
  8
0
  6
CONTINUOUS
 62
     7
 10
149.8211510687578
 20
123.1837216421211
  0
VERTEX
  8
0
  6
CONTINUOUS
 62
     7
 10
149.8659565328665
 20
123.1974294019949
  0
VERTEX
  8
0
  6
CONTINUOUS
 62
     7
 10
149.9464170170506
 20
123.2175629589648
  0
VERTEX
  8
0
  6
CONTINUOUS
 62
     7
 10
150.0280839211622
 20
123.2326990126532
  0
VERTEX
  8
0
  6
CONTINUOUS
 62
     7
 10
150.1106090347538
 20
123.2431382278852
  0
VERTEX
  8
0
  6
CONTINUOUS
 62
     7
 10
150.193644147378
 20
123.2491812694859
  0
VERTEX
  8
0
  6
CONTINUOUS
 62
     7
 10
150.276841048587
 20
123.2511288022806
  0
SEQEND
  8
0
  6
CONTINUOUS
 62
     7
  0
LINE
  8
0
  6
CONTINUOUS
 62
     7
 10
146.4411167782948
 20
141.3511288022806
 11
149.4411167782948
 21
142.9511288022806
  0
LINE
  8
0
  6
CONTINUOUS
 62
     7
 10
146.4411167782948
 20
122.8178943809156
 11
146.4411167782948
 21
108.6511288022806
  0
LINE
  8
0
  6
CONTINUOUS
 62
     7
 10
146.4442691774074
 20
122.8576736463522
 11
146.4411167782948
 21
122.8178943809156
  0
LINE
  8
0
  6
CONTINUOUS
 62
     7
 10
173.441116778399
 20
141.8278931971372
 11
173.5411167783742
 21
141.8278931971372
  0
LINE
  8
0
  6
CONTINUOUS
 62
     7
 10
177.0153885813033
 20
141.8278931971368
 11
177.6411167781948
 21
141.8278931971368
  0
LINE
  8
0
  6
CONTINUOUS
 62
     7
 10
149.4411167782948
 20
142.9511288022806
 11
170.5411167783948
 21
142.9511288022817
  0
LINE
  8
0
  6
CONTINUOUS
 62
     7
 10
128.4411167782948
 20
141.3511288022806
 11
146.4411167782948
 21
141.3511288022806
  0
LINE
  8
0
  6
CONTINUOUS
 62
     7
 10
119.3411167782948
 20
140.3982876311036
 11
122.4030143723414
 21
140.3982876311036
  0
LINE
  8
0
  6
CONTINUOUS
 62
     7
 10
177.6411167783948
 20
140.4511288022809
 11
150.4375453724922
 21
140.3546874757832
  0
LINE
  8
0
  6
CONTINUOUS
 62
     7
 10
177.6411167783948
 20
137.2584379097726
 11
177.6411167783948
 21
140.4511288022812
  0
LINE
  8
0
  6
CONTINUOUS
 62
     7
 10
177.6411167781948
 20
137.2584379097727
 11
177.6411167781948
 21
135.7336006258581
  0
LINE
  8
0
  6
CONTINUOUS
 62
     7
 10
177.6411167783245
 20
132.8164175938561
 11
177.6411167782983
 21
135.7336006258583
  0
LINE
  8
0
  6
CONTINUOUS
 62
     7
 10
177.6411167781948
 20
132.816417593856
 11
177.6411167781948
 21
131.0379247374221
  0
LINE
  8
0
  6
CONTINUOUS
 62
     7
 10
177.6411167783821
 20
127.521160365712
 11
177.6411167783643
 21
131.0379247374223
  0
LINE
  8
0
  6
CONTINUOUS
 62
     7
 10
177.6411167781948
 20
127.521160365712
 11
177.6411167781948
 21
125.5403260263151
  0
LINE
  8
0
  6
CONTINUOUS
 62
     7
 10
177.6411167783948
 20
125.0011288022806
 11
177.6411167783946
 21
125.5403260263151
  0
ARC
  8
0
  6
CONTINUOUS
 62
     7
 10
150.4411167782874
 20
139.3546938532806
 40
0.9999999999925951
 50
90.20462691399945
 51
180.0
  0
LINE
  8
0
  6
CONTINUOUS
 62
     7
 10
121.3411167782948
 20
125.0011288022806
 11
121.3411167782948
 21
127.8377029306476
  0
LINE
  8
0
  6
CONTINUOUS
 62
     7
 10
121.3411167782948
 20
127.8377029306475
 11
121.3411167782948
 21
129.5428045569579
  0
LINE
  8
0
  6
CONTINUOUS
 62
     7
 10
121.3411167782948
 20
129.5428045569579
 11
121.3411167782948
 21
132.5440901552126
  0
LINE
  8
0
  6
CONTINUOUS
 62
     7
 10
121.3411167782948
 20
132.5440901552126
 11
121.3411167782948
 21
133.9680159574078
  0
LINE
  8
0
  6
CONTINUOUS
 62
     7
 10
121.3411167782948
 20
133.9680159574079
 11
121.3411167782948
 21
136.248476827758
  0
LINE
  8
0
  6
CONTINUOUS
 62
     7
 10
121.3411167782948
 20
136.248476827758
 11
121.3411167782948
 21
137.2020737168752
  0
LINE
  8
0
  6
CONTINUOUS
 62
     7
 10
121.3411167782948
 20
138.9511288022806
 11
121.3411167782948
 21
137.2020737168752
  0
LINE
  8
0
  6
CONTINUOUS
 62
     7
 10
145.4451008104212
 20
138.8550969933877
 11
121.3411167782948
 21
138.9511288022806
  0
ARC
  8
0
  6
CONTINUOUS
 62
     7
 10
145.4411167782948
 20
137.8551049296752
 40
0.9999999999999927
 50
1.054849011547381
 51
89.77173116984636
  0
ARC
  8
0
  6
CONTINUOUS
 62
     7
 10
147.9411167782948
 20
137.9011288022806
 40
1.500000000000001
 50
270.0
 51
0.0
  0
LINE
  8
0
  6
CONTINUOUS
 62
     7
 10
149.4411167782948
 20
125.0011288022806
 11
149.4411167782948
 21
137.9011288022806
  0
ARC
  8
0
  6
CONTINUOUS
 62
     7
 10
147.9406931030248
 20
137.9011288022806
 40
1.500000000000001
 50
181.054849078952
 51
270.0
  0
LINE
  8
0
  6
CONTINUOUS
 62
     7
 10
147.9411167782948
 20
136.4011288022806
 11
147.9406931030248
 21
136.4011288022806
  0
LINE
  8
0
  6
CONTINUOUS
 62
     7
 10
170.5411167783948
 20
141.6011288022845
 11
170.5411167783948
 21
142.9511288022817
  0
LINE
  8
0
  6
CONTINUOUS
 62
     7
 10
170.5411167783948
 20
141.6011288022845
 11
173.5411167783948
 21
141.6011288022845
  0
LINE
  8
0
  6
CONTINUOUS
 62
     7
 10
173.5411167783948
 20
141.6011288022845
 11
173.5411167782948
 21
142.7011288022806
  0
LINE
  8
0
  6
CONTINUOUS
 62
     7
 10
173.5411167782948
 20
142.7011288022806
 11
175.0411167782948
 21
142.7011288022806
  0
LINE
  8
0
  6
CONTINUOUS
 62
     7
 10
175.0411167782948
 20
142.7011288022806
 11
177.6411167783948
 21
141.5511288022799
  0
LINE
  8
0
  6
CONTINUOUS
 62
     7
 10
179.6411167783948
 20
141.5511288022799
 11
177.6411167783948
 21
141.5511288022799
  0
LINE
  8
0
  6
CONTINUOUS
 62
     7
 10
179.6411167783948
 20
141.5511288022799
 11
179.6411167783948
 21
140.4511288022813
  0
LINE
  8
0
  6
CONTINUOUS
 62
     7
 10
177.6411167783948
 20
140.4511288022809
 11
179.6411167783948
 21
140.4511288022813
  0
LINE
  8
0
  6
CONTINUOUS
 62
     7
 10
119.3411167782948
 20
138.9511288022806
 11
121.3411167782948
 21
138.9511288022806
  0
LINE
  8
0
  6
CONTINUOUS
 62
     7
 10
119.3411167782948
 20
138.9511288022806
 11
119.3411167782948
 21
140.0511288022806
  0
LINE
  8
0
  6
CONTINUOUS
 62
     7
 10
121.3411167782948
 20
140.0511288022806
 11
119.3411167782948
 21
140.0511288022806
  0
LINE
  8
0
  6
CONTINUOUS
 62
     7
 10
121.3411167782948
 20
140.0511288022806
 11
123.9411167782948
 21
140.9011288022806
  0
LINE
  8
0
  6
CONTINUOUS
 62
     7
 10
123.9411167782948
 20
140.9011288022806
 11
125.4411167782948
 21
140.9011288022806
  0
LINE
  8
0
  6
CONTINUOUS
 62
     7
 10
125.4411167782948
 20
140.0011288022806
 11
125.4411167782948
 21
140.9011288022806
  0
LINE
  8
0
  6
CONTINUOUS
 62
     7
 10
128.4411167782948
 20
140.0011288022806
 11
125.4411167782948
 21
140.0011288022806
  0
LINE
  8
0
  6
CONTINUOUS
 62
     7
 10
128.4411167782948
 20
140.0011288022806
 11
128.4411167782948
 21
141.3511288022806
  0
LINE
  8
0
  6
CONTINUOUS
 62
     7
 10
149.4411167782948
 20
139.3546938532806
 11
149.4411167782948
 21
137.9011288022806
  0
LINE
  8
0
  6
CONTINUOUS
 62
     7
 10
119.3411167782948
 20
137.2020737168752
 11
121.3411167782948
 21
137.2020737168752
  0
LINE
  8
0
  6
CONTINUOUS
 62
     7
 10
119.3411167782948
 20
138.9511288022806
 11
119.3411167782948
 21
137.2020737168752
  0
LINE
  8
0
  6
CONTINUOUS
 62
     7
 10
179.6411167783948
 20
137.2584379097726
 11
179.6411167783948
 21
140.4511288022812
  0
LINE
  8
0
  6
CONTINUOUS
 62
     7
 10
179.6411167783948
 20
137.2584379097726
 11
177.6411167783948
 21
137.2584379097726
  0
LINE
  8
0
  6
CONTINUOUS
 62
     7
 10
119.3411167782948
 20
140.0511288022806
 11
119.3411167782948
 21
140.3982876311036
  0
LINE
  8
0
  6
CONTINUOUS
 62
     7
 10
177.6411167781948
 20
141.8278931971368
 11
177.6411167782317
 21
141.5511288023521
  0
POLYLINE
  8
0
  6
CONTINUOUS
 62
     7
 66
     1
  0
VERTEX
  8
0
  6
CONTINUOUS
 62
     7
 10
121.3411167782948
 20
136.248476827758
  0
VERTEX
  8
0
  6
CONTINUOUS
 62
     7
 10
121.3408599978611
 20
136.2411296344978
  0
VERTEX
  8
0
  6
CONTINUOUS
 62
     7
 10
121.3400883135849
 20
136.2337735364783
  0
VERTEX
  8
0
  6
CONTINUOUS
 62
     7
 10
121.3387949890402
 20
136.226395706683
  0
VERTEX
  8
0
  6
CONTINUOUS
 62
     7
 10
121.3369813103562
 20
136.2190346260134
  0
VERTEX
  8
0
  6
CONTINUOUS
 62
     7
 10
121.3346005504256
 20
136.2115707366028
  0
VERTEX
  8
0
  6
CONTINUOUS
 62
     7
 10
121.3316821208221
 20
136.2041515147916
  0
VERTEX
  8
0
  6
CONTINUOUS
 62
     7
 10
121.3282146769185
 20
136.1967640408178
  0
VERTEX
  8
0
  6
CONTINUOUS
 62
     7
 10
121.3242113397231
 20
136.1894499451597
  0
VERTEX
  8
0
  6
CONTINUOUS
 62
     7
 10
121.3198614001292
 20
136.1825007363345
  0
VERTEX
  8
0
  6
CONTINUOUS
 62
     7
 10
121.3150253922132
 20
136.1756457891573
  0
VERTEX
  8
0
  6
CONTINUOUS
 62
     7
 10
121.3096898133324
 20
136.1688745510955
  0
VERTEX
  8
0
  6
CONTINUOUS
 62
     7
 10
121.3038773521908
 20
136.162223770679
  0
VERTEX
  8
0
  6
CONTINUOUS
 62
     7
 10
121.297477340305
 20
136.1555891665269
  0
VERTEX
  8
0
  6
CONTINUOUS
 62
     7
 10
121.2905996942774
 20
136.1491057371691
  0
VERTEX
  8
0
  6
CONTINUOUS
 62
     7
 10
121.283226443387
 20
136.1427637412947
  0
VERTEX
  8
0
  6
CONTINUOUS
 62
     7
 10
121.2753929808379
 20
136.1366004901808
  0
VERTEX
  8
0
  6
CONTINUOUS
 62
     7
 10
121.2674402221569
 20
136.1308565561194
  0
VERTEX
  8
0
  6
CONTINUOUS
 62
     7
 10
121.259085271081
 20
136.1253015362434
  0
VERTEX
  8
0
  6
CONTINUOUS
 62
     7
 10
121.2502362179629
 20
136.1198854021758
  0
VERTEX
  8
0
  6
CONTINUOUS
 62
     7
 10
121.2410183215272
 20
136.1146939820747
  0
VERTEX
  8
0
  6
CONTINUOUS
 62
     7
 10
121.2313778803954
 20
136.1097026444015
  0
VERTEX
  8
0
  6
CONTINUOUS
 62
     7
 10
121.2213970490151
 20
136.1049586163292
  0
VERTEX
  8
0
  6
CONTINUOUS
 62
     7
 10
121.21095066966
 20
136.100411682055
  0
VERTEX
  8
0
  6
CONTINUOUS
 62
     7
 10
121.2001718282777
 20
136.0961295823933
  0
VERTEX
  8
0
  6
CONTINUOUS
 62
     7
 10
121.1895119413149
 20
136.0922715715184
  0
VERTEX
  8
0
  6
CONTINUOUS
 62
     7
 10
121.1785789781093
 20
136.0886762801252
  0
VERTEX
  8
0
  6
CONTINUOUS
 62
     7
 10
121.1673510611919
 20
136.0853406492965
  0
VERTEX
  8
0
  6
CONTINUOUS
 62
     7
 10
121.1558838495347
 20
136.0822852825994
  0
VERTEX
  8
0
  6
CONTINUOUS
 62
     7
 10
121.1439821195476
 20
136.0794698711937
  0
VERTEX
  8
0
  6
CONTINUOUS
 62
     7
 10
121.1318718088814
 20
136.0769595068251
  0
VERTEX
  8
0
  6
CONTINUOUS
 62
     7
 10
121.1195282806643
 20
136.0747532936147
  0
VERTEX
  8
0
  6
CONTINUOUS
 62
     7
 10
121.1070173743623
 20
136.0728671559365
  0
VERTEX
  8
0
  6
CONTINUOUS
 62
     7
 10
121.0989531016232
 20
136.0718330333785
  0
VERTEX
  8
0
  6
CONTINUOUS
 62
     7
 10
121.090845188864
 20
136.0709339107641
  0
VERTEX
  8
0
  6
CONTINUOUS
 62
     7
 10
121.082674967439
 20
136.0701684659236
  0
VERTEX
  8
0
  6
CONTINUOUS
 62
     7
 10
121.0744731979852
 20
136.0695402098501
  0
VERTEX
  8
0
  6
CONTINUOUS
 62
     7
 10
121.0661696934301
 20
136.0690458100678
  0
VERTEX
  8
0
  6
CONTINUOUS
 62
     7
 10
121.0578468161535
 20
136.0686920955688
  0
VERTEX
  8
0
  6
CONTINUOUS
 62
     7
 10
121.0494850528567
 20
136.0684789775949
  0
VERTEX
  8
0
  6
CONTINUOUS
 62
     7
 10
121.0411167782948
 20
136.0684078993434
  0
SEQEND
  8
0
  6
CONTINUOUS
 62
     7
  0
LINE
  8
0
  6
CONTINUOUS
 62
     7
 10
119.3411167782948
 20
133.9680159574078
 11
121.3411167782948
 21
133.9680159574078
  0
LINE
  8
0
  6
CONTINUOUS
 62
     7
 10
119.3411167782948
 20
133.9680159574078
 11
119.3411167782948
 21
136.0684078993434
  0
LINE
  8
0
  6
CONTINUOUS
 62
     7
 10
119.3411167782948
 20
136.0684078993434
 11
121.0411167782948
 21
136.0684078993434
  0
LINE
  8
0
  6
CONTINUOUS
 62
     7
 10
119.3411167782948
 20
136.1412164580704
 11
119.3411167782948
 21
136.0684078993434
  0
LINE
  8
0
  6
CONTINUOUS
 62
     7
 10
119.3411167782948
 20
136.2099445056931
 11
119.3411167782948
 21
136.1412164580704
  0
LINE
  8
0
  6
CONTINUOUS
 62
     7
 10
178.1411167789707
 20
135.7336006258583
 11
177.6411167781948
 21
135.7336006258581
  0
LINE
  8
0
  6
CONTINUOUS
 62
     7
 10
179.6411167783948
 20
133.0737316271201
 11
179.6411167783948
 21
135.5999078296467
  0
LINE
  8
0
  6
CONTINUOUS
 62
     7
 10
179.6411167783948
 20
133.0737316271201
 11
177.9411167781948
 21
133.0737316271201
  0
POLYLINE
  8
0
  6
CONTINUOUS
 62
     7
 66
     1
  0
VERTEX
  8
0
  6
CONTINUOUS
 62
     7
 10
177.6411167783948
 20
132.8164175938561
  0
VERTEX
  8
0
  6
CONTINUOUS
 62
     7
 10
177.6413765922441
 20
132.8271640997659
  0
VERTEX
  8
0
  6
CONTINUOUS
 62
     7
 10
177.6421542643614
 20
132.837896229886
  0
VERTEX
  8
0
  6
CONTINUOUS
 62
     7
 10
177.643447140601
 20
132.8485863329915
  0
VERTEX
  8
0
  6
CONTINUOUS
 62
     7
 10
177.6452525668171
 20
132.8592067578573
  0
VERTEX
  8
0
  6
CONTINUOUS
 62
     7
 10
177.6476455362508
 20
132.8700528792379
  0
VERTEX
  8
0
  6
CONTINUOUS
 62
     7
 10
177.6505774753561
 20
132.8808057445248
  0
VERTEX
  8
0
  6
CONTINUOUS
 62
     7
 10
177.6540396462805
 20
132.8914362294731
  0
VERTEX
  8
0
  6
CONTINUOUS
 62
     7
 10
177.6580233111712
 20
132.9019152098379
  0
VERTEX
  8
0
  6
CONTINUOUS
 62
     7
 10
177.6623923080844
 20
132.9119440021009
  0
VERTEX
  8
0
  6
CONTINUOUS
 62
     7
 10
177.6672465561277
 20
132.9218123579081
  0
VERTEX
  8
0
  6
CONTINUOUS
 62
     7
 10
177.6725728957799
 20
132.9314952186936
  0
VERTEX
  8
0
  6
CONTINUOUS
 62
     7
 10
177.6783581675201
 20
132.9409675258919
  0
VERTEX
  8
0
  6
CONTINUOUS
 62
     7
 10
177.6847867728604
 20
132.9504859977459
  0
VERTEX
  8
0
  6
CONTINUOUS
 62
     7
 10
177.6916901933607
 20
132.9597646521732
  0
VERTEX
  8
0
  6
CONTINUOUS
 62
     7
 10
177.6990488969176
 20
132.9687787513409
  0
VERTEX
  8
0
  6
CONTINUOUS
 62
     7
 10
177.7068433514275
 20
132.9775035574158
  0
VERTEX
  8
0
  6
CONTINUOUS
 62
     7
 10
177.7148290175471
 20
132.9856960549393
  0
VERTEX
  8
0
  6
CONTINUOUS
 62
     7
 10
177.7232124219528
 20
132.9936014108353
  0
VERTEX
  8
0
  6
CONTINUOUS
 62
     7
 10
177.7319713942304
 20
133.0011998943937
  0
VERTEX
  8
0
  6
CONTINUOUS
 62
     7
 10
177.7410837639654
 20
133.0084717749044
  0
VERTEX
  8
0
  6
CONTINUOUS
 62
     7
 10
177.7508224314113
 20
133.0156064290915
  0
VERTEX
  8
0
  6
CONTINUOUS
 62
     7
 10
177.7609180490022
 20
133.0223827012018
  0
VERTEX
  8
0
  6
CONTINUOUS
 62
     7
 10
177.7713425162392
 20
133.0287828867378
  0
VERTEX
  8
0
  6
CONTINUOUS
 62
     7
 10
177.7820677326239
 20
133.0347892812018
  0
VERTEX
  8
0
  6
CONTINUOUS
 62
     7
 10
177.7927705024845
 20
133.0402430838671
  0
VERTEX
  8
0
  6
CONTINUOUS
 62
     7
 10
177.8037387410129
 20
133.0453156625689
  0
VERTEX
  8
0
  6
CONTINUOUS
 62
     7
 10
177.814943770832
 20
133.0499946705366
  0
VERTEX
  8
0
  6
CONTINUOUS
 62
     7
 10
177.8263569145645
 20
133.0542677609997
  0
VERTEX
  8
0
  6
CONTINUOUS
 62
     7
 10
177.8383088898712
 20
133.0582361732707
  0
VERTEX
  8
0
  6
CONTINUOUS
 62
     7
 10
177.8504598239035
 20
133.0617676695934
  0
VERTEX
  8
0
  6
CONTINUOUS
 62
     7
 10
177.8627762108025
 20
133.0648533930012
  0
VERTEX
  8
0
  6
CONTINUOUS
 62
     7
 10
177.8752245447094
 20
133.0674844865279
  0
VERTEX
  8
0
  6
CONTINUOUS
 62
     7
 10
177.8882347400726
 20
133.0697238948324
  0
VERTEX
  8
0
  6
CONTINUOUS
 62
     7
 10
177.9013677965463
 20
133.0714718989096
  0
VERTEX
  8
0
  6
CONTINUOUS
 62
     7
 10
177.9145849786868
 20
133.0727249128936
  0
VERTEX
  8
0
  6
CONTINUOUS
 62
     7
 10
177.9278475510507
 20
133.0734793509189
  0
VERTEX
  8
0
  6
CONTINUOUS
 62
     7
 10
177.9411167781948
 20
133.0737316271201
  0
SEQEND
  8
0
  6
CONTINUOUS
 62
     7
  0
POLYLINE
  8
0
  6
CONTINUOUS
 62
     7
 66
     1
  0
VERTEX
  8
0
  6
CONTINUOUS
 62
     7
 10
177.6411167781949
 20
136.7061223446906
  0
VERTEX
  8
0
  6
CONTINUOUS
 62
     7
 10
177.6468811940739
 20
136.6654660071006
  0
VERTEX
  8
0
  6
CONTINUOUS
 62
     7
 10
177.6639529184415
 20
136.6263720697639
  0
VERTEX
  8
0
  6
CONTINUOUS
 62
     7
 10
177.6916758945041
 20
136.5903428907681
  0
VERTEX
  8
0
  6
CONTINUOUS
 62
     7
 10
177.7289847438389
 20
136.5587630512568
  0
VERTEX
  8
0
  6
CONTINUOUS
 62
     7
 10
177.774445708289
 20
136.532846146752
  0
VERTEX
  8
0
  6
CONTINUOUS
 62
     7
 10
177.8263117484853
 20
136.5135881493596
  0
VERTEX
  8
0
  6
CONTINUOUS
 62
     7
 10
177.88258968159
 20
136.5017291331194
  0
VERTEX
  8
0
  6
CONTINUOUS
 62
     7
 10
177.9411167781948
 20
136.4977248333748
  0
SEQEND
  8
0
  6
CONTINUOUS
 62
     7
  0
LINE
  8
0
  6
CONTINUOUS
 62
     7
 10
178.1411167789271
 20
136.4977248333593
 11
177.9411167781948
 21
136.4977248333593
  0
POLYLINE
  8
0
  6
CONTINUOUS
 62
     7
 66
     1
  0
VERTEX
  8
0
  6
CONTINUOUS
 62
     7
 10
121.3411167782948
 20
132.5440901552126
  0
VERTEX
  8
0
  6
CONTINUOUS
 62
     7
 10
121.3408594465206
 20
132.5336367131808
  0
VERTEX
  8
0
  6
CONTINUOUS
 62
     7
 10
121.3400883135849
 20
132.5231952291079
  0
VERTEX
  8
0
  6
CONTINUOUS
 62
     7
 10
121.3387935245323
 20
132.5127115086711
  0
VERTEX
  8
0
  6
CONTINUOUS
 62
     7
 10
121.3369813103562
 20
132.5022764152267
  0
VERTEX
  8
0
  6
CONTINUOUS
 62
     7
 10
121.3345980215588
 20
132.4916835575738
  0
VERTEX
  8
0
  6
CONTINUOUS
 62
     7
 10
121.3316821208221
 20
132.4811798993518
  0
VERTEX
  8
0
  6
CONTINUOUS
 62
     7
 10
121.328211109674
 20
132.4707087317158
  0
VERTEX
  8
0
  6
CONTINUOUS
 62
     7
 10
121.3242113397231
 20
132.460367122546
  0
VERTEX
  8
0
  6
CONTINUOUS
 62
     7
 10
121.3198573535453
 20
132.4505299717764
  0
VERTEX
  8
0
  6
CONTINUOUS
 62
     7
 10
121.3150253922132
 20
132.4408485240398
  0
VERTEX
  8
0
  6
CONTINUOUS
 62
     7
 10
121.3096848582556
 20
132.4312743679152
  0
VERTEX
  8
0
  6
CONTINUOUS
 62
     7
 10
121.3038773521908
 20
132.4218921387758
  0
VERTEX
  8
0
  6
CONTINUOUS
 62
     7
 10
121.2974711993406
 20
132.4125214220954
  0
VERTEX
  8
0
  6
CONTINUOUS
 62
     7
 10
121.2905996942774
 20
132.4033857974684
  0
VERTEX
  8
0
  6
CONTINUOUS
 62
     7
 10
121.2832193264093
 20
132.3944380287454
  0
VERTEX
  8
0
  6
CONTINUOUS
 62
     7
 10
121.2753929808379
 20
132.3857628958498
  0
VERTEX
  8
0
  6
CONTINUOUS
 62
     7
 10
121.2674331387688
 20
132.3776677107116
  0
VERTEX
  8
0
  6
CONTINUOUS
 62
     7
 10
121.259085271081
 20
132.3698557631973
  0
VERTEX
  8
0
  6
CONTINUOUS
 62
     7
 10
121.2503015065197
 20
132.3622899348592
  0
VERTEX
  8
0
  6
CONTINUOUS
 62
     7
 10
121.2411540933849
 20
132.3550387659249
  0
VERTEX
  8
0
  6
CONTINUOUS
 62
     7
 10
121.2314482797221
 20
132.347968623631
  0
VERTEX
  8
0
  6
CONTINUOUS
 62
     7
 10
121.2213970490151
 20
132.3412537424162
  0
VERTEX
  8
0
  6
CONTINUOUS
 62
     7
 10
121.2109408115583
 20
132.3348617231445
  0
VERTEX
  8
0
  6
CONTINUOUS
 62
     7
 10
121.2001718282777
 20
132.3288551167062
  0
VERTEX
  8
0
  6
CONTINUOUS
 62
     7
 10
121.1895026184822
 20
132.3234357233434
  0
VERTEX
  8
0
  6
CONTINUOUS
 62
     7
 10
121.1785789781093
 20
132.31839543335
  0
VERTEX
  8
0
  6
CONTINUOUS
 62
     7
 10
121.1673411364137
 20
132.3137125913451
  0
VERTEX
  8
0
  6
CONTINUOUS
 62
     7
 10
121.1558838495347
 20
132.3094316342695
  0
VERTEX
  8
0
  6
CONTINUOUS
 62
     7
 10
121.1439711671173
 20
132.3054810258925
  0
VERTEX
  8
0
  6
CONTINUOUS
 62
     7
 10
121.1318718088814
 20
132.301965455798
  0
VERTEX
  8
0
  6
CONTINUOUS
 62
     7
 10
121.1195167877615
 20
132.2988709882867
  0
VERTEX
  8
0
  6
CONTINUOUS
 62
     7
 10
121.1070173743623
 20
132.2962306130338
  0
VERTEX
  8
0
  6
CONTINUOUS
 62
     7
 10
121.0962397894987
 20
132.2943385815457
  0
VERTEX
  8
0
  6
CONTINUOUS
 62
     7
 10
121.0853844327576
 20
132.29278389945
  0
VERTEX
  8
0
  6
CONTINUOUS
 62
     7
 10
121.0744731979852
 20
132.2915697837421
  0
VERTEX
  8
0
  6
CONTINUOUS
 62
     7
 10
121.0633812414481
 20
132.2906894187855
  0
VERTEX
  8
0
  6
CONTINUOUS
 62
     7
 10
121.0522547685536
 20
132.2901603767958
  0
VERTEX
  8
0
  6
CONTINUOUS
 62
     7
 10
121.0411167782948
 20
132.2899837800681
  0
SEQEND
  8
0
  6
CONTINUOUS
 62
     7
  0
LINE
  8
0
  6
CONTINUOUS
 62
     7
 10
119.3411167782948
 20
129.5428045569579
 11
121.3411167782948
 21
129.5428045569579
  0
LINE
  8
0
  6
CONTINUOUS
 62
     7
 10
119.3411167782948
 20
129.5428045569579
 11
119.3411167782948
 21
132.2899837800681
  0
LINE
  8
0
  6
CONTINUOUS
 62
     7
 10
119.3411167782948
 20
132.2899837800681
 11
121.0411167782948
 21
132.2899837800681
  0
LINE
  8
0
  6
CONTINUOUS
 62
     7
 10
119.3411167782948
 20
132.3379351347822
 11
119.3411167782948
 21
132.2899837800681
  0
LINE
  8
0
  6
CONTINUOUS
 62
     7
 10
119.3411167782948
 20
132.3968790690406
 11
119.3411167782948
 21
132.3379351347822
  0
LINE
  8
0
  6
CONTINUOUS
 62
     7
 10
119.3411167782948
 20
125.0011288022806
 11
119.3411167782948
 21
127.5433143828961
  0
LINE
  8
0
  6
CONTINUOUS
 62
     7
 10
119.3411167782948
 20
127.5600387165393
 11
119.3411167782948
 21
127.5433143828961
  0
LINE
  8
0
  6
CONTINUOUS
 62
     7
 10
119.3411167782948
 20
127.5667367535137
 11
119.3411167782948
 21
127.5600387165393
  0
POLYLINE
  8
0
  6
CONTINUOUS
 62
     7
 66
     1
  0
VERTEX
  8
0
  6
CONTINUOUS
 62
     7
 10
177.6411167781949
 20
131.58494831755
  0
VERTEX
  8
0
  6
CONTINUOUS
 62
     7
 10
177.6468811940739
 20
131.562079959002
  0
VERTEX
  8
0
  6
CONTINUOUS
 62
     7
 10
177.6639529184415
 20
131.5400904186482
  0
VERTEX
  8
0
  6
CONTINUOUS
 62
     7
 10
177.6916758945041
 20
131.5198247421926
  0
VERTEX
  8
0
  6
CONTINUOUS
 62
     7
 10
177.7289847438389
 20
131.5020617282162
  0
VERTEX
  8
0
  6
CONTINUOUS
 62
     7
 10
177.774445708289
 20
131.4874839993847
  0
VERTEX
  8
0
  6
CONTINUOUS
 62
     7
 10
177.8263117484853
 20
131.4766517696416
  0
VERTEX
  8
0
  6
CONTINUOUS
 62
     7
 10
177.88258968159
 20
131.4699813155012
  0
VERTEX
  8
0
  6
CONTINUOUS
 62
     7
 10
177.9411167781948
 20
131.4677289787753
  0
SEQEND
  8
0
  6
CONTINUOUS
 62
     7
  0
LINE
  8
0
  6
CONTINUOUS
 62
     7
 10
178.1411167791327
 20
131.4677289787666
 11
177.9411167781948
 21
131.4677289787666
  0
LINE
  8
0
  6
CONTINUOUS
 62
     7
 10
178.1411167791432
 20
131.0379247374223
 11
177.6411167781948
 21
131.0379247374221
  0
LINE
  8
0
  6
CONTINUOUS
 62
     7
 10
179.6411167783948
 20
127.8166676711091
 11
179.6411167783948
 21
130.9914427385876
  0
LINE
  8
0
  6
CONTINUOUS
 62
     7
 10
179.6411167783948
 20
127.8166676711091
 11
177.9411167781948
 21
127.8166676711091
  0
POLYLINE
  8
0
  6
CONTINUOUS
 62
     7
 66
     1
  0
VERTEX
  8
0
  6
CONTINUOUS
 62
     7
 10
177.6411167783948
 20
127.521160365712
  0
VERTEX
  8
0
  6
CONTINUOUS
 62
     7
 10
177.6413765922441
 20
127.5334535453434
  0
VERTEX
  8
0
  6
CONTINUOUS
 62
     7
 10
177.6421542643614
 20
127.5457344473407
  0
VERTEX
  8
0
  6
CONTINUOUS
 62
     7
 10
177.643447140601
 20
127.5579713818028
  0
VERTEX
  8
0
  6
CONTINUOUS
 62
     7
 10
177.6452525668171
 20
127.5701326588283
  0
VERTEX
  8
0
  6
CONTINUOUS
 62
     7
 10
177.6476455362508
 20
127.5825566409463
  0
VERTEX
  8
0
  6
CONTINUOUS
 62
     7
 10
177.6505774753561
 20
127.5948780228928
  0
VERTEX
  8
0
  6
CONTINUOUS
 62
     7
 10
177.6540396462805
 20
127.6070632897098
  0
VERTEX
  8
0
  6
CONTINUOUS
 62
     7
 10
177.6580233111712
 20
127.6190789264393
  0
VERTEX
  8
0
  6
CONTINUOUS
 62
     7
 10
177.6623923080844
 20
127.6305821452123
  0
VERTEX
  8
0
  6
CONTINUOUS
 62
     7
 10
177.6672465561277
 20
127.6419049306206
  0
VERTEX
  8
0
  6
CONTINUOUS
 62
     7
 10
177.6725728957799
 20
127.6530183322064
  0
VERTEX
  8
0
  6
CONTINUOUS
 62
     7
 10
177.6783581675201
 20
127.6638933995122
  0
VERTEX
  8
0
  6
CONTINUOUS
 62
     7
 10
177.6847867728604
 20
127.6748248110596
  0
VERTEX
  8
0
  6
CONTINUOUS
 62
     7
 10
177.6916901933607
 20
127.6854840122517
  0
VERTEX
  8
0
  6
CONTINUOUS
 62
     7
 10
177.6990488969176
 20
127.6958423176314
  0
VERTEX
  8
0
  6
CONTINUOUS
 62
     7
 10
177.7068433514275
 20
127.7058710417413
  0
VERTEX
  8
0
  6
CONTINUOUS
 62
     7
 10
177.7148290175471
 20
127.7152904768501
  0
VERTEX
  8
0
  6
CONTINUOUS
 62
     7
 10
177.7232124219528
 20
127.7243821179503
  0
VERTEX
  8
0
  6
CONTINUOUS
 62
     7
 10
177.7319713942304
 20
127.7331230096897
  0
VERTEX
  8
0
  6
CONTINUOUS
 62
     7
 10
177.7410837639654
 20
127.7414901967166
  0
VERTEX
  8
0
  6
CONTINUOUS
 62
     7
 10
177.7508224314113
 20
127.7497013993466
  0
VERTEX
  8
0
  6
CONTINUOUS
 62
     7
 10
177.7609180490022
 20
127.7575018926034
  0
VERTEX
  8
0
  6
CONTINUOUS
 62
     7
 10
177.7713425162392
 20
127.7648710199301
  0
VERTEX
  8
0
  6
CONTINUOUS
 62
     7
 10
177.7820677326239
 20
127.7717881247699
  0
VERTEX
  8
0
  6
CONTINUOUS
 62
     7
 10
177.7927705024845
 20
127.7780700126248
  0
VERTEX
  8
0
  6
CONTINUOUS
 62
     7
 10
177.8037387410129
 20
127.7839137874535
  0
VERTEX
  8
0
  6
CONTINUOUS
 62
     7
 10
177.814943770832
 20
127.7893050108813
  0
VERTEX
  8
0
  6
CONTINUOUS
 62
     7
 10
177.8263569145645
 20
127.7942292445336
  0
VERTEX
  8
0
  6
CONTINUOUS
 62
     7
 10
177.8383088898712
 20
127.7988029732196
  0
VERTEX
  8
0
  6
CONTINUOUS
 62
     7
 10
177.8504598239035
 20
127.8028736365754
  0
VERTEX
  8
0
  6
CONTINUOUS
 62
     7
 10
177.8627762108025
 20
127.8064308602383
  0
VERTEX
  8
0
  6
CONTINUOUS
 62
     7
 10
177.8752245447094
 20
127.8094642698458
  0
VERTEX
  8
0
  6
CONTINUOUS
 62
     7
 10
177.8882347400726
 20
127.8120462825697
  0
VERTEX
  8
0
  6
CONTINUOUS
 62
     7
 10
177.9013677965463
 20
127.8140618334569
  0
VERTEX
  8
0
  6
CONTINUOUS
 62
     7
 10
177.9145849786868
 20
127.8155067181084
  0
VERTEX
  8
0
  6
CONTINUOUS
 62
     7
 10
177.9278475510507
 20
127.8163767321252
  0
VERTEX
  8
0
  6
CONTINUOUS
 62
     7
 10
177.9411167781948
 20
127.8166676711091
  0
SEQEND
  8
0
  6
CONTINUOUS
 62
     7
  0
LINE
  8
0
  6
CONTINUOUS
 62
     7
 10
179.6411167783948
 20
125.5403260263151
 11
177.6411167781948
 21
125.5403260263151
  0
LINE
  8
0
  6
CONTINUOUS
 62
     7
 10
179.6411167783948
 20
125.0011288022806
 11
179.6411167783948
 21
125.5403260263151
  0
POLYLINE
  8
0
  6
CONTINUOUS
 62
     7
 66
     1
  0
VERTEX
  8
0
  6
CONTINUOUS
 62
     7
 10
177.6411167781949
 20
125.5891853219623
  0
VERTEX
  8
0
  6
CONTINUOUS
 62
     7
 10
177.6468811940739
 20
125.5871427556991
  0
VERTEX
  8
0
  6
CONTINUOUS
 62
     7
 10
177.6639529184415
 20
125.5851786841119
  0
VERTEX
  8
0
  6
CONTINUOUS
 62
     7
 10
177.6916758945041
 20
125.5833685853703
  0
VERTEX
  8
0
  6
CONTINUOUS
 62
     7
 10
177.7289847438389
 20
125.5817820205538
  0
VERTEX
  8
0
  6
CONTINUOUS
 62
     7
 10
177.774445708289
 20
125.5804799604587
  0
VERTEX
  8
0
  6
CONTINUOUS
 62
     7
 10
177.8263117484853
 20
125.5795124425242
  0
VERTEX
  8
0
  6
CONTINUOUS
 62
     7
 10
177.88258968159
 20
125.5789166479218
  0
VERTEX
  8
0
  6
CONTINUOUS
 62
     7
 10
177.9411167781948
 20
125.5787154727041
  0
SEQEND
  8
0
  6
CONTINUOUS
 62
     7
  0
LINE
  8
0
  6
CONTINUOUS
 62
     7
 10
178.1411167792537
 20
125.5787154727033
 11
177.9411167781948
 21
125.5787154727033
  0
LINE
  8
0
  6
CONTINUOUS
 62
     7
 10
179.6411167783948
 20
125.5775044587403
 11
179.6411167783948
 21
125.5403260263151
  0
ARC
  8
0
  6
CONTINUOUS
 62
     7
 10
186.3911167784002
 20
105.8511112643157
 40
1.250000000000001
 50
270.0000000000152
 51
0.0
  0
LINE
  8
0
  6
CONTINUOUS
 62
     7
 10
168.8911167784006
 20
104.6011112643111
 11
186.3911167784005
 21
104.6011112643157
  0
ARC
  8
0
  6
CONTINUOUS
 62
     7
 10
168.8911167784002
 20
105.8511112643111
 40
1.250000000000001
 50
180.0000000000151
 51
270.0000000000151
  0
ARC
  8
0
  6
CONTINUOUS
 62
     7
 10
112.5911167782948
 20
108.2011288022806
 40
1.250000000000001
 50
179.9999999999998
 51
270.0
  0
ARC
  8
0
  6
CONTINUOUS
 62
     7
 10
130.0911167782948
 20
108.2011288022806
 40
1.250000000000001
 50
270.0
 51
0.0
  0
LINE
  8
0
  6
CONTINUOUS
 62
     7
 10
112.5911167782948
 20
106.9511288022806
 11
130.0911167782948
 21
106.9511288022806
  0
ARC
  8
0
  6
CONTINUOUS
 62
     7
 10
119.1411167782948
 20
135.9099445056931
 40
0.3000000000000086
 50
90.0
 51
180.0
  0
LINE
  8
0
  6
CONTINUOUS
 62
     7
 10
119.1411167782948
 20
136.2099445056931
 11
120.8411167782948
 21
136.2099445056931
  0
ARC
  8
0
  6
CONTINUOUS
 62
     7
 10
119.1411167782948
 20
132.1824762326611
 40
0.3000000000000086
 50
90.0
 51
180.0
  0
LINE
  8
0
  6
CONTINUOUS
 62
     7
 10
119.1411167782948
 20
132.4824762326611
 11
120.8411167782948
 21
132.4824762326611
  0
ARC
  8
0
  6
CONTINUOUS
 62
     7
 10
119.1411167782948
 20
127.3416369162199
 40
0.3000000000000086
 50
90.0
 51
180.0
  0
LINE
  8
0
  6
CONTINUOUS
 62
     7
 10
119.1411167782948
 20
127.6416369162199
 11
120.8411167782948
 21
127.6416369162199
  0
LINE
  8
0
  6
CONTINUOUS
 62
     7
 10
146.4411167782948
 20
108.6511288022806
 11
149.4411167782948
 21
107.0511288022806
  0
LINE
  8
0
  6
CONTINUOUS
 62
     7
 10
149.4411167782948
 20
107.0511288022807
 11
167.6411167785442
 21
107.0511288022807
  0
LINE
  8
0
  6
CONTINUOUS
 62
     7
 10
131.3411167782948
 20
108.6511288022806
 11
146.4411167782948
 21
108.6511288022806
  0
ARC
  8
0
  6
CONTINUOUS
 62
     7
 10
121.0411167782948
 20
136.5977118864669
 40
0.2999999999999947
 50
270.0
 51
0.0
  0
LINE
  8
0
  6
CONTINUOUS
 62
     7
 10
121.0411167782948
 20
136.2977118864669
 11
120.8411167782948
 21
136.2977118864669
  0
ARC
  8
0
  6
CONTINUOUS
 62
     7
 10
121.0411167782948
 20
132.6968790690406
 40
0.2999999999999947
 50
270.0
 51
0.0
  0
LINE
  8
0
  6
CONTINUOUS
 62
     7
 10
121.0411167782948
 20
132.3968790690406
 11
119.3411167782948
 21
132.3968790690406
  0
ARC
  8
0
  6
CONTINUOUS
 62
     7
 10
121.0411167782948
 20
127.8667367535137
 40
0.2999999999999947
 50
270.0
 51
0.0
  0
LINE
  8
0
  6
CONTINUOUS
 62
     7
 10
121.0411167782948
 20
127.5667367535137
 11
119.3411167782948
 21
127.5667367535137
  0
TEXT
  8
0
  6
CONTINUOUS
 62
     8
 10
143.2636033362915
 20
149.541836344027
 40
3.0
  1
断面 A-A
  0
ENDBLK
  8
0
  0
BLOCK
  8
0
  2
D_FRAME_VIEW_4007
 70
     0
 10
0.0
 20
0.0
  0
ARC
  8
0
  6
CONTINUOUS
 62
     7
 10
168.9094807712687
 20
143.5724717336762
 40
1.268559174494898
 50
90.82945760499678
 51
181.0050947426749
  0
ENDBLK
  8
0
  0
BLOCK
  8
0
  2
*X5
 70
     1
 10
0.0
 20
0.0
  0
LINE
  8
0
  6
CONTINUOUS
 62
     9
 10
119.3411167782948
 20
139.3411167782948
 11
120.0511288022806
 21
140.0511288022806
  0
LINE
  8
0
  6
CONTINUOUS
 62
     9
 10
121.4506922466299
 20
138.9506922466299
 11
123.1388489282166
 21
140.6388489282166
  0
LINE
  8
0
  6
CONTINUOUS
 62
     9
 10
123.9407716117092
 20
138.9407716117092
 11
125.4411167782948
 21
140.4411167782948
  0
LINE
  8
0
  6
CONTINUOUS
 62
     9
 10
126.4308509767886
 20
138.9308509767886
 11
127.5011288022806
 21
140.0011288022806
  0
LINE
  8
0
  6
CONTINUOUS
 62
     9
 10
128.4411167782948
 20
140.9411167782948
 11
128.8511288022806
 21
141.3511288022806
  0
LINE
  8
0
  6
CONTINUOUS
 62
     9
 10
128.920930341868
 20
138.920930341868
 11
131.3511288022806
 21
141.3511288022806
  0
LINE
  8
0
  6
CONTINUOUS
 62
     9
 10
131.4110097069473
 20
138.9110097069473
 11
133.8511288022806
 21
141.3511288022806
  0
LINE
  8
0
  6
CONTINUOUS
 62
     9
 10
133.9010890720267
 20
138.9010890720267
 11
136.3511288022806
 21
141.3511288022806
  0
LINE
  8
0
  6
CONTINUOUS
 62
     9
 10
136.391168437106
 20
138.8911684371061
 11
138.8511288022806
 21
141.3511288022806
  0
LINE
  8
0
  6
CONTINUOUS
 62
     9
 10
138.8812478021854
 20
138.8812478021854
 11
141.3511288022806
 21
141.3511288022806
  0
LINE
  8
0
  6
CONTINUOUS
 62
     9
 10
141.3713271672648
 20
138.8713271672648
 11
143.8511288022806
 21
141.3511288022806
  0
LINE
  8
0
  6
CONTINUOUS
 62
     9
 10
143.8614065323441
 20
138.8614065323442
 11
146.3511288022806
 21
141.3511288022806
  0
LINE
  8
0
  6
CONTINUOUS
 62
     9
 10
146.1034572723657
 20
138.6034572723657
 11
150.4511288022806
 21
142.9511288022806
  0
LINE
  8
0
  6
CONTINUOUS
 62
     9
 10
146.8611706562577
 20
136.8611706562577
 11
149.4456865127539
 21
139.4456865127539
  0
LINE
  8
0
  6
CONTINUOUS
 62
     9
 10
150.3502394508049
 20
140.3502394508049
 11
152.9511288022806
 21
142.9511288022806
  0
LINE
  8
0
  6
CONTINUOUS
 62
     9
 10
152.8632871464268
 20
140.3632871464268
 11
155.4511288022806
 21
142.9511288022806
  0
LINE
  8
0
  6
CONTINUOUS
 62
     9
 10
155.3721816076087
 20
140.3721816076087
 11
157.9511288022806
 21
142.9511288022806
  0
LINE
  8
0
  6
CONTINUOUS
 62
     9
 10
157.8810760687907
 20
140.3810760687907
 11
160.4511288022806
 21
142.9511288022806
  0
LINE
  8
0
  6
CONTINUOUS
 62
     9
 10
160.3899705299726
 20
140.3899705299726
 11
162.9511288022806
 21
142.9511288022806
  0
LINE
  8
0
  6
CONTINUOUS
 62
     9
 10
162.8988649911545
 20
140.3988649911545
 11
165.4511288022806
 21
142.9511288022806
  0
LINE
  8
0
  6
CONTINUOUS
 62
     9
 10
165.4077594523365
 20
140.4077594523365
 11
167.9511288022806
 21
142.9511288022806
  0
LINE
  8
0
  6
CONTINUOUS
 62
     9
 10
167.9166539135184
 20
140.4166539135184
 11
170.4511288022806
 21
142.9511288022806
  0
LINE
  8
0
  6
CONTINUOUS
 62
     9
 10
170.4255483747004
 20
140.4255483747004
 11
171.6011288022845
 21
141.6011288022845
  0
LINE
  8
0
  6
CONTINUOUS
 62
     9
 10
172.9344428358823
 20
140.4344428358823
 11
175.1520584482596
 21
142.6520584482596
  0
LINE
  8
0
  6
CONTINUOUS
 62
     9
 10
175.4433372970643
 20
140.4433372970643
 11
176.8853917816134
 21
141.8853917816134
  0
LINE
  8
0
  6
CONTINUOUS
 62
     9
 10
177.9511288022813
 20
140.4511288022813
 11
179.0511288022801
 21
141.5511288022801
  0
ENDBLK
  8
0
  0
BLOCK
  8
0
  2
*X6
 70
     1
 10
0.0
 20
0.0
  0
LINE
  8
0
  6
CONTINUOUS
 62
     7
 10
129.4488711977195
 20
143.0511288022806
 11
130.9488711977194
 21
141.5511288022806
  0
LINE
  8
0
  6
CONTINUOUS
 62
     7
 10
126.9488711977195
 20
143.0511288022806
 11
128.4488711977195
 21
141.5511288022806
  0
LINE
  8
0
  6
CONTINUOUS
 62
     7
 10
124.4488711977195
 20
143.0511288022806
 11
127.2959228587239
 21
140.2040771412762
  0
LINE
  8
0
  6
CONTINUOUS
 62
     7
 10
121.9488711977194
 20
143.0511288022806
 11
123.4488711977195
 21
141.5511288022806
  0
LINE
  8
0
  6
CONTINUOUS
 62
     7
 10
119.4488711977194
 20
143.0511288022806
 11
120.9488711977195
 21
141.5511288022806
  0
LINE
  8
0
  6
CONTINUOUS
 62
     7
 10
116.9488711977194
 20
143.0511288022806
 11
118.8411167782948
 21
141.1588832217053
  0
LINE
  8
0
  6
CONTINUOUS
 62
     7
 10
114.4488711977194
 20
143.0511288022806
 11
118.4988711977195
 21
139.0011288022806
  0
LINE
  8
0
  6
CONTINUOUS
 62
     7
 10
112.0657122423472
 20
142.9342877576529
 11
115.9988711977195
 21
139.0011288022806
  0
LINE
  8
0
  6
CONTINUOUS
 62
     7
 10
111.3411167782948
 20
141.1588832217052
 11
113.4988711977195
 21
139.0011288022806
  0
ENDBLK
  8
0
  0
BLOCK
  8
0
  2
*X7
 70
     1
 10
0.0
 20
0.0
  0
LINE
  8
0
  6
CONTINUOUS
 62
     7
 10
184.5988539148205
 20
145.4011460851796
 11
187.6411167783903
 21
142.3588832216097
  0
LINE
  8
0
  6
CONTINUOUS
 62
     7
 10
182.0988539148211
 20
145.4011460851789
 11
186.7952068926902
 21
140.7047931073099
  0
LINE
  8
0
  6
CONTINUOUS
 62
     7
 10
179.5988539148218
 20
145.4011460851783
 11
184.4488711977203
 21
140.5511288022798
  0
LINE
  8
0
  6
CONTINUOUS
 62
     7
 10
177.0988539148224
 20
145.4011460851777
 11
179.3488711977216
 21
143.1511288022784
  0
LINE
  8
0
  6
CONTINUOUS
 62
     7
 10
180.1411167783904
 20
142.3588832216097
 11
181.948871197721
 21
140.5511288022791
  0
LINE
  8
0
  6
CONTINUOUS
 62
     7
 10
174.5988539148231
 20
145.401146085177
 11
176.8488711977224
 21
143.1511288022777
  0
LINE
  8
0
  6
CONTINUOUS
 62
     7
 10
172.0988539148237
 20
145.4011460851764
 11
174.348871197723
 21
143.1511288022771
  0
LINE
  8
0
  6
CONTINUOUS
 62
     7
 10
169.5988539148244
 20
145.4011460851757
 11
173.2988711977233
 21
141.7011288022768
  0
LINE
  8
0
  6
CONTINUOUS
 62
     7
 10
167.7806353484532
 20
144.7193646515469
 11
169.3488711977243
 21
143.1511288022758
  0
ENDBLK
  8
0
  0
ENDSEC
  0
SECTION
  2
ENTITIES
  0
INSERT
  8
0
  6
CONTINUOUS
 62
     7
  2
D_FRAME_VIEW_1292
 10
0.0
 20
0.0
 30
0.0
  0
LINE
  8
0
  6
CENTER
 62
     1
 10
215.0
 20
125.0011288022806
 11
265.0
 21
125.0011288022806
  0
LINE
  8
0
  6
CENTER
 62
    10
 10
30.0
 20
125.0011288022806
 11
80.0
 21
125.0011288022806
  0
LINE
  8
0
  6
CENTER
 62
    10
 10
55.00000000006716
 20
100.0
 11
55.00000000006716
 21
150.0
  0
LINE
  8
0
  6
CENTER
 62
     1
 10
239.9999999999328
 20
100.0
 11
239.9999999999328
 21
150.0
  0
LINE
  8
0
  6
CENTER
 62
     1
 10
108.3411167782948
 20
125.0011288022806
 11
190.64111677937
 21
125.0011288022806
  0
INSERT
  8
0
  6
CONTINUOUS
 62
     7
  2
D_FRAME_VIEW_4354
 10
0.0
 20
0.0
 30
0.0
  0
TEXT
  8
0
  6
CONTINUOUS
 62
     7
 10
138.6784292705532
 20
88.54630646721023
 40
3.0
  1
CDMFS-22GPC
  0
INSERT
  8
0
  6
CONTINUOUS
 62
     7
  2
D_FRAME_VIEW_4903
 10
0.0
 20
0.0
 30
0.0
  0
INSERT
  8
0
  6
CONTINUOUS
 62
     7
  2
D_FRAME_VIEW_4007
 10
0.0
 20
0.0
 30
0.0
  0
ENDSEC
  0
EOF
