  0
SECTION
  2
HEADER
  9
$ACADVER
  1
AC1006
  9
$DWGCODEPAGE
  3
ansi_932
  9
$INSBASE
 10
0.0
 20
0.0
 30
0.0
  9
$EXTMIN
 10
-318.929371794708
 20
17.34090909090909
  9
$EXTMAX
 10
-158.2154518690768
 20
287.2295838704418
  9
$LIMMIN
 10
0.0
 20
0.0
  9
$LIMMAX
 10
12.0
 20
9.0
  9
$ORTHOMODE
 70
     0
  9
$REGENMODE
 70
     1
  9
$FILLMODE
 70
     1
  9
$QTEXTMODE
 70
     0
  9
$MIRRTEXT
 70
     1
  9
$DRAGMODE
 70
     2
  9
$LTSCALE
 40
1.0
  9
$OSMODE
 70
    37
  9
$ATTMODE
 70
     1
  9
$TEXTSIZE
 40
0.2
  9
$TRACEWID
 40
0.05
  9
$TEXTSTYLE
  7
STANDARD
  9
$CLAYER
  8
0
  9
$CELTYPE
  6
BYLAYER
  9
$CECOLOR
 62
   256
  9
$DIMSCALE
 40
1.0
  9
$DIMASZ
 40
3.0
  9
$DIMEXO
 40
0.0625
  9
$DIMDLI
 40
0.38
  9
$DIMRND
 40
0.0
  9
$DIMDLE
 40
0.0
  9
$DIMEXE
 40
1.5
  9
$DIMTP
 40
0.0
  9
$DIMTM
 40
0.0
  9
$DIMTXT
 40
3.0
  9
$DIMCEN
 40
0.09
  9
$DIMTSZ
 40
0.0
  9
$DIMTOL
 70
     0
  9
$DIMLIM
 70
     0
  9
$DIMTIH
 70
     1
  9
$DIMTOH
 70
     1
  9
$DIMSE1
 70
     0
  9
$DIMSE2
 70
     0
  9
$DIMTAD
 70
     1
  9
$DIMZIN
 70
     0
  9
$DIMBLK
  1

  9
$DIMASO
 70
     1
  9
$DIMSHO
 70
     1
  9
$DIMPOST
  1

  9
$DIMAPOST
  1

  9
$DIMALT
 70
     0
  9
$DIMALTD
 70
     2
  9
$DIMALTF
 40
25.4
  9
$DIMLFAC
 40
1.0
  9
$DIMTOFL
 70
     0
  9
$DIMTVP
 40
0.0
  9
$DIMTIX
 70
     0
  9
$DIMSOXD
 70
     0
  9
$DIMSAH
 70
     0
  9
$DIMBLK1
  1

  9
$DIMBLK2
  1

  9
$LUNITS
 70
     2
  9
$LUPREC
 70
     4
  9
$SKETCHINC
 40
0.1
  9
$FILLETRAD
 40
0.5
  9
$AUNITS
 70
     0
  9
$AUPREC
 70
     0
  9
$MENU
  1
.
  9
$ELEVATION
 40
0.0
  9
$THICKNESS
 40
0.0
  9
$LIMCHECK
 70
     0
  9
$CHAMFERA
 40
0.0
  9
$CHAMFERB
 40
0.0
  9
$SKPOLY
 70
     0
  9
$TDCREATE
 40
2459395.584509653
  9
$TDUPDATE
 40
2459395.584510012
  9
$TDINDWG
 40
0.0000000116
  9
$TDUSRTIMER
 40
0.0000000116
  9
$USRTIMER
 70
     1
  9
$ANGBASE
 50
0.0
  9
$ANGDIR
 70
     0
  9
$PDMODE
 70
     0
  9
$PDSIZE
 40
0.0
  9
$PLINEWID
 40
0.0
  9
$COORDS
 70
     1
  9
$SPLFRAME
 70
     0
  9
$SPLINETYPE
 70
     6
  9
$SPLINESEGS
 70
     8
  9
$ATTDIA
 70
     0
  9
$ATTREQ
 70
     1
  9
$HANDLING
 70
     1
  9
$HANDSEED
  5
410
  9
$SURFTAB1
 70
     6
  9
$SURFTAB2
 70
     6
  9
$SURFTYPE
 70
     6
  9
$SURFU
 70
     6
  9
$SURFV
 70
     6
  9
$UCSNAME
  2

  9
$UCSORG
 10
0.0
 20
0.0
 30
0.0
  9
$UCSXDIR
 10
1.0
 20
0.0
 30
0.0
  9
$UCSYDIR
 10
0.0
 20
1.0
 30
0.0
  9
$USERI1
 70
     0
  9
$USERI2
 70
     0
  9
$USERI3
 70
     0
  9
$USERI4
 70
     0
  9
$USERI5
 70
     0
  9
$USERR1
 40
0.0
  9
$USERR2
 40
0.0
  9
$USERR3
 40
0.0
  9
$USERR4
 40
0.0
  9
$USERR5
 40
0.0
  9
$WORLDVIEW
 70
     1
  0
ENDSEC
  0
SECTION
  2
TABLES
  0
TABLE
  2
VPORT
 70
     1
  0
VPORT
  2
*ACTIVE
 70
     0
 10
0.0
 20
0.0
 11
1.0
 21
1.0
 12
-238.5724118318924
 22
152.2852464806754
 13
0.0
 23
0.0
 14
0.5
 24
0.5
 15
0.5
 25
0.5
 16
0.0
 26
0.0
 36
1.0
 17
0.0
 27
0.0
 37
0.0
 40
269.8886747795327
 41
1.6
 42
50.0
 43
0.0
 44
0.0
 50
0.0
 51
0.0
 71
     0
 72
   100
 73
     1
 74
     3
 75
     0
 76
     0
 77
     0
 78
     0
  0
ENDTAB
  0
TABLE
  2
LTYPE
 70
     1
  0
LTYPE
  2
CONTINUOUS
 70
     0
  3
Solid line
 72
    65
 73
     0
 40
0.0
  0
ENDTAB
  0
TABLE
  2
LAYER
 70
     1
  0
LAYER
  2
0
 70
     0
 62
     7
  6
CONTINUOUS
  0
ENDTAB
  0
TABLE
  2
STYLE
 70
     2
  0
STYLE
  2
STANDARD
 70
     0
 40
0.0
 41
1.0
 50
0.0
 71
     0
 42
0.2
  3
txt
  4

  0
STYLE
  2
ＭＳ_ゴシック
 70
     0
 40
0.0
 41
1.0
 50
0.0
 71
     0
 42
0.2
  3
ＭＳ ゴシック.shx
  4

  0
ENDTAB
  0
TABLE
  2
VIEW
 70
     0
  0
ENDTAB
  0
TABLE
  2
UCS
 70
     0
  0
ENDTAB
  0
ENDSEC
  0
SECTION
  2
BLOCKS
  0
BLOCK
  8
0
  2
D_FRAME_VIEW_7287
 70
     0
 10
0.0
 20
0.0
 30
0.0
  0
LINE
  5
70
  8
0
  6
CONTINUOUS
 62
     7
 10
-207.1154518690768
 20
146.6295838696037
 30
0.0
 11
-207.1154518690768
 21
145.6295838696037
 31
0.0
  0
LINE
  5
71
  8
0
  6
CONTINUOUS
 62
     7
 10
-208.431823342426
 20
143.9871553410408
 30
0.0
 11
-208.431823342426
 21
143.9295838696037
 31
0.0
  0
ARC
  5
72
  8
0
  6
CONTINUOUS
 62
     7
 10
-202.3154518690768
 20
146.1295838696037
 30
0.0
 40
6.480740698407859
 50
188.8763950809733
 51
199.3042196067915
  0
LINE
  5
73
  8
0
  6
CONTINUOUS
 62
     7
 10
-208.7185761065096
 20
145.6295838696037
 30
0.0
 11
-208.7185761065096
 21
145.1295838696037
 31
0.0
  0
LINE
  5
74
  8
0
  6
CONTINUOUS
 62
     7
 10
-208.431823342426
 20
148.3295838696037
 30
0.0
 11
-208.431823342426
 21
148.2720123981665
 31
0.0
  0
LINE
  5
75
  8
0
  6
CONTINUOUS
 62
     7
 10
-208.7185761065096
 20
147.1295838696037
 30
0.0
 11
-208.7185761065096
 21
146.6295838696037
 31
0.0
  0
ARC
  5
76
  8
0
  6
CONTINUOUS
 62
     7
 10
-202.3154518690768
 20
146.1295838696037
 30
0.0
 40
6.480740698407849
 50
160.6957803932083
 51
171.1236049190266
  0
LINE
  5
77
  8
0
  6
CONTINUOUS
 62
     7
 10
-207.1154518690768
 20
251.6295838696037
 30
0.0
 11
-207.1154518690768
 21
250.6295838696037
 31
0.0
  0
LINE
  5
78
  8
0
  6
CONTINUOUS
 62
     7
 10
-208.431823342426
 20
253.3295838696037
 30
0.0
 11
-208.431823342426
 21
253.2720123981665
 31
0.0
  0
LINE
  5
79
  8
0
  6
CONTINUOUS
 62
     7
 10
-208.7185761065096
 20
252.1295838696037
 30
0.0
 11
-208.7185761065096
 21
251.6295838696037
 31
0.0
  0
ARC
  5
7A
  8
0
  6
CONTINUOUS
 62
     7
 10
-202.3154518690768
 20
251.1295838696037
 30
0.0
 40
6.480740698407854
 50
160.6957803932083
 51
171.1236049190266
  0
LINE
  5
7B
  8
0
  6
CONTINUOUS
 62
     7
 10
-208.431823342426
 20
248.9871553410408
 30
0.0
 11
-208.431823342426
 21
248.9295838696037
 31
0.0
  0
ARC
  5
7C
  8
0
  6
CONTINUOUS
 62
     7
 10
-202.3154518690768
 20
251.1295838696037
 30
0.0
 40
6.480740698407859
 50
188.8763950809733
 51
199.3042196067915
  0
LINE
  5
7D
  8
0
  6
CONTINUOUS
 62
     7
 10
-208.7185761065096
 20
250.6295838696037
 30
0.0
 11
-208.7185761065096
 21
250.1295838696037
 31
0.0
  0
POLYLINE
  5
7E
  8
0
  6
CONTINUOUS
 62
     7
 66
     1
 10
0.0
 20
0.0
 30
0.0
  0
VERTEX
  5
216
  8
0
  6
CONTINUOUS
 62
     7
 10
-183.1134110527503
 20
286.2295838704863
 30
0.0
  0
VERTEX
  5
217
  8
0
  6
CONTINUOUS
 62
     7
 10
-183.0975205040041
 20
286.2293071455898
 30
0.0
  0
VERTEX
  5
218
  8
0
  6
CONTINUOUS
 62
     7
 10
-183.0817558796784
 20
286.228481830001
 30
0.0
  0
VERTEX
  5
219
  8
0
  6
CONTINUOUS
 62
     7
 10
-183.0661667358184
 20
286.2271152123715
 30
0.0
  0
VERTEX
  5
21A
  8
0
  6
CONTINUOUS
 62
     7
 10
-183.0508026284692
 20
286.2252145813527
 30
0.0
  0
VERTEX
  5
21B
  8
0
  6
CONTINUOUS
 62
     7
 10
-183.0351470004031
 20
286.2226893933236
 30
0.0
  0
VERTEX
  5
21C
  8
0
  6
CONTINUOUS
 62
     7
 10
-183.0197608083875
 20
286.2196121854465
 30
0.0
  0
VERTEX
  5
21D
  8
0
  6
CONTINUOUS
 62
     7
 10
-183.004685461448
 20
286.2160040052648
 30
0.0
  0
VERTEX
  5
21E
  8
0
  6
CONTINUOUS
 62
     7
 10
-182.9899623686104
 20
286.2118859003219
 30
0.0
  0
VERTEX
  5
21F
  8
0
  6
CONTINUOUS
 62
     7
 10
-182.9713810216322
 20
286.2057947194224
 30
0.0
  0
VERTEX
  5
220
  8
0
  6
CONTINUOUS
 62
     7
 10
-182.9534000412397
 20
286.1988970887816
 30
0.0
  0
VERTEX
  5
221
  8
0
  6
CONTINUOUS
 62
     7
 10
-182.9360585772876
 20
286.1912514749226
 30
0.0
  0
VERTEX
  5
222
  8
0
  6
CONTINUOUS
 62
     7
 10
-182.919395779631
 20
286.1829163443692
 30
0.0
  0
VERTEX
  5
223
  8
0
  6
CONTINUOUS
 62
     7
 10
-182.9034507981247
 20
286.1739501636445
 30
0.0
  0
VERTEX
  5
224
  8
0
  6
CONTINUOUS
 62
     7
 10
-182.8882627826235
 20
286.1644113992718
 30
0.0
  0
VERTEX
  5
225
  8
0
  6
CONTINUOUS
 62
     7
 10
-182.8729402253297
 20
286.1536918556357
 30
0.0
  0
VERTEX
  5
226
  8
0
  6
CONTINUOUS
 62
     7
 10
-182.8583998281575
 20
286.1423955273115
 30
0.0
  0
VERTEX
  5
227
  8
0
  6
CONTINUOUS
 62
     7
 10
-182.8446467154326
 20
286.1305791779651
 30
0.0
  0
VERTEX
  5
228
  8
0
  6
CONTINUOUS
 62
     7
 10
-182.8316860114805
 20
286.1182995712624
 30
0.0
  0
VERTEX
  5
229
  8
0
  6
CONTINUOUS
 62
     7
 10
-182.8151656429501
 20
286.1007695323332
 30
0.0
  0
VERTEX
  5
22A
  8
0
  6
CONTINUOUS
 62
     7
 10
-182.8000414364371
 20
286.082507464625
 30
0.0
  0
VERTEX
  5
22B
  8
0
  6
CONTINUOUS
 62
     7
 10
-182.7862946331304
 20
286.0636212262278
 30
0.0
  0
VERTEX
  5
22C
  8
0
  6
CONTINUOUS
 62
     7
 10
-182.7736102650389
 20
286.0437261573317
 30
0.0
  0
VERTEX
  5
22D
  8
0
  6
CONTINUOUS
 62
     7
 10
-182.7622667149708
 20
286.0232979212092
 30
0.0
  0
VERTEX
  5
22E
  8
0
  6
CONTINUOUS
 62
     7
 10
-182.7522359138596
 20
286.0024157430734
 30
0.0
  0
VERTEX
  5
22F
  8
0
  6
CONTINUOUS
 62
     7
 10
-182.7434897926387
 20
285.9811588481371
 30
0.0
  0
VERTEX
  5
230
  8
0
  6
CONTINUOUS
 62
     7
 10
-182.7335114044336
 20
285.951475573837
 30
0.0
  0
VERTEX
  5
231
  8
0
  6
CONTINUOUS
 62
     7
 10
-182.7257806021119
 20
285.9212399987194
 30
0.0
  0
VERTEX
  5
232
  8
0
  6
CONTINUOUS
 62
     7
 10
-182.7202382448714
 20
285.8905915360776
 30
0.0
  0
VERTEX
  5
233
  8
0
  6
CONTINUOUS
 62
     7
 10
-182.7166399040015
 20
285.8571554147036
 30
0.0
  0
VERTEX
  5
234
  8
0
  6
CONTINUOUS
 62
     7
 10
-182.7154518690768
 20
285.823420787777
 30
0.0
  0
SEQEND
  5
3FF
  8
0
  6
CONTINUOUS
 62
     7
  0
LINE
  5
7F
  8
0
  6
CONTINUOUS
 62
     7
 10
-183.1134110527503
 20
286.2295838696037
 30
0.0
 11
-178.7664722772402
 21
286.2295838696037
 31
0.0
  0
POLYLINE
  5
80
  8
0
  6
CONTINUOUS
 62
     7
 66
     1
 10
0.0
 20
0.0
 30
0.0
  0
VERTEX
  5
235
  8
0
  6
CONTINUOUS
 62
     7
 10
-179.2154518690768
 20
285.772162542072
 30
0.0
  0
VERTEX
  5
236
  8
0
  6
CONTINUOUS
 62
     7
 10
-179.2146765320144
 20
285.7998798530714
 30
0.0
  0
VERTEX
  5
237
  8
0
  6
CONTINUOUS
 62
     7
 10
-179.2123395668781
 20
285.8275218450353
 30
0.0
  0
VERTEX
  5
238
  8
0
  6
CONTINUOUS
 62
     7
 10
-179.2084245427439
 20
285.8550180606438
 30
0.0
  0
VERTEX
  5
239
  8
0
  6
CONTINUOUS
 62
     7
 10
-179.202915028688
 20
285.8822980425768
 30
0.0
  0
VERTEX
  5
23A
  8
0
  6
CONTINUOUS
 62
     7
 10
-179.1955460059905
 20
285.9101269840432
 30
0.0
  0
VERTEX
  5
23B
  8
0
  6
CONTINUOUS
 62
     7
 10
-179.1864098804164
 20
285.9376597861263
 30
0.0
  0
VERTEX
  5
23C
  8
0
  6
CONTINUOUS
 62
     7
 10
-179.1754725380072
 20
285.9647924840613
 30
0.0
  0
VERTEX
  5
23D
  8
0
  6
CONTINUOUS
 62
     7
 10
-179.1626998648041
 20
285.9914211130836
 30
0.0
  0
VERTEX
  5
23E
  8
0
  6
CONTINUOUS
 62
     7
 10
-179.1500257936243
 20
286.0141606634135
 30
0.0
  0
VERTEX
  5
23F
  8
0
  6
CONTINUOUS
 62
     7
 10
-179.1358285763874
 20
286.0364677145606
 30
0.0
  0
VERTEX
  5
240
  8
0
  6
CONTINUOUS
 62
     7
 10
-179.1200876472986
 20
286.0582207875547
 30
0.0
  0
VERTEX
  5
241
  8
0
  6
CONTINUOUS
 62
     7
 10
-179.1027824405632
 20
286.0792984034257
 30
0.0
  0
VERTEX
  5
242
  8
0
  6
CONTINUOUS
 62
     7
 10
-179.0838923903866
 20
286.0995790832035
 30
0.0
  0
VERTEX
  5
243
  8
0
  6
CONTINUOUS
 62
     7
 10
-179.0633969309739
 20
286.1189413479178
 30
0.0
  0
VERTEX
  5
244
  8
0
  6
CONTINUOUS
 62
     7
 10
-179.0470372892334
 20
286.1327234483237
 30
0.0
  0
VERTEX
  5
245
  8
0
  6
CONTINUOUS
 62
     7
 10
-179.0297239618579
 20
286.1459005436672
 30
0.0
  0
VERTEX
  5
246
  8
0
  6
CONTINUOUS
 62
     7
 10
-179.0114704074722
 20
286.1583927873423
 30
0.0
  0
VERTEX
  5
247
  8
0
  6
CONTINUOUS
 62
     7
 10
-178.996792488785
 20
286.1674891709808
 30
0.0
  0
VERTEX
  5
248
  8
0
  6
CONTINUOUS
 62
     7
 10
-178.981540130263
 20
286.1761190115612
 30
0.0
  0
VERTEX
  5
249
  8
0
  6
CONTINUOUS
 62
     7
 10
-178.9657359904712
 20
286.1842384413966
 30
0.0
  0
VERTEX
  5
24A
  8
0
  6
CONTINUOUS
 62
     7
 10
-178.9494027279743
 20
286.1918035928001
 30
0.0
  0
VERTEX
  5
24B
  8
0
  6
CONTINUOUS
 62
     7
 10
-178.931732644685
 20
286.1990956867432
 30
0.0
  0
VERTEX
  5
24C
  8
0
  6
CONTINUOUS
 62
     7
 10
-178.9134939730779
 20
286.2057088785539
 30
0.0
  0
VERTEX
  5
24D
  8
0
  6
CONTINUOUS
 62
     7
 10
-178.894741025143
 20
286.2115911873552
 30
0.0
  0
VERTEX
  5
24E
  8
0
  6
CONTINUOUS
 62
     7
 10
-178.8799565311736
 20
286.2155981689297
 30
0.0
  0
VERTEX
  5
24F
  8
0
  6
CONTINUOUS
 62
     7
 10
-178.8648867035511
 20
286.2191341805874
 30
0.0
  0
VERTEX
  5
250
  8
0
  6
CONTINUOUS
 62
     7
 10
-178.8495704809568
 20
286.2221801230436
 30
0.0
  0
VERTEX
  5
251
  8
0
  6
CONTINUOUS
 62
     7
 10
-178.8340468020721
 20
286.2247168970136
 30
0.0
  0
VERTEX
  5
252
  8
0
  6
CONTINUOUS
 62
     7
 10
-178.8173952075846
 20
286.2268326583124
 30
0.0
  0
VERTEX
  5
253
  8
0
  6
CONTINUOUS
 62
     7
 10
-178.8005423492546
 20
286.2283550919273
 30
0.0
  0
VERTEX
  5
254
  8
0
  6
CONTINUOUS
 62
     7
 10
-178.7835480861254
 20
286.2292751714572
 30
0.0
  0
VERTEX
  5
255
  8
0
  6
CONTINUOUS
 62
     7
 10
-178.7664722772401
 20
286.2295838705006
 30
0.0
  0
SEQEND
  5
400
  8
0
  6
CONTINUOUS
 62
     7
  0
LINE
  5
81
  8
0
  6
CONTINUOUS
 62
     7
 10
-193.4154518690765
 20
287.2295838696037
 30
0.0
 11
-167.0154518690771
 21
287.2295838696037
 31
0.0
  0
LINE
  5
82
  8
0
  6
CONTINUOUS
 62
     7
 10
-205.7154518690767
 20
197.8795838696037
 30
0.0
 11
-203.2154518690767
 21
197.8795838696037
 31
0.0
  0
LINE
  5
83
  8
0
  6
CONTINUOUS
 62
     7
 10
-205.7154518690767
 20
199.3795838696037
 30
0.0
 11
-203.2154518690767
 21
199.3795838696037
 31
0.0
  0
LINE
  5
84
  8
0
  6
CONTINUOUS
 62
     7
 10
-205.7154518690767
 20
139.1295838696037
 30
0.0
 11
-203.2154518690767
 21
139.1295838696037
 31
0.0
  0
LINE
  5
85
  8
0
  6
CONTINUOUS
 62
     7
 10
-205.7154518690767
 20
258.1295838696037
 30
0.0
 11
-203.2154518690767
 21
258.1295838696037
 31
0.0
  0
LINE
  5
86
  8
0
  6
CONTINUOUS
 62
     9
 10
-213.5182275068088
 20
197.6295838696036
 30
0.0
 11
-213.5182275068095
 21
199.6295838696036
 31
0.0
  0
LINE
  5
87
  8
0
  6
CONTINUOUS
 62
     9
 10
-213.5182275068088
 20
224.6295838696036
 30
0.0
 11
-213.5182275068095
 21
226.6295838696036
 31
0.0
  0
LINE
  5
88
  8
0
  6
CONTINUOUS
 62
     9
 10
-213.5182275068088
 20
170.6295838696036
 30
0.0
 11
-213.5182275068094
 21
172.6295838696036
 31
0.0
  0
LINE
  5
89
  8
0
  6
CONTINUOUS
 62
     7
 10
-205.7154518690769
 20
151.6651798960937
 30
0.0
 11
-216.2154518690768
 21
151.6651798960937
 31
0.0
  0
LINE
  5
8A
  8
0
  6
CONTINUOUS
 62
     7
 10
-205.7154518690769
 20
245.5939878431136
 30
0.0
 11
-216.2154518690768
 21
245.5939878431136
 31
0.0
  0
LINE
  5
8B
  8
0
  6
CONTINUOUS
 62
     7
 10
-205.7154518690767
 20
138.8295838696037
 30
0.0
 11
-203.2154518690767
 21
138.8295838696037
 31
0.0
  0
LINE
  5
8C
  8
0
  6
CONTINUOUS
 62
     7
 10
-205.7154518690767
 20
258.4295838696036
 30
0.0
 11
-203.2154518690767
 21
258.4295838696036
 31
0.0
  0
ARC
  5
8D
  8
0
  6
CONTINUOUS
 62
     7
 10
-170.3154518690768
 20
248.1295838696036
 30
0.0
 40
0.5000000000000004
 50
270.0
 51
0.0000000000015916
  0
LINE
  5
8E
  8
0
  6
CONTINUOUS
 62
     7
 10
-179.3154518690768
 20
247.6295838696037
 30
0.0
 11
-170.3154518690768
 21
247.6295838696036
 31
0.0
  0
ARC
  5
8F
  8
0
  6
CONTINUOUS
 62
     7
 10
-179.3154518690768
 20
248.1295838696037
 30
0.0
 40
0.5000000000000004
 50
180.0000000000016
 51
270.0000000000004
  0
LINE
  5
90
  8
0
  6
CONTINUOUS
 62
     7
 10
-179.8154518690768
 20
248.6295838696037
 30
0.0
 11
-179.8154518690768
 21
248.1295838696036
 31
0.0
  0
ARC
  5
91
  8
0
  6
CONTINUOUS
 62
     7
 10
-179.3154518690768
 20
248.6295838696036
 30
0.0
 40
0.5000000000000004
 50
90.0
 51
179.9999999999984
  0
LINE
  5
92
  8
0
  6
CONTINUOUS
 62
     7
 10
-170.3154518690768
 20
249.1295838696036
 30
0.0
 11
-179.3154518690768
 21
249.1295838696036
 31
0.0
  0
ARC
  5
93
  8
0
  6
CONTINUOUS
 62
     7
 10
-170.3154518690768
 20
248.6295838696037
 30
0.0
 40
0.5000000000000004
 50
359.9999999999985
 51
90.00000000000021
  0
LINE
  5
94
  8
0
  6
CONTINUOUS
 62
     7
 10
-169.8154518690768
 20
248.1295838696037
 30
0.0
 11
-169.8154518690768
 21
248.6295838696036
 31
0.0
  0
LINE
  5
95
  8
0
  6
CONTINUOUS
 62
     7
 10
-183.2154518690768
 20
198.3795838696037
 30
0.0
 11
-183.2154518690768
 21
198.8795838696037
 31
0.0
  0
ARC
  5
96
  8
0
  6
CONTINUOUS
 62
     7
 10
-183.7154518690768
 20
198.3795838696037
 30
0.0
 40
0.5000000000000004
 50
270.0
 51
0.0
  0
LINE
  5
97
  8
0
  6
CONTINUOUS
 62
     7
 10
-197.2154518690768
 20
198.8795838696037
 30
0.0
 11
-197.2154518690768
 21
198.3795838696037
 31
0.0
  0
ARC
  5
98
  8
0
  6
CONTINUOUS
 62
     7
 10
-183.7154518690768
 20
198.8795838696037
 30
0.0
 40
0.5000000000000004
 50
359.9999999999998
 51
89.9999999999992
  0
ARC
  5
99
  8
0
  6
CONTINUOUS
 62
     7
 10
-196.7154518690768
 20
198.3795838696037
 30
0.0
 40
0.5000000000000004
 50
180.0
 51
269.9999999999992
  0
ARC
  5
9A
  8
0
  6
CONTINUOUS
 62
     7
 10
-196.7154518690768
 20
198.8795838696037
 30
0.0
 40
0.5000000000000004
 50
90.0
 51
180.0
  0
LINE
  5
9B
  8
0
  6
CONTINUOUS
 62
     7
 10
-196.7154518690768
 20
197.8795838696037
 30
0.0
 11
-183.7154518690768
 21
197.8795838696037
 31
0.0
  0
LINE
  5
9C
  8
0
  6
CONTINUOUS
 62
     7
 10
-183.7154518690768
 20
199.3795838696037
 30
0.0
 11
-196.7154518690768
 21
199.3795838696037
 31
0.0
  0
LINE
  5
9D
  8
0
  6
CONTINUOUS
 62
     7
 10
-169.8154518690768
 20
149.1295838696036
 30
0.0
 11
-169.8154518690768
 21
148.6295838696037
 31
0.0
  0
ARC
  5
9E
  8
0
  6
CONTINUOUS
 62
     7
 10
-170.3154518690768
 20
149.1295838696037
 30
0.0
 40
0.5000000000000004
 50
359.9999999999985
 51
90.0
  0
LINE
  5
9F
  8
0
  6
CONTINUOUS
 62
     7
 10
-179.3154518690768
 20
149.6295838696036
 30
0.0
 11
-170.3154518690768
 21
149.6295838696037
 31
0.0
  0
ARC
  5
A0
  8
0
  6
CONTINUOUS
 62
     7
 10
-179.3154518690768
 20
149.1295838696036
 30
0.0
 40
0.5000000000000004
 50
89.99999999999962
 51
179.9999999999984
  0
LINE
  5
A1
  8
0
  6
CONTINUOUS
 62
     7
 10
-179.8154518690768
 20
148.6295838696036
 30
0.0
 11
-179.8154518690768
 21
149.1295838696037
 31
0.0
  0
ARC
  5
A2
  8
0
  6
CONTINUOUS
 62
     7
 10
-179.3154518690768
 20
148.6295838696037
 30
0.0
 40
0.5000000000000004
 50
180.0000000000016
 51
270.0
  0
LINE
  5
A3
  8
0
  6
CONTINUOUS
 62
     7
 10
-170.3154518690768
 20
148.1295838696037
 30
0.0
 11
-179.3154518690768
 21
148.1295838696037
 31
0.0
  0
ARC
  5
A4
  8
0
  6
CONTINUOUS
 62
     7
 10
-170.3154518690768
 20
148.6295838696036
 30
0.0
 40
0.5000000000000004
 50
269.9999999999998
 51
0.0000000000015916
  0
ARC
  5
A5
  8
0
  6
CONTINUOUS
 62
     7
 10
-156.0715137208352
 20
255.422649033363
 30
0.0
 40
9.547303121898542
 50
237.3990728610389
 51
250.7736347659734
  0
LINE
  5
A6
  8
0
  6
CONTINUOUS
 62
     7
 10
-203.2154518690768
 20
257.1295838696037
 30
0.0
 11
-161.2154518690768
 21
257.1295838696037
 31
0.0
  0
LINE
  5
A7
  8
0
  6
CONTINUOUS
 62
     7
 10
-162.3154518690768
 20
253.3795838696037
 30
0.0
 11
-164.5154518690768
 21
253.3795838696037
 31
0.0
  0
LINE
  5
A8
  8
0
  6
CONTINUOUS
 62
     7
 10
-164.5154518690768
 20
246.8795838696036
 30
0.0
 11
-162.3154518690768
 21
246.8795838696036
 31
0.0
  0
ARC
  5
A9
  8
0
  6
CONTINUOUS
 62
     7
 10
-163.4154518690768
 20
250.1295838696037
 30
0.0
 40
2.250000000000019
 50
299.2675775975314
 51
60.73242240246918
  0
ARC
  5
AA
  8
0
  6
CONTINUOUS
 62
     7
 10
-163.4154518690768
 20
250.1295838696037
 30
0.0
 40
2.249999999999981
 50
119.2675775975309
 51
240.7324224024692
  0
CIRCLE
  5
AB
  8
0
  6
CONTINUOUS
 62
     7
 10
-163.4154518690768
 20
147.1295838696036
 30
0.0
 40
2.250000000000002
  0
CIRCLE
  5
AC
  8
0
  6
CONTINUOUS
 62
     7
 10
-179.8154518690768
 20
171.1295838696037
 30
0.0
 40
13.54999999999998
  0
CIRCLE
  5
AD
  8
0
  6
CONTINUOUS
 62
     7
 10
-179.8154518690768
 20
226.1295838696037
 30
0.0
 40
13.55000000000001
  0
LINE
  5
AE
  8
0
  6
CONTINUOUS
 62
     7
 10
-158.979383891577
 20
150.8513204131169
 30
0.0
 11
-159.2154518690768
 21
150.8513204131169
 31
0.0
  0
ARC
  5
AF
  8
0
  6
CONTINUOUS
 62
     7
 10
-156.0995834459298
 20
141.8942910007775
 30
0.0
 40
9.483512636353582
 50
109.1811760276806
 51
122.6461163453072
  0
LINE
  5
B0
  8
0
  6
CONTINUOUS
 62
     7
 10
-159.2154518690768
 20
246.4078473260904
 30
0.0
 11
-158.979383891577
 21
246.4078473260904
 31
0.0
  0
ARC
  5
B1
  8
0
  6
CONTINUOUS
 62
     7
 10
-159.2154518690768
 20
247.3795838696037
 30
0.0
 40
0.9999999999999977
 50
283.6545847459752
 51
0.0
  0
LINE
  5
B2
  8
0
  6
CONTINUOUS
 62
     7
 10
-161.2154518690768
 20
140.1295838696037
 30
0.0
 11
-203.2154518690768
 21
140.1295838696037
 31
0.0
  0
ARC
  5
B3
  8
0
  6
CONTINUOUS
 62
     7
 10
-159.2154518690768
 20
149.8795838696036
 30
0.0
 40
0.9999999999999977
 50
0.0
 51
76.34541525402487
  0
ARC
  5
B4
  8
0
  6
CONTINUOUS
 62
     7
 10
-161.2154518690768
 20
254.1295838696037
 30
0.0
 40
3.000000000000003
 50
0.0
 51
90.00000000000006
  0
LINE
  5
B5
  8
0
  6
CONTINUOUS
 62
     7
 10
-159.1844389017452
 20
253.8791028518433
 30
0.0
 11
-159.2154518690768
 21
253.8791382142547
 31
0.0
  0
ARC
  5
B6
  8
0
  6
CONTINUOUS
 62
     7
 10
-158.1005169489331
 20
248.8576436062923
 30
0.0
 40
5.143781485828356
 50
102.5184476680357
 51
127.2700820851205
  0
ARC
  5
B7
  8
0
  6
CONTINUOUS
 62
     7
 10
-158.1809657391957
 20
148.2281666148243
 30
0.0
 40
4.957276953640898
 50
232.2564969508619
 51
257.9549732960554
  0
LINE
  5
B8
  8
0
  6
CONTINUOUS
 62
     7
 10
-159.2154518690733
 20
143.3800295249526
 30
0.0
 11
-159.1844389017342
 21
143.3800648873644
 31
0.0
  0
ARC
  5
B9
  8
0
  6
CONTINUOUS
 62
     7
 10
-161.2154518690768
 20
143.1295838696037
 30
0.0
 40
3.000000000000003
 50
269.9999999999999
 51
0.0
  0
ARC
  5
BA
  8
0
  6
CONTINUOUS
 62
     7
 10
-159.2154518690768
 20
252.8795838696037
 30
0.0
 40
0.9999999999999991
 50
0.0
 51
88.22280289812471
  0
ARC
  5
BB
  8
0
  6
CONTINUOUS
 62
     7
 10
-159.2154518690768
 20
144.3795838696036
 30
0.0
 40
0.9999999999999941
 50
271.777197102507
 51
0.0
  0
LINE
  5
BC
  8
0
  6
CONTINUOUS
 62
     9
 10
-181.5005464045869
 20
259.2760304790104
 30
0.0
 11
-178.9303573335668
 21
259.2760304790104
 31
0.0
  0
ARC
  5
BD
  8
0
  6
CONTINUOUS
 62
     9
 10
-180.2705570528939
 20
260.174409659519
 30
0.0
 40
1.695161089524539
 50
178.9844491547155
 51
198.5806480711992
  0
POLYLINE
  5
BE
  8
0
  6
CONTINUOUS
 62
     9
 66
     1
 10
0.0
 20
0.0
 30
0.0
  0
VERTEX
  5
256
  8
0
  6
CONTINUOUS
 62
     9
 10
-181.8773597115871
 20
259.6342649238654
 30
0.0
  0
VERTEX
  5
257
  8
0
  6
CONTINUOUS
 62
     9
 10
-181.8233346827741
 20
259.5120626888736
 30
0.0
  0
VERTEX
  5
258
  8
0
  6
CONTINUOUS
 62
     9
 10
-181.7604031551651
 20
259.4148908548214
 30
0.0
  0
VERTEX
  5
259
  8
0
  6
CONTINUOUS
 62
     9
 10
-181.6840244400627
 20
259.3381448631285
 30
0.0
  0
VERTEX
  5
25A
  8
0
  6
CONTINUOUS
 62
     9
 10
-181.5908474965346
 20
259.2880160116708
 30
0.0
  0
VERTEX
  5
25B
  8
0
  6
CONTINUOUS
 62
     9
 10
-181.5005464045869
 20
259.2760304790104
 30
0.0
  0
SEQEND
  5
401
  8
0
  6
CONTINUOUS
 62
     9
  0
POLYLINE
  5
BF
  8
0
  6
CONTINUOUS
 62
     9
 66
     1
 10
0.0
 20
0.0
 30
0.0
  0
VERTEX
  5
25C
  8
0
  6
CONTINUOUS
 62
     9
 10
-178.9303573335668
 20
259.2760304790104
 30
0.0
  0
VERTEX
  5
25D
  8
0
  6
CONTINUOUS
 62
     9
 10
-178.8252487724985
 20
259.2932557414401
 30
0.0
  0
VERTEX
  5
25E
  8
0
  6
CONTINUOUS
 62
     9
 10
-178.7344523046955
 20
259.3481721162026
 30
0.0
  0
VERTEX
  5
25F
  8
0
  6
CONTINUOUS
 62
     9
 10
-178.6636451275997
 20
259.4237480793914
 30
0.0
  0
VERTEX
  5
260
  8
0
  6
CONTINUOUS
 62
     9
 10
-178.6011891239421
 20
259.5242314458961
 30
0.0
  0
SEQEND
  5
402
  8
0
  6
CONTINUOUS
 62
     9
  0
ARC
  5
C0
  8
0
  6
CONTINUOUS
 62
     9
 10
-179.9599754617376
 20
260.1490293230706
 30
0.0
 40
1.49555096840649
 50
335.3060565640126
 51
2.123863201185031
  0
LINE
  5
C1
  8
0
  6
CONTINUOUS
 62
     7
 10
-205.7154518690767
 20
149.6295838696037
 30
0.0
 11
-207.1966561681211
 21
149.4999952850714
 31
0.0
  0
LINE
  5
C2
  8
0
  6
CONTINUOUS
 62
     7
 10
-207.1966561681211
 20
142.7591724541359
 30
0.0
 11
-205.7154518690768
 21
142.6295838696036
 31
0.0
  0
ARC
  5
C3
  8
0
  6
CONTINUOUS
 62
     7
 10
-207.0833537025491
 20
148.2049421775521
 30
0.0
 40
1.299999999999993
 50
95.0000000000001
 51
156.4776124730936
  0
ARC
  5
C4
  8
0
  6
CONTINUOUS
 62
     7
 10
-207.0833537025491
 20
144.0542255616552
 30
0.0
 40
1.299999999999997
 50
203.5223875269064
 51
264.9999999999999
  0
ARC
  5
C5
  8
0
  6
CONTINUOUS
 62
     7
 10
-202.3154518690768
 20
146.1295838696037
 30
0.0
 40
6.49999999999999
 50
199.7831703726617
 51
203.5223875269062
  0
ARC
  5
C6
  8
0
  6
CONTINUOUS
 62
     7
 10
-202.3154518690768
 20
146.1295838696037
 30
0.0
 40
6.500000000000004
 50
156.4776124730938
 51
160.2168296273383
  0
LINE
  5
C7
  8
0
  6
CONTINUOUS
 62
     7
 10
-205.7154518690767
 20
254.6295838696037
 30
0.0
 11
-207.1966561681211
 21
254.4999952850714
 31
0.0
  0
LINE
  5
C8
  8
0
  6
CONTINUOUS
 62
     7
 10
-207.1966561681211
 20
247.7591724541359
 30
0.0
 11
-205.7154518690767
 21
247.6295838696036
 31
0.0
  0
ARC
  5
C9
  8
0
  6
CONTINUOUS
 62
     7
 10
-207.0833537025491
 20
253.2049421775522
 30
0.0
 40
1.299999999999993
 50
95.0000000000001
 51
156.4776124730936
  0
ARC
  5
CA
  8
0
  6
CONTINUOUS
 62
     7
 10
-207.0833537025491
 20
249.0542255616552
 30
0.0
 40
1.299999999999997
 50
203.5223875269064
 51
264.9999999999999
  0
ARC
  5
CB
  8
0
  6
CONTINUOUS
 62
     7
 10
-202.3154518690768
 20
251.1295838696037
 30
0.0
 40
6.50000000000001
 50
156.4776124730938
 51
160.2168296273383
  0
ARC
  5
CC
  8
0
  6
CONTINUOUS
 62
     7
 10
-202.3154518690768
 20
251.1295838696037
 30
0.0
 40
6.499999999999985
 50
199.7831703726617
 51
203.5223875269062
  0
ARC
  5
CD
  8
0
  6
CONTINUOUS
 62
     7
 10
-193.4154518690767
 20
286.2295838696037
 30
0.0
 40
1.000000000000001
 50
90.00000000000797
 51
180.0
  0
ARC
  5
CE
  8
0
  6
CONTINUOUS
 62
     7
 10
-167.015451869077
 20
286.2295838696037
 30
0.0
 40
1.000000000000001
 50
0.0
 51
89.99999999999167
  0
ARC
  5
CF
  8
0
  6
CONTINUOUS
 62
     7
 10
-167.015451869077
 20
269.2295838696039
 30
0.0
 40
1.000000000000001
 50
270.000000000008
 51
0.0
  0
LINE
  5
D0
  8
0
  6
CONTINUOUS
 62
     7
 10
-166.0154518690768
 20
269.2295838696039
 30
0.0
 11
-166.0154518690768
 21
286.2295838696037
 31
0.0
  0
ARC
  5
D1
  8
0
  6
CONTINUOUS
 62
     7
 10
-193.4154518690767
 20
269.2295838696039
 30
0.0
 40
1.000000000000001
 50
180.0
 51
269.9999999999916
  0
LINE
  5
D2
  8
0
  6
CONTINUOUS
 62
     7
 10
-194.4154518690768
 20
286.2295838696037
 30
0.0
 11
-194.4154518690768
 21
269.2295838696039
 31
0.0
  0
LINE
  5
D3
  8
0
  6
CONTINUOUS
 62
     7
 10
-216.2154518690771
 20
151.3795838696036
 30
0.0
 11
-205.7154518690772
 21
151.3795838696036
 31
0.0
  0
LINE
  5
D4
  8
0
  6
CONTINUOUS
 62
     7
 10
-205.7154518690772
 20
245.8795838696037
 30
0.0
 11
-216.2154518690771
 21
245.8795838696037
 31
0.0
  0
LINE
  5
D5
  8
0
  6
CONTINUOUS
 62
     7
 10
-193.0154518690768
 20
268.2295838698087
 30
0.0
 11
-193.0154518690768
 21
257.1295838696037
 31
0.0
  0
LINE
  5
D6
  8
0
  6
CONTINUOUS
 62
     7
 10
-167.4154518690768
 20
257.1295838696037
 30
0.0
 11
-167.4154518690768
 21
268.2295838698087
 31
0.0
  0
ENDBLK
  8
0
  0
BLOCK
  8
0
  2
D_FRAME_VIEW_7481
 70
     0
 10
0.0
 20
0.0
 30
0.0
  0
LINE
  5
DB
  8
0
  6
CONTINUOUS
 62
     7
 10
-301.5018559236443
 20
85.48178440183166
 30
0.0
 11
-301.5390703922463
 21
85.48178440183166
 31
0.0
  0
LINE
  5
DC
  8
0
  6
CONTINUOUS
 62
     7
 10
-308.2124894208225
 20
85.562988700876
 30
0.0
 11
-308.2196731971696
 21
85.48178440183166
 31
0.0
  0
LINE
  5
DD
  8
0
  6
CONTINUOUS
 62
     7
 10
-301.5390703922463
 20
85.48178440183166
 30
0.0
 11
-301.5462541685934
 21
85.562988700876
 31
0.0
  0
LINE
  5
DE
  8
0
  6
CONTINUOUS
 62
     7
 10
-308.2196731971696
 20
85.48178440183166
 30
0.0
 11
-308.2568876657716
 21
85.48178440183166
 31
0.0
  0
ARC
  5
DF
  8
0
  6
CONTINUOUS
 62
     7
 10
-302.8388863336714
 20
85.44605577061739
 30
0.0
 40
1.297910329866056
 50
5.168970405222453
 51
67.09885075470952
  0
ARC
  5
E0
  8
0
  6
CONTINUOUS
 62
     7
 10
-306.9197966417279
 20
85.44601151514183
 30
0.0
 40
1.297974685078757
 50
112.9028537878537
 51
174.8293250522136
  0
LINE
  5
E1
  8
0
  6
CONTINUOUS
 62
     7
 10
-304.379371794708
 20
86.79815587518085
 30
0.0
 11
-305.379371794708
 21
86.79815587518085
 31
0.0
  0
LINE
  5
E2
  8
0
  6
CONTINUOUS
 62
     7
 10
-304.379371794708
 20
87.08490863926451
 30
0.0
 11
-304.379371794708
 21
86.79815587518088
 31
0.0
  0
LINE
  5
E3
  8
0
  6
CONTINUOUS
 62
     7
 10
-303.8793717947079
 20
87.08490863926451
 30
0.0
 11
-304.3793717947079
 21
87.08490863926451
 31
0.0
  0
ARC
  5
E4
  8
0
  6
CONTINUOUS
 62
     7
 10
-304.8793717947079
 20
80.68178440183165
 30
0.0
 40
6.480740698407867
 50
66.87190898975544
 51
81.12360491902666
  0
ARC
  5
E5
  8
0
  6
CONTINUOUS
 62
     7
 10
-304.8793717947079
 20
80.68178440183165
 30
0.0
 40
6.480740698407859
 50
98.87639508097337
 51
113.1280910102446
  0
LINE
  5
E6
  8
0
  6
CONTINUOUS
 62
     7
 10
-305.379371794708
 20
87.08490863926451
 30
0.0
 11
-305.879371794708
 21
87.08490863926451
 31
0.0
  0
LINE
  5
E7
  8
0
  6
CONTINUOUS
 62
     7
 10
-305.379371794708
 20
86.79815587518085
 30
0.0
 11
-305.379371794708
 21
87.0849086392645
 31
0.0
  0
LINE
  5
E8
  8
0
  6
CONTINUOUS
 62
     7
 10
-281.8793717947079
 20
84.08178440183164
 30
0.0
 11
-281.8793717947079
 21
81.58178440183165
 31
0.0
  0
LINE
  5
E9
  8
0
  6
CONTINUOUS
 62
     7
 10
-283.379371794708
 20
84.08178440183164
 30
0.0
 11
-283.379371794708
 21
81.58178440183165
 31
0.0
  0
LINE
  5
EA
  8
0
  6
CONTINUOUS
 62
     7
 10
-246.6293717947079
 20
84.08178440183164
 30
0.0
 11
-246.6293717947079
 21
81.58178440183165
 31
0.0
  0
LINE
  5
EB
  8
0
  6
CONTINUOUS
 62
     7
 10
-318.6293717947079
 20
84.08178440183164
 30
0.0
 11
-318.6293717947079
 21
81.58178440183165
 31
0.0
  0
LINE
  5
EC
  8
0
  6
CONTINUOUS
 62
     7
 10
-284.3786548481454
 20
84.08178440183181
 30
0.0
 11
-284.3786548481454
 21
94.58178440183164
 31
0.0
  0
LINE
  5
ED
  8
0
  6
CONTINUOUS
 62
     7
 10
-280.8800887412705
 20
84.08178440183181
 30
0.0
 11
-280.8800887412705
 21
94.58178440183164
 31
0.0
  0
LINE
  5
EE
  8
0
  6
CONTINUOUS
 62
     7
 10
-254.629371794708
 20
84.08178440183181
 30
0.0
 11
-254.629371794708
 21
94.58178440183164
 31
0.0
  0
LINE
  5
EF
  8
0
  6
CONTINUOUS
 62
     7
 10
-310.6293717947079
 20
84.08178440183181
 30
0.0
 11
-310.6293717947079
 21
94.58178440183164
 31
0.0
  0
LINE
  5
F0
  8
0
  6
CONTINUOUS
 62
     7
 10
-249.9262383305579
 20
84.52708420560643
 30
0.0
 11
-254.4614220890459
 21
91.32985984333841
 31
0.0
  0
ARC
  5
F1
  8
0
  6
CONTINUOUS
 62
     7
 10
-249.09418803622
 20
85.08178440183164
 30
0.0
 40
1.000000000000001
 50
213.6900675259794
 51
270.0
  0
ARC
  5
F2
  8
0
  6
CONTINUOUS
 62
     7
 10
-253.629371794708
 20
91.88456003956367
 30
0.0
 40
1.000000000000006
 50
180.0
 51
213.6900675259797
  0
ARC
  5
F3
  8
0
  6
CONTINUOUS
 62
     7
 10
-311.6293717947079
 20
91.88456003956364
 30
0.0
 40
1.000000000000001
 50
326.3099324740205
 51
0.0
  0
ARC
  5
F4
  8
0
  6
CONTINUOUS
 62
     7
 10
-316.1645555531958
 20
85.08178440183164
 30
0.0
 40
1.000000000000006
 50
270.0
 51
326.3099324740203
  0
LINE
  5
F5
  8
0
  6
CONTINUOUS
 62
     7
 10
-310.7973215003701
 20
91.32985984333841
 30
0.0
 11
-315.332505258858
 21
84.52708420560643
 31
0.0
  0
LINE
  5
F6
  8
0
  6
CONTINUOUS
 62
     7
 10
-246.3293717947079
 20
84.08178440183164
 30
0.0
 11
-246.3293717947079
 21
81.58178440183165
 31
0.0
  0
LINE
  5
F7
  8
0
  6
CONTINUOUS
 62
     7
 10
-318.929371794708
 20
84.08178440183164
 30
0.0
 11
-318.929371794708
 21
81.58178440183165
 31
0.0
  0
LINE
  5
F8
  8
0
  6
CONTINUOUS
 62
     9
 10
-316.6178775230622
 20
37.58178440183171
 30
0.0
 11
-316.6178775230622
 21
39.58178440183172
 31
0.0
  0
LINE
  5
F9
  8
0
  6
CONTINUOUS
 62
     9
 10
-316.6293717947079
 20
37.58178440183171
 30
0.0
 11
-316.6178775230622
 21
37.58178440183171
 31
0.0
  0
LINE
  5
FA
  8
0
  6
CONTINUOUS
 62
     7
 10
-316.6293717947079
 20
40.68178440183171
 30
0.0
 11
-316.5664316320327
 21
40.68178440183171
 31
0.0
  0
LINE
  5
FB
  8
0
  6
CONTINUOUS
 62
     7
 10
-316.5664316320326
 20
40.68178440183171
 30
0.0
 11
-316.5664316320326
 21
42.88178440183171
 31
0.0
  0
LINE
  5
FC
  8
0
  6
CONTINUOUS
 62
     7
 10
-316.6293717947079
 20
42.88178440183171
 30
0.0
 11
-316.5664316320327
 21
42.88178440183171
 31
0.0
  0
ARC
  5
FD
  8
0
  6
CONTINUOUS
 62
     7
 10
-313.5207538644411
 20
39.33718914355344
 30
0.0
 40
2.7567980861898
 50
220.3913220606649
 51
268.1782755244462
  0
LINE
  5
FE
  8
0
  6
CONTINUOUS
 62
     7
 10
-315.6204318056502
 20
37.55077143450008
 30
0.0
 11
-315.6502833062719
 21
37.58178440183171
 31
0.0
  0
ARC
  5
FF
  8
0
  6
CONTINUOUS
 62
     7
 10
-313.4606389106461
 20
39.87518767094077
 30
0.0
 40
3.170842338252642
 50
185.3092678181365
 51
226.3258579425749
  0
LINE
  5
100
  8
0
  6
CONTINUOUS
 62
     9
 10
-248.6408660663536
 20
37.58178440183171
 30
0.0
 11
-248.6408660663536
 21
39.58178440183172
 31
0.0
  0
LINE
  5
101
  8
0
  6
CONTINUOUS
 62
     7
 10
-248.6293717947079
 20
81.5817844018317
 30
0.0
 11
-248.6293717947079
 21
37.5817844018317
 31
0.0
  0
LINE
  5
102
  8
0
  6
CONTINUOUS
 62
     9
 10
-248.6293717947079
 20
37.58178440183171
 30
0.0
 11
-248.6408660663537
 21
37.58178440183171
 31
0.0
  0
ARC
  5
103
  8
0
  6
CONTINUOUS
 62
     7
 10
-305.6793717947079
 20
32.99937181103262
 30
0.0
 40
3.878618306912383
 50
67.46283727193372
 51
112.5371627280663
  0
LINE
  5
104
  8
0
  6
CONTINUOUS
 62
     7
 10
-249.6084602831474
 20
37.58178440182816
 30
0.0
 11
-249.6383117837763
 21
37.55077143448905
 31
0.0
  0
ARC
  5
105
  8
0
  6
CONTINUOUS
 62
     7
 10
-251.7463024389747
 20
39.35444996650719
 30
0.0
 40
2.774325296223664
 50
271.9819811401624
 51
319.4484212744544
  0
ARC
  5
106
  8
0
  6
CONTINUOUS
 62
     7
 10
-251.7869497749427
 20
39.86979096072444
 30
0.0
 40
3.159238908252238
 50
313.5954070937021
 51
354.7694671455079
  0
ARC
  5
107
  8
0
  6
CONTINUOUS
 62
     7
 10
-271.129371794708
 20
37.08178440183171
 30
0.0
 40
0.4999999999999935
 50
270.0
 51
0.0000000000000568
  0
CIRCLE
  5
108
  8
0
  6
CONTINUOUS
 62
     7
 10
-288.1293717947079
 20
61.0817844018317
 30
0.0
 40
13.54999999999999
  0
ARC
  5
109
  8
0
  6
CONTINUOUS
 62
     7
 10
-262.1293717947079
 20
37.08178440183171
 30
0.0
 40
0.5000000000000004
 50
180.0
 51
270.0
  0
POLYLINE
  5
10A
  8
0
  6
CONTINUOUS
 62
     9
 66
     1
 10
0.0
 20
0.0
 30
0.0
  0
VERTEX
  5
261
  8
0
  6
CONTINUOUS
 62
     9
 10
-249.6383117837657
 20
36.58178440183171
 30
0.0
  0
VERTEX
  5
262
  8
0
  6
CONTINUOUS
 62
     9
 10
-249.4437197775622
 20
36.60099912142848
 30
0.0
  0
VERTEX
  5
263
  8
0
  6
CONTINUOUS
 62
     9
 10
-249.2566058330286
 20
36.65790486932043
 30
0.0
  0
VERTEX
  5
264
  8
0
  6
CONTINUOUS
 62
     9
 10
-249.0841606341187
 20
36.75031478952916
 30
0.0
  0
VERTEX
  5
265
  8
0
  6
CONTINUOUS
 62
     9
 10
-248.9330111531182
 20
36.87467762064517
 30
0.0
  0
VERTEX
  5
266
  8
0
  6
CONTINUOUS
 62
     9
 10
-248.8089659798163
 20
37.02621416881211
 30
0.0
  0
VERTEX
  5
267
  8
0
  6
CONTINUOUS
 62
     9
 10
-248.7167921006577
 20
37.19910096946662
 30
0.0
  0
VERTEX
  5
268
  8
0
  6
CONTINUOUS
 62
     9
 10
-248.6600317061267
 20
37.38669407981558
 30
0.0
  0
VERTEX
  5
269
  8
0
  6
CONTINUOUS
 62
     9
 10
-248.6408660663537
 20
37.58178440183171
 30
0.0
  0
SEQEND
  5
403
  8
0
  6
CONTINUOUS
 62
     9
  0
POLYLINE
  5
10B
  8
0
  6
CONTINUOUS
 62
     9
 66
     1
 10
0.0
 20
0.0
 30
0.0
  0
VERTEX
  5
26A
  8
0
  6
CONTINUOUS
 62
     9
 10
-316.6178775230622
 20
37.58178440183171
 30
0.0
  0
VERTEX
  5
26B
  8
0
  6
CONTINUOUS
 62
     9
 10
-316.5987118832892
 20
37.38669407981558
 30
0.0
  0
VERTEX
  5
26C
  8
0
  6
CONTINUOUS
 62
     9
 10
-316.5419514887582
 20
37.19910096946662
 30
0.0
  0
VERTEX
  5
26D
  8
0
  6
CONTINUOUS
 62
     9
 10
-316.4497776095996
 20
37.02621416881211
 30
0.0
  0
VERTEX
  5
26E
  8
0
  6
CONTINUOUS
 62
     9
 10
-316.3257324362978
 20
36.87467762064517
 30
0.0
  0
VERTEX
  5
26F
  8
0
  6
CONTINUOUS
 62
     9
 10
-316.1745829552972
 20
36.75031478952916
 30
0.0
  0
VERTEX
  5
270
  8
0
  6
CONTINUOUS
 62
     9
 10
-316.0021377563873
 20
36.65790486932043
 30
0.0
  0
VERTEX
  5
271
  8
0
  6
CONTINUOUS
 62
     9
 10
-315.8150238118537
 20
36.60099912142848
 30
0.0
  0
VERTEX
  5
272
  8
0
  6
CONTINUOUS
 62
     9
 10
-315.6204318056502
 20
36.58178440183171
 30
0.0
  0
SEQEND
  5
404
  8
0
  6
CONTINUOUS
 62
     9
  0
ARC
  5
10C
  8
0
  6
CONTINUOUS
 62
     7
 10
-315.6293717947079
 20
37.58178440183171
 30
0.0
 40
1.000000000000001
 50
180.0
 51
270.0
  0
ARC
  5
10D
  8
0
  6
CONTINUOUS
 62
     7
 10
-249.6293717947079
 20
37.58178440183171
 30
0.0
 40
1.000000000000001
 50
270.0
 51
0.0
  0
LINE
  5
10E
  8
0
  6
CONTINUOUS
 62
     7
 10
-316.6293717947079
 20
48.18178440183171
 30
0.0
 11
-318.6293717947079
 21
48.18178440183171
 31
0.0
  0
LINE
  5
10F
  8
0
  6
CONTINUOUS
 62
     7
 10
-316.6293717947079
 20
72.58178440183171
 30
0.0
 11
-318.6293717947079
 21
72.58178440183171
 31
0.0
  0
LINE
  5
110
  8
0
  6
CONTINUOUS
 62
     7
 10
-248.6293717947079
 20
48.18178440183171
 30
0.0
 11
-246.6293717947079
 21
48.18178440183171
 31
0.0
  0
LINE
  5
111
  8
0
  6
CONTINUOUS
 62
     7
 10
-316.6293717947079
 20
58.18178440183172
 30
0.0
 11
-318.6293717947079
 21
58.18178440183172
 31
0.0
  0
LINE
  5
112
  8
0
  6
CONTINUOUS
 62
     7
 10
-248.6293717947079
 20
58.18178440183172
 30
0.0
 11
-246.6293717947079
 21
58.18178440183172
 31
0.0
  0
LINE
  5
113
  8
0
  6
CONTINUOUS
 62
     7
 10
-316.6293717947079
 20
75.58178440183171
 30
0.0
 11
-318.6293717947079
 21
75.58178440183171
 31
0.0
  0
LINE
  5
114
  8
0
  6
CONTINUOUS
 62
     7
 10
-248.6293717947079
 20
75.58178440183171
 30
0.0
 11
-246.6293717947079
 21
75.58178440183171
 31
0.0
  0
LINE
  5
115
  8
0
  6
CONTINUOUS
 62
     7
 10
-248.6293717947079
 20
61.5817844018317
 30
0.0
 11
-246.6293717947079
 21
61.5817844018317
 31
0.0
  0
LINE
  5
116
  8
0
  6
CONTINUOUS
 62
     7
 10
-316.6293717947079
 20
61.5817844018317
 30
0.0
 11
-318.6293717947079
 21
61.5817844018317
 31
0.0
  0
LINE
  5
117
  8
0
  6
CONTINUOUS
 62
     7
 10
-301.379371794708
 20
84.08178440183164
 30
0.0
 11
-301.5018559236443
 21
85.48178440183165
 31
0.0
  0
LINE
  5
118
  8
0
  6
CONTINUOUS
 62
     7
 10
-308.2568876657716
 20
85.48178440183166
 30
0.0
 11
-308.3793717947079
 21
84.08178440183165
 31
0.0
  0
ENDBLK
  8
0
  0
BLOCK
  8
0
  2
D_FRAME_VIEW_6510
 70
     0
 10
0.0
 20
0.0
 30
0.0
  0
ARC
  5
11D
  8
0
  6
CONTINUOUS
 62
     7
 10
-304.8793717947079
 20
146.1295838696037
 30
0.0
 40
2.199999999999993
 50
256.8634412130551
 51
283.1365587869449
  0
LINE
  5
11E
  8
0
  6
CONTINUOUS
 62
     7
 10
-304.379371794708
 20
145.1295838696037
 30
0.0
 11
-304.379371794708
 21
143.9871553410408
 31
0.0
  0
POLYLINE
  5
11F
  8
0
  6
CONTINUOUS
 62
     7
 66
     1
 10
0.0
 20
0.0
 30
0.0
  0
VERTEX
  5
275
  8
0
  6
CONTINUOUS
 62
     7
 10
-303.8793717947079
 20
145.6295838696037
 30
0.0
  0
VERTEX
  5
276
  8
0
  6
CONTINUOUS
 62
     7
 10
-303.8998069316674
 20
145.6291644950675
 30
0.0
  0
VERTEX
  5
277
  8
0
  6
CONTINUOUS
 62
     7
 10
-303.9202451151352
 20
145.6279075815748
 30
0.0
  0
VERTEX
  5
278
  8
0
  6
CONTINUOUS
 62
     7
 10
-303.940634505268
 20
145.6258149442997
 30
0.0
  0
VERTEX
  5
279
  8
0
  6
CONTINUOUS
 62
     7
 10
-303.9609232622225
 20
145.6228883984161
 30
0.0
  0
VERTEX
  5
27A
  8
0
  6
CONTINUOUS
 62
     7
 10
-303.9816688350526
 20
145.6190054043384
 30
0.0
  0
VERTEX
  5
27B
  8
0
  6
CONTINUOUS
 62
     7
 10
-304.002269940192
 20
145.614241181998
 30
0.0
  0
VERTEX
  5
27C
  8
0
  6
CONTINUOUS
 62
     7
 10
-304.02266988574
 20
145.608607651224
 30
0.0
  0
VERTEX
  5
27D
  8
0
  6
CONTINUOUS
 62
     7
 10
-304.0428119797959
 20
145.6021167318455
 30
0.0
  0
VERTEX
  5
27E
  8
0
  6
CONTINUOUS
 62
     7
 10
-304.0621307021514
 20
145.5949841716207
 30
0.0
  0
VERTEX
  5
27F
  8
0
  6
CONTINUOUS
 62
     7
 10
-304.0811698052032
 20
145.5870491350011
 30
0.0
  0
VERTEX
  5
280
  8
0
  6
CONTINUOUS
 62
     7
 10
-304.0998788399804
 20
145.5783320221839
 30
0.0
  0
VERTEX
  5
281
  8
0
  6
CONTINUOUS
 62
     7
 10
-304.1182073575122
 20
145.5688532333662
 30
0.0
  0
VERTEX
  5
282
  8
0
  6
CONTINUOUS
 62
     7
 10
-304.1366648772263
 20
145.5583008647674
 30
0.0
  0
VERTEX
  5
283
  8
0
  6
CONTINUOUS
 62
     7
 10
-304.1546827171338
 20
145.5469569956062
 30
0.0
  0
VERTEX
  5
284
  8
0
  6
CONTINUOUS
 62
     7
 10
-304.1722099374396
 20
145.5348539225709
 30
0.0
  0
VERTEX
  5
285
  8
0
  6
CONTINUOUS
 62
     7
 10
-304.1891955983493
 20
145.52202394235
 30
0.0
  0
VERTEX
  5
286
  8
0
  6
CONTINUOUS
 62
     7
 10
-304.2049541229447
 20
145.5090498537952
 30
0.0
  0
VERTEX
  5
287
  8
0
  6
CONTINUOUS
 62
     7
 10
-304.2201855312217
 20
145.4954293945541
 30
0.0
  0
VERTEX
  5
288
  8
0
  6
CONTINUOUS
 62
     7
 10
-304.2348505664412
 20
145.4811988986797
 30
0.0
  0
VERTEX
  5
289
  8
0
  6
CONTINUOUS
 62
     7
 10
-304.2489099718644
 20
145.4663947002252
 30
0.0
  0
VERTEX
  5
28A
  8
0
  6
CONTINUOUS
 62
     7
 10
-304.2627349113552
 20
145.4505679888857
 30
0.0
  0
VERTEX
  5
28B
  8
0
  6
CONTINUOUS
 62
     7
 10
-304.2758925029072
 20
145.4341621346425
 30
0.0
  0
VERTEX
  5
28C
  8
0
  6
CONTINUOUS
 62
     7
 10
-304.2883478431679
 20
145.4172237050808
 30
0.0
  0
VERTEX
  5
28D
  8
0
  6
CONTINUOUS
 62
     7
 10
-304.3000660287844
 20
145.3997992677859
 30
0.0
  0
VERTEX
  5
28E
  8
0
  6
CONTINUOUS
 62
     7
 10
-304.3106751274344
 20
145.3825182452638
 30
0.0
  0
VERTEX
  5
28F
  8
0
  6
CONTINUOUS
 62
     7
 10
-304.3205787311137
 20
145.3648146644002
 30
0.0
  0
VERTEX
  5
290
  8
0
  6
CONTINUOUS
 62
     7
 10
-304.3297536096775
 20
145.3467349284933
 30
0.0
  0
VERTEX
  5
291
  8
0
  6
CONTINUOUS
 62
     7
 10
-304.3381765329812
 20
145.3283254408412
 30
0.0
  0
VERTEX
  5
292
  8
0
  6
CONTINUOUS
 62
     7
 10
-304.3460467883979
 20
145.3090627711178
 30
0.0
  0
VERTEX
  5
293
  8
0
  6
CONTINUOUS
 62
     7
 10
-304.3531100976602
 20
145.2894865355007
 30
0.0
  0
VERTEX
  5
294
  8
0
  6
CONTINUOUS
 62
     7
 10
-304.3593506875095
 20
145.2696498744113
 30
0.0
  0
VERTEX
  5
295
  8
0
  6
CONTINUOUS
 62
     7
 10
-304.3647527846873
 20
145.2496059282708
 30
0.0
  0
VERTEX
  5
296
  8
0
  6
CONTINUOUS
 62
     7
 10
-304.3699983015429
 20
145.2259167317604
 30
0.0
  0
VERTEX
  5
297
  8
0
  6
CONTINUOUS
 62
     7
 10
-304.3740894585047
 20
145.2019840148368
 30
0.0
  0
VERTEX
  5
298
  8
0
  6
CONTINUOUS
 62
     7
 10
-304.3770197580408
 20
145.1778936903017
 30
0.0
  0
VERTEX
  5
299
  8
0
  6
CONTINUOUS
 62
     7
 10
-304.3787827026192
 20
145.1537316709568
 30
0.0
  0
VERTEX
  5
29A
  8
0
  6
CONTINUOUS
 62
     7
 10
-304.379371794708
 20
145.1295838696037
 30
0.0
  0
SEQEND
  5
405
  8
0
  6
CONTINUOUS
 62
     7
  0
POLYLINE
  5
120
  8
0
  6
CONTINUOUS
 62
     7
 66
     1
 10
0.0
 20
0.0
 30
0.0
  0
VERTEX
  5
29B
  8
0
  6
CONTINUOUS
 62
     7
 10
-305.379371794708
 20
145.1295838696037
 30
0.0
  0
VERTEX
  5
29C
  8
0
  6
CONTINUOUS
 62
     7
 10
-305.3797911692441
 20
145.1500190065631
 30
0.0
  0
VERTEX
  5
29D
  8
0
  6
CONTINUOUS
 62
     7
 10
-305.3810480827368
 20
145.1704571900309
 30
0.0
  0
VERTEX
  5
29E
  8
0
  6
CONTINUOUS
 62
     7
 10
-305.3831407200119
 20
145.1908465801637
 30
0.0
  0
VERTEX
  5
29F
  8
0
  6
CONTINUOUS
 62
     7
 10
-305.3860672658955
 20
145.2111353371183
 30
0.0
  0
VERTEX
  5
2A0
  8
0
  6
CONTINUOUS
 62
     7
 10
-305.3899502599732
 20
145.2318809099483
 30
0.0
  0
VERTEX
  5
2A1
  8
0
  6
CONTINUOUS
 62
     7
 10
-305.3947144823136
 20
145.2524820150877
 30
0.0
  0
VERTEX
  5
2A2
  8
0
  6
CONTINUOUS
 62
     7
 10
-305.4003480130877
 20
145.2728819606357
 30
0.0
  0
VERTEX
  5
2A3
  8
0
  6
CONTINUOUS
 62
     7
 10
-305.4068389324661
 20
145.2930240546916
 30
0.0
  0
VERTEX
  5
2A4
  8
0
  6
CONTINUOUS
 62
     7
 10
-305.413971492691
 20
145.3123427770471
 30
0.0
  0
VERTEX
  5
2A5
  8
0
  6
CONTINUOUS
 62
     7
 10
-305.4219065293105
 20
145.3313818800989
 30
0.0
  0
VERTEX
  5
2A6
  8
0
  6
CONTINUOUS
 62
     7
 10
-305.4306236421277
 20
145.3500909148761
 30
0.0
  0
VERTEX
  5
2A7
  8
0
  6
CONTINUOUS
 62
     7
 10
-305.4401024309454
 20
145.3684194324079
 30
0.0
  0
VERTEX
  5
2A8
  8
0
  6
CONTINUOUS
 62
     7
 10
-305.4506547995442
 20
145.3868769521221
 30
0.0
  0
VERTEX
  5
2A9
  8
0
  6
CONTINUOUS
 62
     7
 10
-305.4619986687053
 20
145.4048947920294
 30
0.0
  0
VERTEX
  5
2AA
  8
0
  6
CONTINUOUS
 62
     7
 10
-305.4741017417406
 20
145.4224220123354
 30
0.0
  0
VERTEX
  5
2AB
  8
0
  6
CONTINUOUS
 62
     7
 10
-305.4869317219616
 20
145.439407673245
 30
0.0
  0
VERTEX
  5
2AC
  8
0
  6
CONTINUOUS
 62
     7
 10
-305.4999058105164
 20
145.4551661978404
 30
0.0
  0
VERTEX
  5
2AD
  8
0
  6
CONTINUOUS
 62
     7
 10
-305.5135262697574
 20
145.4703976061174
 30
0.0
  0
VERTEX
  5
2AE
  8
0
  6
CONTINUOUS
 62
     7
 10
-305.5277567656319
 20
145.4850626413369
 30
0.0
  0
VERTEX
  5
2AF
  8
0
  6
CONTINUOUS
 62
     7
 10
-305.5425609640864
 20
145.4991220467601
 30
0.0
  0
VERTEX
  5
2B0
  8
0
  6
CONTINUOUS
 62
     7
 10
-305.5583876754259
 20
145.5129469862509
 30
0.0
  0
VERTEX
  5
2B1
  8
0
  6
CONTINUOUS
 62
     7
 10
-305.5747935296691
 20
145.526104577803
 30
0.0
  0
VERTEX
  5
2B2
  8
0
  6
CONTINUOUS
 62
     7
 10
-305.5917319592309
 20
145.5385599180636
 30
0.0
  0
VERTEX
  5
2B3
  8
0
  6
CONTINUOUS
 62
     7
 10
-305.6091563965257
 20
145.5502781036802
 30
0.0
  0
VERTEX
  5
2B4
  8
0
  6
CONTINUOUS
 62
     7
 10
-305.6264374190478
 20
145.5608872023301
 30
0.0
  0
VERTEX
  5
2B5
  8
0
  6
CONTINUOUS
 62
     7
 10
-305.6441409999113
 20
145.5707908060094
 30
0.0
  0
VERTEX
  5
2B6
  8
0
  6
CONTINUOUS
 62
     7
 10
-305.6622207358183
 20
145.5799656845733
 30
0.0
  0
VERTEX
  5
2B7
  8
0
  6
CONTINUOUS
 62
     7
 10
-305.6806302234704
 20
145.588388607877
 30
0.0
  0
VERTEX
  5
2B8
  8
0
  6
CONTINUOUS
 62
     7
 10
-305.6998928931938
 20
145.5962588632937
 30
0.0
  0
VERTEX
  5
2B9
  8
0
  6
CONTINUOUS
 62
     7
 10
-305.7194691288109
 20
145.6033221725559
 30
0.0
  0
VERTEX
  5
2BA
  8
0
  6
CONTINUOUS
 62
     7
 10
-305.7393057899003
 20
145.6095627624052
 30
0.0
  0
VERTEX
  5
2BB
  8
0
  6
CONTINUOUS
 62
     7
 10
-305.7593497360408
 20
145.614964859583
 30
0.0
  0
VERTEX
  5
2BC
  8
0
  6
CONTINUOUS
 62
     7
 10
-305.7830389325512
 20
145.6202103764386
 30
0.0
  0
VERTEX
  5
2BD
  8
0
  6
CONTINUOUS
 62
     7
 10
-305.8069716494748
 20
145.6243015334005
 30
0.0
  0
VERTEX
  5
2BE
  8
0
  6
CONTINUOUS
 62
     7
 10
-305.8310619740099
 20
145.6272318329365
 30
0.0
  0
VERTEX
  5
2BF
  8
0
  6
CONTINUOUS
 62
     7
 10
-305.8552239933549
 20
145.6289947775149
 30
0.0
  0
VERTEX
  5
2C0
  8
0
  6
CONTINUOUS
 62
     7
 10
-305.8793717947079
 20
145.6295838696037
 30
0.0
  0
SEQEND
  5
406
  8
0
  6
CONTINUOUS
 62
     7
  0
LINE
  5
121
  8
0
  6
CONTINUOUS
 62
     7
 10
-305.379371794708
 20
143.9871553410408
 30
0.0
 11
-305.379371794708
 21
145.1295838696037
 31
0.0
  0
ARC
  5
122
  8
0
  6
CONTINUOUS
 62
     7
 10
-304.8793717947079
 20
146.1295838696037
 30
0.0
 40
2.199999999999993
 50
76.86344121305513
 51
103.1365587869449
  0
LINE
  5
123
  8
0
  6
CONTINUOUS
 62
     7
 10
-305.379371794708
 20
147.1295838696037
 30
0.0
 11
-305.379371794708
 21
148.2720123981665
 31
0.0
  0
POLYLINE
  5
124
  8
0
  6
CONTINUOUS
 62
     7
 66
     1
 10
0.0
 20
0.0
 30
0.0
  0
VERTEX
  5
2C1
  8
0
  6
CONTINUOUS
 62
     7
 10
-305.8793717947079
 20
146.6295838696037
 30
0.0
  0
VERTEX
  5
2C2
  8
0
  6
CONTINUOUS
 62
     7
 10
-305.8589366577485
 20
146.6300032441399
 30
0.0
  0
VERTEX
  5
2C3
  8
0
  6
CONTINUOUS
 62
     7
 10
-305.8384984742808
 20
146.6312601576325
 30
0.0
  0
VERTEX
  5
2C4
  8
0
  6
CONTINUOUS
 62
     7
 10
-305.8181090841479
 20
146.6333527949076
 30
0.0
  0
VERTEX
  5
2C5
  8
0
  6
CONTINUOUS
 62
     7
 10
-305.7978203271933
 20
146.6362793407912
 30
0.0
  0
VERTEX
  5
2C6
  8
0
  6
CONTINUOUS
 62
     7
 10
-305.7770747543633
 20
146.640162334869
 30
0.0
  0
VERTEX
  5
2C7
  8
0
  6
CONTINUOUS
 62
     7
 10
-305.7564736492239
 20
146.6449265572094
 30
0.0
  0
VERTEX
  5
2C8
  8
0
  6
CONTINUOUS
 62
     7
 10
-305.7360737036759
 20
146.6505600879834
 30
0.0
  0
VERTEX
  5
2C9
  8
0
  6
CONTINUOUS
 62
     7
 10
-305.71593160962
 20
146.6570510073619
 30
0.0
  0
VERTEX
  5
2CA
  8
0
  6
CONTINUOUS
 62
     7
 10
-305.6966128872645
 20
146.6641835675866
 30
0.0
  0
VERTEX
  5
2CB
  8
0
  6
CONTINUOUS
 62
     7
 10
-305.6775737842127
 20
146.6721186042062
 30
0.0
  0
VERTEX
  5
2CC
  8
0
  6
CONTINUOUS
 62
     7
 10
-305.6588647494355
 20
146.6808357170234
 30
0.0
  0
VERTEX
  5
2CD
  8
0
  6
CONTINUOUS
 62
     7
 10
-305.6405362319037
 20
146.6903145058411
 30
0.0
  0
VERTEX
  5
2CE
  8
0
  6
CONTINUOUS
 62
     7
 10
-305.6220787121895
 20
146.7008668744399
 30
0.0
  0
VERTEX
  5
2CF
  8
0
  6
CONTINUOUS
 62
     7
 10
-305.6040608722822
 20
146.7122107436011
 30
0.0
  0
VERTEX
  5
2D0
  8
0
  6
CONTINUOUS
 62
     7
 10
-305.5865336519763
 20
146.7243138166364
 30
0.0
  0
VERTEX
  5
2D1
  8
0
  6
CONTINUOUS
 62
     7
 10
-305.5695479910665
 20
146.7371437968573
 30
0.0
  0
VERTEX
  5
2D2
  8
0
  6
CONTINUOUS
 62
     7
 10
-305.5537894664711
 20
146.7501178854121
 30
0.0
  0
VERTEX
  5
2D3
  8
0
  6
CONTINUOUS
 62
     7
 10
-305.5385580581942
 20
146.7637383446532
 30
0.0
  0
VERTEX
  5
2D4
  8
0
  6
CONTINUOUS
 62
     7
 10
-305.5238930229747
 20
146.7779688405276
 30
0.0
  0
VERTEX
  5
2D5
  8
0
  6
CONTINUOUS
 62
     7
 10
-305.5098336175515
 20
146.7927730389821
 30
0.0
  0
VERTEX
  5
2D6
  8
0
  6
CONTINUOUS
 62
     7
 10
-305.4960086780607
 20
146.8085997503216
 30
0.0
  0
VERTEX
  5
2D7
  8
0
  6
CONTINUOUS
 62
     7
 10
-305.4828510865086
 20
146.8250056045648
 30
0.0
  0
VERTEX
  5
2D8
  8
0
  6
CONTINUOUS
 62
     7
 10
-305.470395746248
 20
146.8419440341265
 30
0.0
  0
VERTEX
  5
2D9
  8
0
  6
CONTINUOUS
 62
     7
 10
-305.4586775606314
 20
146.8593684714215
 30
0.0
  0
VERTEX
  5
2DA
  8
0
  6
CONTINUOUS
 62
     7
 10
-305.4480684619814
 20
146.8766494939435
 30
0.0
  0
VERTEX
  5
2DB
  8
0
  6
CONTINUOUS
 62
     7
 10
-305.4381648583022
 20
146.8943530748071
 30
0.0
  0
VERTEX
  5
2DC
  8
0
  6
CONTINUOUS
 62
     7
 10
-305.4289899797383
 20
146.912432810714
 30
0.0
  0
VERTEX
  5
2DD
  8
0
  6
CONTINUOUS
 62
     7
 10
-305.4205670564346
 20
146.9308422983661
 30
0.0
  0
VERTEX
  5
2DE
  8
0
  6
CONTINUOUS
 62
     7
 10
-305.4126968010179
 20
146.9501049680896
 30
0.0
  0
VERTEX
  5
2DF
  8
0
  6
CONTINUOUS
 62
     7
 10
-305.4056334917556
 20
146.9696812037066
 30
0.0
  0
VERTEX
  5
2E0
  8
0
  6
CONTINUOUS
 62
     7
 10
-305.3993929019063
 20
146.989517864796
 30
0.0
  0
VERTEX
  5
2E1
  8
0
  6
CONTINUOUS
 62
     7
 10
-305.3939908047286
 20
147.0095618109365
 30
0.0
  0
VERTEX
  5
2E2
  8
0
  6
CONTINUOUS
 62
     7
 10
-305.388745287873
 20
147.0332510074469
 30
0.0
  0
VERTEX
  5
2E3
  8
0
  6
CONTINUOUS
 62
     7
 10
-305.3846541309111
 20
147.0571837243705
 30
0.0
  0
VERTEX
  5
2E4
  8
0
  6
CONTINUOUS
 62
     7
 10
-305.381723831375
 20
147.0812740489056
 30
0.0
  0
VERTEX
  5
2E5
  8
0
  6
CONTINUOUS
 62
     7
 10
-305.3799608867967
 20
147.1054360682506
 30
0.0
  0
VERTEX
  5
2E6
  8
0
  6
CONTINUOUS
 62
     7
 10
-305.379371794708
 20
147.1295838696037
 30
0.0
  0
SEQEND
  5
407
  8
0
  6
CONTINUOUS
 62
     7
  0
LINE
  5
125
  8
0
  6
CONTINUOUS
 62
     7
 10
-304.379371794708
 20
148.2720123981665
 30
0.0
 11
-304.379371794708
 21
147.1295838696037
 31
0.0
  0
POLYLINE
  5
126
  8
0
  6
CONTINUOUS
 62
     7
 66
     1
 10
0.0
 20
0.0
 30
0.0
  0
VERTEX
  5
2E7
  8
0
  6
CONTINUOUS
 62
     7
 10
-304.379371794708
 20
147.1295838696037
 30
0.0
  0
VERTEX
  5
2E8
  8
0
  6
CONTINUOUS
 62
     7
 10
-304.3789524201717
 20
147.1091487326442
 30
0.0
  0
VERTEX
  5
2E9
  8
0
  6
CONTINUOUS
 62
     7
 10
-304.3776955066791
 20
147.0887105491764
 30
0.0
  0
VERTEX
  5
2EA
  8
0
  6
CONTINUOUS
 62
     7
 10
-304.375602869404
 20
147.0683211590436
 30
0.0
  0
VERTEX
  5
2EB
  8
0
  6
CONTINUOUS
 62
     7
 10
-304.3726763235204
 20
147.048032402089
 30
0.0
  0
VERTEX
  5
2EC
  8
0
  6
CONTINUOUS
 62
     7
 10
-304.3687933294427
 20
147.027286829259
 30
0.0
  0
VERTEX
  5
2ED
  8
0
  6
CONTINUOUS
 62
     7
 10
-304.3640291071022
 20
147.0066857241196
 30
0.0
  0
VERTEX
  5
2EE
  8
0
  6
CONTINUOUS
 62
     7
 10
-304.3583955763282
 20
146.9862857785716
 30
0.0
  0
VERTEX
  5
2EF
  8
0
  6
CONTINUOUS
 62
     7
 10
-304.3519046569497
 20
146.9661436845158
 30
0.0
  0
VERTEX
  5
2F0
  8
0
  6
CONTINUOUS
 62
     7
 10
-304.344772096725
 20
146.9468249621602
 30
0.0
  0
VERTEX
  5
2F1
  8
0
  6
CONTINUOUS
 62
     7
 10
-304.3368370601054
 20
146.9277858591084
 30
0.0
  0
VERTEX
  5
2F2
  8
0
  6
CONTINUOUS
 62
     7
 10
-304.3281199472882
 20
146.9090768243312
 30
0.0
  0
VERTEX
  5
2F3
  8
0
  6
CONTINUOUS
 62
     7
 10
-304.3186411584705
 20
146.8907483067994
 30
0.0
  0
VERTEX
  5
2F4
  8
0
  6
CONTINUOUS
 62
     7
 10
-304.3080887898717
 20
146.8722907870852
 30
0.0
  0
VERTEX
  5
2F5
  8
0
  6
CONTINUOUS
 62
     7
 10
-304.2967449207105
 20
146.8542729471778
 30
0.0
  0
VERTEX
  5
2F6
  8
0
  6
CONTINUOUS
 62
     7
 10
-304.2846418476752
 20
146.836745726872
 30
0.0
  0
VERTEX
  5
2F7
  8
0
  6
CONTINUOUS
 62
     7
 10
-304.2718118674543
 20
146.8197600659623
 30
0.0
  0
VERTEX
  5
2F8
  8
0
  6
CONTINUOUS
 62
     7
 10
-304.2588377788995
 20
146.8040015413669
 30
0.0
  0
VERTEX
  5
2F9
  8
0
  6
CONTINUOUS
 62
     7
 10
-304.2452173196584
 20
146.7887701330899
 30
0.0
  0
VERTEX
  5
2FA
  8
0
  6
CONTINUOUS
 62
     7
 10
-304.230986823784
 20
146.7741050978704
 30
0.0
  0
VERTEX
  5
2FB
  8
0
  6
CONTINUOUS
 62
     7
 10
-304.2161826253295
 20
146.7600456924472
 30
0.0
  0
VERTEX
  5
2FC
  8
0
  6
CONTINUOUS
 62
     7
 10
-304.2003559139899
 20
146.7462207529564
 30
0.0
  0
VERTEX
  5
2FD
  8
0
  6
CONTINUOUS
 62
     7
 10
-304.1839500597468
 20
146.7330631614044
 30
0.0
  0
VERTEX
  5
2FE
  8
0
  6
CONTINUOUS
 62
     7
 10
-304.1670116301851
 20
146.7206078211437
 30
0.0
  0
VERTEX
  5
2FF
  8
0
  6
CONTINUOUS
 62
     7
 10
-304.1495871928901
 20
146.7088896355271
 30
0.0
  0
VERTEX
  5
300
  8
0
  6
CONTINUOUS
 62
     7
 10
-304.1323061703681
 20
146.6982805368772
 30
0.0
  0
VERTEX
  5
301
  8
0
  6
CONTINUOUS
 62
     7
 10
-304.1146025895045
 20
146.6883769331979
 30
0.0
  0
VERTEX
  5
302
  8
0
  6
CONTINUOUS
 62
     7
 10
-304.0965228535975
 20
146.679202054634
 30
0.0
  0
VERTEX
  5
303
  8
0
  6
CONTINUOUS
 62
     7
 10
-304.0781133659455
 20
146.6707791313304
 30
0.0
  0
VERTEX
  5
304
  8
0
  6
CONTINUOUS
 62
     7
 10
-304.0588506962221
 20
146.6629088759136
 30
0.0
  0
VERTEX
  5
305
  8
0
  6
CONTINUOUS
 62
     7
 10
-304.039274460605
 20
146.6558455666514
 30
0.0
  0
VERTEX
  5
306
  8
0
  6
CONTINUOUS
 62
     7
 10
-304.0194377995156
 20
146.6496049768021
 30
0.0
  0
VERTEX
  5
307
  8
0
  6
CONTINUOUS
 62
     7
 10
-303.999393853375
 20
146.6442028796243
 30
0.0
  0
VERTEX
  5
308
  8
0
  6
CONTINUOUS
 62
     7
 10
-303.9757046568647
 20
146.6389573627687
 30
0.0
  0
VERTEX
  5
309
  8
0
  6
CONTINUOUS
 62
     7
 10
-303.9517719399411
 20
146.6348662058068
 30
0.0
  0
VERTEX
  5
30A
  8
0
  6
CONTINUOUS
 62
     7
 10
-303.927681615406
 20
146.6319359062708
 30
0.0
  0
VERTEX
  5
30B
  8
0
  6
CONTINUOUS
 62
     7
 10
-303.903519596061
 20
146.6301729616924
 30
0.0
  0
VERTEX
  5
30C
  8
0
  6
CONTINUOUS
 62
     7
 10
-303.8793717947079
 20
146.6295838696037
 30
0.0
  0
SEQEND
  5
408
  8
0
  6
CONTINUOUS
 62
     7
  0
ARC
  5
127
  8
0
  6
CONTINUOUS
 62
     7
 10
-304.8793717947079
 20
146.1295838696037
 30
0.0
 40
3.377515871063713
 50
351.4867690477394
 51
8.513230952260756
  0
ARC
  5
128
  8
0
  6
CONTINUOUS
 62
     7
 10
-304.8793717947079
 20
146.1295838696037
 30
0.0
 40
3.3775158710637
 50
171.4867690477392
 51
188.5132309522607
  0
ARC
  5
129
  8
0
  6
CONTINUOUS
 62
     7
 10
-260.3793717947079
 20
251.1295838696037
 30
0.0
 40
2.200000000000006
 50
76.86344121305513
 51
103.1365587869449
  0
LINE
  5
12A
  8
0
  6
CONTINUOUS
 62
     7
 10
-260.8793717947079
 20
252.1295838696037
 30
0.0
 11
-260.8793717947079
 21
253.2720123981665
 31
0.0
  0
POLYLINE
  5
12B
  8
0
  6
CONTINUOUS
 62
     7
 66
     1
 10
0.0
 20
0.0
 30
0.0
  0
VERTEX
  5
30D
  8
0
  6
CONTINUOUS
 62
     7
 10
-259.8793717947079
 20
252.1295838696037
 30
0.0
  0
VERTEX
  5
30E
  8
0
  6
CONTINUOUS
 62
     7
 10
-259.8789563237549
 20
252.1092092654065
 30
0.0
  0
VERTEX
  5
30F
  8
0
  6
CONTINUOUS
 62
     7
 10
-259.8777096730195
 20
252.0888486386606
 30
0.0
  0
VERTEX
  5
310
  8
0
  6
CONTINUOUS
 62
     7
 10
-259.8756138472955
 20
252.0683985568917
 30
0.0
  0
VERTEX
  5
311
  8
0
  6
CONTINUOUS
 62
     7
 10
-259.8726763235204
 20
252.0480324020891
 30
0.0
  0
VERTEX
  5
312
  8
0
  6
CONTINUOUS
 62
     7
 10
-259.8688088259771
 20
252.0273528127306
 30
0.0
  0
VERTEX
  5
313
  8
0
  6
CONTINUOUS
 62
     7
 10
-259.8640704320306
 20
252.0068352200081
 30
0.0
  0
VERTEX
  5
314
  8
0
  6
CONTINUOUS
 62
     7
 10
-259.8584221858067
 20
251.9863689651811
 30
0.0
  0
VERTEX
  5
315
  8
0
  6
CONTINUOUS
 62
     7
 10
-259.8519046569497
 20
251.9661436845157
 30
0.0
  0
VERTEX
  5
316
  8
0
  6
CONTINUOUS
 62
     7
 10
-259.8447968054342
 20
251.9468836504211
 30
0.0
  0
VERTEX
  5
317
  8
0
  6
CONTINUOUS
 62
     7
 10
-259.836898657136
 20
251.9279178829904
 30
0.0
  0
VERTEX
  5
318
  8
0
  6
CONTINUOUS
 62
     7
 10
-259.8281574886811
 20
251.9091497454905
 30
0.0
  0
VERTEX
  5
319
  8
0
  6
CONTINUOUS
 62
     7
 10
-259.8186411584705
 20
251.8907483067994
 30
0.0
  0
VERTEX
  5
31A
  8
0
  6
CONTINUOUS
 62
     7
 10
-259.8081266454908
 20
251.8723503977258
 30
0.0
  0
VERTEX
  5
31B
  8
0
  6
CONTINUOUS
 62
     7
 10
-259.7968367961977
 20
251.8544057953841
 30
0.0
  0
VERTEX
  5
31C
  8
0
  6
CONTINUOUS
 62
     7
 10
-259.7846965170316
 20
251.8368183632597
 30
0.0
  0
VERTEX
  5
31D
  8
0
  6
CONTINUOUS
 62
     7
 10
-259.7718118674543
 20
251.8197600659623
 30
0.0
  0
VERTEX
  5
31E
  8
0
  6
CONTINUOUS
 62
     7
 10
-259.7588796986013
 20
251.8040480605174
 30
0.0
  0
VERTEX
  5
31F
  8
0
  6
CONTINUOUS
 62
     7
 10
-259.7453171154363
 20
251.7888728157221
 30
0.0
  0
VERTEX
  5
320
  8
0
  6
CONTINUOUS
 62
     7
 10
-259.7310451565132
 20
251.7741606668531
 30
0.0
  0
VERTEX
  5
321
  8
0
  6
CONTINUOUS
 62
     7
 10
-259.7161826253295
 20
251.7600456924472
 30
0.0
  0
VERTEX
  5
322
  8
0
  6
CONTINUOUS
 62
     7
 10
-259.7004092424756
 20
251.7462631860657
 30
0.0
  0
VERTEX
  5
323
  8
0
  6
CONTINUOUS
 62
     7
 10
-259.6840756402717
 20
251.733155355873
 30
0.0
  0
VERTEX
  5
324
  8
0
  6
CONTINUOUS
 62
     7
 10
-259.6670842667651
 20
251.7206568373494
 30
0.0
  0
VERTEX
  5
325
  8
0
  6
CONTINUOUS
 62
     7
 10
-259.6495871928901
 20
251.7088896355271
 30
0.0
  0
VERTEX
  5
326
  8
0
  6
CONTINUOUS
 62
     7
 10
-259.6323592972669
 20
251.6983100091499
 30
0.0
  0
VERTEX
  5
327
  8
0
  6
CONTINUOUS
 62
     7
 10
-259.6147264401713
 20
251.688439685851
 30
0.0
  0
VERTEX
  5
328
  8
0
  6
CONTINUOUS
 62
     7
 10
-259.596405428537
 20
251.6791455326409
 30
0.0
  0
VERTEX
  5
329
  8
0
  6
CONTINUOUS
 62
     7
 10
-259.5777133929291
 20
251.6706093891376
 30
0.0
  0
VERTEX
  5
32A
  8
0
  6
CONTINUOUS
 62
     7
 10
-259.5587002542768
 20
251.6628509747619
 30
0.0
  0
VERTEX
  5
32B
  8
0
  6
CONTINUOUS
 62
     7
 10
-259.5394159335092
 20
251.6558900089348
 30
0.0
  0
VERTEX
  5
32C
  8
0
  6
CONTINUOUS
 62
     7
 10
-259.5195182557278
 20
251.6496268184267
 30
0.0
  0
VERTEX
  5
32D
  8
0
  6
CONTINUOUS
 62
     7
 10
-259.4993938533751
 20
251.6442028796243
 30
0.0
  0
VERTEX
  5
32E
  8
0
  6
CONTINUOUS
 62
     7
 10
-259.4797958687766
 20
251.6397733602874
 30
0.0
  0
VERTEX
  5
32F
  8
0
  6
CONTINUOUS
 62
     7
 10
-259.4600452958381
 20
251.6361356805006
 30
0.0
  0
VERTEX
  5
330
  8
0
  6
CONTINUOUS
 62
     7
 10
-259.4401910301258
 20
251.6332966336171
 30
0.0
  0
VERTEX
  5
331
  8
0
  6
CONTINUOUS
 62
     7
 10
-259.4199570468062
 20
251.6312344449438
 30
0.0
  0
VERTEX
  5
332
  8
0
  6
CONTINUOUS
 62
     7
 10
-259.399667091094
 20
251.6299966279389
 30
0.0
  0
VERTEX
  5
333
  8
0
  6
CONTINUOUS
 62
     7
 10
-259.3793717947079
 20
251.6295838696037
 30
0.0
  0
SEQEND
  5
409
  8
0
  6
CONTINUOUS
 62
     7
  0
LINE
  5
12C
  8
0
  6
CONTINUOUS
 62
     7
 10
-259.8793717947079
 20
253.2720123981665
 30
0.0
 11
-259.8793717947079
 21
252.1295838696037
 31
0.0
  0
POLYLINE
  5
12D
  8
0
  6
CONTINUOUS
 62
     7
 66
     1
 10
0.0
 20
0.0
 30
0.0
  0
VERTEX
  5
334
  8
0
  6
CONTINUOUS
 62
     7
 10
-261.3793717947079
 20
251.6295838696037
 30
0.0
  0
VERTEX
  5
335
  8
0
  6
CONTINUOUS
 62
     7
 10
-261.3589971905107
 20
251.6299993405566
 30
0.0
  0
VERTEX
  5
336
  8
0
  6
CONTINUOUS
 62
     7
 10
-261.3386365637648
 20
251.6312459912922
 30
0.0
  0
VERTEX
  5
337
  8
0
  6
CONTINUOUS
 62
     7
 10
-261.318186481996
 20
251.6333418170161
 30
0.0
  0
VERTEX
  5
338
  8
0
  6
CONTINUOUS
 62
     7
 10
-261.2978203271933
 20
251.6362793407912
 30
0.0
  0
VERTEX
  5
339
  8
0
  6
CONTINUOUS
 62
     7
 10
-261.2771407378349
 20
251.6401468383346
 30
0.0
  0
VERTEX
  5
33A
  8
0
  6
CONTINUOUS
 62
     7
 10
-261.2566231451124
 20
251.644885232281
 30
0.0
  0
VERTEX
  5
33B
  8
0
  6
CONTINUOUS
 62
     7
 10
-261.2361568902854
 20
251.6505334785049
 30
0.0
  0
VERTEX
  5
33C
  8
0
  6
CONTINUOUS
 62
     7
 10
-261.21593160962
 20
251.6570510073618
 30
0.0
  0
VERTEX
  5
33D
  8
0
  6
CONTINUOUS
 62
     7
 10
-261.1966715755253
 20
251.6641588588775
 30
0.0
  0
VERTEX
  5
33E
  8
0
  6
CONTINUOUS
 62
     7
 10
-261.1777058080946
 20
251.6720570071756
 30
0.0
  0
VERTEX
  5
33F
  8
0
  6
CONTINUOUS
 62
     7
 10
-261.1589376705948
 20
251.6807981756305
 30
0.0
  0
VERTEX
  5
340
  8
0
  6
CONTINUOUS
 62
     7
 10
-261.1405362319037
 20
251.6903145058411
 30
0.0
  0
VERTEX
  5
341
  8
0
  6
CONTINUOUS
 62
     7
 10
-261.12213832283
 20
251.7008290188208
 30
0.0
  0
VERTEX
  5
342
  8
0
  6
CONTINUOUS
 62
     7
 10
-261.1041937204884
 20
251.7121188681139
 30
0.0
  0
VERTEX
  5
343
  8
0
  6
CONTINUOUS
 62
     7
 10
-261.0866062883639
 20
251.72425914728
 30
0.0
  0
VERTEX
  5
344
  8
0
  6
CONTINUOUS
 62
     7
 10
-261.0695479910665
 20
251.7371437968573
 30
0.0
  0
VERTEX
  5
345
  8
0
  6
CONTINUOUS
 62
     7
 10
-261.0538359856217
 20
251.7500759657103
 30
0.0
  0
VERTEX
  5
346
  8
0
  6
CONTINUOUS
 62
     7
 10
-261.0386607408263
 20
251.7636385488754
 30
0.0
  0
VERTEX
  5
347
  8
0
  6
CONTINUOUS
 62
     7
 10
-261.0239485919574
 20
251.7779105077985
 30
0.0
  0
VERTEX
  5
348
  8
0
  6
CONTINUOUS
 62
     7
 10
-261.0098336175515
 20
251.7927730389822
 30
0.0
  0
VERTEX
  5
349
  8
0
  6
CONTINUOUS
 62
     7
 10
-260.9960511111699
 20
251.8085464218359
 30
0.0
  0
VERTEX
  5
34A
  8
0
  6
CONTINUOUS
 62
     7
 10
-260.9829432809774
 20
251.8248800240399
 30
0.0
  0
VERTEX
  5
34B
  8
0
  6
CONTINUOUS
 62
     7
 10
-260.9704447624537
 20
251.8418713975464
 30
0.0
  0
VERTEX
  5
34C
  8
0
  6
CONTINUOUS
 62
     7
 10
-260.9586775606314
 20
251.8593684714215
 30
0.0
  0
VERTEX
  5
34D
  8
0
  6
CONTINUOUS
 62
     7
 10
-260.9480979342542
 20
251.8765963670447
 30
0.0
  0
VERTEX
  5
34E
  8
0
  6
CONTINUOUS
 62
     7
 10
-260.9382276109553
 20
251.8942292241403
 30
0.0
  0
VERTEX
  5
34F
  8
0
  6
CONTINUOUS
 62
     7
 10
-260.9289334577451
 20
251.9125502357746
 30
0.0
  0
VERTEX
  5
350
  8
0
  6
CONTINUOUS
 62
     7
 10
-260.9203973142419
 20
251.9312422713825
 30
0.0
  0
VERTEX
  5
351
  8
0
  6
CONTINUOUS
 62
     7
 10
-260.9126388998662
 20
251.9502554100348
 30
0.0
  0
VERTEX
  5
352
  8
0
  6
CONTINUOUS
 62
     7
 10
-260.9056779340391
 20
251.9695397308024
 30
0.0
  0
VERTEX
  5
353
  8
0
  6
CONTINUOUS
 62
     7
 10
-260.899414743531
 20
251.9894374085838
 30
0.0
  0
VERTEX
  5
354
  8
0
  6
CONTINUOUS
 62
     7
 10
-260.8939908047286
 20
252.0095618109365
 30
0.0
  0
VERTEX
  5
355
  8
0
  6
CONTINUOUS
 62
     7
 10
-260.8895612853918
 20
252.029159795535
 30
0.0
  0
VERTEX
  5
356
  8
0
  6
CONTINUOUS
 62
     7
 10
-260.8859236056048
 20
252.0489103684734
 30
0.0
  0
VERTEX
  5
357
  8
0
  6
CONTINUOUS
 62
     7
 10
-260.8830845587214
 20
252.0687646341858
 30
0.0
  0
VERTEX
  5
358
  8
0
  6
CONTINUOUS
 62
     7
 10
-260.8810223700481
 20
252.0889986175054
 30
0.0
  0
VERTEX
  5
359
  8
0
  6
CONTINUOUS
 62
     7
 10
-260.8797845530432
 20
252.1092885732176
 30
0.0
  0
VERTEX
  5
35A
  8
0
  6
CONTINUOUS
 62
     7
 10
-260.8793717947079
 20
252.1295838696037
 30
0.0
  0
SEQEND
  5
40A
  8
0
  6
CONTINUOUS
 62
     7
  0
ARC
  5
12E
  8
0
  6
CONTINUOUS
 62
     7
 10
-260.3793717947079
 20
251.1295838696037
 30
0.0
 40
2.19999999999998
 50
256.8634412130551
 51
283.1365587869449
  0
LINE
  5
12F
  8
0
  6
CONTINUOUS
 62
     7
 10
-259.8793717947079
 20
250.1295838696037
 30
0.0
 11
-259.8793717947079
 21
248.9871553410408
 31
0.0
  0
LINE
  5
130
  8
0
  6
CONTINUOUS
 62
     7
 10
-260.8793717947079
 20
248.9871553410408
 30
0.0
 11
-260.8793717947079
 21
250.1295838696037
 31
0.0
  0
POLYLINE
  5
131
  8
0
  6
CONTINUOUS
 62
     7
 66
     1
 10
0.0
 20
0.0
 30
0.0
  0
VERTEX
  5
35B
  8
0
  6
CONTINUOUS
 62
     7
 10
-259.3793717947079
 20
250.6295838696037
 30
0.0
  0
VERTEX
  5
35C
  8
0
  6
CONTINUOUS
 62
     7
 10
-259.3998069316673
 20
250.6291644950674
 30
0.0
  0
VERTEX
  5
35D
  8
0
  6
CONTINUOUS
 62
     7
 10
-259.4202451151352
 20
250.6279075815748
 30
0.0
  0
VERTEX
  5
35E
  8
0
  6
CONTINUOUS
 62
     7
 10
-259.440634505268
 20
250.6258149442997
 30
0.0
  0
VERTEX
  5
35F
  8
0
  6
CONTINUOUS
 62
     7
 10
-259.4609232622225
 20
250.6228883984161
 30
0.0
  0
VERTEX
  5
360
  8
0
  6
CONTINUOUS
 62
     7
 10
-259.4816688350526
 20
250.6190054043383
 30
0.0
  0
VERTEX
  5
361
  8
0
  6
CONTINUOUS
 62
     7
 10
-259.502269940192
 20
250.6142411819979
 30
0.0
  0
VERTEX
  5
362
  8
0
  6
CONTINUOUS
 62
     7
 10
-259.5226698857399
 20
250.6086076512239
 30
0.0
  0
VERTEX
  5
363
  8
0
  6
CONTINUOUS
 62
     7
 10
-259.5428119797958
 20
250.6021167318455
 30
0.0
  0
VERTEX
  5
364
  8
0
  6
CONTINUOUS
 62
     7
 10
-259.5621307021514
 20
250.5949841716207
 30
0.0
  0
VERTEX
  5
365
  8
0
  6
CONTINUOUS
 62
     7
 10
-259.5811698052032
 20
250.5870491350011
 30
0.0
  0
VERTEX
  5
366
  8
0
  6
CONTINUOUS
 62
     7
 10
-259.5998788399804
 20
250.5783320221839
 30
0.0
  0
VERTEX
  5
367
  8
0
  6
CONTINUOUS
 62
     7
 10
-259.6182073575122
 20
250.5688532333662
 30
0.0
  0
VERTEX
  5
368
  8
0
  6
CONTINUOUS
 62
     7
 10
-259.6366648772263
 20
250.5583008647674
 30
0.0
  0
VERTEX
  5
369
  8
0
  6
CONTINUOUS
 62
     7
 10
-259.6546827171338
 20
250.5469569956062
 30
0.0
  0
VERTEX
  5
36A
  8
0
  6
CONTINUOUS
 62
     7
 10
-259.6722099374397
 20
250.534853922571
 30
0.0
  0
VERTEX
  5
36B
  8
0
  6
CONTINUOUS
 62
     7
 10
-259.6891955983493
 20
250.5220239423501
 30
0.0
  0
VERTEX
  5
36C
  8
0
  6
CONTINUOUS
 62
     7
 10
-259.7049541229447
 20
250.5090498537952
 30
0.0
  0
VERTEX
  5
36D
  8
0
  6
CONTINUOUS
 62
     7
 10
-259.7201855312217
 20
250.4954293945541
 30
0.0
  0
VERTEX
  5
36E
  8
0
  6
CONTINUOUS
 62
     7
 10
-259.7348505664412
 20
250.4811988986798
 30
0.0
  0
VERTEX
  5
36F
  8
0
  6
CONTINUOUS
 62
     7
 10
-259.7489099718644
 20
250.4663947002252
 30
0.0
  0
VERTEX
  5
370
  8
0
  6
CONTINUOUS
 62
     7
 10
-259.7627349113552
 20
250.4505679888857
 30
0.0
  0
VERTEX
  5
371
  8
0
  6
CONTINUOUS
 62
     7
 10
-259.7758925029072
 20
250.4341621346425
 30
0.0
  0
VERTEX
  5
372
  8
0
  6
CONTINUOUS
 62
     7
 10
-259.7883478431679
 20
250.4172237050808
 30
0.0
  0
VERTEX
  5
373
  8
0
  6
CONTINUOUS
 62
     7
 10
-259.8000660287844
 20
250.3997992677859
 30
0.0
  0
VERTEX
  5
374
  8
0
  6
CONTINUOUS
 62
     7
 10
-259.8106751274344
 20
250.3825182452639
 30
0.0
  0
VERTEX
  5
375
  8
0
  6
CONTINUOUS
 62
     7
 10
-259.8205787311137
 20
250.3648146644003
 30
0.0
  0
VERTEX
  5
376
  8
0
  6
CONTINUOUS
 62
     7
 10
-259.8297536096776
 20
250.3467349284933
 30
0.0
  0
VERTEX
  5
377
  8
0
  6
CONTINUOUS
 62
     7
 10
-259.8381765329813
 20
250.3283254408412
 30
0.0
  0
VERTEX
  5
378
  8
0
  6
CONTINUOUS
 62
     7
 10
-259.8460467883979
 20
250.3090627711177
 30
0.0
  0
VERTEX
  5
379
  8
0
  6
CONTINUOUS
 62
     7
 10
-259.8531100976602
 20
250.2894865355007
 30
0.0
  0
VERTEX
  5
37A
  8
0
  6
CONTINUOUS
 62
     7
 10
-259.8593506875095
 20
250.2696498744113
 30
0.0
  0
VERTEX
  5
37B
  8
0
  6
CONTINUOUS
 62
     7
 10
-259.8647527846873
 20
250.2496059282708
 30
0.0
  0
VERTEX
  5
37C
  8
0
  6
CONTINUOUS
 62
     7
 10
-259.8699983015429
 20
250.2259167317604
 30
0.0
  0
VERTEX
  5
37D
  8
0
  6
CONTINUOUS
 62
     7
 10
-259.8740894585048
 20
250.2019840148368
 30
0.0
  0
VERTEX
  5
37E
  8
0
  6
CONTINUOUS
 62
     7
 10
-259.8770197580408
 20
250.1778936903017
 30
0.0
  0
VERTEX
  5
37F
  8
0
  6
CONTINUOUS
 62
     7
 10
-259.8787827026192
 20
250.1537316709568
 30
0.0
  0
VERTEX
  5
380
  8
0
  6
CONTINUOUS
 62
     7
 10
-259.8793717947079
 20
250.1295838696037
 30
0.0
  0
SEQEND
  5
40B
  8
0
  6
CONTINUOUS
 62
     7
  0
POLYLINE
  5
132
  8
0
  6
CONTINUOUS
 62
     7
 66
     1
 10
0.0
 20
0.0
 30
0.0
  0
VERTEX
  5
381
  8
0
  6
CONTINUOUS
 62
     7
 10
-260.8793717947079
 20
250.1295838696037
 30
0.0
  0
VERTEX
  5
382
  8
0
  6
CONTINUOUS
 62
     7
 10
-260.8797911692441
 20
250.1500190065631
 30
0.0
  0
VERTEX
  5
383
  8
0
  6
CONTINUOUS
 62
     7
 10
-260.8810480827368
 20
250.1704571900309
 30
0.0
  0
VERTEX
  5
384
  8
0
  6
CONTINUOUS
 62
     7
 10
-260.8831407200119
 20
250.1908465801637
 30
0.0
  0
VERTEX
  5
385
  8
0
  6
CONTINUOUS
 62
     7
 10
-260.8860672658955
 20
250.2111353371182
 30
0.0
  0
VERTEX
  5
386
  8
0
  6
CONTINUOUS
 62
     7
 10
-260.8899502599733
 20
250.2318809099483
 30
0.0
  0
VERTEX
  5
387
  8
0
  6
CONTINUOUS
 62
     7
 10
-260.8947144823136
 20
250.2524820150877
 30
0.0
  0
VERTEX
  5
388
  8
0
  6
CONTINUOUS
 62
     7
 10
-260.9003480130876
 20
250.2728819606357
 30
0.0
  0
VERTEX
  5
389
  8
0
  6
CONTINUOUS
 62
     7
 10
-260.9068389324661
 20
250.2930240546916
 30
0.0
  0
VERTEX
  5
38A
  8
0
  6
CONTINUOUS
 62
     7
 10
-260.9139714926909
 20
250.3123427770471
 30
0.0
  0
VERTEX
  5
38B
  8
0
  6
CONTINUOUS
 62
     7
 10
-260.9219065293104
 20
250.3313818800989
 30
0.0
  0
VERTEX
  5
38C
  8
0
  6
CONTINUOUS
 62
     7
 10
-260.9306236421277
 20
250.3500909148761
 30
0.0
  0
VERTEX
  5
38D
  8
0
  6
CONTINUOUS
 62
     7
 10
-260.9401024309454
 20
250.3684194324079
 30
0.0
  0
VERTEX
  5
38E
  8
0
  6
CONTINUOUS
 62
     7
 10
-260.9506547995442
 20
250.3868769521221
 30
0.0
  0
VERTEX
  5
38F
  8
0
  6
CONTINUOUS
 62
     7
 10
-260.9619986687054
 20
250.4048947920295
 30
0.0
  0
VERTEX
  5
390
  8
0
  6
CONTINUOUS
 62
     7
 10
-260.9741017417407
 20
250.4224220123354
 30
0.0
  0
VERTEX
  5
391
  8
0
  6
CONTINUOUS
 62
     7
 10
-260.9869317219616
 20
250.439407673245
 30
0.0
  0
VERTEX
  5
392
  8
0
  6
CONTINUOUS
 62
     7
 10
-260.9999058105164
 20
250.4551661978405
 30
0.0
  0
VERTEX
  5
393
  8
0
  6
CONTINUOUS
 62
     7
 10
-261.0135262697575
 20
250.4703976061174
 30
0.0
  0
VERTEX
  5
394
  8
0
  6
CONTINUOUS
 62
     7
 10
-261.0277567656318
 20
250.485062641337
 30
0.0
  0
VERTEX
  5
395
  8
0
  6
CONTINUOUS
 62
     7
 10
-261.0425609640864
 20
250.4991220467602
 30
0.0
  0
VERTEX
  5
396
  8
0
  6
CONTINUOUS
 62
     7
 10
-261.0583876754259
 20
250.5129469862509
 30
0.0
  0
VERTEX
  5
397
  8
0
  6
CONTINUOUS
 62
     7
 10
-261.0747935296691
 20
250.5261045778029
 30
0.0
  0
VERTEX
  5
398
  8
0
  6
CONTINUOUS
 62
     7
 10
-261.0917319592308
 20
250.5385599180636
 30
0.0
  0
VERTEX
  5
399
  8
0
  6
CONTINUOUS
 62
     7
 10
-261.1091563965257
 20
250.5502781036802
 30
0.0
  0
VERTEX
  5
39A
  8
0
  6
CONTINUOUS
 62
     7
 10
-261.1264374190477
 20
250.5608872023302
 30
0.0
  0
VERTEX
  5
39B
  8
0
  6
CONTINUOUS
 62
     7
 10
-261.1441409999113
 20
250.5707908060094
 30
0.0
  0
VERTEX
  5
39C
  8
0
  6
CONTINUOUS
 62
     7
 10
-261.1622207358183
 20
250.5799656845733
 30
0.0
  0
VERTEX
  5
39D
  8
0
  6
CONTINUOUS
 62
     7
 10
-261.1806302234704
 20
250.588388607877
 30
0.0
  0
VERTEX
  5
39E
  8
0
  6
CONTINUOUS
 62
     7
 10
-261.1998928931939
 20
250.5962588632937
 30
0.0
  0
VERTEX
  5
39F
  8
0
  6
CONTINUOUS
 62
     7
 10
-261.2194691288109
 20
250.603322172556
 30
0.0
  0
VERTEX
  5
3A0
  8
0
  6
CONTINUOUS
 62
     7
 10
-261.2393057899003
 20
250.6095627624053
 30
0.0
  0
VERTEX
  5
3A1
  8
0
  6
CONTINUOUS
 62
     7
 10
-261.2593497360408
 20
250.614964859583
 30
0.0
  0
VERTEX
  5
3A2
  8
0
  6
CONTINUOUS
 62
     7
 10
-261.2830389325512
 20
250.6202103764386
 30
0.0
  0
VERTEX
  5
3A3
  8
0
  6
CONTINUOUS
 62
     7
 10
-261.3069716494748
 20
250.6243015334005
 30
0.0
  0
VERTEX
  5
3A4
  8
0
  6
CONTINUOUS
 62
     7
 10
-261.3310619740099
 20
250.6272318329366
 30
0.0
  0
VERTEX
  5
3A5
  8
0
  6
CONTINUOUS
 62
     7
 10
-261.3552239933549
 20
250.6289947775149
 30
0.0
  0
VERTEX
  5
3A6
  8
0
  6
CONTINUOUS
 62
     7
 10
-261.3793717947079
 20
250.6295838696037
 30
0.0
  0
SEQEND
  5
40C
  8
0
  6
CONTINUOUS
 62
     7
  0
ARC
  5
133
  8
0
  6
CONTINUOUS
 62
     7
 10
-260.3793717947079
 20
251.1295838696037
 30
0.0
 40
3.377515871063713
 50
351.4867690477394
 51
8.513230952260756
  0
ARC
  5
134
  8
0
  6
CONTINUOUS
 62
     7
 10
-260.3793717947079
 20
251.1295838696037
 30
0.0
 40
3.3775158710637
 50
171.4867690477392
 51
188.5132309522607
  0
CIRCLE
  5
135
  8
0
  6
CONTINUOUS
 62
     7
 10
-282.6293717947079
 20
156.8795838696037
 30
0.0
 40
1.649999999999999
  0
CIRCLE
  5
136
  8
0
  6
CONTINUOUS
 62
     7
 10
-282.6293717947079
 20
240.3795838696037
 30
0.0
 40
1.649999999999999
  0
POLYLINE
  5
137
  8
0
  6
CONTINUOUS
 62
     9
 66
     1
 10
0.0
 20
0.0
 30
0.0
  0
VERTEX
  5
3A7
  8
0
  6
CONTINUOUS
 62
     9
 10
-296.7552508155035
 20
269.2295838687075
 30
0.0
  0
VERTEX
  5
3A8
  8
0
  6
CONTINUOUS
 62
     9
 10
-296.7547677607953
 20
269.198658714192
 30
0.0
  0
VERTEX
  5
3A9
  8
0
  6
CONTINUOUS
 62
     9
 10
-296.753317204285
 20
269.1677335596771
 30
0.0
  0
VERTEX
  5
3AA
  8
0
  6
CONTINUOUS
 62
     9
 10
-296.7513536156224
 20
269.1418194736277
 30
0.0
  0
VERTEX
  5
3AB
  8
0
  6
CONTINUOUS
 62
     9
 10
-296.7487108709375
 20
269.1159659435243
 30
0.0
  0
VERTEX
  5
3AC
  8
0
  6
CONTINUOUS
 62
     9
 10
-296.7453805125705
 20
269.0901194740529
 30
0.0
  0
VERTEX
  5
3AD
  8
0
  6
CONTINUOUS
 62
     9
 10
-296.7413716053795
 20
269.0643697232025
 30
0.0
  0
VERTEX
  5
3AE
  8
0
  6
CONTINUOUS
 62
     9
 10
-296.7334332434578
 20
269.0228531843296
 30
0.0
  0
VERTEX
  5
3AF
  8
0
  6
CONTINUOUS
 62
     9
 10
-296.723713065067
 20
268.9816387381725
 30
0.0
  0
VERTEX
  5
3B0
  8
0
  6
CONTINUOUS
 62
     9
 10
-296.7121407604889
 20
268.9405431676121
 30
0.0
  0
VERTEX
  5
3B1
  8
0
  6
CONTINUOUS
 62
     9
 10
-296.6987854746211
 20
268.8999094826647
 30
0.0
  0
VERTEX
  5
3B2
  8
0
  6
CONTINUOUS
 62
     9
 10
-296.6841979133385
 20
268.8611478542974
 30
0.0
  0
VERTEX
  5
3B3
  8
0
  6
CONTINUOUS
 62
     9
 10
-296.6679788466686
 20
268.8229629399568
 30
0.0
  0
VERTEX
  5
3B4
  8
0
  6
CONTINUOUS
 62
     9
 10
-296.6523442145551
 20
268.7898339747262
 30
0.0
  0
VERTEX
  5
3B5
  8
0
  6
CONTINUOUS
 62
     9
 10
-296.6355020720663
 20
268.7573035958681
 30
0.0
  0
VERTEX
  5
3B6
  8
0
  6
CONTINUOUS
 62
     9
 10
-296.6173737217005
 20
268.7252431611918
 30
0.0
  0
VERTEX
  5
3B7
  8
0
  6
CONTINUOUS
 62
     9
 10
-296.5980747846775
 20
268.6938750284732
 30
0.0
  0
VERTEX
  5
3B8
  8
0
  6
CONTINUOUS
 62
     9
 10
-296.5834242053523
 20
268.6716756187334
 30
0.0
  0
VERTEX
  5
3B9
  8
0
  6
CONTINUOUS
 62
     9
 10
-296.5681882036828
 20
268.6498747881946
 30
0.0
  0
VERTEX
  5
3BA
  8
0
  6
CONTINUOUS
 62
     9
 10
-296.5523319777647
 20
268.6284274619521
 30
0.0
  0
VERTEX
  5
3BB
  8
0
  6
CONTINUOUS
 62
     9
 10
-296.5359101151639
 20
268.6074111393333
 30
0.0
  0
VERTEX
  5
3BC
  8
0
  6
CONTINUOUS
 62
     9
 10
-296.5092022261774
 20
268.575533527203
 30
0.0
  0
VERTEX
  5
3BD
  8
0
  6
CONTINUOUS
 62
     9
 10
-296.4811467821821
 20
268.5447408357184
 30
0.0
  0
VERTEX
  5
3BE
  8
0
  6
CONTINUOUS
 62
     9
 10
-296.4553330983391
 20
268.5185429206122
 30
0.0
  0
VERTEX
  5
3BF
  8
0
  6
CONTINUOUS
 62
     9
 10
-296.4285794091642
 20
268.4933082909745
 30
0.0
  0
VERTEX
  5
3C0
  8
0
  6
CONTINUOUS
 62
     9
 10
-296.400770352232
 20
268.4689419384792
 30
0.0
  0
VERTEX
  5
3C1
  8
0
  6
CONTINUOUS
 62
     9
 10
-296.372087304877
 20
268.4456136778211
 30
0.0
  0
VERTEX
  5
3C2
  8
0
  6
CONTINUOUS
 62
     9
 10
-296.3508540981155
 20
268.4294312754306
 30
0.0
  0
VERTEX
  5
3C3
  8
0
  6
CONTINUOUS
 62
     9
 10
-296.3292011333425
 20
268.4138166972521
 30
0.0
  0
VERTEX
  5
3C4
  8
0
  6
CONTINUOUS
 62
     9
 10
-296.3070813244433
 20
268.398739096642
 30
0.0
  0
VERTEX
  5
3C5
  8
0
  6
CONTINUOUS
 62
     9
 10
-296.2845709579308
 20
268.3842529239211
 30
0.0
  0
VERTEX
  5
3C6
  8
0
  6
CONTINUOUS
 62
     9
 10
-296.2486999108892
 20
268.3628507559525
 30
0.0
  0
VERTEX
  5
3C7
  8
0
  6
CONTINUOUS
 62
     9
 10
-296.2119160931736
 20
268.3429138641334
 30
0.0
  0
VERTEX
  5
3C8
  8
0
  6
CONTINUOUS
 62
     9
 10
-296.1740441273239
 20
268.3243725050555
 30
0.0
  0
VERTEX
  5
3C9
  8
0
  6
CONTINUOUS
 62
     9
 10
-296.1353703425299
 20
268.3073918453829
 30
0.0
  0
VERTEX
  5
3CA
  8
0
  6
CONTINUOUS
 62
     9
 10
-296.0955354971732
 20
268.2918520380536
 30
0.0
  0
VERTEX
  5
3CB
  8
0
  6
CONTINUOUS
 62
     9
 10
-296.0550138612499
 20
268.2779757319229
 30
0.0
  0
VERTEX
  5
3CC
  8
0
  6
CONTINUOUS
 62
     9
 10
-296.013617501344
 20
268.2657238077479
 30
0.0
  0
VERTEX
  5
3CD
  8
0
  6
CONTINUOUS
 62
     9
 10
-295.9716670001322
 20
268.2552163485652
 30
0.0
  0
VERTEX
  5
3CE
  8
0
  6
CONTINUOUS
 62
     9
 10
-295.9437697802845
 20
268.2492614216762
 30
0.0
  0
VERTEX
  5
3CF
  8
0
  6
CONTINUOUS
 62
     9
 10
-295.9156963622283
 20
268.244083319523
 30
0.0
  0
VERTEX
  5
3D0
  8
0
  6
CONTINUOUS
 62
     9
 10
-295.8873682253795
 20
268.2396732466544
 30
0.0
  0
VERTEX
  5
3D1
  8
0
  6
CONTINUOUS
 62
     9
 10
-295.8589285718317
 20
268.2360579473118
 30
0.0
  0
SEQEND
  5
40D
  8
0
  6
CONTINUOUS
 62
     9
  0
LINE
  5
138
  8
0
  6
CONTINUOUS
 62
     9
 10
-269.774800622125
 20
268.2295838704201
 30
0.0
 11
-269.6378103973969
 21
268.2380921285078
 31
0.0
  0
LINE
  5
139
  8
0
  6
CONTINUOUS
 62
     9
 10
-296.7552508165827
 20
286.2295838687069
 30
0.0
 11
-296.7552508155034
 21
269.2295838687071
 31
0.0
  0
LINE
  5
13A
  8
0
  6
CONTINUOUS
 62
     9
 10
-268.728226784259
 20
269.2295838704865
 30
0.0
 11
-268.7282267853383
 21
286.2295838704862
 31
0.0
  0
POLYLINE
  5
13B
  8
0
  6
CONTINUOUS
 62
     9
 66
     1
 10
0.0
 20
0.0
 30
0.0
  0
VERTEX
  5
3D2
  8
0
  6
CONTINUOUS
 62
     9
 10
-269.6378103973969
 20
268.2380921285077
 30
0.0
  0
VERTEX
  5
3D3
  8
0
  6
CONTINUOUS
 62
     9
 10
-269.6015705190684
 20
268.2432310482822
 30
0.0
  0
VERTEX
  5
3D4
  8
0
  6
CONTINUOUS
 62
     9
 10
-269.5580543481219
 20
268.251045567371
 30
0.0
  0
VERTEX
  5
3D5
  8
0
  6
CONTINUOUS
 62
     9
 10
-269.5148125335903
 20
268.2606312820738
 30
0.0
  0
VERTEX
  5
3D6
  8
0
  6
CONTINUOUS
 62
     9
 10
-269.4716769653374
 20
268.2720586767263
 30
0.0
  0
VERTEX
  5
3D7
  8
0
  6
CONTINUOUS
 62
     9
 10
-269.4289686229546
 20
268.2852774563761
 30
0.0
  0
VERTEX
  5
3D8
  8
0
  6
CONTINUOUS
 62
     9
 10
-269.3873457773179
 20
268.3000636234119
 30
0.0
  0
VERTEX
  5
3D9
  8
0
  6
CONTINUOUS
 62
     9
 10
-269.3462893324823
 20
268.3165814414279
 30
0.0
  0
VERTEX
  5
3DA
  8
0
  6
CONTINUOUS
 62
     9
 10
-269.3056231981099
 20
268.3349418507289
 30
0.0
  0
VERTEX
  5
3DB
  8
0
  6
CONTINUOUS
 62
     9
 10
-269.2656855948167
 20
268.3550341049307
 30
0.0
  0
VERTEX
  5
3DC
  8
0
  6
CONTINUOUS
 62
     9
 10
-269.2261326898678
 20
268.3770904012538
 30
0.0
  0
VERTEX
  5
3DD
  8
0
  6
CONTINUOUS
 62
     9
 10
-269.1874874193938
 20
268.4008812075705
 30
0.0
  0
VERTEX
  5
3DE
  8
0
  6
CONTINUOUS
 62
     9
 10
-269.1495943798752
 20
268.4265525312865
 30
0.0
  0
VERTEX
  5
3DF
  8
0
  6
CONTINUOUS
 62
     9
 10
-269.1127903694592
 20
268.45392913488
 30
0.0
  0
VERTEX
  5
3E0
  8
0
  6
CONTINUOUS
 62
     9
 10
-269.0793411625888
 20
268.4811239697553
 30
0.0
  0
VERTEX
  5
3E1
  8
0
  6
CONTINUOUS
 62
     9
 10
-269.0469999344789
 20
268.5097564140048
 30
0.0
  0
VERTEX
  5
3E2
  8
0
  6
CONTINUOUS
 62
     9
 10
-269.0194566968607
 20
268.5361703760442
 30
0.0
  0
VERTEX
  5
3E3
  8
0
  6
CONTINUOUS
 62
     9
 10
-268.9929191709688
 20
268.5636042203766
 30
0.0
  0
VERTEX
  5
3E4
  8
0
  6
CONTINUOUS
 62
     9
 10
-268.9672877504626
 20
268.592191148149
 30
0.0
  0
VERTEX
  5
3E5
  8
0
  6
CONTINUOUS
 62
     9
 10
-268.9427599767084
 20
268.6217391392844
 30
0.0
  0
VERTEX
  5
3E6
  8
0
  6
CONTINUOUS
 62
     9
 10
-268.9257451728878
 20
268.6436699035947
 30
0.0
  0
VERTEX
  5
3E7
  8
0
  6
CONTINUOUS
 62
     9
 10
-268.9093438920557
 20
268.6660673265195
 30
0.0
  0
VERTEX
  5
3E8
  8
0
  6
CONTINUOUS
 62
     9
 10
-268.8935229108442
 20
268.688987955272
 30
0.0
  0
VERTEX
  5
3E9
  8
0
  6
CONTINUOUS
 62
     9
 10
-268.8783488760039
 20
268.7123456743665
 30
0.0
  0
VERTEX
  5
3EA
  8
0
  6
CONTINUOUS
 62
     9
 10
-268.856797924247
 20
268.7482240040719
 30
0.0
  0
VERTEX
  5
3EB
  8
0
  6
CONTINUOUS
 62
     9
 10
-268.8367505453462
 20
268.7850574942194
 30
0.0
  0
VERTEX
  5
3EC
  8
0
  6
CONTINUOUS
 62
     9
 10
-268.8181077322996
 20
268.8231140965426
 30
0.0
  0
VERTEX
  5
3ED
  8
0
  6
CONTINUOUS
 62
     9
 10
-268.8011265652643
 20
268.861946845981
 30
0.0
  0
VERTEX
  5
3EE
  8
0
  6
CONTINUOUS
 62
     9
 10
-268.7857364702026
 20
268.9017923152161
 30
0.0
  0
VERTEX
  5
3EF
  8
0
  6
CONTINUOUS
 62
     9
 10
-268.7721085627439
 20
268.9422793899614
 30
0.0
  0
VERTEX
  5
3F0
  8
0
  6
CONTINUOUS
 62
     9
 10
-268.7601580834825
 20
268.9837788364973
 30
0.0
  0
VERTEX
  5
3F1
  8
0
  6
CONTINUOUS
 62
     9
 10
-268.7500523892434
 20
269.0258589256856
 30
0.0
  0
VERTEX
  5
3F2
  8
0
  6
CONTINUOUS
 62
     9
 10
-268.7449842040045
 20
269.050851330807
 30
0.0
  0
VERTEX
  5
3F3
  8
0
  6
CONTINUOUS
 62
     9
 10
-268.7405755915653
 20
269.0759877110789
 30
0.0
  0
VERTEX
  5
3F4
  8
0
  6
CONTINUOUS
 62
     9
 10
-268.7368208318246
 20
269.1013322913288
 30
0.0
  0
VERTEX
  5
3F5
  8
0
  6
CONTINUOUS
 62
     9
 10
-268.7337416378812
 20
269.1267684923119
 30
0.0
  0
VERTEX
  5
3F6
  8
0
  6
CONTINUOUS
 62
     9
 10
-268.7313350383926
 20
269.1523515936629
 30
0.0
  0
VERTEX
  5
3F7
  8
0
  6
CONTINUOUS
 62
     9
 10
-268.729612702739
 20
269.1779902785946
 30
0.0
  0
VERTEX
  5
3F8
  8
0
  6
CONTINUOUS
 62
     9
 10
-268.7285735928135
 20
269.2037683209074
 30
0.0
  0
VERTEX
  5
3F9
  8
0
  6
CONTINUOUS
 62
     9
 10
-268.728226784259
 20
269.2295838704869
 30
0.0
  0
SEQEND
  5
40E
  8
0
  6
CONTINUOUS
 62
     9
  0
LINE
  5
13C
  8
0
  6
CONTINUOUS
 62
     9
 10
-295.8589285718333
 20
268.2360579473033
 30
0.0
 11
-295.7438675901379
 21
268.2295838687714
 31
0.0
  0
CIRCLE
  5
13D
  8
0
  6
CONTINUOUS
 62
     7
 10
-282.6293717947079
 20
240.3795838696037
 30
0.0
 40
2.250000000000002
  0
CIRCLE
  5
13E
  8
0
  6
CONTINUOUS
 62
     7
 10
-282.6293717947079
 20
240.3795838696037
 30
0.0
 40
4.000000000000004
  0
CIRCLE
  5
13F
  8
0
  6
CONTINUOUS
 62
     7
 10
-282.6293717947079
 20
156.8795838696037
 30
0.0
 40
2.250000000000002
  0
CIRCLE
  5
140
  8
0
  6
CONTINUOUS
 62
     7
 10
-282.6293717947079
 20
156.8795838696037
 30
0.0
 40
4.000000000000004
  0
ARC
  5
141
  8
0
  6
CONTINUOUS
 62
     7
 10
-262.629371794708
 20
231.3523971022938
 30
0.0
 40
8.000000000000021
 50
359.9999999999998
 51
55.15009542095351
  0
LINE
  5
142
  8
0
  6
CONTINUOUS
 62
     7
 10
-254.629371794708
 20
165.9067706369135
 30
0.0
 11
-254.629371794708
 21
231.3523971022938
 31
0.0
  0
ARC
  5
143
  8
0
  6
CONTINUOUS
 62
     7
 10
-262.629371794708
 20
165.9067706369135
 30
0.0
 40
8.000000000000021
 50
304.8499045790465
 51
0.0000000000001137
  0
ARC
  5
144
  8
0
  6
CONTINUOUS
 62
     7
 10
-282.629371794708
 20
194.6295838696037
 30
0.0
 40
43.00000000000009
 50
272.3314930610618
 51
304.8499045790466
  0
ARC
  5
145
  8
0
  6
CONTINUOUS
 62
     7
 10
-282.6293717947078
 20
156.8795838696037
 30
0.0
 40
5.50000000000001
 50
251.4548734429633
 51
288.5451265570346
  0
ARC
  5
146
  8
0
  6
CONTINUOUS
 62
     7
 10
-282.6293717947078
 20
194.6295838696037
 30
0.0
 40
43.00000000000009
 50
235.1500954209535
 51
267.6685069389382
  0
ARC
  5
147
  8
0
  6
CONTINUOUS
 62
     7
 10
-302.6293717947078
 20
165.9067706369135
 30
0.0
 40
8.000000000000021
 50
179.9999999999999
 51
235.1500954209536
  0
LINE
  5
148
  8
0
  6
CONTINUOUS
 62
     7
 10
-310.6293717947079
 20
165.9067706369135
 30
0.0
 11
-310.6293717947079
 21
231.3523971022938
 31
0.0
  0
ARC
  5
149
  8
0
  6
CONTINUOUS
 62
     7
 10
-302.6293717947078
 20
231.3523971022938
 30
0.0
 40
8.000000000000021
 50
124.8499045790464
 51
180.0000000000001
  0
ARC
  5
14A
  8
0
  6
CONTINUOUS
 62
     7
 10
-282.6293717947078
 20
202.6295838696037
 30
0.0
 40
43.00000000000009
 50
92.33149306106185
 51
124.8499045790465
  0
ARC
  5
14B
  8
0
  6
CONTINUOUS
 62
     7
 10
-282.6293717947078
 20
240.3795838696037
 30
0.0
 40
5.500000000000036
 50
71.45487344296545
 51
108.5451265570367
  0
ARC
  5
14C
  8
0
  6
CONTINUOUS
 62
     7
 10
-282.629371794708
 20
202.6295838696037
 30
0.0
 40
43.00000000000009
 50
55.15009542095351
 51
87.66850693893815
  0
ARC
  5
14D
  8
0
  6
CONTINUOUS
 62
     7
 10
-282.6293717947078
 20
240.3795838696037
 30
0.0
 40
5.499999999999998
 50
203.0440075950247
 51
252.6585571972405
  0
ARC
  5
14E
  8
0
  6
CONTINUOUS
 62
     7
 10
-292.2915187317939
 20
236.2694845318553
 30
0.0
 40
5.000000000000012
 50
23.04400759502462
 51
106.0252731407752
  0
ARC
  5
14F
  8
0
  6
CONTINUOUS
 62
     7
 10
-282.6293717947078
 20
202.6295838696037
 30
0.0
 40
40.00000000000008
 50
106.0252731407751
 51
124.8499045790465
  0
ARC
  5
150
  8
0
  6
CONTINUOUS
 62
     7
 10
-302.6293717947078
 20
231.3523971022938
 30
0.0
 40
5.000000000000016
 50
124.8499045790464
 51
180.0000000000002
  0
LINE
  5
151
  8
0
  6
CONTINUOUS
 62
     7
 10
-307.6293717947079
 20
231.3523971022938
 30
0.0
 11
-307.6293717947079
 21
165.9067706369135
 31
0.0
  0
ARC
  5
152
  8
0
  6
CONTINUOUS
 62
     7
 10
-302.6293717947078
 20
165.9067706369135
 30
0.0
 40
5.000000000000016
 50
179.9999999999998
 51
235.1500954209536
  0
ARC
  5
153
  8
0
  6
CONTINUOUS
 62
     7
 10
-282.6293717947078
 20
194.6295838696037
 30
0.0
 40
40.00000000000009
 50
235.1500954209534
 51
253.9747268592248
  0
ARC
  5
154
  8
0
  6
CONTINUOUS
 62
     7
 10
-292.2915187317939
 20
160.989683207352
 30
0.0
 40
5.000000000000012
 50
253.9747268592248
 51
336.9559924049754
  0
ARC
  5
155
  8
0
  6
CONTINUOUS
 62
     7
 10
-282.6293717947078
 20
156.8795838696037
 30
0.0
 40
5.500000000000011
 50
107.3414428027595
 51
156.9559924049754
  0
LINE
  5
156
  8
0
  6
CONTINUOUS
 62
     7
 10
-280.9900121636326
 20
162.1295838696037
 30
0.0
 11
-284.2687314257833
 21
162.1295838696037
 31
0.0
  0
ARC
  5
157
  8
0
  6
CONTINUOUS
 62
     7
 10
-282.629371794708
 20
156.8795838696037
 30
0.0
 40
5.500000000000011
 50
23.04400759502471
 51
72.6585571972405
  0
ARC
  5
158
  8
0
  6
CONTINUOUS
 62
     7
 10
-272.9672248576221
 20
160.989683207352
 30
0.0
 40
5.000000000000012
 50
203.0440075950246
 51
286.0252731407752
  0
ARC
  5
159
  8
0
  6
CONTINUOUS
 62
     7
 10
-282.629371794708
 20
194.6295838696037
 30
0.0
 40
40.00000000000009
 50
286.0252731407751
 51
304.8499045790465
  0
ARC
  5
15A
  8
0
  6
CONTINUOUS
 62
     7
 10
-262.629371794708
 20
165.9067706369135
 30
0.0
 40
5.000000000000016
 50
304.8499045790464
 51
0.0000000000001705
  0
LINE
  5
15B
  8
0
  6
CONTINUOUS
 62
     7
 10
-257.629371794708
 20
231.3523971022938
 30
0.0
 11
-257.629371794708
 21
165.9067706369135
 31
0.0
  0
ARC
  5
15C
  8
0
  6
CONTINUOUS
 62
     7
 10
-262.629371794708
 20
231.3523971022938
 30
0.0
 40
5.000000000000016
 50
359.9999999999998
 51
55.15009542095362
  0
ARC
  5
15D
  8
0
  6
CONTINUOUS
 62
     7
 10
-282.629371794708
 20
202.6295838696037
 30
0.0
 40
40.00000000000008
 50
55.15009542095351
 51
73.97472685922486
  0
ARC
  5
15E
  8
0
  6
CONTINUOUS
 62
     7
 10
-272.9672248576221
 20
236.2694845318553
 30
0.0
 40
5.000000000000012
 50
73.9747268592248
 51
156.9559924049754
  0
ARC
  5
15F
  8
0
  6
CONTINUOUS
 62
     7
 10
-282.629371794708
 20
240.3795838696037
 30
0.0
 40
5.499999999999998
 50
287.3414428027595
 51
336.9559924049753
  0
LINE
  5
160
  8
0
  6
CONTINUOUS
 62
     7
 10
-280.9900121636326
 20
235.1295838696037
 30
0.0
 11
-284.2687314257833
 21
235.1295838696037
 31
0.0
  0
LINE
  5
161
  8
0
  6
CONTINUOUS
 62
     7
 10
-259.1293717947079
 20
201.7295838696037
 30
0.0
 11
-259.1293717947079
 21
200.2295838696037
 31
0.0
  0
LINE
  5
162
  8
0
  6
CONTINUOUS
 62
     7
 10
-257.6293717947079
 20
201.7295838696037
 30
0.0
 11
-259.1293717947079
 21
201.7295838696037
 31
0.0
  0
LINE
  5
163
  8
0
  6
CONTINUOUS
 62
     7
 10
-259.1293717947079
 20
200.2295838696037
 30
0.0
 11
-257.6293717947079
 21
200.2295838696037
 31
0.0
  0
LINE
  5
164
  8
0
  6
CONTINUOUS
 62
     7
 10
-306.1293717947079
 20
195.5295838696037
 30
0.0
 11
-306.1293717947079
 21
197.0295838696036
 31
0.0
  0
LINE
  5
165
  8
0
  6
CONTINUOUS
 62
     7
 10
-307.6293717947079
 20
195.5295838696037
 30
0.0
 11
-306.1293717947079
 21
195.5295838696037
 31
0.0
  0
LINE
  5
166
  8
0
  6
CONTINUOUS
 62
     7
 10
-306.1293717947079
 20
197.0295838696037
 30
0.0
 11
-307.6293717947079
 21
197.0295838696037
 31
0.0
  0
LINE
  5
167
  8
0
  6
CONTINUOUS
 62
     7
 10
-259.1293717947079
 20
195.5295838696037
 30
0.0
 11
-259.1293717947079
 21
197.0295838696036
 31
0.0
  0
LINE
  5
168
  8
0
  6
CONTINUOUS
 62
     7
 10
-259.1293717947079
 20
197.0295838696037
 30
0.0
 11
-257.6293717947079
 21
197.0295838696037
 31
0.0
  0
LINE
  5
169
  8
0
  6
CONTINUOUS
 62
     7
 10
-257.6293717947079
 20
195.5295838696037
 30
0.0
 11
-259.1293717947079
 21
195.5295838696037
 31
0.0
  0
LINE
  5
16A
  8
0
  6
CONTINUOUS
 62
     7
 10
-307.6293717947079
 20
201.7295838696037
 30
0.0
 11
-306.1293717947079
 21
201.7295838696037
 31
0.0
  0
LINE
  5
16B
  8
0
  6
CONTINUOUS
 62
     7
 10
-306.1293717947079
 20
201.7295838696037
 30
0.0
 11
-306.1293717947079
 21
200.2295838696037
 31
0.0
  0
LINE
  5
16C
  8
0
  6
CONTINUOUS
 62
     7
 10
-306.1293717947079
 20
200.2295838696037
 30
0.0
 11
-307.6293717947079
 21
200.2295838696037
 31
0.0
  0
LINE
  5
16D
  8
0
  6
CONTINUOUS
 62
     9
 10
-249.09418803622
 20
172.6295838696036
 30
0.0
 11
-249.09418803622
 21
170.6295838696036
 31
0.0
  0
LINE
  5
16E
  8
0
  6
CONTINUOUS
 62
     9
 10
-316.1645555531958
 20
197.6295838696036
 30
0.0
 11
-316.1645555531958
 21
199.6295838696036
 31
0.0
  0
LINE
  5
16F
  8
0
  6
CONTINUOUS
 62
     9
 10
-316.1645555531958
 20
224.6295838696036
 30
0.0
 11
-316.1645555531958
 21
226.6295838696036
 31
0.0
  0
LINE
  5
170
  8
0
  6
CONTINUOUS
 62
     9
 10
-249.09418803622
 20
199.6295838696036
 30
0.0
 11
-249.09418803622
 21
197.6295838696036
 31
0.0
  0
LINE
  5
171
  8
0
  6
CONTINUOUS
 62
     9
 10
-249.09418803622
 20
226.6295838696036
 30
0.0
 11
-249.09418803622
 21
224.6295838696036
 31
0.0
  0
LINE
  5
172
  8
0
  6
CONTINUOUS
 62
     9
 10
-316.1645555531958
 20
170.6295838696036
 30
0.0
 11
-316.1645555531958
 21
172.6295838696036
 31
0.0
  0
ARC
  5
173
  8
0
  6
CONTINUOUS
 62
     7
 10
-306.5640816563537
 20
150.4242692002634
 30
0.0
 40
1.000000000000001
 50
186.8260681728336
 51
243.5948662149995
  0
ARC
  5
174
  8
0
  6
CONTINUOUS
 62
     7
 10
-312.0250950957565
 20
149.7705626799791
 30
0.0
 40
4.499999999999997
 50
6.826068172832948
 51
295.6058180370452
  0
ARC
  5
175
  8
0
  6
CONTINUOUS
 62
     7
 10
-309.6481198238311
 20
144.8107251265248
 30
0.0
 40
1.000000000000011
 50
63.34191961450465
 51
115.605818037045
  0
ARC
  5
176
  8
0
  6
CONTINUOUS
 62
     7
 10
-282.6293717947079
 20
198.6295838696037
 30
0.0
 40
59.22028147948762
 50
249.7165478213165
 51
250.0481938173507
  0
ARC
  5
177
  8
0
  6
CONTINUOUS
 62
     7
 10
-282.6293717947079
 20
198.6295838696037
 30
0.0
 40
59.2202814794876
 50
243.3419196145067
 51
244.3480653775616
  0
ARC
  5
178
  8
0
  6
CONTINUOUS
 62
     7
 10
-302.0863801279852
 20
145.0316610859848
 30
0.0
 40
2.200000000000011
 50
250.0481938173514
 51
70.04819381735041
  0
ARC
  5
179
  8
0
  6
CONTINUOUS
 62
     7
 10
-282.6293717947079
 20
198.6295838696037
 30
0.0
 40
54.82028147948759
 50
243.5948662149992
 51
244.2424021269159
  0
ARC
  5
17A
  8
0
  6
CONTINUOUS
 62
     7
 10
-282.6293717947079
 20
198.6295838696037
 30
0.0
 40
54.8202814794876
 50
249.8222110719622
 51
250.0481938173507
  0
ARC
  5
17B
  8
0
  6
CONTINUOUS
 62
     7
 10
-258.6946619330622
 20
246.8348985389439
 30
0.0
 40
1.000000000000001
 50
6.826068172833567
 51
63.59486621499947
  0
ARC
  5
17C
  8
0
  6
CONTINUOUS
 62
     7
 10
-253.2336484936594
 20
247.4886050592282
 30
0.0
 40
4.499999999999984
 50
186.826068172833
 51
115.6058180370453
  0
ARC
  5
17D
  8
0
  6
CONTINUOUS
 62
     7
 10
-255.6106237655848
 20
252.4484426126825
 30
0.0
 40
1.000000000000014
 50
243.3419196145046
 51
295.605818037045
  0
ARC
  5
17E
  8
0
  6
CONTINUOUS
 62
     7
 10
-282.6293717947079
 20
198.6295838696036
 30
0.0
 40
59.22028147948761
 50
69.71654782131691
 51
70.0481938173507
  0
ARC
  5
17F
  8
0
  6
CONTINUOUS
 62
     7
 10
-282.6293717947079
 20
198.6295838696036
 30
0.0
 40
59.2202814794876
 50
63.34191961450671
 51
64.34806537756128
  0
ARC
  5
180
  8
0
  6
CONTINUOUS
 62
     7
 10
-263.1723634614307
 20
252.2275066532225
 30
0.0
 40
2.200000000000016
 50
70.04819381735138
 51
250.0481938173504
  0
ARC
  5
181
  8
0
  6
CONTINUOUS
 62
     7
 10
-282.6293717947079
 20
198.6295838696036
 30
0.0
 40
54.82028147948759
 50
63.59486621499917
 51
64.24240212691562
  0
ARC
  5
182
  8
0
  6
CONTINUOUS
 62
     7
 10
-282.6293717947079
 20
198.6295838696036
 30
0.0
 40
54.82028147948759
 50
69.82221107196256
 51
70.04819381735068
  0
LINE
  5
183
  8
0
  6
CONTINUOUS
 62
     7
 10
-250.6293717947079
 20
258.1295838696037
 30
0.0
 11
-281.8793717947079
 21
258.1295838696037
 31
0.0
  0
ARC
  5
184
  8
0
  6
CONTINUOUS
 62
     7
 10
-250.6293717947079
 20
254.1295838696037
 30
0.0
 40
3.99999999999999
 50
0.0000000000001988
 51
89.99999999999982
  0
LINE
  5
185
  8
0
  6
CONTINUOUS
 62
     7
 10
-246.6293717947079
 20
199.3795838696037
 30
0.0
 11
-246.6293717947079
 21
254.1295838696037
 31
0.0
  0
LINE
  5
186
  8
0
  6
CONTINUOUS
 62
     7
 10
-246.3293717947079
 20
199.3795838696037
 30
0.0
 11
-246.6293717947079
 21
199.3795838696037
 31
0.0
  0
LINE
  5
187
  8
0
  6
CONTINUOUS
 62
     7
 10
-246.3293717947079
 20
197.8795838696037
 30
0.0
 11
-246.3293717947079
 21
199.3795838696037
 31
0.0
  0
LINE
  5
188
  8
0
  6
CONTINUOUS
 62
     7
 10
-246.3293717947079
 20
197.8795838696037
 30
0.0
 11
-246.6293717947079
 21
197.8795838696037
 31
0.0
  0
LINE
  5
189
  8
0
  6
CONTINUOUS
 62
     7
 10
-246.6293717947079
 20
197.8795838696037
 30
0.0
 11
-246.6293717947079
 21
143.1295838696037
 31
0.0
  0
ARC
  5
18A
  8
0
  6
CONTINUOUS
 62
     7
 10
-250.6293717947079
 20
143.1295838696037
 30
0.0
 40
3.99999999999999
 50
270.0000000000002
 51
359.9999999999998
  0
LINE
  5
18B
  8
0
  6
CONTINUOUS
 62
     7
 10
-250.6293717947079
 20
139.1295838696037
 30
0.0
 11
-281.8793717947079
 21
139.1295838696037
 31
0.0
  0
LINE
  5
18C
  8
0
  6
CONTINUOUS
 62
     7
 10
-281.8793717947079
 20
139.1295838696037
 30
0.0
 11
-281.8793717947079
 21
138.8295838696037
 31
0.0
  0
LINE
  5
18D
  8
0
  6
CONTINUOUS
 62
     7
 10
-283.379371794708
 20
138.8295838696037
 30
0.0
 11
-281.8793717947079
 21
138.8295838696037
 31
0.0
  0
LINE
  5
18E
  8
0
  6
CONTINUOUS
 62
     7
 10
-283.379371794708
 20
139.1295838696037
 30
0.0
 11
-283.379371794708
 21
138.8295838696037
 31
0.0
  0
LINE
  5
18F
  8
0
  6
CONTINUOUS
 62
     7
 10
-314.6293717947079
 20
139.1295838696037
 30
0.0
 11
-283.3793717947079
 21
139.1295838696037
 31
0.0
  0
ARC
  5
190
  8
0
  6
CONTINUOUS
 62
     7
 10
-314.6293717947079
 20
143.1295838696037
 30
0.0
 40
3.999999999999996
 50
180.0000000000002
 51
269.9999999999998
  0
LINE
  5
191
  8
0
  6
CONTINUOUS
 62
     7
 10
-318.6293717947079
 20
197.8795838696037
 30
0.0
 11
-318.6293717947079
 21
143.1295838696037
 31
0.0
  0
LINE
  5
192
  8
0
  6
CONTINUOUS
 62
     7
 10
-318.929371794708
 20
197.8795838696037
 30
0.0
 11
-318.6293717947079
 21
197.8795838696037
 31
0.0
  0
LINE
  5
193
  8
0
  6
CONTINUOUS
 62
     7
 10
-318.929371794708
 20
197.8795838696037
 30
0.0
 11
-318.929371794708
 21
199.3795838696037
 31
0.0
  0
LINE
  5
194
  8
0
  6
CONTINUOUS
 62
     7
 10
-318.929371794708
 20
199.3795838696037
 30
0.0
 11
-318.6293717947079
 21
199.3795838696037
 31
0.0
  0
LINE
  5
195
  8
0
  6
CONTINUOUS
 62
     7
 10
-318.6293717947079
 20
199.3795838696037
 30
0.0
 11
-318.6293717947079
 21
254.1295838696037
 31
0.0
  0
ARC
  5
196
  8
0
  6
CONTINUOUS
 62
     7
 10
-314.6293717947079
 20
254.1295838696037
 30
0.0
 40
3.999999999999996
 50
90.00000000000021
 51
179.9999999999998
  0
LINE
  5
197
  8
0
  6
CONTINUOUS
 62
     7
 10
-314.6293717947079
 20
258.1295838696037
 30
0.0
 11
-283.3793717947079
 21
258.1295838696037
 31
0.0
  0
LINE
  5
198
  8
0
  6
CONTINUOUS
 62
     7
 10
-283.379371794708
 20
258.1295838696037
 30
0.0
 11
-283.379371794708
 21
258.4295838696036
 31
0.0
  0
LINE
  5
199
  8
0
  6
CONTINUOUS
 62
     7
 10
-283.379371794708
 20
258.4295838696036
 30
0.0
 11
-281.8793717947079
 21
258.4295838696036
 31
0.0
  0
LINE
  5
19A
  8
0
  6
CONTINUOUS
 62
     7
 10
-281.8793717947079
 20
258.1295838696037
 30
0.0
 11
-281.8793717947079
 21
258.4295838696036
 31
0.0
  0
LINE
  5
19B
  8
0
  6
CONTINUOUS
 62
     9
 10
-269.8293717947079
 20
258.9224770884172
 30
0.0
 11
-269.8925871684655
 21
258.9224770884172
 31
0.0
  0
LINE
  5
19C
  8
0
  6
CONTINUOUS
 62
     9
 10
-295.3661564209503
 20
258.9224770884172
 30
0.0
 11
-295.4293717947079
 21
258.9224770884172
 31
0.0
  0
LINE
  5
19D
  8
0
  6
CONTINUOUS
 62
     9
 10
-295.2448775010792
 20
260.2044543181713
 30
0.0
 11
-295.3661564209503
 21
258.9224770884172
 31
0.0
  0
LINE
  5
19E
  8
0
  6
CONTINUOUS
 62
     9
 10
-295.2448775010792
 20
267.9295838696036
 30
0.0
 11
-295.2448775010792
 21
260.2044543181713
 31
0.0
  0
LINE
  5
19F
  8
0
  6
CONTINUOUS
 62
     9
 10
-269.8925871684655
 20
258.9224770884172
 30
0.0
 11
-270.0138660883367
 21
260.2044543181833
 31
0.0
  0
LINE
  5
1A0
  8
0
  6
CONTINUOUS
 62
     9
 10
-270.0138660883367
 20
260.2044543181833
 30
0.0
 11
-270.0138660883367
 21
267.9295838696036
 31
0.0
  0
POLYLINE
  5
1A1
  8
0
  6
CONTINUOUS
 62
     9
 66
     1
 10
0.0
 20
0.0
 30
0.0
  0
VERTEX
  5
3FA
  8
0
  6
CONTINUOUS
 62
     9
 10
-269.7468638150861
 20
259.2760304790104
 30
0.0
  0
VERTEX
  5
3FB
  8
0
  6
CONTINUOUS
 62
     9
 10
-269.8087381352202
 20
259.200262204927
 30
0.0
  0
VERTEX
  5
3FC
  8
0
  6
CONTINUOUS
 62
     9
 10
-269.8547149028385
 20
259.1138188045997
 30
0.0
  0
VERTEX
  5
3FD
  8
0
  6
CONTINUOUS
 62
     9
 10
-269.8830272565453
 20
259.0200222494252
 30
0.0
  0
VERTEX
  5
3FE
  8
0
  6
CONTINUOUS
 62
     9
 10
-269.8925871684655
 20
258.9224770884172
 30
0.0
  0
SEQEND
  5
40F
  8
0
  6
CONTINUOUS
 62
     9
  0
LINE
  5
1A2
  8
0
  6
CONTINUOUS
 62
     9
 10
-269.746863815086
 20
259.2760304790104
 30
0.0
 11
-269.6829251853013
 21
259.2760304790104
 31
0.0
  0
CIRCLE
  5
1A3
  8
0
  6
CONTINUOUS
 62
     7
 10
-282.6293717947079
 20
198.6295838696037
 30
0.0
 40
11.0
  0
CIRCLE
  5
1A4
  8
0
  6
CONTINUOUS
 62
     7
 10
-282.6293717947079
 20
198.6295838696037
 30
0.0
 40
13.5
  0
CIRCLE
  5
1A5
  8
0
  6
CONTINUOUS
 62
     7
 10
-278.3794215603914
 20
191.2685714419105
 30
0.0
 40
1.500006008427565
  0
CIRCLE
  5
1A6
  8
0
  6
CONTINUOUS
 62
     7
 10
-286.8794053741752
 20
191.2685014926599
 30
0.0
 40
1.499981015975339
  0
CIRCLE
  5
1A7
  8
0
  6
CONTINUOUS
 62
     7
 10
-291.1293815354848
 20
198.6298242800197
 30
0.0
 40
1.499990278489088
  0
CIRCLE
  5
1A8
  8
0
  6
CONTINUOUS
 62
     7
 10
-286.8793543546712
 20
205.9911518410414
 30
0.0
 40
1.499979439372286
  0
CIRCLE
  5
1A9
  8
0
  6
CONTINUOUS
 62
     7
 10
-278.3793380324107
 20
205.9909731542664
 30
0.0
 40
1.499986583772228
  0
CIRCLE
  5
1AA
  8
0
  6
CONTINUOUS
 62
     7
 10
-274.1293791344558
 20
198.6298313441179
 30
0.0
 40
1.499992680666809
  0
CIRCLE
  5
1AB
  8
0
  6
CONTINUOUS
 62
     7
 10
-282.6293717947079
 20
198.6295838696037
 30
0.0
 40
5.750000000000005
  0
ARC
  5
1AC
  8
0
  6
CONTINUOUS
 62
     7
 10
-301.6293717947079
 20
198.6295838696037
 30
0.0
 40
5.000000000000002
 50
205.8419327631669
 51
154.1580672368332
  0
CIRCLE
  5
1AD
  8
0
  6
CONTINUOUS
 62
     7
 10
-301.6293717947079
 20
198.6295838696037
 30
0.0
 40
4.000000000000004
  0
CIRCLE
  5
1AE
  8
0
  6
CONTINUOUS
 62
     7
 10
-301.6293717947079
 20
198.6295838696037
 30
0.0
 40
2.999999999999996
  0
CIRCLE
  5
1AF
  8
0
  6
CONTINUOUS
 62
     7
 10
-263.6293717947079
 20
198.6295838696037
 30
0.0
 40
4.000000000000004
  0
CIRCLE
  5
1B0
  8
0
  6
CONTINUOUS
 62
     7
 10
-263.6293717947079
 20
198.6295838696037
 30
0.0
 40
3.000000000000003
  0
ARC
  5
1B1
  8
0
  6
CONTINUOUS
 62
     7
 10
-263.6293717947079
 20
198.6295838696037
 30
0.0
 40
5.000000000000004
 50
341.3370751150575
 51
18.66292488494253
  0
CIRCLE
  5
1B2
  8
0
  6
CONTINUOUS
 62
     7
 10
-282.6293717947079
 20
217.6295838696037
 30
0.0
 40
3.000000000000003
  0
CIRCLE
  5
1B3
  8
0
  6
CONTINUOUS
 62
     7
 10
-282.6293717947079
 20
179.6295838696037
 30
0.0
 40
2.999999999999989
  0
ARC
  5
1B4
  8
0
  6
CONTINUOUS
 62
     7
 10
-295.8293717946443
 20
286.2295838687657
 30
0.0
 40
1.000000000000001
 50
90.00000000363757
 51
180.0000000036378
  0
ARC
  5
1B5
  8
0
  6
CONTINUOUS
 62
     7
 10
-269.4293717946446
 20
286.2295838704418
 30
0.0
 40
1.000000000000001
 50
0.0000000036377594
 51
90.0000000036376
  0
LINE
  5
1B6
  8
0
  6
CONTINUOUS
 62
     7
 10
-267.8080514510455
 20
285.6082635269851
 30
0.0
 11
-268.4293717946446
 21
286.2295838705053
 31
0.0
  0
LINE
  5
1B7
  8
0
  6
CONTINUOUS
 62
     7
 10
-266.9293717935018
 20
268.2295838706007
 30
0.0
 11
-266.9293717944705
 21
283.4869431834812
 31
0.0
  0
ARC
  5
1B8
  8
0
  6
CONTINUOUS
 62
     7
 10
-269.9293717944705
 20
283.4869431832907
 30
0.0
 40
3.000000000000003
 50
0.0000000036377594
 51
45.00000000363769
  0
LINE
  5
1B9
  8
0
  6
CONTINUOUS
 62
     7
 10
-295.8067321869532
 20
268.2296059483973
 30
0.0
 11
-295.8568701420344
 21
268.2358276114131
 31
0.0
  0
LINE
  5
1BA
  8
0
  6
CONTINUOUS
 62
     7
 10
-296.8293717946443
 20
286.2295838687022
 30
0.0
 11
-297.4506921381645
 21
285.6082635251032
 31
0.0
  0
LINE
  5
1BB
  8
0
  6
CONTINUOUS
 62
     7
 10
-298.3293717944701
 20
283.4869431814877
 30
0.0
 11
-298.3293717935015
 21
268.2295838686072
 31
0.0
  0
ARC
  5
1BC
  8
0
  6
CONTINUOUS
 62
     7
 10
-295.3293717944701
 20
283.4869431816782
 30
0.0
 40
3.000000000000024
 50
135.0000000036377
 51
180.0000000036375
  0
LINE
  5
1BD
  8
0
  6
CONTINUOUS
 62
     7
 10
-295.4293717947079
 20
258.9224770884172
 30
0.0
 11
-295.4293717947079
 21
258.1295838696037
 31
0.0
  0
LINE
  5
1BE
  8
0
  6
CONTINUOUS
 62
     7
 10
-295.4293717947079
 20
268.2295838687913
 30
0.0
 11
-295.4293717947079
 21
267.9295838696036
 31
0.0
  0
LINE
  5
1BF
  8
0
  6
CONTINUOUS
 62
     7
 10
-269.8293717947079
 20
267.9295838696036
 30
0.0
 11
-269.8293717947079
 21
268.2295838704165
 31
0.0
  0
LINE
  5
1C0
  8
0
  6
CONTINUOUS
 62
     7
 10
-269.8293717947079
 20
258.1295838696037
 30
0.0
 11
-269.8293717947079
 21
258.9224770884172
 31
0.0
  0
ARC
  5
1C1
  8
0
  6
CONTINUOUS
 62
     7
 10
-270.129371794708
 20
263.072224556723
 30
0.0
 40
2.999999999999999
 50
315.0
 51
0.0
  0
ARC
  5
1C2
  8
0
  6
CONTINUOUS
 62
     7
 10
-295.1293717947079
 20
263.072224556723
 30
0.0
 40
2.999999999999996
 50
180.0
 51
225.0
  0
LINE
  5
1C3
  8
0
  6
CONTINUOUS
 62
     7
 10
-298.1293717947079
 20
267.9295838696036
 30
0.0
 11
-298.1293717947079
 21
263.072224556723
 31
0.0
  0
LINE
  5
1C4
  8
0
  6
CONTINUOUS
 62
     7
 10
-267.129371794708
 20
263.072224556723
 30
0.0
 11
-267.129371794708
 21
267.9295838696036
 31
0.0
  0
ARC
  5
1C5
  8
0
  6
CONTINUOUS
 62
     7
 10
-295.9293717947079
 20
258.9224770884172
 30
0.0
 40
0.500000000000008
 50
0.0
 51
44.99999999999989
  0
ARC
  5
1C6
  8
0
  6
CONTINUOUS
 62
     7
 10
-269.3293717947079
 20
258.9224770884172
 30
0.0
 40
0.5000000000000004
 50
134.9999999999991
 51
180.0
  0
LINE
  5
1C7
  8
0
  6
CONTINUOUS
 62
     7
 10
-269.6829251853013
 20
259.2760304790104
 30
0.0
 11
-268.0080514511483
 21
260.9509042131634
 31
0.0
  0
LINE
  5
1C8
  8
0
  6
CONTINUOUS
 62
     7
 10
-297.2506921382676
 20
260.9509042131634
 30
0.0
 11
-295.5758184041147
 21
259.2760304790105
 31
0.0
  0
ENDBLK
  8
0
  0
ENDSEC
  0
SECTION
  2
ENTITIES
  0
INSERT
  5
D7
  8
0
  6
CONTINUOUS
 62
     7
  2
D_FRAME_VIEW_7287
 10
0.0
 20
0.0
 30
0.0
  0
INSERT
  5
119
  8
0
  6
CONTINUOUS
 62
     7
  2
D_FRAME_VIEW_7481
 10
0.0
 20
0.0
 30
0.0
  0
INSERT
  5
1C9
  8
0
  6
CONTINUOUS
 62
     7
  2
D_FRAME_VIEW_6510
 10
0.0
 20
0.0
 30
0.0
  0
TEXT
  5
1CA
  8
0
  6
CONTINUOUS
 62
     1
 10
-263.8197511566838
 20
16.65684006502438
 30
0.0
 40
6.0
  1
CDO-16SG
  0
LINE
  5
1CB
  8
0
  6
CONTINUOUS
 62
     7
 10
-301.5462541685934
 20
145.6295838696037
 30
0.0
 11
-303.879371794708
 21
145.6295838696037
 31
0.0
  0
ARC
  5
1CC
  8
0
  6
CONTINUOUS
 62
     7
 10
-263.6293717947079
 20
198.6295838696037
 30
0.0
 40
5.000000000000008
 50
25.84193276316688
 51
334.1580672368331
  0
LINE
  5
1CD
  8
0
  6
CONTINUOUS
 62
     7
 10
-249.09418803622
 20
226.6295838696036
 30
0.0
 11
-254.629371794708
 21
226.6295838696036
 31
0.0
  0
LINE
  5
1CE
  8
0
  6
CONTINUOUS
 62
     7
 10
-316.1645555531958
 20
197.6295838696036
 30
0.0
 11
-310.6293717947079
 21
197.6295838696036
 31
0.0
  0
LINE
  5
1CF
  8
0
  6
CONTINUOUS
 62
     7
 10
-308.2124894208225
 20
146.6295838696037
 30
0.0
 11
-305.8793717947079
 21
146.6295838696037
 31
0.0
  0
LINE
  5
1D0
  8
0
  6
CONTINUOUS
 62
     7
 10
-254.629371794708
 20
197.6295838696036
 30
0.0
 11
-249.09418803622
 21
197.6295838696036
 31
0.0
  0
LINE
  5
1D1
  8
0
  6
CONTINUOUS
 62
     7
 10
-249.09418803622
 20
199.6295838696036
 30
0.0
 11
-254.629371794708
 21
199.6295838696036
 31
0.0
  0
LINE
  5
1D2
  8
0
  6
CONTINUOUS
 62
     7
 10
-254.629371794708
 20
224.6295838696036
 30
0.0
 11
-249.09418803622
 21
224.6295838696036
 31
0.0
  0
LINE
  5
1D3
  8
0
  6
CONTINUOUS
 62
     7
 10
-295.8293717947076
 20
287.2295838687657
 30
0.0
 11
-269.4293717947084
 21
287.2295838704417
 31
0.0
  0
LINE
  5
1D4
  8
0
  6
CONTINUOUS
 62
     7
 10
-305.8793717947079
 20
145.6295838696037
 30
0.0
 11
-308.2124894208225
 21
145.6295838696037
 31
0.0
  0
LINE
  5
1D5
  8
0
  6
CONTINUOUS
 62
     7
 10
-310.6293717947079
 20
226.6295838696036
 30
0.0
 11
-316.1645555531958
 21
226.6295838696036
 31
0.0
  0
ARC
  5
1D6
  8
0
  6
CONTINUOUS
 62
     7
 10
-301.6293717947079
 20
198.6295838696037
 30
0.0
 40
4.999999999999998
 50
161.3370751150576
 51
198.6629248849424
  0
LINE
  5
1D7
  8
0
  6
CONTINUOUS
 62
     7
 10
-303.8793717947079
 20
146.6295838696037
 30
0.0
 11
-301.5462541685934
 21
146.6295838696037
 31
0.0
  0
LINE
  5
1D8
  8
0
  6
CONTINUOUS
 62
     7
 10
-254.629371794708
 20
170.6295838696036
 30
0.0
 11
-249.09418803622
 21
170.6295838696036
 31
0.0
  0
CIRCLE
  5
1D9
  8
0
  6
CONTINUOUS
 62
     7
 10
-260.3793717947079
 20
251.1295838696037
 30
0.0
 40
3.499999999999998
  0
LINE
  5
1DA
  8
0
  6
CONTINUOUS
 62
     7
 10
-316.1645555531958
 20
224.6295838696036
 30
0.0
 11
-310.6293717947079
 21
224.6295838696036
 31
0.0
  0
CIRCLE
  5
1DB
  8
0
  6
CONTINUOUS
 62
     7
 10
-304.8793717947079
 20
146.1295838696037
 30
0.0
 40
3.5
  0
LINE
  5
1DC
  8
0
  6
CONTINUOUS
 62
     7
 10
-259.3793717947079
 20
251.6295838696037
 30
0.0
 11
-257.0462541685934
 21
251.6295838696037
 31
0.0
  0
LINE
  5
1DD
  8
0
  6
CONTINUOUS
 62
     7
 10
-263.7124894208225
 20
251.6295838696037
 30
0.0
 11
-261.3793717947079
 21
251.6295838696037
 31
0.0
  0
LINE
  5
1DE
  8
0
  6
CONTINUOUS
 62
     7
 10
-249.09418803622
 20
172.6295838696036
 30
0.0
 11
-254.629371794708
 21
172.6295838696036
 31
0.0
  0
LINE
  5
1DF
  8
0
  6
CONTINUOUS
 62
     7
 10
-261.3793717947079
 20
250.6295838696037
 30
0.0
 11
-263.7124894208225
 21
250.6295838696037
 31
0.0
  0
LINE
  5
1E0
  8
0
  6
CONTINUOUS
 62
     7
 10
-257.0462541685934
 20
250.6295838696037
 30
0.0
 11
-259.3793717947079
 21
250.6295838696037
 31
0.0
  0
LINE
  5
1E1
  8
0
  6
CONTINUOUS
 62
     7
 10
-318.6293717947079
 20
48.18178440183171
 30
0.0
 11
-318.6293717947079
 21
58.18178440183172
 31
0.0
  0
LINE
  5
1E2
  8
0
  6
CONTINUOUS
 62
     7
 10
-254.629371794708
 20
94.58178440183165
 30
0.0
 11
-310.6293717947079
 21
94.58178440183165
 31
0.0
  0
LINE
  5
1E3
  8
0
  6
CONTINUOUS
 62
     7
 10
-270.6293717947079
 20
45.38178440183172
 30
0.0
 11
-270.6293717947079
 21
37.08178440183171
 31
0.0
  0
LINE
  5
1E4
  8
0
  6
CONTINUOUS
 62
     7
 10
-318.929371794708
 20
84.08178440183164
 30
0.0
 11
-246.3293717947079
 21
84.08178440183164
 31
0.0
  0
LINE
  5
1E5
  8
0
  6
CONTINUOUS
 62
     7
 10
-178.4654518690768
 20
267.9295838696036
 30
0.0
 11
-178.4654518690768
 21
260.2044543181713
 31
0.0
  0
LINE
  5
1E6
  8
0
  6
CONTINUOUS
 62
     7
 10
-262.6293717947079
 20
37.08178440183171
 30
0.0
 11
-262.6293717947079
 21
45.38178440183172
 31
0.0
  0
LINE
  5
1E7
  8
0
  6
CONTINUOUS
 62
     7
 10
-318.929371794708
 20
81.58178440183167
 30
0.0
 11
-246.3293717947079
 21
81.58178440183167
 31
0.0
  0
LINE
  5
1E8
  8
0
  6
CONTINUOUS
 62
     7
 10
-246.6293717947079
 20
48.18178440183171
 30
0.0
 11
-246.6293717947079
 21
58.18178440183172
 31
0.0
  0
LINE
  5
1E9
  8
0
  6
CONTINUOUS
 62
     7
 10
-316.1645555531958
 20
170.6295838696036
 30
0.0
 11
-310.6293717947079
 21
170.6295838696035
 31
0.0
  0
LINE
  5
1EA
  8
0
  6
CONTINUOUS
 62
     7
 10
-205.7154518690767
 20
199.6295838696036
 30
0.0
 11
-213.5182275068095
 21
199.6295838696036
 31
0.0
  0
LINE
  5
1EB
  8
0
  6
CONTINUOUS
 62
     7
 10
-298.1293717947079
 20
267.9295838696036
 30
0.0
 11
-295.2448775010792
 21
267.9295838696036
 31
0.0
  0
LINE
  5
1EC
  8
0
  6
CONTINUOUS
 62
     7
 10
-310.6293717947079
 20
199.6295838696036
 30
0.0
 11
-316.1645555531958
 21
199.6295838696036
 31
0.0
  0
LINE
  5
1ED
  8
0
  6
CONTINUOUS
 62
     7
 10
-162.3154518690768
 20
253.3795838696037
 30
0.0
 11
-162.3154518690768
 21
252.0505052960384
 31
0.0
  0
LINE
  5
1EE
  8
0
  6
CONTINUOUS
 62
     7
 10
-164.5154518690768
 20
253.3795838696037
 30
0.0
 11
-164.5154518690768
 21
252.0505052960377
 31
0.0
  0
LINE
  5
1EF
  8
0
  6
CONTINUOUS
 62
     7
 10
-205.7154518690767
 20
138.8295838696037
 30
0.0
 11
-205.7154518690767
 21
258.4295838696036
 31
0.0
  0
LINE
  5
1F0
  8
0
  6
CONTINUOUS
 62
     7
 10
-205.7154518690767
 20
172.6295838696036
 30
0.0
 11
-213.5182275068094
 21
172.6295838696036
 31
0.0
  0
LINE
  5
1F1
  8
0
  6
CONTINUOUS
 62
     7
 10
-179.2154518690768
 20
285.772162542072
 30
0.0
 11
-179.2154518690768
 21
268.2295838705987
 31
0.0
  0
LINE
  5
1F2
  8
0
  6
CONTINUOUS
 62
     7
 10
-205.7154518690767
 20
226.6295838696036
 30
0.0
 11
-213.5182275068095
 21
226.6295838696036
 31
0.0
  0
LINE
  5
1F3
  8
0
  6
CONTINUOUS
 62
     7
 10
-213.5182275068088
 20
224.6295838696036
 30
0.0
 11
-205.7154518690768
 21
224.6295838696036
 31
0.0
  0
LINE
  5
1F4
  8
0
  6
CONTINUOUS
 62
     7
 10
-182.7154518690768
 20
268.229583870588
 30
0.0
 11
-182.7154518690768
 21
285.823420787777
 31
0.0
  0
LINE
  5
1F5
  8
0
  6
CONTINUOUS
 62
     7
 10
-213.5182275068088
 20
197.6295838696036
 30
0.0
 11
-205.7154518690768
 21
197.6295838696036
 31
0.0
  0
LINE
  5
1F6
  8
0
  6
CONTINUOUS
 62
     7
 10
-203.2154518690768
 20
138.8295838696037
 30
0.0
 11
-203.2154518690768
 21
258.4295838696036
 31
0.0
  0
LINE
  5
1F7
  8
0
  6
CONTINUOUS
 62
     7
 10
-162.3154518690768
 20
248.2086624431697
 30
0.0
 11
-162.3154518690768
 21
246.8795838696036
 31
0.0
  0
LINE
  5
1F8
  8
0
  6
CONTINUOUS
 62
     7
 10
-164.5154518690768
 20
248.2086624431697
 30
0.0
 11
-164.5154518690768
 21
246.8795838696036
 31
0.0
  0
LINE
  5
1F9
  8
0
  6
CONTINUOUS
 62
     7
 10
-213.5182275068088
 20
170.6295838696036
 30
0.0
 11
-205.7154518690767
 21
170.6295838696036
 31
0.0
  0
LINE
  5
1FA
  8
0
  6
CONTINUOUS
 62
     7
 10
-158.2154518690768
 20
143.1295838696037
 30
0.0
 11
-158.2154518690768
 21
254.1295838696037
 31
0.0
  0
LINE
  5
1FB
  8
0
  6
CONTINUOUS
 62
     7
 10
-216.2154518690768
 20
151.3795838696036
 30
0.0
 11
-216.2154518690768
 21
245.8795838696037
 31
0.0
  0
LINE
  5
1FC
  8
0
  6
CONTINUOUS
 62
     7
 10
-273.6293717947079
 20
197.2153703072306
 30
0.0
 11
-273.6293717947079
 21
200.0437974319767
 31
0.0
  0
LINE
  5
1FD
  8
0
  6
CONTINUOUS
 62
     7
 10
-310.6293717947079
 20
172.6295838696036
 30
0.0
 11
-316.1645555531959
 21
172.6295838696036
 31
0.0
  0
LINE
  5
1FE
  8
0
  6
CONTINUOUS
 62
     7
 10
-291.6293717947079
 20
200.0437974319767
 30
0.0
 11
-291.6293717947079
 21
197.2153703072306
 31
0.0
  0
LINE
  5
1FF
  8
0
  6
CONTINUOUS
 62
     7
 10
-181.9654518690768
 20
260.2044543181833
 30
0.0
 11
-181.9654518690768
 21
267.9295838696036
 31
0.0
  0
LINE
  5
200
  8
0
  6
CONTINUOUS
 62
     7
 10
-266.9293717935021
 20
268.2295838706007
 30
0.0
 11
-295.743867590138
 21
268.2295838687714
 31
0.0
  0
LINE
  5
201
  8
0
  6
CONTINUOUS
 62
     7
 10
-208.7185761065096
 20
146.6295838696037
 30
0.0
 11
-207.1154518690768
 21
146.6295838696037
 31
0.0
  0
LINE
  5
202
  8
0
  6
CONTINUOUS
 62
     7
 10
-269.6307271451213
 20
268.2388078630315
 30
0.0
 11
-269.6979822627145
 21
268.2296885372864
 31
0.0
  0
LINE
  5
203
  8
0
  6
CONTINUOUS
 62
     7
 10
-295.8064295283146
 20
268.2295838687674
 30
0.0
 11
-298.3293717935013
 21
268.2295838686072
 31
0.0
  0
LINE
  5
204
  8
0
  6
CONTINUOUS
 62
     7
 10
-178.4654518690768
 20
267.9295838696036
 30
0.0
 11
-181.9654518690768
 21
267.9295838696036
 31
0.0
  0
LINE
  5
205
  8
0
  6
CONTINUOUS
 62
     7
 10
-267.129371794708
 20
267.9295838696036
 30
0.0
 11
-270.0138660883367
 21
267.9295838696036
 31
0.0
  0
LINE
  5
206
  8
0
  6
CONTINUOUS
 62
     7
 10
-208.7185761065096
 20
251.6295838696037
 30
0.0
 11
-207.1154518690768
 21
251.6295838696037
 31
0.0
  0
LINE
  5
207
  8
0
  6
CONTINUOUS
 62
     7
 10
-207.1154518690768
 20
250.6295838696037
 30
0.0
 11
-208.7185761065096
 21
250.6295838696037
 31
0.0
  0
LINE
  5
208
  8
0
  6
CONTINUOUS
 62
     7
 10
-207.1154518690768
 20
145.6295838696037
 30
0.0
 11
-208.7185761065096
 21
145.6295838696037
 31
0.0
  0
LINE
  5
209
  8
0
  6
CONTINUOUS
 62
     7
 10
-167.0154518690773
 20
268.2295838721936
 30
0.0
 11
-193.4154518690765
 21
268.2295838693033
 31
0.0
  0
LINE
  5
20A
  8
0
  6
CONTINUOUS
 62
     7
 10
-246.6293717947079
 20
75.58178440183171
 30
0.0
 11
-246.6293717947079
 21
61.5817844018317
 31
0.0
  0
LINE
  5
20B
  8
0
  6
CONTINUOUS
 62
     7
 10
-315.6293717947079
 20
36.58178440183171
 30
0.0
 11
-249.6293717947079
 21
36.58178440183171
 31
0.0
  0
LINE
  5
20C
  8
0
  6
CONTINUOUS
 62
     7
 10
-316.6293717947079
 20
81.58178440183171
 30
0.0
 11
-316.6293717947079
 21
37.58178440183171
 31
0.0
  0
LINE
  5
20D
  8
0
  6
CONTINUOUS
 62
     7
 10
-318.6293717947079
 20
75.58178440183171
 30
0.0
 11
-318.6293717947079
 21
61.5817844018317
 31
0.0
  0
LINE
  5
20E
  8
0
  6
CONTINUOUS
 62
     7
 10
-270.6293717947079
 20
45.38178440183172
 30
0.0
 11
-262.6293717947079
 21
45.38178440183172
 31
0.0
  0
ENDSEC
  0
EOF
