  0
SECTION
  2
HEADER
  9
$ACADVER
  1
AC1006
  9
$DWGCODEPAGE
  3
ansi_932
  9
$INSBASE
 10
0.0
 20
0.0
 30
0.0
  9
$EXTMIN
 10
-341.0000000000001
 20
-72.6590909090909
  9
$EXTMAX
 10
-177.5000000000001
 20
166.0075738911351
  9
$LIMMIN
 10
0.0
 20
0.0
  9
$LIMMAX
 10
12.0
 20
9.0
  9
$ORTHOMODE
 70
     0
  9
$REGENMODE
 70
     1
  9
$FILLMODE
 70
     1
  9
$QTEXTMODE
 70
     0
  9
$MIRRTEXT
 70
     1
  9
$DRAGMODE
 70
     2
  9
$LTSCALE
 40
1.0
  9
$OSMODE
 70
    37
  9
$ATTMODE
 70
     1
  9
$TEXTSIZE
 40
0.2
  9
$TRACEWID
 40
0.05
  9
$TEXTSTYLE
  7
STANDARD
  9
$CLAYER
  8
0
  9
$CELTYPE
  6
BYLAYER
  9
$CECOLOR
 62
   256
  9
$DIMSCALE
 40
1.0
  9
$DIMASZ
 40
3.0
  9
$DIMEXO
 40
0.0625
  9
$DIMDLI
 40
0.38
  9
$DIMRND
 40
0.0
  9
$DIMDLE
 40
0.0
  9
$DIMEXE
 40
1.5
  9
$DIMTP
 40
0.0
  9
$DIMTM
 40
0.0
  9
$DIMTXT
 40
3.0
  9
$DIMCEN
 40
0.09
  9
$DIMTSZ
 40
0.0
  9
$DIMTOL
 70
     0
  9
$DIMLIM
 70
     0
  9
$DIMTIH
 70
     1
  9
$DIMTOH
 70
     1
  9
$DIMSE1
 70
     0
  9
$DIMSE2
 70
     0
  9
$DIMTAD
 70
     1
  9
$DIMZIN
 70
     0
  9
$DIMBLK
  1

  9
$DIMASO
 70
     1
  9
$DIMSHO
 70
     1
  9
$DIMPOST
  1

  9
$DIMAPOST
  1

  9
$DIMALT
 70
     0
  9
$DIMALTD
 70
     2
  9
$DIMALTF
 40
25.4
  9
$DIMLFAC
 40
1.0
  9
$DIMTOFL
 70
     0
  9
$DIMTVP
 40
0.0
  9
$DIMTIX
 70
     0
  9
$DIMSOXD
 70
     0
  9
$DIMSAH
 70
     0
  9
$DIMBLK1
  1

  9
$DIMBLK2
  1

  9
$LUNITS
 70
     2
  9
$LUPREC
 70
     4
  9
$SKETCHINC
 40
0.1
  9
$FILLETRAD
 40
0.5
  9
$AUNITS
 70
     0
  9
$AUPREC
 70
     0
  9
$MENU
  1
.
  9
$ELEVATION
 40
0.0
  9
$THICKNESS
 40
0.0
  9
$LIMCHECK
 70
     0
  9
$CHAMFERA
 40
0.0
  9
$CHAMFERB
 40
0.0
  9
$SKPOLY
 70
     0
  9
$TDCREATE
 40
2459395.590300382
  9
$TDUPDATE
 40
2459395.590300567
  9
$TDINDWG
 40
0.0000000116
  9
$TDUSRTIMER
 40
0.0000000116
  9
$USRTIMER
 70
     1
  9
$ANGBASE
 50
0.0
  9
$ANGDIR
 70
     0
  9
$PDMODE
 70
     0
  9
$PDSIZE
 40
0.0
  9
$PLINEWID
 40
0.0
  9
$COORDS
 70
     1
  9
$SPLFRAME
 70
     0
  9
$SPLINETYPE
 70
     6
  9
$SPLINESEGS
 70
     8
  9
$ATTDIA
 70
     0
  9
$ATTREQ
 70
     1
  9
$HANDLING
 70
     1
  9
$HANDSEED
  5
2B7
  9
$SURFTAB1
 70
     6
  9
$SURFTAB2
 70
     6
  9
$SURFTYPE
 70
     6
  9
$SURFU
 70
     6
  9
$SURFV
 70
     6
  9
$UCSNAME
  2

  9
$UCSORG
 10
0.0
 20
0.0
 30
0.0
  9
$UCSXDIR
 10
1.0
 20
0.0
 30
0.0
  9
$UCSYDIR
 10
0.0
 20
1.0
 30
0.0
  9
$USERI1
 70
     0
  9
$USERI2
 70
     0
  9
$USERI3
 70
     0
  9
$USERI4
 70
     0
  9
$USERI5
 70
     0
  9
$USERR1
 40
0.0
  9
$USERR2
 40
0.0
  9
$USERR3
 40
0.0
  9
$USERR4
 40
0.0
  9
$USERR5
 40
0.0
  9
$WORLDVIEW
 70
     1
  0
ENDSEC
  0
SECTION
  2
TABLES
  0
TABLE
  2
VPORT
 70
     1
  0
VPORT
  2
*ACTIVE
 70
     0
 10
0.0
 20
0.0
 11
1.0
 21
1.0
 12
-259.2500000000001
 22
46.67424149102209
 13
0.0
 23
0.0
 14
0.5
 24
0.5
 15
0.5
 25
0.5
 16
0.0
 26
0.0
 36
1.0
 17
0.0
 27
0.0
 37
0.0
 40
238.666664800226
 41
1.6
 42
50.0
 43
0.0
 44
0.0
 50
0.0
 51
0.0
 71
     0
 72
   100
 73
     1
 74
     3
 75
     0
 76
     0
 77
     0
 78
     0
  0
ENDTAB
  0
TABLE
  2
LTYPE
 70
     1
  0
LTYPE
  2
CONTINUOUS
 70
     0
  3
Solid line
 72
    65
 73
     0
 40
0.0
  0
ENDTAB
  0
TABLE
  2
LAYER
 70
     1
  0
LAYER
  2
0
 70
     0
 62
     7
  6
CONTINUOUS
  0
ENDTAB
  0
TABLE
  2
STYLE
 70
     2
  0
STYLE
  2
STANDARD
 70
     0
 40
0.0
 41
1.0
 50
0.0
 71
     0
 42
0.2
  3
txt
  4

  0
STYLE
  2
ＭＳ_ゴシック
 70
     0
 40
0.0
 41
1.0
 50
0.0
 71
     0
 42
0.2
  3
ＭＳ ゴシック.shx
  4

  0
ENDTAB
  0
TABLE
  2
VIEW
 70
     0
  0
ENDTAB
  0
TABLE
  2
UCS
 70
     0
  0
ENDTAB
  0
ENDSEC
  0
SECTION
  2
BLOCKS
  0
BLOCK
  8
0
  2
D_FRAME_VIEW_5151
 70
     0
 10
0.0
 20
0.0
 30
0.0
  0
CIRCLE
  5
71
  8
0
  6
CONTINUOUS
 62
    15
 10
-305.0000000000001
 20
77.40757389029699
 30
0.0
 40
4.762500000000003
  0
CIRCLE
  5
72
  8
0
  6
CONTINUOUS
 62
     7
 10
-305.0000000000001
 20
35.65757389029699
 30
0.0
 40
1.649999999999999
  0
CIRCLE
  5
73
  8
0
  6
CONTINUOUS
 62
     7
 10
-305.0000000000001
 20
119.157573890297
 30
0.0
 40
1.649999999999999
  0
LINE
  5
74
  8
0
  6
CONTINUOUS
 62
     7
 10
-330.0000000000001
 20
24.40757389029699
 30
0.0
 11
-328.5500000000001
 21
24.40757389029701
 31
0.0
  0
ARC
  5
75
  8
0
  6
CONTINUOUS
 62
     7
 10
-328.5500000000001
 20
23.60757389029699
 30
0.0
 40
0.800000000000009
 50
0.0
 51
89.99999999999949
  0
LINE
  5
76
  8
0
  6
CONTINUOUS
 62
     7
 10
-327.7500000000001
 20
23.60757389029699
 30
0.0
 11
-327.7500000000001
 21
22.71383279344896
 31
0.0
  0
ARC
  5
77
  8
0
  6
CONTINUOUS
 62
     7
 10
-327.2500000000001
 20
24.90757389029699
 30
0.0
 40
2.249999999999998
 50
257.1604115930959
 51
282.8395884069041
  0
LINE
  5
78
  8
0
  6
CONTINUOUS
 62
     7
 10
-326.7500000000001
 20
22.71383279344896
 30
0.0
 11
-326.7500000000001
 21
23.60757389029699
 31
0.0
  0
ARC
  5
79
  8
0
  6
CONTINUOUS
 62
     7
 10
-325.9500000000001
 20
23.60757389029699
 30
0.0
 40
0.800000000000002
 50
90.0
 51
179.9999999999995
  0
LINE
  5
7A
  8
0
  6
CONTINUOUS
 62
     7
 10
-325.9500000000001
 20
24.40757389029699
 30
0.0
 11
-324.5000000000001
 21
24.40757389029699
 31
0.0
  0
LINE
  5
7B
  8
0
  6
CONTINUOUS
 62
     7
 10
-324.5000000000001
 20
24.40757389029699
 30
0.0
 11
-324.5000000000001
 21
25.40757389029699
 31
0.0
  0
LINE
  5
7C
  8
0
  6
CONTINUOUS
 62
     7
 10
-324.5000000000001
 20
25.40757389029699
 30
0.0
 11
-325.9500000000001
 21
25.40757389029699
 31
0.0
  0
ARC
  5
7D
  8
0
  6
CONTINUOUS
 62
     7
 10
-325.95
 20
26.20757389029698
 30
0.0
 40
0.7999999999999952
 50
180.0
 51
269.9999999999995
  0
LINE
  5
7E
  8
0
  6
CONTINUOUS
 62
     7
 10
-326.7500000000001
 20
26.20757389029698
 30
0.0
 11
-326.7500000000001
 21
27.10131498714503
 31
0.0
  0
ARC
  5
7F
  8
0
  6
CONTINUOUS
 62
     7
 10
-327.2500000000001
 20
24.90757389029699
 30
0.0
 40
2.250000000000012
 50
77.16041159309587
 51
102.8395884069042
  0
LINE
  5
80
  8
0
  6
CONTINUOUS
 62
     7
 10
-327.7500000000001
 20
27.10131498714503
 30
0.0
 11
-327.7500000000001
 21
26.207573890297
 31
0.0
  0
ARC
  5
81
  8
0
  6
CONTINUOUS
 62
     7
 10
-328.5500000000001
 20
26.207573890297
 30
0.0
 40
0.800000000000002
 50
270.0
 51
0.0
  0
LINE
  5
82
  8
0
  6
CONTINUOUS
 62
     7
 10
-328.5500000000001
 20
25.40757389029699
 30
0.0
 11
-330.0000000000001
 21
25.40757389029699
 31
0.0
  0
LINE
  5
83
  8
0
  6
CONTINUOUS
 62
     7
 10
-330.0000000000001
 20
25.40757389029699
 30
0.0
 11
-330.0000000000001
 21
24.40757389029699
 31
0.0
  0
LINE
  5
84
  8
0
  6
CONTINUOUS
 62
     7
 10
-285.5000000000001
 20
129.407573890297
 30
0.0
 11
-284.0500000000001
 21
129.407573890297
 31
0.0
  0
ARC
  5
85
  8
0
  6
CONTINUOUS
 62
     7
 10
-284.0500000000001
 20
128.607573890297
 30
0.0
 40
0.7999999999999952
 50
0.0
 51
89.99999999999949
  0
LINE
  5
86
  8
0
  6
CONTINUOUS
 62
     7
 10
-283.2500000000001
 20
128.607573890297
 30
0.0
 11
-283.2500000000001
 21
127.7138327934489
 31
0.0
  0
ARC
  5
87
  8
0
  6
CONTINUOUS
 62
     7
 10
-282.7500000000001
 20
129.907573890297
 30
0.0
 40
2.249999999999998
 50
257.1604115930959
 51
282.8395884069041
  0
LINE
  5
88
  8
0
  6
CONTINUOUS
 62
     7
 10
-282.2500000000001
 20
127.7138327934489
 30
0.0
 11
-282.2500000000001
 21
128.607573890297
 31
0.0
  0
ARC
  5
89
  8
0
  6
CONTINUOUS
 62
     7
 10
-281.4500000000001
 20
128.607573890297
 30
0.0
 40
0.7999999999999952
 50
90.0
 51
179.9999999999995
  0
LINE
  5
8A
  8
0
  6
CONTINUOUS
 62
     7
 10
-281.4500000000001
 20
129.407573890297
 30
0.0
 11
-280.0000000000001
 21
129.407573890297
 31
0.0
  0
LINE
  5
8B
  8
0
  6
CONTINUOUS
 62
     7
 10
-280.0000000000001
 20
129.407573890297
 30
0.0
 11
-280.0000000000001
 21
130.407573890297
 31
0.0
  0
LINE
  5
8C
  8
0
  6
CONTINUOUS
 62
     7
 10
-280.0000000000001
 20
130.407573890297
 30
0.0
 11
-281.4500000000002
 21
130.407573890297
 31
0.0
  0
ARC
  5
8D
  8
0
  6
CONTINUOUS
 62
     7
 10
-281.4500000000001
 20
131.207573890297
 30
0.0
 40
0.8000000000000229
 50
180.0
 51
269.9999999999995
  0
LINE
  5
8E
  8
0
  6
CONTINUOUS
 62
     7
 10
-282.2500000000001
 20
131.207573890297
 30
0.0
 11
-282.2500000000001
 21
132.101314987145
 31
0.0
  0
ARC
  5
8F
  8
0
  6
CONTINUOUS
 62
     7
 10
-282.7500000000001
 20
129.907573890297
 30
0.0
 40
2.249999999999998
 50
77.16041159309587
 51
102.8395884069042
  0
LINE
  5
90
  8
0
  6
CONTINUOUS
 62
     7
 10
-283.2500000000001
 20
132.101314987145
 30
0.0
 11
-283.2500000000001
 21
131.207573890297
 31
0.0
  0
ARC
  5
91
  8
0
  6
CONTINUOUS
 62
     7
 10
-284.0500000000001
 20
131.207573890297
 30
0.0
 40
0.7999999999999952
 50
270.0
 51
0.0
  0
LINE
  5
92
  8
0
  6
CONTINUOUS
 62
     7
 10
-284.0500000000001
 20
130.407573890297
 30
0.0
 11
-285.5000000000001
 21
130.407573890297
 31
0.0
  0
LINE
  5
93
  8
0
  6
CONTINUOUS
 62
     7
 10
-285.5000000000001
 20
130.407573890297
 30
0.0
 11
-285.5000000000001
 21
129.407573890297
 31
0.0
  0
LINE
  5
94
  8
0
  6
CONTINUOUS
 62
     9
 10
-319.1258790218749
 20
165.0075738894002
 30
0.0
 11
-319.1258790207956
 21
148.0075738894004
 31
0.0
  0
LINE
  5
95
  8
0
  6
CONTINUOUS
 62
     9
 10
-291.0988549895511
 20
148.0075738911798
 30
0.0
 11
-291.0988549906304
 21
165.0075738911796
 31
0.0
  0
POLYLINE
  5
96
  8
0
  6
CONTINUOUS
 62
     9
 66
     1
 10
0.0
 20
0.0
 30
0.0
  0
VERTEX
  5
207
  8
0
  6
CONTINUOUS
 62
     9
 10
-319.1258790207956
 20
148.0075738894008
 30
0.0
  0
VERTEX
  5
208
  8
0
  6
CONTINUOUS
 62
     9
 10
-319.1253959660874
 20
147.9766487348854
 30
0.0
  0
VERTEX
  5
209
  8
0
  6
CONTINUOUS
 62
     9
 10
-319.1239454095771
 20
147.9457235803704
 30
0.0
  0
VERTEX
  5
20A
  8
0
  6
CONTINUOUS
 62
     9
 10
-319.1219818209146
 20
147.919809494321
 30
0.0
  0
VERTEX
  5
20B
  8
0
  6
CONTINUOUS
 62
     9
 10
-319.1193390762297
 20
147.8939559642176
 30
0.0
  0
VERTEX
  5
20C
  8
0
  6
CONTINUOUS
 62
     9
 10
-319.1160087178627
 20
147.8681094947462
 30
0.0
  0
VERTEX
  5
20D
  8
0
  6
CONTINUOUS
 62
     9
 10
-319.1119998106717
 20
147.8423597438958
 30
0.0
  0
VERTEX
  5
20E
  8
0
  6
CONTINUOUS
 62
     9
 10
-319.10406144875
 20
147.8008432050229
 30
0.0
  0
VERTEX
  5
20F
  8
0
  6
CONTINUOUS
 62
     9
 10
-319.0943412703592
 20
147.7596287588659
 30
0.0
  0
VERTEX
  5
210
  8
0
  6
CONTINUOUS
 62
     9
 10
-319.082768965781
 20
147.7185331883054
 30
0.0
  0
VERTEX
  5
211
  8
0
  6
CONTINUOUS
 62
     9
 10
-319.0694136799133
 20
147.677899503358
 30
0.0
  0
VERTEX
  5
212
  8
0
  6
CONTINUOUS
 62
     9
 10
-319.0548261186307
 20
147.6391378749907
 30
0.0
  0
VERTEX
  5
213
  8
0
  6
CONTINUOUS
 62
     9
 10
-319.0386070519608
 20
147.6009529606501
 30
0.0
  0
VERTEX
  5
214
  8
0
  6
CONTINUOUS
 62
     9
 10
-319.0229724198472
 20
147.5678239954195
 30
0.0
  0
VERTEX
  5
215
  8
0
  6
CONTINUOUS
 62
     9
 10
-319.0061302773585
 20
147.5352936165615
 30
0.0
  0
VERTEX
  5
216
  8
0
  6
CONTINUOUS
 62
     9
 10
-318.9880019269926
 20
147.5032331818851
 30
0.0
  0
VERTEX
  5
217
  8
0
  6
CONTINUOUS
 62
     9
 10
-318.9687029899696
 20
147.4718650491665
 30
0.0
  0
VERTEX
  5
218
  8
0
  6
CONTINUOUS
 62
     9
 10
-318.9540524106445
 20
147.4496656394268
 30
0.0
  0
VERTEX
  5
219
  8
0
  6
CONTINUOUS
 62
     9
 10
-318.938816408975
 20
147.4278648088879
 30
0.0
  0
VERTEX
  5
21A
  8
0
  6
CONTINUOUS
 62
     9
 10
-318.9229601830568
 20
147.4064174826454
 30
0.0
  0
VERTEX
  5
21B
  8
0
  6
CONTINUOUS
 62
     9
 10
-318.906538320456
 20
147.3854011600266
 30
0.0
  0
VERTEX
  5
21C
  8
0
  6
CONTINUOUS
 62
     9
 10
-318.8798304314696
 20
147.3535235478963
 30
0.0
  0
VERTEX
  5
21D
  8
0
  6
CONTINUOUS
 62
     9
 10
-318.8517749874742
 20
147.3227308564118
 30
0.0
  0
VERTEX
  5
21E
  8
0
  6
CONTINUOUS
 62
     9
 10
-318.8259613036312
 20
147.2965329413055
 30
0.0
  0
VERTEX
  5
21F
  8
0
  6
CONTINUOUS
 62
     9
 10
-318.7992076144564
 20
147.2712983116679
 30
0.0
  0
VERTEX
  5
220
  8
0
  6
CONTINUOUS
 62
     9
 10
-318.7713985575242
 20
147.2469319591726
 30
0.0
  0
VERTEX
  5
221
  8
0
  6
CONTINUOUS
 62
     9
 10
-318.7427155101691
 20
147.2236036985144
 30
0.0
  0
VERTEX
  5
222
  8
0
  6
CONTINUOUS
 62
     9
 10
-318.7214823034076
 20
147.207421296124
 30
0.0
  0
VERTEX
  5
223
  8
0
  6
CONTINUOUS
 62
     9
 10
-318.6998293386346
 20
147.1918067179454
 30
0.0
  0
VERTEX
  5
224
  8
0
  6
CONTINUOUS
 62
     9
 10
-318.6777095297355
 20
147.1767291173352
 30
0.0
  0
VERTEX
  5
225
  8
0
  6
CONTINUOUS
 62
     9
 10
-318.655199163223
 20
147.1622429446143
 30
0.0
  0
VERTEX
  5
226
  8
0
  6
CONTINUOUS
 62
     9
 10
-318.6193281161814
 20
147.1408407766459
 30
0.0
  0
VERTEX
  5
227
  8
0
  6
CONTINUOUS
 62
     9
 10
-318.5825442984658
 20
147.1209038848267
 30
0.0
  0
VERTEX
  5
228
  8
0
  6
CONTINUOUS
 62
     9
 10
-318.5446723326161
 20
147.1023625257488
 30
0.0
  0
VERTEX
  5
229
  8
0
  6
CONTINUOUS
 62
     9
 10
-318.5059985478221
 20
147.0853818660762
 30
0.0
  0
VERTEX
  5
22A
  8
0
  6
CONTINUOUS
 62
     9
 10
-318.4661637024653
 20
147.0698420587469
 30
0.0
  0
VERTEX
  5
22B
  8
0
  6
CONTINUOUS
 62
     9
 10
-318.425642066542
 20
147.0559657526162
 30
0.0
  0
VERTEX
  5
22C
  8
0
  6
CONTINUOUS
 62
     9
 10
-318.3842457066361
 20
147.0437138284412
 30
0.0
  0
VERTEX
  5
22D
  8
0
  6
CONTINUOUS
 62
     9
 10
-318.3422952054244
 20
147.0332063692585
 30
0.0
  0
VERTEX
  5
22E
  8
0
  6
CONTINUOUS
 62
     9
 10
-318.3143979855767
 20
147.0272514423696
 30
0.0
  0
VERTEX
  5
22F
  8
0
  6
CONTINUOUS
 62
     9
 10
-318.2863245675205
 20
147.0220733402163
 30
0.0
  0
VERTEX
  5
230
  8
0
  6
CONTINUOUS
 62
     9
 10
-318.2579964306717
 20
147.0176632673477
 30
0.0
  0
VERTEX
  5
231
  8
0
  6
CONTINUOUS
 62
     9
 10
-318.2295567771238
 20
147.0140479680051
 30
0.0
  0
SEQEND
  5
2B0
  8
0
  6
CONTINUOUS
 62
     9
  0
LINE
  5
97
  8
0
  6
CONTINUOUS
 62
     9
 10
-292.1454288274171
 20
147.0075738911133
 30
0.0
 11
-292.0084386026891
 21
147.0160821492011
 31
0.0
  0
POLYLINE
  5
98
  8
0
  6
CONTINUOUS
 62
     9
 66
     1
 10
0.0
 20
0.0
 30
0.0
  0
VERTEX
  5
232
  8
0
  6
CONTINUOUS
 62
     9
 10
-292.0084386026891
 20
147.0160821492011
 30
0.0
  0
VERTEX
  5
233
  8
0
  6
CONTINUOUS
 62
     9
 10
-291.9721987243606
 20
147.0212210689755
 30
0.0
  0
VERTEX
  5
234
  8
0
  6
CONTINUOUS
 62
     9
 10
-291.928682553414
 20
147.0290355880643
 30
0.0
  0
VERTEX
  5
235
  8
0
  6
CONTINUOUS
 62
     9
 10
-291.8854407388824
 20
147.0386213027672
 30
0.0
  0
VERTEX
  5
236
  8
0
  6
CONTINUOUS
 62
     9
 10
-291.8423051706296
 20
147.0500486974196
 30
0.0
  0
VERTEX
  5
237
  8
0
  6
CONTINUOUS
 62
     9
 10
-291.7995968282468
 20
147.0632674770694
 30
0.0
  0
VERTEX
  5
238
  8
0
  6
CONTINUOUS
 62
     9
 10
-291.7579739826101
 20
147.0780536441052
 30
0.0
  0
VERTEX
  5
239
  8
0
  6
CONTINUOUS
 62
     9
 10
-291.7169175377745
 20
147.0945714621212
 30
0.0
  0
VERTEX
  5
23A
  8
0
  6
CONTINUOUS
 62
     9
 10
-291.676251403402
 20
147.1129318714222
 30
0.0
  0
VERTEX
  5
23B
  8
0
  6
CONTINUOUS
 62
     9
 10
-291.6363138001089
 20
147.133024125624
 30
0.0
  0
VERTEX
  5
23C
  8
0
  6
CONTINUOUS
 62
     9
 10
-291.59676089516
 20
147.1550804219471
 30
0.0
  0
VERTEX
  5
23D
  8
0
  6
CONTINUOUS
 62
     9
 10
-291.558115624686
 20
147.1788712282638
 30
0.0
  0
VERTEX
  5
23E
  8
0
  6
CONTINUOUS
 62
     9
 10
-291.5202225851673
 20
147.2045425519798
 30
0.0
  0
VERTEX
  5
23F
  8
0
  6
CONTINUOUS
 62
     9
 10
-291.4834185747513
 20
147.2319191555733
 30
0.0
  0
VERTEX
  5
240
  8
0
  6
CONTINUOUS
 62
     9
 10
-291.449969367881
 20
147.2591139904487
 30
0.0
  0
VERTEX
  5
241
  8
0
  6
CONTINUOUS
 62
     9
 10
-291.4176281397711
 20
147.2877464346981
 30
0.0
  0
VERTEX
  5
242
  8
0
  6
CONTINUOUS
 62
     9
 10
-291.3900849021529
 20
147.3141603967375
 30
0.0
  0
VERTEX
  5
243
  8
0
  6
CONTINUOUS
 62
     9
 10
-291.363547376261
 20
147.3415942410699
 30
0.0
  0
VERTEX
  5
244
  8
0
  6
CONTINUOUS
 62
     9
 10
-291.3379159557548
 20
147.3701811688424
 30
0.0
  0
VERTEX
  5
245
  8
0
  6
CONTINUOUS
 62
     9
 10
-291.3133881820006
 20
147.3997291599777
 30
0.0
  0
VERTEX
  5
246
  8
0
  6
CONTINUOUS
 62
     9
 10
-291.2963733781799
 20
147.421659924288
 30
0.0
  0
VERTEX
  5
247
  8
0
  6
CONTINUOUS
 62
     9
 10
-291.2799720973479
 20
147.4440573472128
 30
0.0
  0
VERTEX
  5
248
  8
0
  6
CONTINUOUS
 62
     9
 10
-291.2641511161365
 20
147.4669779759652
 30
0.0
  0
VERTEX
  5
249
  8
0
  6
CONTINUOUS
 62
     9
 10
-291.2489770812961
 20
147.4903356950598
 30
0.0
  0
VERTEX
  5
24A
  8
0
  6
CONTINUOUS
 62
     9
 10
-291.2274261295391
 20
147.5262140247652
 30
0.0
  0
VERTEX
  5
24B
  8
0
  6
CONTINUOUS
 62
     9
 10
-291.2073787506384
 20
147.5630475149127
 30
0.0
  0
VERTEX
  5
24C
  8
0
  6
CONTINUOUS
 62
     9
 10
-291.1887359375918
 20
147.6011041172359
 30
0.0
  0
VERTEX
  5
24D
  8
0
  6
CONTINUOUS
 62
     9
 10
-291.1717547705564
 20
147.6399368666743
 30
0.0
  0
VERTEX
  5
24E
  8
0
  6
CONTINUOUS
 62
     9
 10
-291.1563646754948
 20
147.6797823359094
 30
0.0
  0
VERTEX
  5
24F
  8
0
  6
CONTINUOUS
 62
     9
 10
-291.1427367680361
 20
147.7202694106547
 30
0.0
  0
VERTEX
  5
250
  8
0
  6
CONTINUOUS
 62
     9
 10
-291.1307862887746
 20
147.7617688571906
 30
0.0
  0
VERTEX
  5
251
  8
0
  6
CONTINUOUS
 62
     9
 10
-291.1206805945356
 20
147.8038489463788
 30
0.0
  0
VERTEX
  5
252
  8
0
  6
CONTINUOUS
 62
     9
 10
-291.1156124092967
 20
147.8288413515003
 30
0.0
  0
VERTEX
  5
253
  8
0
  6
CONTINUOUS
 62
     9
 10
-291.1112037968575
 20
147.8539777317722
 30
0.0
  0
VERTEX
  5
254
  8
0
  6
CONTINUOUS
 62
     9
 10
-291.1074490371168
 20
147.8793223120221
 30
0.0
  0
VERTEX
  5
255
  8
0
  6
CONTINUOUS
 62
     9
 10
-291.1043698431733
 20
147.9047585130052
 30
0.0
  0
VERTEX
  5
256
  8
0
  6
CONTINUOUS
 62
     9
 10
-291.1019632436847
 20
147.9303416143562
 30
0.0
  0
VERTEX
  5
257
  8
0
  6
CONTINUOUS
 62
     9
 10
-291.1002409080311
 20
147.9559802992879
 30
0.0
  0
VERTEX
  5
258
  8
0
  6
CONTINUOUS
 62
     9
 10
-291.0992017981057
 20
147.9817583416007
 30
0.0
  0
VERTEX
  5
259
  8
0
  6
CONTINUOUS
 62
     9
 10
-291.0988549895511
 20
148.0075738911802
 30
0.0
  0
SEQEND
  5
2B1
  8
0
  6
CONTINUOUS
 62
     9
  0
LINE
  5
99
  8
0
  6
CONTINUOUS
 62
     9
 10
-318.2295567771254
 20
147.0140479679966
 30
0.0
 11
-318.11449579543
 21
147.0075738894647
 31
0.0
  0
CIRCLE
  5
9A
  8
0
  6
CONTINUOUS
 62
     7
 10
-282.7500000000001
 20
24.90757389029699
 30
0.0
 40
1.999999999999988
  0
CIRCLE
  5
9B
  8
0
  6
CONTINUOUS
 62
     7
 10
-305.0000000000001
 20
35.65757389029697
 30
0.0
 40
4.000000000000004
  0
LINE
  5
9C
  8
0
  6
CONTINUOUS
 62
     7
 10
-276.0000000000001
 20
132.657573890297
 30
0.0
 11
-279.1880482878063
 21
132.657573890297
 31
0.0
  0
ARC
  5
9D
  8
0
  6
CONTINUOUS
 62
     7
 10
-276.0000000000001
 20
130.907573890297
 30
0.0
 40
1.750000000000002
 50
359.9999999999998
 51
90.0
  0
LINE
  5
9E
  8
0
  6
CONTINUOUS
 62
     7
 10
-274.2500000000001
 20
23.90757389029701
 30
0.0
 11
-274.2500000000001
 21
130.9075738902969
 31
0.0
  0
ARC
  5
9F
  8
0
  6
CONTINUOUS
 62
     7
 10
-276.0000000000001
 20
23.90757389029699
 30
0.0
 40
1.750000000000002
 50
270.0
 51
0.0000000000002274
  0
LINE
  5
A0
  8
0
  6
CONTINUOUS
 62
     7
 10
-276.0000000000001
 20
22.15757389029699
 30
0.0
 11
-279.1880482878063
 21
22.15757389029699
 31
0.0
  0
ARC
  5
A1
  8
0
  6
CONTINUOUS
 62
     7
 10
-282.7500000000001
 20
24.90757389029701
 30
0.0
 40
4.499999999999992
 50
217.6698869643297
 51
322.3301130356701
  0
LINE
  5
A2
  8
0
  6
CONTINUOUS
 62
     7
 10
-323.6880482878064
 20
22.15757389029699
 30
0.0
 11
-286.3119517121938
 21
22.15757389029699
 31
0.0
  0
ARC
  5
A3
  8
0
  6
CONTINUOUS
 62
     7
 10
-327.2500000000002
 20
24.90757389029701
 30
0.0
 40
4.499999999999997
 50
217.6698869643299
 51
322.3301130356703
  0
LINE
  5
A4
  8
0
  6
CONTINUOUS
 62
     7
 10
-334.0000000000001
 20
22.15757389029699
 30
0.0
 11
-330.8119517121939
 21
22.15757389029699
 31
0.0
  0
ARC
  5
A5
  8
0
  6
CONTINUOUS
 62
     7
 10
-334.0000000000001
 20
23.90757389029699
 30
0.0
 40
1.750000000000002
 50
179.9999999999998
 51
270.0
  0
LINE
  5
A6
  8
0
  6
CONTINUOUS
 62
     7
 10
-335.7500000000001
 20
23.90757389029701
 30
0.0
 11
-335.7500000000001
 21
130.9075738902969
 31
0.0
  0
ARC
  5
A7
  8
0
  6
CONTINUOUS
 62
     7
 10
-334.0000000000001
 20
130.907573890297
 30
0.0
 40
1.750000000000002
 50
90.0
 51
180.0000000000002
  0
LINE
  5
A8
  8
0
  6
CONTINUOUS
 62
     7
 10
-334.0000000000001
 20
132.657573890297
 30
0.0
 11
-330.8119517121939
 21
132.657573890297
 31
0.0
  0
ARC
  5
A9
  8
0
  6
CONTINUOUS
 62
     7
 10
-327.2500000000002
 20
129.9075738902969
 30
0.0
 40
4.500000000000005
 50
37.66988696432974
 51
142.3301130356701
  0
LINE
  5
AA
  8
0
  6
CONTINUOUS
 62
     7
 10
-323.6880482878064
 20
132.657573890297
 30
0.0
 11
-286.3119517121938
 21
132.657573890297
 31
0.0
  0
ARC
  5
AB
  8
0
  6
CONTINUOUS
 62
     7
 10
-282.7500000000001
 20
129.9075738902969
 30
0.0
 40
4.5
 50
37.66988696432986
 51
142.3301130356703
  0
CIRCLE
  5
AC
  8
0
  6
CONTINUOUS
 62
     7
 10
-305.0000000000001
 20
119.157573890297
 30
0.0
 40
4.000000000000004
  0
ARC
  5
AD
  8
0
  6
CONTINUOUS
 62
     7
 10
-313.6564955077873
 20
116.3513156121513
 30
0.0
 40
4.000000000000001
 50
17.96163070225044
 51
103.9135857707628
  0
ARC
  5
AE
  8
0
  6
CONTINUOUS
 62
     7
 10
-305.0000000000002
 20
81.40757389029699
 30
0.0
 40
39.99999999999995
 50
103.9135857707628
 51
124.8499045790465
  0
ARC
  5
AF
  8
0
  6
CONTINUOUS
 62
     7
 10
-325.0000000000002
 20
110.1303871229871
 30
0.0
 40
4.999999999999992
 50
124.8499045790466
 51
180.0000000000002
  0
LINE
  5
B0
  8
0
  6
CONTINUOUS
 62
     7
 10
-330.0000000000001
 20
110.1303871229871
 30
0.0
 11
-330.0000000000001
 21
44.68476065760686
 31
0.0
  0
ARC
  5
B1
  8
0
  6
CONTINUOUS
 62
     7
 10
-325.0000000000002
 20
44.68476065760684
 30
0.0
 40
5.000000000000004
 50
179.9999999999999
 51
235.1500954209534
  0
ARC
  5
B2
  8
0
  6
CONTINUOUS
 62
     7
 10
-305.0000000000002
 20
73.40757389029697
 30
0.0
 40
39.99999999999995
 50
235.1500954209534
 51
256.0864142292371
  0
ARC
  5
B3
  8
0
  6
CONTINUOUS
 62
     7
 10
-313.6564955077873
 20
38.46383216844268
 30
0.0
 40
4.000000000000001
 50
256.0864142292372
 51
342.0383692977496
  0
ARC
  5
B4
  8
0
  6
CONTINUOUS
 62
     7
 10
-305.0000000000002
 20
35.65757389029697
 30
0.0
 40
5.100000000000003
 50
17.96163070225003
 51
162.0383692977496
  0
ARC
  5
B5
  8
0
  6
CONTINUOUS
 62
     7
 10
-296.3435044922129
 20
38.46383216844268
 30
0.0
 40
4.000000000000008
 50
197.9616307022505
 51
283.9135857707628
  0
ARC
  5
B6
  8
0
  6
CONTINUOUS
 62
     7
 10
-305.0000000000001
 20
73.40757389029697
 30
0.0
 40
39.99999999999995
 50
283.9135857707628
 51
304.8499045790465
  0
ARC
  5
B7
  8
0
  6
CONTINUOUS
 62
     7
 10
-285.0
 20
44.68476065760684
 30
0.0
 40
5.000000000000004
 50
304.8499045790466
 51
0.0000000000001705
  0
LINE
  5
B8
  8
0
  6
CONTINUOUS
 62
     7
 10
-280.0000000000001
 20
110.1303871229871
 30
0.0
 11
-280.0000000000001
 21
44.68476065760686
 31
0.0
  0
ARC
  5
B9
  8
0
  6
CONTINUOUS
 62
     7
 10
-285.0
 20
110.1303871229871
 30
0.0
 40
4.999999999999992
 50
359.9999999999998
 51
55.15009542095333
  0
ARC
  5
BA
  8
0
  6
CONTINUOUS
 62
     7
 10
-305.0000000000001
 20
81.40757389029699
 30
0.0
 40
39.99999999999995
 50
55.15009542095351
 51
76.08641422923716
  0
ARC
  5
BB
  8
0
  6
CONTINUOUS
 62
     7
 10
-296.3435044922129
 20
116.3513156121513
 30
0.0
 40
4.000000000000008
 50
76.08641422923722
 51
162.0383692977496
  0
ARC
  5
BC
  8
0
  6
CONTINUOUS
 62
     7
 10
-305.0000000000002
 20
119.157573890297
 30
0.0
 40
5.100000000000003
 50
197.9616307022505
 51
342.03836929775
  0
CIRCLE
  5
BD
  8
0
  6
CONTINUOUS
 62
     7
 10
-327.2500000000002
 20
129.907573890297
 30
0.0
 40
2.000000000000002
  0
ARC
  5
BE
  8
0
  6
CONTINUOUS
 62
     7
 10
-332.0500000000001
 20
128.707573890297
 30
0.0
 40
0.6000000000000033
 50
180.0
 51
270.0000000000003
  0
LINE
  5
BF
  8
0
  6
CONTINUOUS
 62
     7
 10
-332.0500000000001
 20
128.107573890297
 30
0.0
 11
-331.8500000000001
 21
128.107573890297
 31
0.0
  0
ARC
  5
C0
  8
0
  6
CONTINUOUS
 62
     7
 10
-331.8500000000001
 20
128.707573890297
 30
0.0
 40
0.5999999999999894
 50
270.0000000000007
 51
359.9999999999987
  0
LINE
  5
C1
  8
0
  6
CONTINUOUS
 62
     7
 10
-331.2500000000001
 20
128.707573890297
 30
0.0
 11
-331.2500000000001
 21
131.107573890297
 31
0.0
  0
ARC
  5
C2
  8
0
  6
CONTINUOUS
 62
     7
 10
-331.8500000000001
 20
131.107573890297
 30
0.0
 40
0.6000000000000033
 50
0.0000000000006626
 51
90.00000000000034
  0
LINE
  5
C3
  8
0
  6
CONTINUOUS
 62
     7
 10
-331.8500000000001
 20
131.707573890297
 30
0.0
 11
-332.0500000000001
 21
131.707573890297
 31
0.0
  0
LINE
  5
C4
  8
0
  6
CONTINUOUS
 62
     7
 10
-332.6500000000001
 20
131.107573890297
 30
0.0
 11
-332.6500000000001
 21
128.707573890297
 31
0.0
  0
ARC
  5
C5
  8
0
  6
CONTINUOUS
 62
     7
 10
-277.9500000000002
 20
26.10757389029698
 30
0.0
 40
0.6000000000000033
 50
0.0000000000013252
 51
90.0
  0
LINE
  5
C6
  8
0
  6
CONTINUOUS
 62
     7
 10
-277.9500000000002
 20
26.70757389029699
 30
0.0
 11
-278.1500000000001
 21
26.70757389029699
 31
0.0
  0
ARC
  5
C7
  8
0
  6
CONTINUOUS
 62
     7
 10
-278.1500000000001
 20
26.10757389029698
 30
0.0
 40
0.6000000000000033
 50
90.00000000000068
 51
179.9999999999994
  0
LINE
  5
C8
  8
0
  6
CONTINUOUS
 62
     7
 10
-278.7500000000001
 20
26.107573890297
 30
0.0
 11
-278.7500000000001
 21
23.70757389029698
 31
0.0
  0
ARC
  5
C9
  8
0
  6
CONTINUOUS
 62
     7
 10
-278.1500000000001
 20
23.70757389029698
 30
0.0
 40
0.5999999999999894
 50
180.0
 51
270.0000000000003
  0
LINE
  5
CA
  8
0
  6
CONTINUOUS
 62
     7
 10
-278.1500000000001
 20
23.10757389029699
 30
0.0
 11
-277.9500000000002
 21
23.10757389029699
 31
0.0
  0
ARC
  5
CB
  8
0
  6
CONTINUOUS
 62
     7
 10
-277.9500000000002
 20
23.707573890297
 30
0.0
 40
0.6000000000000033
 50
269.999999999999
 51
359.9999999999986
  0
LINE
  5
CC
  8
0
  6
CONTINUOUS
 62
     7
 10
-277.3500000000001
 20
23.70757389029698
 30
0.0
 11
-277.3500000000001
 21
26.107573890297
 31
0.0
  0
ARC
  5
CD
  8
0
  6
CONTINUOUS
 62
     7
 10
-322.6500000000001
 20
128.707573890297
 30
0.0
 40
0.6000000000000033
 50
180.0
 51
269.999999999999
  0
LINE
  5
CE
  8
0
  6
CONTINUOUS
 62
     7
 10
-322.6500000000001
 20
128.107573890297
 30
0.0
 11
-322.45
 21
128.107573890297
 31
0.0
  0
ARC
  5
CF
  8
0
  6
CONTINUOUS
 62
     7
 10
-322.4500000000001
 20
128.707573890297
 30
0.0
 40
0.6000000000000172
 50
270.0000000000013
 51
359.9999999999986
  0
LINE
  5
D0
  8
0
  6
CONTINUOUS
 62
     7
 10
-321.8500000000001
 20
128.707573890297
 30
0.0
 11
-321.8500000000001
 21
131.107573890297
 31
0.0
  0
ARC
  5
D1
  8
0
  6
CONTINUOUS
 62
     7
 10
-322.4500000000001
 20
131.107573890297
 30
0.0
 40
0.6000000000000033
 50
0.0
 51
89.999999999999
  0
LINE
  5
D2
  8
0
  6
CONTINUOUS
 62
     7
 10
-322.4500000000001
 20
131.707573890297
 30
0.0
 11
-322.6500000000001
 21
131.707573890297
 31
0.0
  0
ARC
  5
D3
  8
0
  6
CONTINUOUS
 62
     7
 10
-322.6500000000001
 20
131.107573890297
 30
0.0
 40
0.5999999999999894
 50
89.99999999999935
 51
179.9999999999987
  0
ARC
  5
D4
  8
0
  6
CONTINUOUS
 62
     7
 10
-278.1500000000001
 20
128.707573890297
 30
0.0
 40
0.6000000000000033
 50
180.0000000000014
 51
269.9999999999993
  0
LINE
  5
D5
  8
0
  6
CONTINUOUS
 62
     7
 10
-278.1500000000001
 20
128.107573890297
 30
0.0
 11
-277.9500000000002
 21
128.107573890297
 31
0.0
  0
ARC
  5
D6
  8
0
  6
CONTINUOUS
 62
     7
 10
-277.9500000000002
 20
128.707573890297
 30
0.0
 40
0.5999999999999894
 50
270.0
 51
359.9999999999987
  0
LINE
  5
D7
  8
0
  6
CONTINUOUS
 62
     7
 10
-277.3500000000001
 20
128.707573890297
 30
0.0
 11
-277.3500000000001
 21
131.107573890297
 31
0.0
  0
ARC
  5
D8
  8
0
  6
CONTINUOUS
 62
     7
 10
-277.9500000000002
 20
131.107573890297
 30
0.0
 40
0.6000000000000033
 50
0.0000000000013252
 51
90.000000000001
  0
LINE
  5
D9
  8
0
  6
CONTINUOUS
 62
     7
 10
-277.9500000000002
 20
131.707573890297
 30
0.0
 11
-278.1500000000001
 21
131.707573890297
 31
0.0
  0
ARC
  5
DA
  8
0
  6
CONTINUOUS
 62
     7
 10
-278.1500000000001
 20
131.107573890297
 30
0.0
 40
0.5999999999999894
 50
89.99999999999969
 51
180.0
  0
ARC
  5
DB
  8
0
  6
CONTINUOUS
 62
     7
 10
-287.3500000000001
 20
131.107573890297
 30
0.0
 40
0.5999999999999894
 50
0.0000000000013252
 51
90.00000000000064
  0
LINE
  5
DC
  8
0
  6
CONTINUOUS
 62
     7
 10
-287.3500000000001
 20
131.707573890297
 30
0.0
 11
-287.5500000000001
 21
131.707573890297
 31
0.0
  0
ARC
  5
DD
  8
0
  6
CONTINUOUS
 62
     7
 10
-287.5500000000001
 20
131.107573890297
 30
0.0
 40
0.6000000000000172
 50
90.00000000000068
 51
180.0
  0
LINE
  5
DE
  8
0
  6
CONTINUOUS
 62
     7
 10
-288.1500000000001
 20
131.107573890297
 30
0.0
 11
-288.1500000000001
 21
128.707573890297
 31
0.0
  0
ARC
  5
DF
  8
0
  6
CONTINUOUS
 62
     7
 10
-287.5500000000001
 20
128.707573890297
 30
0.0
 40
0.5999999999999894
 50
180.0000000000014
 51
269.9999999999987
  0
LINE
  5
E0
  8
0
  6
CONTINUOUS
 62
     7
 10
-287.5500000000001
 20
128.107573890297
 30
0.0
 11
-287.3500000000001
 21
128.107573890297
 31
0.0
  0
ARC
  5
E1
  8
0
  6
CONTINUOUS
 62
     7
 10
-287.3500000000001
 20
128.707573890297
 30
0.0
 40
0.5999999999999894
 50
270.0000000000013
 51
359.9999999999986
  0
ARC
  5
E2
  8
0
  6
CONTINUOUS
 62
     7
 10
-331.8500000000001
 20
26.10757389029698
 30
0.0
 40
0.6000000000000033
 50
0.0000000000006626
 51
89.99999999999935
  0
LINE
  5
E3
  8
0
  6
CONTINUOUS
 62
     7
 10
-331.8500000000001
 20
26.70757389029699
 30
0.0
 11
-332.0500000000001
 21
26.70757389029699
 31
0.0
  0
ARC
  5
E4
  8
0
  6
CONTINUOUS
 62
     7
 10
-332.0500000000001
 20
26.10757389029698
 30
0.0
 40
0.6000000000000033
 50
89.99999999999969
 51
179.9999999999994
  0
LINE
  5
E5
  8
0
  6
CONTINUOUS
 62
     7
 10
-332.6500000000001
 20
26.107573890297
 30
0.0
 11
-332.6500000000001
 21
23.707573890297
 31
0.0
  0
ARC
  5
E6
  8
0
  6
CONTINUOUS
 62
     7
 10
-332.0500000000001
 20
23.707573890297
 30
0.0
 40
0.6000000000000033
 50
180.0
 51
270.000000000001
  0
ARC
  5
E7
  8
0
  6
CONTINUOUS
 62
     7
 10
-331.8500000000001
 20
23.70757389029698
 30
0.0
 40
0.6000000000000033
 50
269.9999999999997
 51
359.9999999999993
  0
ARC
  5
E8
  8
0
  6
CONTINUOUS
 62
     7
 10
-322.6500000000001
 20
23.707573890297
 30
0.0
 40
0.5999999999999963
 50
180.0
 51
270.0000000000007
  0
ARC
  5
E9
  8
0
  6
CONTINUOUS
 62
     7
 10
-322.4500000000001
 20
23.70757389029698
 30
0.0
 40
0.6000000000000172
 50
270.000000000001
 51
0.0
  0
LINE
  5
EA
  8
0
  6
CONTINUOUS
 62
     7
 10
-321.8500000000001
 20
23.70757389029698
 30
0.0
 11
-321.8500000000001
 21
26.107573890297
 31
0.0
  0
ARC
  5
EB
  8
0
  6
CONTINUOUS
 62
     7
 10
-322.4500000000001
 20
26.10757389029697
 30
0.0
 40
0.5999999999999963
 50
0.0000000000013252
 51
89.99999999999868
  0
LINE
  5
EC
  8
0
  6
CONTINUOUS
 62
     7
 10
-322.45
 20
26.70757389029697
 30
0.0
 11
-322.6500000000001
 21
26.70757389029699
 31
0.0
  0
ARC
  5
ED
  8
0
  6
CONTINUOUS
 62
     7
 10
-322.6500000000001
 20
26.10757389029698
 30
0.0
 40
0.6000000000000033
 50
90.000000000001
 51
180.0
  0
ARC
  5
EE
  8
0
  6
CONTINUOUS
 62
     7
 10
-287.3500000000001
 20
26.10757389029698
 30
0.0
 40
0.6000000000000033
 50
0.0000000000013252
 51
89.99999999999868
  0
LINE
  5
EF
  8
0
  6
CONTINUOUS
 62
     7
 10
-287.3500000000001
 20
26.70757389029699
 30
0.0
 11
-287.5500000000001
 21
26.70757389029697
 31
0.0
  0
ARC
  5
F0
  8
0
  6
CONTINUOUS
 62
     7
 10
-287.5500000000001
 20
26.10757389029697
 30
0.0
 40
0.6000000000000033
 50
90.00000000000132
 51
179.9999999999987
  0
LINE
  5
F1
  8
0
  6
CONTINUOUS
 62
     7
 10
-288.1500000000001
 20
26.107573890297
 30
0.0
 11
-288.1500000000001
 21
23.70757389029698
 31
0.0
  0
ARC
  5
F2
  8
0
  6
CONTINUOUS
 62
     7
 10
-287.5500000000001
 20
23.70757389029698
 30
0.0
 40
0.6000000000000033
 50
180.0
 51
269.9999999999993
  0
LINE
  5
F3
  8
0
  6
CONTINUOUS
 62
     7
 10
-287.5500000000001
 20
23.10757389029699
 30
0.0
 11
-287.3500000000001
 21
23.10757389029699
 31
0.0
  0
ARC
  5
F4
  8
0
  6
CONTINUOUS
 62
     7
 10
-287.3500000000001
 20
23.707573890297
 30
0.0
 40
0.6000000000000033
 50
269.9999999999993
 51
359.9999999999986
  0
LINE
  5
F5
  8
0
  6
CONTINUOUS
 62
     7
 10
-286.7500000000001
 20
23.70757389029698
 30
0.0
 11
-286.7500000000001
 21
26.107573890297
 31
0.0
  0
LINE
  5
F6
  8
0
  6
CONTINUOUS
 62
     7
 10
-322.6500000000001
 20
23.10757389029698
 30
0.0
 11
-322.4500000000001
 21
23.10757389029699
 31
0.0
  0
LINE
  5
F7
  8
0
  6
CONTINUOUS
 62
     7
 10
-323.2500000000001
 20
131.107573890297
 30
0.0
 11
-323.2500000000001
 21
128.707573890297
 31
0.0
  0
ARC
  5
F8
  8
0
  6
CONTINUOUS
 62
     7
 10
-332.0500000000001
 20
131.107573890297
 30
0.0
 40
0.5999999999999894
 50
89.999999999999
 51
179.9999999999987
  0
LINE
  5
F9
  8
0
  6
CONTINUOUS
 62
     7
 10
-332.0500000000001
 20
23.10757389029698
 30
0.0
 11
-331.8500000000001
 21
23.10757389029699
 31
0.0
  0
CIRCLE
  5
FA
  8
0
  6
CONTINUOUS
 62
     7
 10
-305.0000000000001
 20
119.157573890297
 30
0.0
 40
2.100000000000005
  0
CIRCLE
  5
FB
  8
0
  6
CONTINUOUS
 62
     7
 10
-305.0000000000001
 20
35.65757389029697
 30
0.0
 40
2.100000000000005
  0
CIRCLE
  5
FC
  8
0
  6
CONTINUOUS
 62
     7
 10
-282.7500000000001
 20
24.90757389029702
 30
0.0
 40
1.250000000000001
  0
CIRCLE
  5
FD
  8
0
  6
CONTINUOUS
 62
     7
 10
-327.2500000000001
 20
129.9075738902969
 30
0.0
 40
1.250000000000001
  0
CIRCLE
  5
FE
  8
0
  6
CONTINUOUS
 62
     7
 10
-282.7500000000001
 20
24.90757389029702
 30
0.0
 40
1.750000000000002
  0
CIRCLE
  5
FF
  8
0
  6
CONTINUOUS
 62
     7
 10
-327.2500000000001
 20
129.9075738902969
 30
0.0
 40
1.750000000000002
  0
CIRCLE
  5
100
  8
0
  6
CONTINUOUS
 62
     7
 10
-305.0000000000001
 20
77.40757389029699
 30
0.0
 40
4.762500000000003
  0
LINE
  5
101
  8
0
  6
CONTINUOUS
 62
     7
 10
-331.4500000000001
 20
26.00757389029698
 30
0.0
 11
-331.4500000000001
 21
23.80757389029697
 31
0.0
  0
ARC
  5
102
  8
0
  6
CONTINUOUS
 62
     7
 10
-331.9500000000001
 20
26.00757389029698
 30
0.0
 40
0.5000000000000004
 50
0.0
 51
180.0
  0
LINE
  5
103
  8
0
  6
CONTINUOUS
 62
     7
 10
-332.4500000000001
 20
23.80757389029697
 30
0.0
 11
-332.4500000000001
 21
26.00757389029698
 31
0.0
  0
ARC
  5
104
  8
0
  6
CONTINUOUS
 62
     7
 10
-331.9500000000001
 20
23.80757389029697
 30
0.0
 40
0.5000000000000004
 50
180.0
 51
0.0
  0
LINE
  5
105
  8
0
  6
CONTINUOUS
 62
     7
 10
-330.8680105030252
 20
21.90757389029699
 30
0.0
 11
-334.5000000000001
 21
21.90757389029699
 31
0.0
  0
LINE
  5
106
  8
0
  6
CONTINUOUS
 62
     7
 10
-275.5000000000001
 20
21.90757389029699
 30
0.0
 11
-279.131989496975
 21
21.90757389029699
 31
0.0
  0
LINE
  5
107
  8
0
  6
CONTINUOUS
 62
     7
 10
-286.3680105030252
 20
21.90757389029699
 30
0.0
 11
-323.6319894969749
 21
21.90757389029699
 31
0.0
  0
ARC
  5
108
  8
0
  6
CONTINUOUS
 62
     7
 10
-275.5000000000001
 20
23.40757389029699
 30
0.0
 40
1.500000000000001
 50
270.0000000000001
 51
0.0
  0
ARC
  5
109
  8
0
  6
CONTINUOUS
 62
     7
 10
-275.5000000000001
 20
23.40757389029699
 30
0.0
 40
4.500000000000004
 50
270.0
 51
0.0
  0
LINE
  5
10A
  8
0
  6
CONTINUOUS
 62
     7
 10
-275.5000000000001
 20
18.90757389029698
 30
0.0
 11
-334.5000000000001
 21
18.90757389029698
 31
0.0
  0
ARC
  5
10B
  8
0
  6
CONTINUOUS
 62
     7
 10
-334.5000000000001
 20
23.40757389029698
 30
0.0
 40
4.499999999999997
 50
180.0
 51
270.0
  0
ARC
  5
10C
  8
0
  6
CONTINUOUS
 62
     7
 10
-275.5000000000001
 20
131.407573890297
 30
0.0
 40
4.500000000000004
 50
0.0
 51
90.0
  0
LINE
  5
10D
  8
0
  6
CONTINUOUS
 62
     7
 10
-334.5000000000001
 20
132.907573890297
 30
0.0
 11
-330.8680105030252
 21
132.907573890297
 31
0.0
  0
ARC
  5
10E
  8
0
  6
CONTINUOUS
 62
     7
 10
-334.5000000000001
 20
131.407573890297
 30
0.0
 40
1.500000000000001
 50
90.0
 51
180.0
  0
LINE
  5
10F
  8
0
  6
CONTINUOUS
 62
     7
 10
-336.0000000000001
 20
23.40757389029699
 30
0.0
 11
-336.0000000000001
 21
131.407573890297
 31
0.0
  0
ARC
  5
110
  8
0
  6
CONTINUOUS
 62
     7
 10
-334.5000000000001
 20
23.40757389029699
 30
0.0
 40
1.500000000000001
 50
180.0
 51
270.0
  0
LINE
  5
111
  8
0
  6
CONTINUOUS
 62
     7
 10
-274.0000000000001
 20
131.407573890297
 30
0.0
 11
-274.0000000000001
 21
23.40757389029698
 31
0.0
  0
ARC
  5
112
  8
0
  6
CONTINUOUS
 62
     7
 10
-275.5000000000001
 20
131.407573890297
 30
0.0
 40
1.500000000000001
 50
0.0000000000002274
 51
90.00000000000011
  0
LINE
  5
113
  8
0
  6
CONTINUOUS
 62
     7
 10
-279.1319894969751
 20
132.907573890297
 30
0.0
 11
-275.5000000000001
 21
132.907573890297
 31
0.0
  0
LINE
  5
114
  8
0
  6
CONTINUOUS
 62
     7
 10
-323.6319894969749
 20
132.907573890297
 30
0.0
 11
-286.3680105030252
 21
132.907573890297
 31
0.0
  0
ARC
  5
115
  8
0
  6
CONTINUOUS
 62
     7
 10
-282.7500000000001
 20
24.90757389029699
 30
0.0
 40
4.699999999999994
 50
219.6650129075932
 51
320.3349870924068
  0
LINE
  5
116
  8
0
  6
CONTINUOUS
 62
     7
 10
-271.0000000000001
 20
131.407573890297
 30
0.0
 11
-271.0000000000001
 21
23.40757389029698
 31
0.0
  0
LINE
  5
117
  8
0
  6
CONTINUOUS
 62
     7
 10
-339.0000000000001
 20
23.40757389029698
 30
0.0
 11
-339.0000000000001
 21
131.407573890297
 31
0.0
  0
ARC
  5
118
  8
0
  6
CONTINUOUS
 62
     7
 10
-327.2500000000001
 20
24.90757389029699
 30
0.0
 40
4.699999999999999
 50
219.6650129075932
 51
320.3349870924068
  0
ARC
  5
119
  8
0
  6
CONTINUOUS
 62
     7
 10
-334.5000000000001
 20
131.407573890297
 30
0.0
 40
4.500000000000004
 50
90.0
 51
180.0
  0
LINE
  5
11A
  8
0
  6
CONTINUOUS
 62
     7
 10
-334.5000000000001
 20
135.907573890297
 30
0.0
 11
-275.5000000000001
 21
135.907573890297
 31
0.0
  0
LINE
  5
11B
  8
0
  6
CONTINUOUS
 62
     7
 10
-287.9500000000001
 20
128.807573890297
 30
0.0
 11
-287.9500000000001
 21
131.007573890297
 31
0.0
  0
ARC
  5
11C
  8
0
  6
CONTINUOUS
 62
     7
 10
-287.4500000000001
 20
131.007573890297
 30
0.0
 40
0.5000000000000004
 50
0.0
 51
180.0
  0
LINE
  5
11D
  8
0
  6
CONTINUOUS
 62
     7
 10
-286.9500000000001
 20
131.007573890297
 30
0.0
 11
-286.9500000000001
 21
128.807573890297
 31
0.0
  0
ARC
  5
11E
  8
0
  6
CONTINUOUS
 62
     7
 10
-287.4500000000001
 20
128.807573890297
 30
0.0
 40
0.5000000000000004
 50
180.0
 51
0.0
  0
LINE
  5
11F
  8
0
  6
CONTINUOUS
 62
     7
 10
-322.0500000000001
 20
26.00757389029698
 30
0.0
 11
-322.0500000000001
 21
23.80757389029697
 31
0.0
  0
LINE
  5
120
  8
0
  6
CONTINUOUS
 62
     7
 10
-323.0500000000001
 20
23.80757389029697
 30
0.0
 11
-323.0500000000001
 21
26.00757389029698
 31
0.0
  0
ARC
  5
121
  8
0
  6
CONTINUOUS
 62
     7
 10
-322.5500000000001
 20
23.80757389029697
 30
0.0
 40
0.5000000000000004
 50
180.0
 51
0.0
  0
ARC
  5
122
  8
0
  6
CONTINUOUS
 62
     7
 10
-322.5500000000001
 20
26.00757389029698
 30
0.0
 40
0.5000000000000004
 50
0.0
 51
180.0
  0
LINE
  5
123
  8
0
  6
CONTINUOUS
 62
     7
 10
-274.021817169477
 20
76.45913377753965
 30
0.0
 11
-274.021817169477
 21
78.35601400305431
 31
0.0
  0
LINE
  5
124
  8
0
  6
CONTINUOUS
 62
     7
 10
-274.2500000000001
 20
78.72112099085288
 30
0.0
 11
-274.0218171694771
 21
78.35601400305431
 31
0.0
  0
LINE
  5
125
  8
0
  6
CONTINUOUS
 62
     7
 10
-274.2500000000001
 20
76.09402678974105
 30
0.0
 11
-274.0218171694771
 21
76.45913377753965
 31
0.0
  0
LINE
  5
126
  8
0
  6
CONTINUOUS
 62
     7
 10
-299.3334706094914
 20
132.657573890297
 30
0.0
 11
-297.0000000000001
 21
132.7068559311095
 31
0.0
  0
LINE
  5
127
  8
0
  6
CONTINUOUS
 62
     7
 10
-323.876511148977
 20
132.8857567208201
 30
0.0
 11
-323.614009484614
 21
132.8857567208201
 31
0.0
  0
LINE
  5
128
  8
0
  6
CONTINUOUS
 62
     7
 10
-288.7500000000001
 20
132.8857567208201
 30
0.0
 11
-286.3859905153861
 21
132.8857567208201
 31
0.0
  0
LINE
  5
129
  8
0
  6
CONTINUOUS
 62
     9
 10
-288.7500000000001
 20
132.8115402669379
 30
0.0
 11
-288.7500000000001
 21
132.8857567208201
 31
0.0
  0
LINE
  5
12A
  8
0
  6
CONTINUOUS
 62
     7
 10
-277.5500000000001
 20
131.007573890297
 30
0.0
 11
-277.5500000000001
 21
128.807573890297
 31
0.0
  0
LINE
  5
12B
  8
0
  6
CONTINUOUS
 62
     7
 10
-278.5500000000001
 20
128.807573890297
 30
0.0
 11
-278.5500000000001
 21
131.007573890297
 31
0.0
  0
ARC
  5
12C
  8
0
  6
CONTINUOUS
 62
     7
 10
-278.0500000000001
 20
131.007573890297
 30
0.0
 40
0.5000000000000004
 50
0.0
 51
180.0
  0
ARC
  5
12D
  8
0
  6
CONTINUOUS
 62
     7
 10
-278.0500000000001
 20
128.807573890297
 30
0.0
 40
0.5000000000000004
 50
180.0
 51
0.0
  0
LINE
  5
12E
  8
0
  6
CONTINUOUS
 62
     7
 10
-335.7500000000001
 20
78.72112099085291
 30
0.0
 11
-335.9781828305232
 21
78.35601400305431
 31
0.0
  0
LINE
  5
12F
  8
0
  6
CONTINUOUS
 62
     7
 10
-335.9781828305232
 20
76.45913377753965
 30
0.0
 11
-335.9781828305232
 21
78.35601400305431
 31
0.0
  0
LINE
  5
130
  8
0
  6
CONTINUOUS
 62
     7
 10
-335.7500000000001
 20
76.09402678974105
 30
0.0
 11
-335.9781828305232
 21
76.45913377753965
 31
0.0
  0
ARC
  5
131
  8
0
  6
CONTINUOUS
 62
     7
 10
-327.2500000000001
 20
24.90757389029699
 30
0.0
 40
5.5
 50
10.94249890686666
 51
16.61217126010411
  0
ARC
  5
132
  8
0
  6
CONTINUOUS
 62
     7
 10
-282.7500000000001
 20
129.907573890297
 30
0.0
 40
5.5
 50
190.9424989068666
 51
196.6121712598919
  0
POLYLINE
  5
133
  8
0
  6
CONTINUOUS
 62
     7
 66
     1
 10
0.0
 20
0.0
 30
0.0
  0
VERTEX
  5
25A
  8
0
  6
CONTINUOUS
 62
     7
 10
-288.3303445425906
 20
132.657573890297
 30
0.0
  0
VERTEX
  5
25B
  8
0
  6
CONTINUOUS
 62
     7
 10
-288.3924344748029
 20
132.7352461903659
 30
0.0
  0
VERTEX
  5
25C
  8
0
  6
CONTINUOUS
 62
     7
 10
-288.4686663902142
 20
132.7990951682458
 30
0.0
  0
VERTEX
  5
25D
  8
0
  6
CONTINUOUS
 62
     7
 10
-288.5560252597152
 20
132.8465955492419
 30
0.0
  0
VERTEX
  5
25E
  8
0
  6
CONTINUOUS
 62
     7
 10
-288.6510559748636
 20
132.8758686578593
 30
0.0
  0
VERTEX
  5
25F
  8
0
  6
CONTINUOUS
 62
     7
 10
-288.7500000000001
 20
132.8857567208201
 30
0.0
  0
SEQEND
  5
2B2
  8
0
  6
CONTINUOUS
 62
     7
  0
LINE
  5
134
  8
0
  6
CONTINUOUS
 62
     7
 10
-288.7500000000001
 20
132.8115402669379
 30
0.0
 11
-288.3860594663284
 21
132.657573890297
 31
0.0
  0
LINE
  5
135
  8
0
  6
CONTINUOUS
 62
     7
 10
-274.021817169477
 20
78.35601400305431
 30
0.0
 11
-274.2500000000001
 21
78.35601400305431
 31
0.0
  0
LINE
  5
136
  8
0
  6
CONTINUOUS
 62
     7
 10
-274.2500000000001
 20
76.45913377753965
 30
0.0
 11
-274.0218171694771
 21
76.45913377753965
 31
0.0
  0
LINE
  5
137
  8
0
  6
CONTINUOUS
 62
     7
 10
-335.9781828305232
 20
78.35601400305431
 30
0.0
 11
-335.7500000000002
 21
78.35601400305431
 31
0.0
  0
LINE
  5
138
  8
0
  6
CONTINUOUS
 62
     7
 10
-335.7500000000001
 20
76.45913377753965
 30
0.0
 11
-335.9781828305232
 21
76.45913377753965
 31
0.0
  0
LINE
  5
139
  8
0
  6
CONTINUOUS
 62
     7
 10
-339.0000000000001
 20
26.90757389029698
 30
0.0
 11
-341.0000000000001
 21
26.90757389029698
 31
0.0
  0
LINE
  5
13A
  8
0
  6
CONTINUOUS
 62
     7
 10
-271.0000000000001
 20
78.15757389029699
 30
0.0
 11
-269.0000000000001
 21
78.15757389029699
 31
0.0
  0
LINE
  5
13B
  8
0
  6
CONTINUOUS
 62
     7
 10
-339.0000000000001
 20
78.15757389029699
 30
0.0
 11
-341.0000000000001
 21
78.15757389029699
 31
0.0
  0
LINE
  5
13C
  8
0
  6
CONTINUOUS
 62
     7
 10
-339.0000000000001
 20
127.907573890297
 30
0.0
 11
-341.0000000000001
 21
127.907573890297
 31
0.0
  0
LINE
  5
13D
  8
0
  6
CONTINUOUS
 62
     7
 10
-339.0000000000001
 20
28.40757389029697
 30
0.0
 11
-341.0000000000001
 21
28.40757389029697
 31
0.0
  0
LINE
  5
13E
  8
0
  6
CONTINUOUS
 62
     7
 10
-339.0000000000001
 20
76.65757389029697
 30
0.0
 11
-341.0000000000001
 21
76.65757389029697
 31
0.0
  0
LINE
  5
13F
  8
0
  6
CONTINUOUS
 62
     7
 10
-271.0000000000001
 20
76.65757389029697
 30
0.0
 11
-269.0000000000001
 21
76.65757389029697
 31
0.0
  0
LINE
  5
140
  8
0
  6
CONTINUOUS
 62
     7
 10
-339.0000000000001
 20
126.407573890297
 30
0.0
 11
-341.0000000000001
 21
126.407573890297
 31
0.0
  0
LINE
  5
141
  8
0
  6
CONTINUOUS
 62
     9
 10
-317.6155057063714
 20
138.9824443388646
 30
0.0
 11
-317.7367846262425
 21
137.7004671091105
 31
0.0
  0
LINE
  5
142
  8
0
  6
CONTINUOUS
 62
     9
 10
-317.6155057063714
 20
146.707573890297
 30
0.0
 11
-317.6155057063714
 21
138.9824443388646
 31
0.0
  0
LINE
  5
143
  8
0
  6
CONTINUOUS
 62
     9
 10
-292.2632153737576
 20
137.7004671091105
 30
0.0
 11
-292.3844942936288
 21
138.9824443388767
 31
0.0
  0
LINE
  5
144
  8
0
  6
CONTINUOUS
 62
     9
 10
-292.3844942936288
 20
138.9824443388767
 30
0.0
 11
-292.3844942936288
 21
146.707573890297
 31
0.0
  0
LINE
  5
145
  8
0
  6
CONTINUOUS
 62
     7
 10
-313.0000000000001
 20
132.7068559311095
 30
0.0
 11
-310.6665293905088
 21
132.657573890297
 31
0.0
  0
ARC
  5
146
  8
0
  6
CONTINUOUS
 62
     7
 10
-305.0000000000001
 20
-325.6128371149046
 30
0.0
 40
458.3895079883401
 50
88.99999999999989
 51
91.00000000000014
  0
LINE
  5
147
  8
0
  6
CONTINUOUS
 62
     7
 10
-271.0000000000001
 20
126.407573890297
 30
0.0
 11
-269.0000000000001
 21
126.407573890297
 31
0.0
  0
LINE
  5
148
  8
0
  6
CONTINUOUS
 62
     7
 10
-271.0000000000001
 20
28.40757389029697
 30
0.0
 11
-269.0000000000001
 21
28.40757389029697
 31
0.0
  0
LINE
  5
149
  8
0
  6
CONTINUOUS
 62
     7
 10
-271.0000000000001
 20
26.90757389029698
 30
0.0
 11
-269.0000000000001
 21
26.90757389029698
 31
0.0
  0
LINE
  5
14A
  8
0
  6
CONTINUOUS
 62
     7
 10
-271.0000000000001
 20
127.907573890297
 30
0.0
 11
-269.0000000000001
 21
127.907573890297
 31
0.0
  0
CIRCLE
  5
14B
  8
0
  6
CONTINUOUS
 62
     7
 10
-305.0000000000001
 20
77.40757389029699
 30
0.0
 40
13.5
  0
CIRCLE
  5
14C
  8
0
  6
CONTINUOUS
 62
     7
 10
-300.7500072626274
 20
70.04638765685023
 30
0.0
 40
1.5000008750266
  0
CIRCLE
  5
14D
  8
0
  6
CONTINUOUS
 62
     7
 10
-309.2500050018951
 20
70.04637236708004
 30
0.0
 40
1.499996580209476
  0
CIRCLE
  5
14E
  8
0
  6
CONTINUOUS
 62
     7
 10
-313.5000011067237
 20
77.40760120514959
 30
0.0
 40
1.4999988935251
  0
CIRCLE
  5
14F
  8
0
  6
CONTINUOUS
 62
     7
 10
-309.249997180039
 20
84.76884426599557
 30
0.0
 40
1.49999693697686
  0
CIRCLE
  5
150
  8
0
  6
CONTINUOUS
 62
     7
 10
-300.7499955949945
 20
84.76880903998519
 30
0.0
 40
1.499999150152053
  0
CIRCLE
  5
151
  8
0
  6
CONTINUOUS
 62
     7
 10
-296.5000003144141
 20
77.40760227533124
 30
0.0
 40
1.499999685854549
  0
CIRCLE
  5
152
  8
0
  6
CONTINUOUS
 62
     7
 10
-305.0000000000001
 20
77.40757389029699
 30
0.0
 40
5.750000000000005
  0
CIRCLE
  5
153
  8
0
  6
CONTINUOUS
 62
     7
 10
-305.0000000000001
 20
77.40757389029699
 30
0.0
 40
11.0
  0
CIRCLE
  5
154
  8
0
  6
CONTINUOUS
 62
     7
 10
-286.0000000000001
 20
77.40757389029699
 30
0.0
 40
5.000000000000004
  0
CIRCLE
  5
155
  8
0
  6
CONTINUOUS
 62
     7
 10
-286.0000000000001
 20
77.40757389029699
 30
0.0
 40
4.000000000000004
  0
CIRCLE
  5
156
  8
0
  6
CONTINUOUS
 62
     7
 10
-286.0000000000001
 20
77.40757389029699
 30
0.0
 40
3.000000000000003
  0
CIRCLE
  5
157
  8
0
  6
CONTINUOUS
 62
     7
 10
-324.0000000000001
 20
77.40757389029699
 30
0.0
 40
4.000000000000004
  0
CIRCLE
  5
158
  8
0
  6
CONTINUOUS
 62
     7
 10
-324.0000000000001
 20
77.40757389029699
 30
0.0
 40
2.999999999999996
  0
CIRCLE
  5
159
  8
0
  6
CONTINUOUS
 62
     7
 10
-324.0000000000001
 20
77.40757389029699
 30
0.0
 40
5.000000000000004
  0
CIRCLE
  5
15A
  8
0
  6
CONTINUOUS
 62
     7
 10
-305.0000000000001
 20
96.40757389029697
 30
0.0
 40
3.000000000000003
  0
CIRCLE
  5
15B
  8
0
  6
CONTINUOUS
 62
     7
 10
-305.0000000000001
 20
58.40757389029699
 30
0.0
 40
2.999999999999989
  0
ARC
  5
15C
  8
0
  6
CONTINUOUS
 62
     7
 10
-331.0000000000001
 20
70.40757389029697
 30
0.0
 40
2.000000000000002
 50
299.9999999999987
 51
60.00000000000126
  0
ARC
  5
15D
  8
0
  6
CONTINUOUS
 62
     7
 10
-318.1999999999365
 20
165.007573889459
 30
0.0
 40
1.000000000000001
 50
90.00000000363757
 51
180.0000000036378
  0
ARC
  5
15E
  8
0
  6
CONTINUOUS
 62
     7
 10
-291.7999999999367
 20
165.0075738911351
 30
0.0
 40
1.000000000000001
 50
0.0000000036377594
 51
90.0000000036376
  0
LINE
  5
15F
  8
0
  6
CONTINUOUS
 62
     7
 10
-290.1786796563377
 20
164.3862535476784
 30
0.0
 11
-290.7999999999367
 21
165.0075738911986
 31
0.0
  0
ARC
  5
160
  8
0
  6
CONTINUOUS
 62
     7
 10
-292.2999999997626
 20
162.2649332039841
 30
0.0
 40
2.999999999999989
 50
0.0000000036377594
 51
45.00000000363769
  0
LINE
  5
161
  8
0
  6
CONTINUOUS
 62
     7
 10
-289.299999998794
 20
147.007573891294
 30
0.0
 11
-289.2999999997627
 21
162.2649332041746
 31
0.0
  0
LINE
  5
162
  8
0
  6
CONTINUOUS
 62
     7
 10
-318.1773603922453
 20
147.0075959690906
 30
0.0
 11
-318.2274983473266
 21
147.0138176321064
 31
0.0
  0
LINE
  5
163
  8
0
  6
CONTINUOUS
 62
     7
 10
-319.1999999999364
 20
165.0075738893955
 30
0.0
 11
-319.8213203434566
 21
164.3862535457964
 31
0.0
  0
LINE
  5
164
  8
0
  6
CONTINUOUS
 62
     7
 10
-320.6999999997623
 20
162.2649332021811
 30
0.0
 11
-320.6999999987936
 21
147.0075738893005
 31
0.0
  0
ARC
  5
165
  8
0
  6
CONTINUOUS
 62
     7
 10
-317.6999999997623
 20
162.2649332023715
 30
0.0
 40
2.999999999999984
 50
135.0000000036377
 51
180.0000000036375
  0
LINE
  5
166
  8
0
  6
CONTINUOUS
 62
     7
 10
-317.8000000000001
 20
137.7004671091105
 30
0.0
 11
-317.8000000000001
 21
135.907573890297
 31
0.0
  0
LINE
  5
167
  8
0
  6
CONTINUOUS
 62
     7
 10
-317.8000000000001
 20
147.0075738894846
 30
0.0
 11
-317.8000000000001
 21
146.707573890297
 31
0.0
  0
LINE
  5
168
  8
0
  6
CONTINUOUS
 62
     7
 10
-292.2000000000001
 20
146.707573890297
 30
0.0
 11
-292.2000000000001
 21
147.0075738911099
 31
0.0
  0
LINE
  5
169
  8
0
  6
CONTINUOUS
 62
     7
 10
-292.2000000000001
 20
135.907573890297
 30
0.0
 11
-292.2000000000001
 21
137.7004671091105
 31
0.0
  0
ARC
  5
16A
  8
0
  6
CONTINUOUS
 62
     7
 10
-292.5000000000001
 20
141.8502145774163
 30
0.0
 40
2.999999999999989
 50
315.0
 51
0.0
  0
ARC
  5
16B
  8
0
  6
CONTINUOUS
 62
     7
 10
-317.5000000000001
 20
141.8502145774163
 30
0.0
 40
2.999999999999996
 50
180.0
 51
225.0
  0
LINE
  5
16C
  8
0
  6
CONTINUOUS
 62
     7
 10
-320.5000000000001
 20
146.707573890297
 30
0.0
 11
-320.5000000000001
 21
141.8502145774163
 31
0.0
  0
LINE
  5
16D
  8
0
  6
CONTINUOUS
 62
     7
 10
-289.5000000000001
 20
141.8502145774163
 30
0.0
 11
-289.5000000000001
 21
146.707573890297
 31
0.0
  0
ARC
  5
16E
  8
0
  6
CONTINUOUS
 62
     7
 10
-318.3000000000001
 20
137.7004671091105
 30
0.0
 40
0.4999999999999884
 50
0.0
 51
44.99999999999989
  0
LINE
  5
16F
  8
0
  6
CONTINUOUS
 62
     7
 10
-292.0535533905934
 20
138.0540204997037
 30
0.0
 11
-290.3786796564404
 21
139.7288942338566
 31
0.0
  0
LINE
  5
170
  8
0
  6
CONTINUOUS
 62
     7
 10
-319.6213203435597
 20
139.7288942338566
 30
0.0
 11
-317.9464466094068
 21
138.0540204997037
 31
0.0
  0
ARC
  5
171
  8
0
  6
CONTINUOUS
 62
     7
 10
-291.7000000000001
 20
137.7004671091105
 30
0.0
 40
0.5000000000000004
 50
134.9999999999991
 51
180.0
  0
ENDBLK
  8
0
  0
BLOCK
  8
0
  2
D_FRAME_VIEW_5876
 70
     0
 10
0.0
 20
0.0
 30
0.0
  0
POLYLINE
  5
176
  8
0
  6
CONTINUOUS
 62
     7
 66
     1
 10
0.0
 20
0.0
 30
0.0
  0
VERTEX
  5
260
  8
0
  6
CONTINUOUS
 62
     7
 10
-202.3979591836736
 20
165.0075738911796
 30
0.0
  0
VERTEX
  5
261
  8
0
  6
CONTINUOUS
 62
     7
 10
-202.3820686349274
 20
165.0072971662831
 30
0.0
  0
VERTEX
  5
262
  8
0
  6
CONTINUOUS
 62
     7
 10
-202.3663040106017
 20
165.0064718506943
 30
0.0
  0
VERTEX
  5
263
  8
0
  6
CONTINUOUS
 62
     7
 10
-202.3507148667417
 20
165.0051052330648
 30
0.0
  0
VERTEX
  5
264
  8
0
  6
CONTINUOUS
 62
     7
 10
-202.3353507593925
 20
165.003204602046
 30
0.0
  0
VERTEX
  5
265
  8
0
  6
CONTINUOUS
 62
     7
 10
-202.3196951313264
 20
165.0006794140169
 30
0.0
  0
VERTEX
  5
266
  8
0
  6
CONTINUOUS
 62
     7
 10
-202.3043089393108
 20
164.9976022061398
 30
0.0
  0
VERTEX
  5
267
  8
0
  6
CONTINUOUS
 62
     7
 10
-202.2892335923713
 20
164.9939940259581
 30
0.0
  0
VERTEX
  5
268
  8
0
  6
CONTINUOUS
 62
     7
 10
-202.2745104995336
 20
164.9898759210152
 30
0.0
  0
VERTEX
  5
269
  8
0
  6
CONTINUOUS
 62
     7
 10
-202.2559291525555
 20
164.9837847401157
 30
0.0
  0
VERTEX
  5
26A
  8
0
  6
CONTINUOUS
 62
     7
 10
-202.237948172163
 20
164.9768871094748
 30
0.0
  0
VERTEX
  5
26B
  8
0
  6
CONTINUOUS
 62
     7
 10
-202.220606708211
 20
164.969241495616
 30
0.0
  0
VERTEX
  5
26C
  8
0
  6
CONTINUOUS
 62
     7
 10
-202.2039439105543
 20
164.9609063650625
 30
0.0
  0
VERTEX
  5
26D
  8
0
  6
CONTINUOUS
 62
     7
 10
-202.187998929048
 20
164.9519401843377
 30
0.0
  0
VERTEX
  5
26E
  8
0
  6
CONTINUOUS
 62
     7
 10
-202.1728109135469
 20
164.9424014199651
 30
0.0
  0
VERTEX
  5
26F
  8
0
  6
CONTINUOUS
 62
     7
 10
-202.157488356253
 20
164.931681876329
 30
0.0
  0
VERTEX
  5
270
  8
0
  6
CONTINUOUS
 62
     7
 10
-202.1429479590808
 20
164.9203855480048
 30
0.0
  0
VERTEX
  5
271
  8
0
  6
CONTINUOUS
 62
     7
 10
-202.1291948463559
 20
164.9085691986584
 30
0.0
  0
VERTEX
  5
272
  8
0
  6
CONTINUOUS
 62
     7
 10
-202.1162341424039
 20
164.8962895919557
 30
0.0
  0
VERTEX
  5
273
  8
0
  6
CONTINUOUS
 62
     7
 10
-202.0997137738735
 20
164.8787595530265
 30
0.0
  0
VERTEX
  5
274
  8
0
  6
CONTINUOUS
 62
     7
 10
-202.0845895673604
 20
164.8604974853183
 30
0.0
  0
VERTEX
  5
275
  8
0
  6
CONTINUOUS
 62
     7
 10
-202.0708427640537
 20
164.8416112469211
 30
0.0
  0
VERTEX
  5
276
  8
0
  6
CONTINUOUS
 62
     7
 10
-202.0581583959622
 20
164.8217161780249
 30
0.0
  0
VERTEX
  5
277
  8
0
  6
CONTINUOUS
 62
     7
 10
-202.046814845894
 20
164.8012879419025
 30
0.0
  0
VERTEX
  5
278
  8
0
  6
CONTINUOUS
 62
     7
 10
-202.0367840447829
 20
164.7804057637667
 30
0.0
  0
VERTEX
  5
279
  8
0
  6
CONTINUOUS
 62
     7
 10
-202.028037923562
 20
164.7591488688304
 30
0.0
  0
VERTEX
  5
27A
  8
0
  6
CONTINUOUS
 62
     7
 10
-202.0180595353569
 20
164.7294655945303
 30
0.0
  0
VERTEX
  5
27B
  8
0
  6
CONTINUOUS
 62
     7
 10
-202.0103287330352
 20
164.6992300194128
 30
0.0
  0
VERTEX
  5
27C
  8
0
  6
CONTINUOUS
 62
     7
 10
-202.0047863757947
 20
164.6685815567709
 30
0.0
  0
VERTEX
  5
27D
  8
0
  6
CONTINUOUS
 62
     7
 10
-202.0011880349248
 20
164.6351454353969
 30
0.0
  0
VERTEX
  5
27E
  8
0
  6
CONTINUOUS
 62
     7
 10
-202.0000000000001
 20
164.6014108084703
 30
0.0
  0
SEQEND
  5
2B3
  8
0
  6
CONTINUOUS
 62
     7
  0
LINE
  5
177
  8
0
  6
CONTINUOUS
 62
     7
 10
-202.3979591836735
 20
165.007573890297
 30
0.0
 11
-198.0510204081634
 21
165.007573890297
 31
0.0
  0
POLYLINE
  5
178
  8
0
  6
CONTINUOUS
 62
     7
 66
     1
 10
0.0
 20
0.0
 30
0.0
  0
VERTEX
  5
27F
  8
0
  6
CONTINUOUS
 62
     7
 10
-198.5000000000001
 20
164.5501525627652
 30
0.0
  0
VERTEX
  5
280
  8
0
  6
CONTINUOUS
 62
     7
 10
-198.4992290420066
 20
164.577790623471
 30
0.0
  0
VERTEX
  5
281
  8
0
  6
CONTINUOUS
 62
     7
 10
-198.4969078610534
 20
164.6053315849266
 30
0.0
  0
VERTEX
  5
282
  8
0
  6
CONTINUOUS
 62
     7
 10
-198.4929898209609
 20
164.6329073262117
 30
0.0
  0
VERTEX
  5
283
  8
0
  6
CONTINUOUS
 62
     7
 10
-198.4874631596113
 20
164.6602880632701
 30
0.0
  0
VERTEX
  5
284
  8
0
  6
CONTINUOUS
 62
     7
 10
-198.4801247248601
 20
164.688013503675
 30
0.0
  0
VERTEX
  5
285
  8
0
  6
CONTINUOUS
 62
     7
 10
-198.4710428147715
 20
164.7154163479846
 30
0.0
  0
VERTEX
  5
286
  8
0
  6
CONTINUOUS
 62
     7
 10
-198.4600770153322
 20
164.7426532902472
 30
0.0
  0
VERTEX
  5
287
  8
0
  6
CONTINUOUS
 62
     7
 10
-198.4472479957274
 20
164.769411133777
 30
0.0
  0
VERTEX
  5
288
  8
0
  6
CONTINUOUS
 62
     7
 10
-198.4347049524201
 20
164.7919347500006
 30
0.0
  0
VERTEX
  5
289
  8
0
  6
CONTINUOUS
 62
     7
 10
-198.4207031603476
 20
164.8139840342302
 30
0.0
  0
VERTEX
  5
28A
  8
0
  6
CONTINUOUS
 62
     7
 10
-198.4052174221856
 20
164.8354614585814
 30
0.0
  0
VERTEX
  5
28B
  8
0
  6
CONTINUOUS
 62
     7
 10
-198.3923040886045
 20
164.8515020760689
 30
0.0
  0
VERTEX
  5
28C
  8
0
  6
CONTINUOUS
 62
     7
 10
-198.3784578097376
 20
164.8671357967476
 30
0.0
  0
VERTEX
  5
28D
  8
0
  6
CONTINUOUS
 62
     7
 10
-198.3636732470226
 20
164.8822998258505
 30
0.0
  0
VERTEX
  5
28E
  8
0
  6
CONTINUOUS
 62
     7
 10
-198.3479450618972
 20
164.8969313686111
 30
0.0
  0
VERTEX
  5
28F
  8
0
  6
CONTINUOUS
 62
     7
 10
-198.3357944418773
 20
164.9072981224313
 30
0.0
  0
VERTEX
  5
290
  8
0
  6
CONTINUOUS
 62
     7
 10
-198.3231164725115
 20
164.9173308595813
 30
0.0
  0
VERTEX
  5
291
  8
0
  6
CONTINUOUS
 62
     7
 10
-198.3098368563688
 20
164.9270529095904
 30
0.0
  0
VERTEX
  5
292
  8
0
  6
CONTINUOUS
 62
     7
 10
-198.2960185383956
 20
164.9363828080357
 30
0.0
  0
VERTEX
  5
293
  8
0
  6
CONTINUOUS
 62
     7
 10
-198.2813910736543
 20
164.9454506508889
 30
0.0
  0
VERTEX
  5
294
  8
0
  6
CONTINUOUS
 62
     7
 10
-198.2662074458931
 20
164.9540472732564
 30
0.0
  0
VERTEX
  5
295
  8
0
  6
CONTINUOUS
 62
     7
 10
-198.2503533514846
 20
164.9621958656213
 30
0.0
  0
VERTEX
  5
296
  8
0
  6
CONTINUOUS
 62
     7
 10
-198.2339508588976
 20
164.9697936134934
 30
0.0
  0
VERTEX
  5
297
  8
0
  6
CONTINUOUS
 62
     7
 10
-198.2207896710891
 20
164.9753108252312
 30
0.0
  0
VERTEX
  5
298
  8
0
  6
CONTINUOUS
 62
     7
 10
-198.2073129692276
 20
164.9804517631378
 30
0.0
  0
VERTEX
  5
299
  8
0
  6
CONTINUOUS
 62
     7
 10
-198.193448056991
 20
164.9852252083626
 30
0.0
  0
VERTEX
  5
29A
  8
0
  6
CONTINUOUS
 62
     7
 10
-198.1792891560663
 20
164.9895812080485
 30
0.0
  0
VERTEX
  5
29B
  8
0
  6
CONTINUOUS
 62
     7
 10
-198.1645556668383
 20
164.9935767618724
 30
0.0
  0
VERTEX
  5
29C
  8
0
  6
CONTINUOUS
 62
     7
 10
-198.1495531360509
 20
164.9971014302796
 30
0.0
  0
VERTEX
  5
29D
  8
0
  6
CONTINUOUS
 62
     7
 10
-198.1341860568378
 20
165.0001593400506
 30
0.0
  0
VERTEX
  5
29E
  8
0
  6
CONTINUOUS
 62
     7
 10
-198.1185949329954
 20
165.0027069177069
 30
0.0
  0
VERTEX
  5
29F
  8
0
  6
CONTINUOUS
 62
     7
 10
-198.1020147373744
 20
165.0048171720083
 30
0.0
  0
VERTEX
  5
2A0
  8
0
  6
CONTINUOUS
 62
     7
 10
-198.085254925619
 20
165.0063376892211
 30
0.0
  0
VERTEX
  5
2A1
  8
0
  6
CONTINUOUS
 62
     7
 10
-198.0681892475223
 20
165.007264053282
 30
0.0
  0
VERTEX
  5
2A2
  8
0
  6
CONTINUOUS
 62
     7
 10
-198.0510204081634
 20
165.0075738911939
 30
0.0
  0
SEQEND
  5
2B4
  8
0
  6
CONTINUOUS
 62
     7
  0
LINE
  5
179
  8
0
  6
CONTINUOUS
 62
     7
 10
-212.6999999999998
 20
166.007573890297
 30
0.0
 11
-186.3000000000004
 21
166.007573890297
 31
0.0
  0
LINE
  5
17A
  8
0
  6
CONTINUOUS
 62
     7
 10
-203.0000000000001
 20
78.15757389029699
 30
0.0
 11
-216.0000000000001
 21
78.15757389029699
 31
0.0
  0
ARC
  5
17B
  8
0
  6
CONTINUOUS
 62
     7
 10
-203.0000000000001
 20
77.65757389029699
 30
0.0
 40
0.5000000000000004
 50
359.9999999999998
 51
89.9999999999992
  0
LINE
  5
17C
  8
0
  6
CONTINUOUS
 62
     7
 10
-202.5000000000001
 20
77.15757389029699
 30
0.0
 11
-202.5000000000001
 21
77.65757389029699
 31
0.0
  0
ARC
  5
17D
  8
0
  6
CONTINUOUS
 62
     7
 10
-203.0000000000001
 20
77.15757389029699
 30
0.0
 40
0.5000000000000004
 50
270.0
 51
0.0
  0
LINE
  5
17E
  8
0
  6
CONTINUOUS
 62
     7
 10
-216.0000000000001
 20
76.65757389029697
 30
0.0
 11
-203.0000000000001
 21
76.65757389029697
 31
0.0
  0
ARC
  5
17F
  8
0
  6
CONTINUOUS
 62
     7
 10
-216.0000000000001
 20
77.15757389029699
 30
0.0
 40
0.5000000000000004
 50
180.0
 51
269.9999999999992
  0
LINE
  5
180
  8
0
  6
CONTINUOUS
 62
     7
 10
-216.5000000000001
 20
77.65757389029699
 30
0.0
 11
-216.5000000000001
 21
77.15757389029699
 31
0.0
  0
ARC
  5
181
  8
0
  6
CONTINUOUS
 62
     7
 10
-216.0000000000001
 20
77.65757389029699
 30
0.0
 40
0.5000000000000004
 50
90.0
 51
180.0
  0
LINE
  5
182
  8
0
  6
CONTINUOUS
 62
     7
 10
-189.1000000000001
 20
126.907573890297
 30
0.0
 11
-189.1000000000001
 21
127.407573890297
 31
0.0
  0
ARC
  5
183
  8
0
  6
CONTINUOUS
 62
     7
 10
-189.6000000000001
 20
126.907573890297
 30
0.0
 40
0.5000000000000004
 50
270.0
 51
0.0000000000015916
  0
LINE
  5
184
  8
0
  6
CONTINUOUS
 62
     7
 10
-198.6000000000001
 20
126.407573890297
 30
0.0
 11
-189.6000000000001
 21
126.407573890297
 31
0.0
  0
ARC
  5
185
  8
0
  6
CONTINUOUS
 62
     7
 10
-198.6000000000001
 20
126.907573890297
 30
0.0
 40
0.5000000000000004
 50
180.0000000000016
 51
270.0000000000004
  0
LINE
  5
186
  8
0
  6
CONTINUOUS
 62
     7
 10
-199.1000000000001
 20
127.407573890297
 30
0.0
 11
-199.1000000000001
 21
126.907573890297
 31
0.0
  0
ARC
  5
187
  8
0
  6
CONTINUOUS
 62
     7
 10
-198.6000000000001
 20
127.407573890297
 30
0.0
 40
0.5000000000000004
 50
90.0
 51
179.9999999999984
  0
LINE
  5
188
  8
0
  6
CONTINUOUS
 62
     7
 10
-189.6000000000001
 20
127.907573890297
 30
0.0
 11
-198.6000000000001
 21
127.907573890297
 31
0.0
  0
ARC
  5
189
  8
0
  6
CONTINUOUS
 62
     7
 10
-189.6000000000001
 20
127.407573890297
 30
0.0
 40
0.5000000000000004
 50
359.9999999999985
 51
90.00000000000021
  0
LINE
  5
18A
  8
0
  6
CONTINUOUS
 62
     7
 10
-189.6000000000001
 20
26.90757389029698
 30
0.0
 11
-198.6000000000001
 21
26.90757389029698
 31
0.0
  0
ARC
  5
18B
  8
0
  6
CONTINUOUS
 62
     7
 10
-189.6000000000001
 20
27.90757389029698
 30
0.0
 40
0.5000000000000004
 50
359.9999999999985
 51
90.0
  0
LINE
  5
18C
  8
0
  6
CONTINUOUS
 62
     7
 10
-189.1000000000001
 20
27.90757389029697
 30
0.0
 11
-189.1000000000001
 21
27.40757389029698
 31
0.0
  0
ARC
  5
18D
  8
0
  6
CONTINUOUS
 62
     7
 10
-189.6000000000001
 20
27.40757389029697
 30
0.0
 40
0.5000000000000004
 50
269.9999999999998
 51
0.0000000000015916
  0
LINE
  5
18E
  8
0
  6
CONTINUOUS
 62
     7
 10
-198.6000000000001
 20
28.40757389029697
 30
0.0
 11
-189.6000000000001
 21
28.40757389029698
 31
0.0
  0
ARC
  5
18F
  8
0
  6
CONTINUOUS
 62
     7
 10
-198.6000000000001
 20
27.90757389029697
 30
0.0
 40
0.5000000000000004
 50
89.99999999999962
 51
179.9999999999984
  0
LINE
  5
190
  8
0
  6
CONTINUOUS
 62
     7
 10
-199.1000000000001
 20
27.40757389029697
 30
0.0
 11
-199.1000000000001
 21
27.90757389029698
 31
0.0
  0
ARC
  5
191
  8
0
  6
CONTINUOUS
 62
     7
 10
-198.6000000000001
 20
27.40757389029698
 30
0.0
 40
0.5000000000000004
 50
180.0000000000016
 51
270.0
  0
LINE
  5
192
  8
0
  6
CONTINUOUS
 62
     7
 10
-183.8000000000001
 20
125.657573890297
 30
0.0
 11
-181.6000000000001
 21
125.657573890297
 31
0.0
  0
ARC
  5
193
  8
0
  6
CONTINUOUS
 62
     7
 10
-182.7000000000001
 20
128.907573890297
 30
0.0
 40
2.249999999999995
 50
299.2675775975314
 51
60.73242240246918
  0
ARC
  5
194
  8
0
  6
CONTINUOUS
 62
     7
 10
-182.7000000000001
 20
128.907573890297
 30
0.0
 40
2.250000000000005
 50
119.2675775975309
 51
240.7324224024692
  0
CIRCLE
  5
195
  8
0
  6
CONTINUOUS
 62
     7
 10
-182.7000000000001
 20
25.90757389029696
 30
0.0
 40
2.250000000000002
  0
CIRCLE
  5
196
  8
0
  6
CONTINUOUS
 62
     7
 10
-199.1000000000001
 20
49.90757389029699
 30
0.0
 40
13.54999999999998
  0
CIRCLE
  5
197
  8
0
  6
CONTINUOUS
 62
     7
 10
-199.1000000000001
 20
104.907573890297
 30
0.0
 40
13.55000000000001
  0
ARC
  5
198
  8
0
  6
CONTINUOUS
 62
     7
 10
-175.3560618517585
 20
134.2006390540563
 30
0.0
 40
9.547303121898542
 50
237.3990728610389
 51
250.7736347659734
  0
LINE
  5
199
  8
0
  6
CONTINUOUS
 62
     7
 10
-222.5000000000001
 20
135.907573890297
 30
0.0
 11
-180.5000000000002
 21
135.907573890297
 31
0.0
  0
LINE
  5
19A
  8
0
  6
CONTINUOUS
 62
     7
 10
-181.6000000000001
 20
132.157573890297
 30
0.0
 11
-183.8000000000001
 21
132.157573890297
 31
0.0
  0
LINE
  5
19B
  8
0
  6
CONTINUOUS
 62
     7
 10
-178.2639320225003
 20
29.62931043381026
 30
0.0
 11
-178.5000000000001
 21
29.62931043381026
 31
0.0
  0
ARC
  5
19C
  8
0
  6
CONTINUOUS
 62
     7
 10
-175.3816564599391
 20
20.66718680754931
 30
0.0
 40
9.489137280397252
 50
109.1851851214084
 51
122.6421072515794
  0
LINE
  5
19D
  8
0
  6
CONTINUOUS
 62
     7
 10
-178.5000000000001
 20
125.1858373467837
 30
0.0
 11
-178.2639320225003
 21
125.1858373467837
 31
0.0
  0
ARC
  5
19E
  8
0
  6
CONTINUOUS
 62
     7
 10
-178.5000000000001
 20
126.157573890297
 30
0.0
 40
0.9999999999999977
 50
283.6545847459752
 51
0.0
  0
LINE
  5
19F
  8
0
  6
CONTINUOUS
 62
     7
 10
-180.5000000000001
 20
18.90757389029698
 30
0.0
 11
-222.5000000000001
 21
18.90757389029698
 31
0.0
  0
ARC
  5
1A0
  8
0
  6
CONTINUOUS
 62
     7
 10
-178.5000000000001
 20
28.65757389029697
 30
0.0
 40
0.9999999999999977
 50
0.0
 51
76.34541525402487
  0
ARC
  5
1A1
  8
0
  6
CONTINUOUS
 62
     7
 10
-177.4880837124462
 20
127.857626455031
 30
0.0
 40
4.905017014082888
 50
101.9057450320392
 51
127.882784721117
  0
ARC
  5
1A2
  8
0
  6
CONTINUOUS
 62
     7
 10
-180.5000000000001
 20
132.907573890297
 30
0.0
 40
3.000000000000003
 50
0.0
 51
90.00000000000006
  0
LINE
  5
1A3
  8
0
  6
CONTINUOUS
 62
     7
 10
-178.4689870326685
 20
132.6570928725366
 30
0.0
 11
-178.5000000000001
 21
132.6571282349479
 31
0.0
  0
ARC
  5
1A4
  8
0
  6
CONTINUOUS
 62
     7
 10
-177.465513870119
 20
27.00615663551766
 30
0.0
 40
4.957276953640898
 50
232.2564969508619
 51
257.9549732960554
  0
LINE
  5
1A5
  8
0
  6
CONTINUOUS
 62
     7
 10
-178.4999999999966
 20
22.1580195456459
 30
0.0
 11
-178.4689870326575
 21
22.15805490805772
 31
0.0
  0
ARC
  5
1A6
  8
0
  6
CONTINUOUS
 62
     7
 10
-180.5000000000001
 20
21.90757389029699
 30
0.0
 40
3.000000000000003
 50
269.9999999999999
 51
0.0
  0
ARC
  5
1A7
  8
0
  6
CONTINUOUS
 62
     7
 10
-178.5000000000001
 20
23.15757389029698
 30
0.0
 40
0.9999999999999941
 50
271.777197102507
 51
0.0
  0
ARC
  5
1A8
  8
0
  6
CONTINUOUS
 62
     7
 10
-178.5000000000001
 20
131.657573890297
 30
0.0
 40
0.9999999999999991
 50
0.0
 51
88.22280289812471
  0
LINE
  5
1A9
  8
0
  6
CONTINUOUS
 62
     9
 10
-200.7850945355102
 20
138.0540204997037
 30
0.0
 11
-198.2149054644901
 21
138.0540204997037
 31
0.0
  0
ARC
  5
1AA
  8
0
  6
CONTINUOUS
 62
     9
 10
-199.5551051838172
 20
138.9523996802123
 30
0.0
 40
1.695161089524539
 50
178.9844491547155
 51
198.5806480711992
  0
POLYLINE
  5
1AB
  8
0
  6
CONTINUOUS
 62
     9
 66
     1
 10
0.0
 20
0.0
 30
0.0
  0
VERTEX
  5
2A3
  8
0
  6
CONTINUOUS
 62
     9
 10
-201.1619078425104
 20
138.4122549445587
 30
0.0
  0
VERTEX
  5
2A4
  8
0
  6
CONTINUOUS
 62
     9
 10
-201.1078828136974
 20
138.2900527095669
 30
0.0
  0
VERTEX
  5
2A5
  8
0
  6
CONTINUOUS
 62
     9
 10
-201.0449512860883
 20
138.1928808755147
 30
0.0
  0
VERTEX
  5
2A6
  8
0
  6
CONTINUOUS
 62
     9
 10
-200.968572570986
 20
138.1161348838219
 30
0.0
  0
VERTEX
  5
2A7
  8
0
  6
CONTINUOUS
 62
     9
 10
-200.8753956274579
 20
138.0660060323642
 30
0.0
  0
VERTEX
  5
2A8
  8
0
  6
CONTINUOUS
 62
     9
 10
-200.7850945355102
 20
138.0540204997037
 30
0.0
  0
SEQEND
  5
2B5
  8
0
  6
CONTINUOUS
 62
     9
  0
POLYLINE
  5
1AC
  8
0
  6
CONTINUOUS
 62
     9
 66
     1
 10
0.0
 20
0.0
 30
0.0
  0
VERTEX
  5
2A9
  8
0
  6
CONTINUOUS
 62
     9
 10
-198.2149054644901
 20
138.0540204997037
 30
0.0
  0
VERTEX
  5
2AA
  8
0
  6
CONTINUOUS
 62
     9
 10
-198.1097969034218
 20
138.0712457621334
 30
0.0
  0
VERTEX
  5
2AB
  8
0
  6
CONTINUOUS
 62
     9
 10
-198.0190004356188
 20
138.1261621368959
 30
0.0
  0
VERTEX
  5
2AC
  8
0
  6
CONTINUOUS
 62
     9
 10
-197.948193258523
 20
138.2017381000847
 30
0.0
  0
VERTEX
  5
2AD
  8
0
  6
CONTINUOUS
 62
     9
 10
-197.8857372548654
 20
138.3022214665894
 30
0.0
  0
SEQEND
  5
2B6
  8
0
  6
CONTINUOUS
 62
     9
  0
ARC
  5
1AD
  8
0
  6
CONTINUOUS
 62
     9
 10
-199.2445235926606
 20
138.9270193437639
 30
0.0
 40
1.495550968406176
 50
335.3060565640083
 51
2.123863201186509
  0
ARC
  5
1AE
  8
0
  6
CONTINUOUS
 62
     7
 10
-212.7
 20
165.007573890297
 30
0.0
 40
1.000000000000001
 50
90.00000000000797
 51
180.0
  0
ARC
  5
1AF
  8
0
  6
CONTINUOUS
 62
     7
 10
-186.3000000000003
 20
165.007573890297
 30
0.0
 40
1.000000000000001
 50
0.0
 51
89.99999999999167
  0
ARC
  5
1B0
  8
0
  6
CONTINUOUS
 62
     7
 10
-186.3000000000003
 20
148.0075738902972
 30
0.0
 40
1.000000000000001
 50
270.000000000008
 51
0.0
  0
LINE
  5
1B1
  8
0
  6
CONTINUOUS
 62
     7
 10
-185.3000000000001
 20
148.0075738902972
 30
0.0
 11
-185.3000000000001
 21
165.007573890297
 31
0.0
  0
ARC
  5
1B2
  8
0
  6
CONTINUOUS
 62
     7
 10
-212.7
 20
148.0075738902972
 30
0.0
 40
1.000000000000001
 50
180.0
 51
269.9999999999916
  0
LINE
  5
1B3
  8
0
  6
CONTINUOUS
 62
     7
 10
-213.7000000000001
 20
165.007573890297
 30
0.0
 11
-213.7000000000001
 21
148.0075738902972
 31
0.0
  0
LINE
  5
1B4
  8
0
  6
CONTINUOUS
 62
     7
 10
-212.3000000000002
 20
147.007573890502
 30
0.0
 11
-212.3000000000002
 21
135.907573890297
 31
0.0
  0
LINE
  5
1B5
  8
0
  6
CONTINUOUS
 62
     7
 10
-186.7000000000001
 20
135.907573890297
 30
0.0
 11
-186.7000000000001
 21
147.007573890502
 31
0.0
  0
ENDBLK
  8
0
  0
BLOCK
  8
0
  2
D_FRAME_VIEW_6017
 70
     0
 10
0.0
 20
0.0
 30
0.0
  0
LINE
  5
1BA
  8
0
  6
CONTINUOUS
 62
     7
 10
-339.0000000000001
 20
-43.5257317896227
 30
0.0
 11
-338.9370598373248
 21
-43.5257317896227
 31
0.0
  0
LINE
  5
1BB
  8
0
  6
CONTINUOUS
 62
     7
 10
-338.9370598373248
 20
-43.5257317896227
 30
0.0
 11
-338.9370598373248
 21
-41.3257317896227
 31
0.0
  0
LINE
  5
1BC
  8
0
  6
CONTINUOUS
 62
     7
 10
-339.0000000000001
 20
-41.3257317896227
 30
0.0
 11
-338.9370598373248
 21
-41.3257317896227
 31
0.0
  0
ARC
  5
1BD
  8
0
  6
CONTINUOUS
 62
     7
 10
-335.8913820697332
 20
-44.87032704790096
 30
0.0
 40
2.7567980861898
 50
220.3913220606649
 51
268.1782755244462
  0
LINE
  5
1BE
  8
0
  6
CONTINUOUS
 62
     7
 10
-337.9910600109424
 20
-46.65674475695433
 30
0.0
 11
-338.0209115115641
 21
-46.62573178962271
 31
0.0
  0
ARC
  5
1BF
  8
0
  6
CONTINUOUS
 62
     7
 10
-335.8685011221999
 20
-44.35034222507698
 30
0.0
 40
3.132134759981818
 50
185.0441829050698
 51
226.5909428556417
  0
ARC
  5
1C0
  8
0
  6
CONTINUOUS
 62
     7
 10
-284.5000000000001
 20
-47.1257317896227
 30
0.0
 40
0.5000000000000004
 50
180.0
 51
270.0
  0
CIRCLE
  5
1C1
  8
0
  6
CONTINUOUS
 62
     7
 10
-310.5000000000001
 20
-23.1257317896227
 30
0.0
 40
13.54999999999999
  0
LINE
  5
1C2
  8
0
  6
CONTINUOUS
 62
     7
 10
-271.0000000000001
 20
-2.625731789622693
 30
0.0
 11
-271.0000000000001
 21
-46.6257317896227
 31
0.0
  0
LINE
  5
1C3
  8
0
  6
CONTINUOUS
 62
     7
 10
-271.9790884884396
 20
-46.62573178962625
 30
0.0
 11
-272.0089399890686
 21
-46.65674475696536
 31
0.0
  0
ARC
  5
1C4
  8
0
  6
CONTINUOUS
 62
     7
 10
-274.1169306442668
 20
-44.85306622494728
 30
0.0
 40
2.774325296223591
 50
271.9819811401613
 51
319.4484212744549
  0
ARC
  5
1C5
  8
0
  6
CONTINUOUS
 62
     7
 10
-274.157577980235
 20
-44.33772523072994
 30
0.0
 40
3.159238908252322
 50
313.5954070937032
 51
354.7694671455076
  0
ARC
  5
1C6
  8
0
  6
CONTINUOUS
 62
     7
 10
-328.0500000000001
 20
-51.20814438042179
 30
0.0
 40
3.878618306912383
 50
67.46283727193372
 51
112.5371627280663
  0
ARC
  5
1C7
  8
0
  6
CONTINUOUS
 62
     7
 10
-293.5000000000001
 20
-47.12573178962271
 30
0.0
 40
0.4999999999999935
 50
270.0
 51
0.0000000000000568
  0
ARC
  5
1C8
  8
0
  6
CONTINUOUS
 62
     7
 10
-272.0000000000001
 20
-46.62573178962271
 30
0.0
 40
1.000000000000001
 50
270.0
 51
0.0
  0
ARC
  5
1C9
  8
0
  6
CONTINUOUS
 62
     7
 10
-338.0000000000001
 20
-46.62573178962271
 30
0.0
 40
1.000000000000001
 50
180.0
 51
270.0
  0
LINE
  5
1CA
  8
0
  6
CONTINUOUS
 62
     7
 10
-339.0000000000001
 20
-36.0257317896227
 30
0.0
 11
-341.0000000000001
 21
-36.0257317896227
 31
0.0
  0
LINE
  5
1CB
  8
0
  6
CONTINUOUS
 62
     7
 10
-271.0000000000001
 20
-36.0257317896227
 30
0.0
 11
-269.0000000000001
 21
-36.0257317896227
 31
0.0
  0
LINE
  5
1CC
  8
0
  6
CONTINUOUS
 62
     7
 10
-339.0000000000001
 20
-11.6257317896227
 30
0.0
 11
-341.0000000000001
 21
-11.6257317896227
 31
0.0
  0
LINE
  5
1CD
  8
0
  6
CONTINUOUS
 62
     7
 10
-271.0000000000001
 20
-26.02573178962271
 30
0.0
 11
-269.0000000000001
 21
-26.02573178962271
 31
0.0
  0
LINE
  5
1CE
  8
0
  6
CONTINUOUS
 62
     7
 10
-339.0000000000001
 20
-8.625731789622698
 30
0.0
 11
-341.0000000000001
 21
-8.625731789622698
 31
0.0
  0
LINE
  5
1CF
  8
0
  6
CONTINUOUS
 62
     7
 10
-339.0000000000001
 20
-26.02573178962271
 30
0.0
 11
-341.0000000000001
 21
-26.02573178962271
 31
0.0
  0
LINE
  5
1D0
  8
0
  6
CONTINUOUS
 62
     7
 10
-271.0000000000001
 20
-8.625731789622698
 30
0.0
 11
-269.0000000000001
 21
-8.625731789622698
 31
0.0
  0
LINE
  5
1D1
  8
0
  6
CONTINUOUS
 62
     7
 10
-339.0000000000001
 20
-22.62573178962271
 30
0.0
 11
-341.0000000000001
 21
-22.62573178962271
 31
0.0
  0
LINE
  5
1D2
  8
0
  6
CONTINUOUS
 62
     7
 10
-271.0000000000001
 20
-22.6257317896227
 30
0.0
 11
-269.0000000000001
 21
-22.62573178962271
 31
0.0
  0
ENDBLK
  8
0
  0
ENDSEC
  0
SECTION
  2
ENTITIES
  0
TEXT
  5
6F
  8
0
  6
CONTINUOUS
 62
     7
 10
-288.1061147930474
 20
-73.34315993497562
 30
0.0
 40
6.0
  1
CDO-16SGF
  0
INSERT
  5
172
  8
0
  6
CONTINUOUS
 62
     7
  2
D_FRAME_VIEW_5151
 10
0.0
 20
0.0
 30
0.0
  0
INSERT
  5
1B6
  8
0
  6
CONTINUOUS
 62
     7
  2
D_FRAME_VIEW_5876
 10
0.0
 20
0.0
 30
0.0
  0
INSERT
  5
1D3
  8
0
  6
CONTINUOUS
 62
     7
  2
D_FRAME_VIEW_6017
 10
0.0
 20
0.0
 30
0.0
  0
LINE
  5
1D4
  8
0
  6
CONTINUOUS
 62
     7
 10
-318.1770577336068
 20
147.0075738894607
 30
0.0
 11
-320.6999999987935
 21
147.0075738893005
 31
0.0
  0
LINE
  5
1D5
  8
0
  6
CONTINUOUS
 62
     7
 10
-285.0000000000001
 20
-47.12573178962271
 30
0.0
 11
-285.0000000000001
 21
-38.8257317896227
 31
0.0
  0
LINE
  5
1D6
  8
0
  6
CONTINUOUS
 62
     7
 10
-186.3000000000006
 20
147.007573892887
 30
0.0
 11
-212.6999999999998
 21
147.0075738899966
 31
0.0
  0
LINE
  5
1D7
  8
0
  6
CONTINUOUS
 62
     7
 10
-339.0000000000001
 20
-2.6257317896227
 30
0.0
 11
-339.0000000000001
 21
-46.62573178962271
 31
0.0
  0
LINE
  5
1D8
  8
0
  6
CONTINUOUS
 62
     7
 10
-293.0000000000002
 20
-38.8257317896227
 30
0.0
 11
-293.0000000000002
 21
-47.12573178962271
 31
0.0
  0
LINE
  5
1D9
  8
0
  6
CONTINUOUS
 62
     7
 10
-338.0000000000001
 20
-47.6257317896227
 30
0.0
 11
-272.0000000000001
 21
-47.6257317896227
 31
0.0
  0
LINE
  5
1DA
  8
0
  6
CONTINUOUS
 62
     7
 10
-289.2999999987942
 20
147.007573891294
 30
0.0
 11
-318.1144957954302
 21
147.007573889465
 31
0.0
  0
LINE
  5
1DB
  8
0
  6
CONTINUOUS
 62
     7
 10
-197.7500000000001
 20
146.707573890297
 30
0.0
 11
-197.7500000000001
 21
138.9824443388646
 31
0.0
  0
LINE
  5
1DC
  8
0
  6
CONTINUOUS
 62
     7
 10
-341.0000000000001
 20
-8.625731789622698
 30
0.0
 11
-341.0000000000001
 21
-22.62573178962271
 31
0.0
  0
LINE
  5
1DD
  8
0
  6
CONTINUOUS
 62
     7
 10
-201.2500000000001
 20
138.9824443388767
 30
0.0
 11
-201.2500000000001
 21
146.707573890297
 31
0.0
  0
LINE
  5
1DE
  8
0
  6
CONTINUOUS
 62
     7
 10
-292.0013553504134
 20
147.0167978837249
 30
0.0
 11
-292.0686104680067
 21
147.0076785579797
 31
0.0
  0
LINE
  5
1DF
  8
0
  6
CONTINUOUS
 62
     7
 10
-269.0000000000001
 20
-8.625731789622698
 30
0.0
 11
-269.0000000000001
 21
-22.62573178962271
 31
0.0
  0
LINE
  5
1E0
  8
0
  6
CONTINUOUS
 62
     7
 10
-269.0000000000001
 20
-36.0257317896227
 30
0.0
 11
-269.0000000000001
 21
-26.02573178962271
 31
0.0
  0
LINE
  5
1E1
  8
0
  6
CONTINUOUS
 62
     7
 10
-271.0000000000001
 20
-2.625731789622707
 30
0.0
 11
-339.0000000000001
 21
-2.625731789622707
 31
0.0
  0
LINE
  5
1E2
  8
0
  6
CONTINUOUS
 62
     7
 10
-341.0000000000001
 20
-36.0257317896227
 30
0.0
 11
-341.0000000000001
 21
-26.02573178962271
 31
0.0
  0
LINE
  5
1E3
  8
0
  6
CONTINUOUS
 62
     7
 10
-289.5000000000001
 20
146.707573890297
 30
0.0
 11
-292.3844942936288
 21
146.707573890297
 31
0.0
  0
LINE
  5
1E4
  8
0
  6
CONTINUOUS
 62
     7
 10
-197.7500000000001
 20
146.707573890297
 30
0.0
 11
-201.2500000000001
 21
146.707573890297
 31
0.0
  0
LINE
  5
1E5
  8
0
  6
CONTINUOUS
 62
     7
 10
-296.0000000000001
 20
75.9933603279239
 30
0.0
 11
-296.0000000000001
 21
78.82178745267007
 31
0.0
  0
LINE
  5
1E6
  8
0
  6
CONTINUOUS
 62
     7
 10
-198.5000000000001
 20
164.5501525627652
 30
0.0
 11
-198.5000000000001
 21
147.007573891292
 31
0.0
  0
LINE
  5
1E7
  8
0
  6
CONTINUOUS
 62
     7
 10
-341.0000000000001
 20
78.15757389029699
 30
0.0
 11
-341.0000000000001
 21
76.65757389029697
 31
0.0
  0
LINE
  5
1E8
  8
0
  6
CONTINUOUS
 62
     7
 10
-181.6000000000001
 20
126.986652463863
 30
0.0
 11
-181.6000000000001
 21
125.657573890297
 31
0.0
  0
LINE
  5
1E9
  8
0
  6
CONTINUOUS
 62
     7
 10
-269.0000000000001
 20
127.907573890297
 30
0.0
 11
-269.0000000000001
 21
126.407573890297
 31
0.0
  0
LINE
  5
1EA
  8
0
  6
CONTINUOUS
 62
     7
 10
-269.0000000000001
 20
26.90757389029698
 30
0.0
 11
-269.0000000000001
 21
28.40757389029697
 31
0.0
  0
LINE
  5
1EB
  8
0
  6
CONTINUOUS
 62
     7
 10
-177.5000000000001
 20
21.90757389029699
 30
0.0
 11
-177.5000000000001
 21
132.907573890297
 31
0.0
  0
LINE
  5
1EC
  8
0
  6
CONTINUOUS
 62
     7
 10
-278.7500000000001
 20
131.107573890297
 30
0.0
 11
-278.7500000000001
 21
128.707573890297
 31
0.0
  0
LINE
  5
1ED
  8
0
  6
CONTINUOUS
 62
     7
 10
-181.6000000000001
 20
132.157573890297
 30
0.0
 11
-181.6000000000001
 21
130.8284953167317
 31
0.0
  0
LINE
  5
1EE
  8
0
  6
CONTINUOUS
 62
     7
 10
-183.8000000000001
 20
132.157573890297
 30
0.0
 11
-183.8000000000001
 21
130.828495316731
 31
0.0
  0
LINE
  5
1EF
  8
0
  6
CONTINUOUS
 62
     7
 10
-222.5000000000001
 20
18.90757389029698
 30
0.0
 11
-222.5000000000001
 21
135.907573890297
 31
0.0
  0
CIRCLE
  5
1F0
  8
0
  6
CONTINUOUS
 62
     7
 10
-282.7500000000001
 20
129.907573890297
 30
0.0
 40
4.000000000000004
  0
LINE
  5
1F1
  8
0
  6
CONTINUOUS
 62
     7
 10
-320.5000000000001
 20
146.707573890297
 30
0.0
 11
-317.6155057063714
 21
146.707573890297
 31
0.0
  0
LINE
  5
1F2
  8
0
  6
CONTINUOUS
 62
     7
 10
-314.0000000000001
 20
78.82178745267007
 30
0.0
 11
-314.0000000000001
 21
75.9933603279239
 31
0.0
  0
LINE
  5
1F3
  8
0
  6
CONTINUOUS
 62
     7
 10
-323.2500000000001
 20
26.10757389029698
 30
0.0
 11
-323.2500000000001
 21
23.707573890297
 31
0.0
  0
LINE
  5
1F4
  8
0
  6
CONTINUOUS
 62
     7
 10
-331.2500000000001
 20
23.70757389029698
 30
0.0
 11
-331.2500000000002
 21
26.107573890297
 31
0.0
  0
ARC
  5
1F5
  8
0
  6
CONTINUOUS
 62
     7
 10
-327.2500000000001
 20
129.907573890297
 30
0.0
 40
4.699999999999999
 50
39.32036780493534
 51
140.3349870924069
  0
LINE
  5
1F6
  8
0
  6
CONTINUOUS
 62
     7
 10
-286.7500000000001
 20
128.707573890297
 30
0.0
 11
-286.7500000000001
 21
131.107573890297
 31
0.0
  0
LINE
  5
1F7
  8
0
  6
CONTINUOUS
 62
     7
 10
-318.1999999999998
 20
166.007573889459
 30
0.0
 11
-291.8000000000005
 21
166.0075738911351
 31
0.0
  0
LINE
  5
1F8
  8
0
  6
CONTINUOUS
 62
     7
 10
-183.8000000000001
 20
126.986652463863
 30
0.0
 11
-183.8000000000001
 21
125.657573890297
 31
0.0
  0
LINE
  5
1F9
  8
0
  6
CONTINUOUS
 62
     7
 10
-341.0000000000001
 20
127.907573890297
 30
0.0
 11
-341.0000000000001
 21
126.407573890297
 31
0.0
  0
ARC
  5
1FA
  8
0
  6
CONTINUOUS
 62
     7
 10
-282.7500000000001
 20
129.907573890297
 30
0.0
 40
4.699999999999999
 50
39.66501290759299
 51
140.6796321950646
  0
LINE
  5
1FB
  8
0
  6
CONTINUOUS
 62
     7
 10
-202.0000000000001
 20
147.0075738912813
 30
0.0
 11
-202.0000000000001
 21
164.6014108084703
 31
0.0
  0
LINE
  5
1FC
  8
0
  6
CONTINUOUS
 62
     7
 10
-341.0000000000001
 20
26.90757389029698
 30
0.0
 11
-341.0000000000001
 21
28.40757389029697
 31
0.0
  0
LINE
  5
1FD
  8
0
  6
CONTINUOUS
 62
     7
 10
-269.0000000000001
 20
78.15757389029699
 30
0.0
 11
-269.0000000000001
 21
76.65757389029697
 31
0.0
  0
CIRCLE
  5
1FE
  8
0
  6
CONTINUOUS
 62
     7
 10
-327.2500000000001
 20
24.90757389029699
 30
0.0
 40
4.000000000000004
  0
LINE
  5
1FF
  8
0
  6
CONTINUOUS
 62
     7
 10
-293.0000000000002
 20
-38.8257317896227
 30
0.0
 11
-285.0000000000001
 21
-38.8257317896227
 31
0.0
  0
ENDSEC
  0
EOF
