  0
SECTION
  2
HEADER
  9
$ACADVER
  1
AC1006
  9
$DWGCODEPAGE
  3
ansi_932
  9
$INSBASE
 10
0.0
 20
0.0
 30
0.0
  9
$EXTMIN
 10
-561.8785440602918
 20
-42.06945892674379
  9
$EXTMAX
 10
-372.995304579544
 20
217.5310678321316
  9
$LIMMIN
 10
0.0
 20
0.0
  9
$LIMMAX
 10
12.0
 20
9.0
  9
$ORTHOMODE
 70
     0
  9
$REGENMODE
 70
     1
  9
$FILLMODE
 70
     1
  9
$QTEXTMODE
 70
     0
  9
$MIRRTEXT
 70
     1
  9
$DRAGMODE
 70
     2
  9
$LTSCALE
 40
1.0
  9
$OSMODE
 70
    37
  9
$ATTMODE
 70
     1
  9
$TEXTSIZE
 40
0.2
  9
$TRACEWID
 40
0.05
  9
$TEXTSTYLE
  7
STANDARD
  9
$CLAYER
  8
0
  9
$CELTYPE
  6
BYLAYER
  9
$CECOLOR
 62
   256
  9
$DIMSCALE
 40
1.0
  9
$DIMASZ
 40
3.0
  9
$DIMEXO
 40
0.0625
  9
$DIMDLI
 40
0.38
  9
$DIMRND
 40
0.0
  9
$DIMDLE
 40
0.0
  9
$DIMEXE
 40
1.5
  9
$DIMTP
 40
0.0
  9
$DIMTM
 40
0.0
  9
$DIMTXT
 40
3.0
  9
$DIMCEN
 40
0.09
  9
$DIMTSZ
 40
0.0
  9
$DIMTOL
 70
     0
  9
$DIMLIM
 70
     0
  9
$DIMTIH
 70
     1
  9
$DIMTOH
 70
     1
  9
$DIMSE1
 70
     0
  9
$DIMSE2
 70
     0
  9
$DIMTAD
 70
     1
  9
$DIMZIN
 70
     0
  9
$DIMBLK
  1

  9
$DIMASO
 70
     1
  9
$DIMSHO
 70
     1
  9
$DIMPOST
  1

  9
$DIMAPOST
  1

  9
$DIMALT
 70
     0
  9
$DIMALTD
 70
     2
  9
$DIMALTF
 40
25.4
  9
$DIMLFAC
 40
1.0
  9
$DIMTOFL
 70
     0
  9
$DIMTVP
 40
0.0
  9
$DIMTIX
 70
     0
  9
$DIMSOXD
 70
     0
  9
$DIMSAH
 70
     0
  9
$DIMBLK1
  1

  9
$DIMBLK2
  1

  9
$LUNITS
 70
     2
  9
$LUPREC
 70
     4
  9
$SKETCHINC
 40
0.1
  9
$FILLETRAD
 40
0.5
  9
$AUNITS
 70
     0
  9
$AUPREC
 70
     0
  9
$MENU
  1
.
  9
$ELEVATION
 40
0.0
  9
$THICKNESS
 40
0.0
  9
$LIMCHECK
 70
     0
  9
$CHAMFERA
 40
0.0
  9
$CHAMFERB
 40
0.0
  9
$SKPOLY
 70
     0
  9
$TDCREATE
 40
2459395.610523704
  9
$TDUPDATE
 40
2459395.610523877
  9
$TDINDWG
 40
0.0000000116
  9
$TDUSRTIMER
 40
0.0000000116
  9
$USRTIMER
 70
     1
  9
$ANGBASE
 50
0.0
  9
$ANGDIR
 70
     0
  9
$PDMODE
 70
     0
  9
$PDSIZE
 40
0.0
  9
$PLINEWID
 40
0.0
  9
$COORDS
 70
     1
  9
$SPLFRAME
 70
     0
  9
$SPLINETYPE
 70
     6
  9
$SPLINESEGS
 70
     8
  9
$ATTDIA
 70
     0
  9
$ATTREQ
 70
     1
  9
$HANDLING
 70
     1
  9
$HANDSEED
  5
47D
  9
$SURFTAB1
 70
     6
  9
$SURFTAB2
 70
     6
  9
$SURFTYPE
 70
     6
  9
$SURFU
 70
     6
  9
$SURFV
 70
     6
  9
$UCSNAME
  2

  9
$UCSORG
 10
0.0
 20
0.0
 30
0.0
  9
$UCSXDIR
 10
1.0
 20
0.0
 30
0.0
  9
$UCSYDIR
 10
0.0
 20
1.0
 30
0.0
  9
$USERI1
 70
     0
  9
$USERI2
 70
     0
  9
$USERI3
 70
     0
  9
$USERI4
 70
     0
  9
$USERI5
 70
     0
  9
$USERR1
 40
0.0
  9
$USERR2
 40
0.0
  9
$USERR3
 40
0.0
  9
$USERR4
 40
0.0
  9
$USERR5
 40
0.0
  9
$WORLDVIEW
 70
     1
  0
ENDSEC
  0
SECTION
  2
TABLES
  0
TABLE
  2
VPORT
 70
     1
  0
VPORT
  2
*ACTIVE
 70
     0
 10
0.0
 20
0.0
 11
1.0
 21
1.0
 12
-467.4369243199179
 22
87.73080445269392
 13
0.0
 23
0.0
 14
0.5
 24
0.5
 15
0.5
 25
0.5
 16
0.0
 26
0.0
 36
1.0
 17
0.0
 27
0.0
 37
0.0
 40
259.6005267588754
 41
1.6
 42
50.0
 43
0.0
 44
0.0
 50
0.0
 51
0.0
 71
     0
 72
   100
 73
     1
 74
     3
 75
     0
 76
     0
 77
     0
 78
     0
  0
ENDTAB
  0
TABLE
  2
LTYPE
 70
     1
  0
LTYPE
  2
CONTINUOUS
 70
     0
  3
Solid line
 72
    65
 73
     0
 40
0.0
  0
ENDTAB
  0
TABLE
  2
LAYER
 70
     1
  0
LAYER
  2
0
 70
     0
 62
     7
  6
CONTINUOUS
  0
ENDTAB
  0
TABLE
  2
STYLE
 70
     2
  0
STYLE
  2
STANDARD
 70
     0
 40
0.0
 41
1.0
 50
0.0
 71
     0
 42
0.2
  3
txt
  4

  0
STYLE
  2
ＭＳ_ゴシック
 70
     0
 40
0.0
 41
1.0
 50
0.0
 71
     0
 42
0.2
  3
ＭＳ ゴシック.shx
  4

  0
ENDTAB
  0
TABLE
  2
VIEW
 70
     0
  0
ENDTAB
  0
TABLE
  2
UCS
 70
     0
  0
ENDTAB
  0
ENDSEC
  0
SECTION
  2
BLOCKS
  0
BLOCK
  8
0
  2
D_FRAME_VIEW_1330
 70
     0
 10
0.0
 20
0.0
 30
0.0
  0
POLYLINE
  5
70
  8
0
  6
CONTINUOUS
 62
     9
 66
     1
 10
0.0
 20
0.0
 30
0.0
  0
VERTEX
  5
21D
  8
0
  6
CONTINUOUS
 62
     9
 10
-557.2044230811123
 20
199.5310678304232
 30
0.0
  0
VERTEX
  5
21E
  8
0
  6
CONTINUOUS
 62
     9
 10
-557.2040501911767
 20
199.5038987978725
 30
0.0
  0
VERTEX
  5
21F
  8
0
  6
CONTINUOUS
 62
     9
 10
-557.2029321054382
 20
199.4767502621986
 30
0.0
  0
VERTEX
  5
220
  8
0
  6
CONTINUOUS
 62
     9
 10
-557.2010626459789
 20
199.4495605529097
 30
0.0
  0
VERTEX
  5
221
  8
0
  6
CONTINUOUS
 62
     9
 10
-557.1984458600265
 20
199.4224326939756
 30
0.0
  0
VERTEX
  5
222
  8
0
  6
CONTINUOUS
 62
     9
 10
-557.1919581798411
 20
199.3744422501662
 30
0.0
  0
VERTEX
  5
223
  8
0
  6
CONTINUOUS
 62
     9
 10
-557.183109479922
 20
199.3267129342929
 30
0.0
  0
VERTEX
  5
224
  8
0
  6
CONTINUOUS
 62
     9
 10
-557.173147129233
 20
199.2841376617353
 30
0.0
  0
VERTEX
  5
225
  8
0
  6
CONTINUOUS
 62
     9
 10
-557.1612931824264
 20
199.2419620683954
 30
0.0
  0
VERTEX
  5
226
  8
0
  6
CONTINUOUS
 62
     9
 10
-557.1479577402303
 20
199.2013934443793
 30
0.0
  0
VERTEX
  5
227
  8
0
  6
CONTINUOUS
 62
     9
 10
-557.1349957461015
 20
199.1667192466622
 30
0.0
  0
VERTEX
  5
228
  8
0
  6
CONTINUOUS
 62
     9
 10
-557.1207521065411
 20
199.1325526396543
 30
0.0
  0
VERTEX
  5
229
  8
0
  6
CONTINUOUS
 62
     9
 10
-557.1051562566007
 20
199.0987541912552
 30
0.0
  0
VERTEX
  5
22A
  8
0
  6
CONTINUOUS
 62
     9
 10
-557.0883083500007
 20
199.0655634674168
 30
0.0
  0
VERTEX
  5
22B
  8
0
  6
CONTINUOUS
 62
     9
 10
-557.0727074601605
 20
199.0373168550234
 30
0.0
  0
VERTEX
  5
22C
  8
0
  6
CONTINUOUS
 62
     9
 10
-557.0562012044317
 20
199.009590760469
 30
0.0
  0
VERTEX
  5
22D
  8
0
  6
CONTINUOUS
 62
     9
 10
-557.0387319210247
 20
198.982300510146
 30
0.0
  0
VERTEX
  5
22E
  8
0
  6
CONTINUOUS
 62
     9
 10
-557.020387153911
 20
198.9555922765713
 30
0.0
  0
VERTEX
  5
22F
  8
0
  6
CONTINUOUS
 62
     9
 10
-557.0030837891362
 20
198.9319949306034
 30
0.0
  0
VERTEX
  5
230
  8
0
  6
CONTINUOUS
 62
     9
 10
-556.9850823807734
 20
198.9088951010478
 30
0.0
  0
VERTEX
  5
231
  8
0
  6
CONTINUOUS
 62
     9
 10
-556.9612743041752
 20
198.8803513313337
 30
0.0
  0
VERTEX
  5
232
  8
0
  6
CONTINUOUS
 62
     9
 10
-556.936425524675
 20
198.8527110945134
 30
0.0
  0
VERTEX
  5
233
  8
0
  6
CONTINUOUS
 62
     9
 10
-556.9104245932006
 20
198.825866399356
 30
0.0
  0
VERTEX
  5
234
  8
0
  6
CONTINUOUS
 62
     9
 10
-556.8834446199254
 20
198.8000085016808
 30
0.0
  0
VERTEX
  5
235
  8
0
  6
CONTINUOUS
 62
     9
 10
-556.8592942267932
 20
198.7784192905966
 30
0.0
  0
VERTEX
  5
236
  8
0
  6
CONTINUOUS
 62
     9
 10
-556.8344629547562
 20
198.7576190264788
 30
0.0
  0
VERTEX
  5
237
  8
0
  6
CONTINUOUS
 62
     9
 10
-556.8088694687634
 20
198.7375471631766
 30
0.0
  0
VERTEX
  5
238
  8
0
  6
CONTINUOUS
 62
     9
 10
-556.7826435494192
 20
198.7183114779617
 30
0.0
  0
VERTEX
  5
239
  8
0
  6
CONTINUOUS
 62
     9
 10
-556.7584399467918
 20
198.7016753367806
 30
0.0
  0
VERTEX
  5
23A
  8
0
  6
CONTINUOUS
 62
     9
 10
-556.7337432235406
 20
198.6857368856354
 30
0.0
  0
VERTEX
  5
23B
  8
0
  6
CONTINUOUS
 62
     9
 10
-556.6978161755834
 20
198.6643028548806
 30
0.0
  0
VERTEX
  5
23C
  8
0
  6
CONTINUOUS
 62
     9
 10
-556.6608664167791
 20
198.6442834267425
 30
0.0
  0
VERTEX
  5
23D
  8
0
  6
CONTINUOUS
 62
     9
 10
-556.623055957513
 20
198.6257820266864
 30
0.0
  0
VERTEX
  5
23E
  8
0
  6
CONTINUOUS
 62
     9
 10
-556.5841705858895
 20
198.6087216835693
 30
0.0
  0
VERTEX
  5
23F
  8
0
  6
CONTINUOUS
 62
     9
 10
-556.5445397247177
 20
198.5932744975932
 30
0.0
  0
VERTEX
  5
240
  8
0
  6
CONTINUOUS
 62
     9
 10
-556.5039424514065
 20
198.5793819630851
 30
0.0
  0
VERTEX
  5
241
  8
0
  6
CONTINUOUS
 62
     9
 10
-556.4627255169288
 20
198.5671902250786
 30
0.0
  0
VERTEX
  5
242
  8
0
  6
CONTINUOUS
 62
     9
 10
-556.4208392657422
 20
198.5567003102792
 30
0.0
  0
VERTEX
  5
243
  8
0
  6
CONTINUOUS
 62
     9
 10
-556.3928979899412
 20
198.5507366986909
 30
0.0
  0
VERTEX
  5
244
  8
0
  6
CONTINUOUS
 62
     9
 10
-556.3648019538186
 20
198.5455559450262
 30
0.0
  0
VERTEX
  5
245
  8
0
  6
CONTINUOUS
 62
     9
 10
-556.3364845831283
 20
198.5411493061912
 30
0.0
  0
VERTEX
  5
246
  8
0
  6
CONTINUOUS
 62
     9
 10
-556.3080558264074
 20
198.5375368272753
 30
0.0
  0
SEQEND
  5
46B
  8
0
  6
CONTINUOUS
 62
     9
  0
LINE
  5
71
  8
0
  6
CONTINUOUS
 62
     9
 10
-530.2239728877474
 20
198.5310678321107
 30
0.0
 11
-530.0869005026419
 21
198.5395863523618
 31
0.0
  0
LINE
  5
72
  8
0
  6
CONTINUOUS
 62
     9
 10
-557.2044230821764
 20
216.5310678304211
 30
0.0
 11
-557.2044230811123
 21
199.5310678304218
 31
0.0
  0
LINE
  5
73
  8
0
  6
CONTINUOUS
 62
     9
 10
-529.1773990498747
 20
199.5310678321762
 30
0.0
 11
-529.1773990509389
 21
216.5310678321756
 31
0.0
  0
POLYLINE
  5
74
  8
0
  6
CONTINUOUS
 62
     9
 66
     1
 10
0.0
 20
0.0
 30
0.0
  0
VERTEX
  5
247
  8
0
  6
CONTINUOUS
 62
     9
 10
-530.0869005026419
 20
198.5395863523618
 30
0.0
  0
VERTEX
  5
248
  8
0
  6
CONTINUOUS
 62
     9
 10
-530.0503697272266
 20
198.5447743307385
 30
0.0
  0
VERTEX
  5
249
  8
0
  6
CONTINUOUS
 62
     9
 10
-530.0070617124126
 20
198.5525626042286
 30
0.0
  0
VERTEX
  5
24A
  8
0
  6
CONTINUOUS
 62
     9
 10
-529.9637506694108
 20
198.562172183205
 30
0.0
  0
VERTEX
  5
24B
  8
0
  6
CONTINUOUS
 62
     9
 10
-529.920788845283
 20
198.5735599727372
 30
0.0
  0
VERTEX
  5
24C
  8
0
  6
CONTINUOUS
 62
     9
 10
-529.878140888571
 20
198.5867614180664
 30
0.0
  0
VERTEX
  5
24D
  8
0
  6
CONTINUOUS
 62
     9
 10
-529.8364531022072
 20
198.6015721698849
 30
0.0
  0
VERTEX
  5
24E
  8
0
  6
CONTINUOUS
 62
     9
 10
-529.7952135628647
 20
198.6181712379928
 30
0.0
  0
VERTEX
  5
24F
  8
0
  6
CONTINUOUS
 62
     9
 10
-529.7546224178082
 20
198.6365083676482
 30
0.0
  0
VERTEX
  5
250
  8
0
  6
CONTINUOUS
 62
     9
 10
-529.7144708139559
 20
198.6567232386886
 30
0.0
  0
VERTEX
  5
251
  8
0
  6
CONTINUOUS
 62
     9
 10
-529.6751363871516
 20
198.6786731950509
 30
0.0
  0
VERTEX
  5
252
  8
0
  6
CONTINUOUS
 62
     9
 10
-529.636424066916
 20
198.7025174036415
 30
0.0
  0
VERTEX
  5
253
  8
0
  6
CONTINUOUS
 62
     9
 10
-529.5987069334747
 20
198.728078893888
 30
0.0
  0
VERTEX
  5
254
  8
0
  6
CONTINUOUS
 62
     9
 10
-529.5619626350755
 20
198.7554130965701
 30
0.0
  0
VERTEX
  5
255
  8
0
  6
CONTINUOUS
 62
     9
 10
-529.5320075392333
 20
198.7796571278144
 30
0.0
  0
VERTEX
  5
256
  8
0
  6
CONTINUOUS
 62
     9
 10
-529.5029767343217
 20
198.8050117350644
 30
0.0
  0
VERTEX
  5
257
  8
0
  6
CONTINUOUS
 62
     9
 10
-529.4747592511518
 20
198.831602367441
 30
0.0
  0
VERTEX
  5
258
  8
0
  6
CONTINUOUS
 62
     9
 10
-529.4475698223607
 20
198.8592534023775
 30
0.0
  0
VERTEX
  5
259
  8
0
  6
CONTINUOUS
 62
     9
 10
-529.4248569946404
 20
198.8840670786005
 30
0.0
  0
VERTEX
  5
25A
  8
0
  6
CONTINUOUS
 62
     9
 10
-529.4029806560394
 20
198.9096281121357
 30
0.0
  0
VERTEX
  5
25B
  8
0
  6
CONTINUOUS
 62
     9
 10
-529.3818765103441
 20
198.9360321044128
 30
0.0
  0
VERTEX
  5
25C
  8
0
  6
CONTINUOUS
 62
     9
 10
-529.3616729342999
 20
198.9631375844772
 30
0.0
  0
VERTEX
  5
25D
  8
0
  6
CONTINUOUS
 62
     9
 10
-529.3442163490431
 20
198.9882073319367
 30
0.0
  0
VERTEX
  5
25E
  8
0
  6
CONTINUOUS
 62
     9
 10
-529.3275211416201
 20
199.0138296360564
 30
0.0
  0
VERTEX
  5
25F
  8
0
  6
CONTINUOUS
 62
     9
 10
-529.3058913177061
 20
199.049846694472
 30
0.0
  0
VERTEX
  5
260
  8
0
  6
CONTINUOUS
 62
     9
 10
-529.285811150958
 20
199.0867575179637
 30
0.0
  0
VERTEX
  5
261
  8
0
  6
CONTINUOUS
 62
     9
 10
-529.2671944086308
 20
199.1247828232227
 30
0.0
  0
VERTEX
  5
262
  8
0
  6
CONTINUOUS
 62
     9
 10
-529.2502364019663
 20
199.163582493584
 30
0.0
  0
VERTEX
  5
263
  8
0
  6
CONTINUOUS
 62
     9
 10
-529.2348385959906
 20
199.203470505506
 30
0.0
  0
VERTEX
  5
264
  8
0
  6
CONTINUOUS
 62
     9
 10
-529.2212066439066
 20
199.2440010300371
 30
0.0
  0
VERTEX
  5
265
  8
0
  6
CONTINUOUS
 62
     9
 10
-529.2092879806497
 20
199.2854253727411
 30
0.0
  0
VERTEX
  5
266
  8
0
  6
CONTINUOUS
 62
     9
 10
-529.1992246548593
 20
199.3273428873752
 30
0.0
  0
VERTEX
  5
267
  8
0
  6
CONTINUOUS
 62
     9
 10
-529.1941497425773
 20
199.3523712213099
 30
0.0
  0
VERTEX
  5
268
  8
0
  6
CONTINUOUS
 62
     9
 10
-529.1897390562814
 20
199.3775260861071
 30
0.0
  0
VERTEX
  5
269
  8
0
  6
CONTINUOUS
 62
     9
 10
-529.1859869611526
 20
199.4028618560171
 30
0.0
  0
VERTEX
  5
26A
  8
0
  6
CONTINUOUS
 62
     9
 10
-529.1829099570758
 20
199.4282891491721
 30
0.0
  0
VERTEX
  5
26B
  8
0
  6
CONTINUOUS
 62
     9
 10
-529.1805035886667
 20
199.4538816600908
 30
0.0
  0
VERTEX
  5
26C
  8
0
  6
CONTINUOUS
 62
     9
 10
-529.1787819850897
 20
199.4795297618758
 30
0.0
  0
VERTEX
  5
26D
  8
0
  6
CONTINUOUS
 62
     9
 10
-529.1777449276668
 20
199.5052894522868
 30
0.0
  0
VERTEX
  5
26E
  8
0
  6
CONTINUOUS
 62
     9
 10
-529.1773990498747
 20
199.5310678321776
 30
0.0
  0
SEQEND
  5
46C
  8
0
  6
CONTINUOUS
 62
     9
  0
POLYLINE
  5
75
  8
0
  6
CONTINUOUS
 62
     9
 66
     1
 10
0.0
 20
0.0
 30
0.0
  0
VERTEX
  5
26F
  8
0
  6
CONTINUOUS
 62
     9
 10
-522.2044230811123
 20
199.5310678304232
 30
0.0
  0
VERTEX
  5
270
  8
0
  6
CONTINUOUS
 62
     9
 10
-522.2040501911769
 20
199.5038987978725
 30
0.0
  0
VERTEX
  5
271
  8
0
  6
CONTINUOUS
 62
     9
 10
-522.2029321054382
 20
199.4767502621986
 30
0.0
  0
VERTEX
  5
272
  8
0
  6
CONTINUOUS
 62
     9
 10
-522.2010626459788
 20
199.4495605529097
 30
0.0
  0
VERTEX
  5
273
  8
0
  6
CONTINUOUS
 62
     9
 10
-522.1984458600266
 20
199.4224326939756
 30
0.0
  0
VERTEX
  5
274
  8
0
  6
CONTINUOUS
 62
     9
 10
-522.1919581798411
 20
199.3744422501662
 30
0.0
  0
VERTEX
  5
275
  8
0
  6
CONTINUOUS
 62
     9
 10
-522.183109479922
 20
199.3267129342929
 30
0.0
  0
VERTEX
  5
276
  8
0
  6
CONTINUOUS
 62
     9
 10
-522.173147129233
 20
199.2841376617353
 30
0.0
  0
VERTEX
  5
277
  8
0
  6
CONTINUOUS
 62
     9
 10
-522.1612931824264
 20
199.2419620683954
 30
0.0
  0
VERTEX
  5
278
  8
0
  6
CONTINUOUS
 62
     9
 10
-522.1479577402303
 20
199.2013934443793
 30
0.0
  0
VERTEX
  5
279
  8
0
  6
CONTINUOUS
 62
     9
 10
-522.1349957461015
 20
199.1667192466622
 30
0.0
  0
VERTEX
  5
27A
  8
0
  6
CONTINUOUS
 62
     9
 10
-522.1207521065411
 20
199.1325526396543
 30
0.0
  0
VERTEX
  5
27B
  8
0
  6
CONTINUOUS
 62
     9
 10
-522.1051562566007
 20
199.0987541912552
 30
0.0
  0
VERTEX
  5
27C
  8
0
  6
CONTINUOUS
 62
     9
 10
-522.0883083500007
 20
199.0655634674168
 30
0.0
  0
VERTEX
  5
27D
  8
0
  6
CONTINUOUS
 62
     9
 10
-522.0727074601605
 20
199.0373168550234
 30
0.0
  0
VERTEX
  5
27E
  8
0
  6
CONTINUOUS
 62
     9
 10
-522.0562012044317
 20
199.009590760469
 30
0.0
  0
VERTEX
  5
27F
  8
0
  6
CONTINUOUS
 62
     9
 10
-522.0387319210247
 20
198.982300510146
 30
0.0
  0
VERTEX
  5
280
  8
0
  6
CONTINUOUS
 62
     9
 10
-522.020387153911
 20
198.9555922765713
 30
0.0
  0
VERTEX
  5
281
  8
0
  6
CONTINUOUS
 62
     9
 10
-522.0030837891362
 20
198.9319949306034
 30
0.0
  0
VERTEX
  5
282
  8
0
  6
CONTINUOUS
 62
     9
 10
-521.9850823807733
 20
198.9088951010478
 30
0.0
  0
VERTEX
  5
283
  8
0
  6
CONTINUOUS
 62
     9
 10
-521.9612743041752
 20
198.8803513313337
 30
0.0
  0
VERTEX
  5
284
  8
0
  6
CONTINUOUS
 62
     9
 10
-521.9364255246751
 20
198.8527110945134
 30
0.0
  0
VERTEX
  5
285
  8
0
  6
CONTINUOUS
 62
     9
 10
-521.9104245932007
 20
198.825866399356
 30
0.0
  0
VERTEX
  5
286
  8
0
  6
CONTINUOUS
 62
     9
 10
-521.8834446199254
 20
198.8000085016808
 30
0.0
  0
VERTEX
  5
287
  8
0
  6
CONTINUOUS
 62
     9
 10
-521.859294226793
 20
198.7784192905966
 30
0.0
  0
VERTEX
  5
288
  8
0
  6
CONTINUOUS
 62
     9
 10
-521.8344629547562
 20
198.7576190264788
 30
0.0
  0
VERTEX
  5
289
  8
0
  6
CONTINUOUS
 62
     9
 10
-521.8088694687634
 20
198.7375471631766
 30
0.0
  0
VERTEX
  5
28A
  8
0
  6
CONTINUOUS
 62
     9
 10
-521.7826435494192
 20
198.7183114779617
 30
0.0
  0
VERTEX
  5
28B
  8
0
  6
CONTINUOUS
 62
     9
 10
-521.7584399467918
 20
198.7016753367806
 30
0.0
  0
VERTEX
  5
28C
  8
0
  6
CONTINUOUS
 62
     9
 10
-521.7337432235406
 20
198.6857368856354
 30
0.0
  0
VERTEX
  5
28D
  8
0
  6
CONTINUOUS
 62
     9
 10
-521.6978161755835
 20
198.6643028548806
 30
0.0
  0
VERTEX
  5
28E
  8
0
  6
CONTINUOUS
 62
     9
 10
-521.660866416779
 20
198.6442834267425
 30
0.0
  0
VERTEX
  5
28F
  8
0
  6
CONTINUOUS
 62
     9
 10
-521.623055957513
 20
198.6257820266864
 30
0.0
  0
VERTEX
  5
290
  8
0
  6
CONTINUOUS
 62
     9
 10
-521.5841705858894
 20
198.6087216835693
 30
0.0
  0
VERTEX
  5
291
  8
0
  6
CONTINUOUS
 62
     9
 10
-521.5445397247175
 20
198.5932744975932
 30
0.0
  0
VERTEX
  5
292
  8
0
  6
CONTINUOUS
 62
     9
 10
-521.5039424514065
 20
198.5793819630851
 30
0.0
  0
VERTEX
  5
293
  8
0
  6
CONTINUOUS
 62
     9
 10
-521.4627255169287
 20
198.5671902250786
 30
0.0
  0
VERTEX
  5
294
  8
0
  6
CONTINUOUS
 62
     9
 10
-521.4208392657422
 20
198.5567003102792
 30
0.0
  0
VERTEX
  5
295
  8
0
  6
CONTINUOUS
 62
     9
 10
-521.3928979899412
 20
198.5507366986909
 30
0.0
  0
VERTEX
  5
296
  8
0
  6
CONTINUOUS
 62
     9
 10
-521.3648019538186
 20
198.5455559450262
 30
0.0
  0
VERTEX
  5
297
  8
0
  6
CONTINUOUS
 62
     9
 10
-521.3364845831281
 20
198.5411493061912
 30
0.0
  0
VERTEX
  5
298
  8
0
  6
CONTINUOUS
 62
     9
 10
-521.3080558264074
 20
198.5375368272753
 30
0.0
  0
SEQEND
  5
46D
  8
0
  6
CONTINUOUS
 62
     9
  0
LINE
  5
76
  8
0
  6
CONTINUOUS
 62
     9
 10
-495.2239728877474
 20
198.5310678321107
 30
0.0
 11
-495.0869005026419
 21
198.5395863523618
 31
0.0
  0
LINE
  5
77
  8
0
  6
CONTINUOUS
 62
     9
 10
-522.2044230821765
 20
216.5310678304211
 30
0.0
 11
-522.2044230811124
 21
199.5310678304218
 31
0.0
  0
LINE
  5
78
  8
0
  6
CONTINUOUS
 62
     9
 10
-494.1773990498747
 20
199.5310678321762
 30
0.0
 11
-494.1773990509388
 21
216.5310678321756
 31
0.0
  0
POLYLINE
  5
79
  8
0
  6
CONTINUOUS
 62
     9
 66
     1
 10
0.0
 20
0.0
 30
0.0
  0
VERTEX
  5
299
  8
0
  6
CONTINUOUS
 62
     9
 10
-495.0869005026419
 20
198.5395863523618
 30
0.0
  0
VERTEX
  5
29A
  8
0
  6
CONTINUOUS
 62
     9
 10
-495.0503697272265
 20
198.5447743307385
 30
0.0
  0
VERTEX
  5
29B
  8
0
  6
CONTINUOUS
 62
     9
 10
-495.0070617124125
 20
198.5525626042286
 30
0.0
  0
VERTEX
  5
29C
  8
0
  6
CONTINUOUS
 62
     9
 10
-494.9637506694108
 20
198.562172183205
 30
0.0
  0
VERTEX
  5
29D
  8
0
  6
CONTINUOUS
 62
     9
 10
-494.920788845283
 20
198.5735599727372
 30
0.0
  0
VERTEX
  5
29E
  8
0
  6
CONTINUOUS
 62
     9
 10
-494.878140888571
 20
198.5867614180664
 30
0.0
  0
VERTEX
  5
29F
  8
0
  6
CONTINUOUS
 62
     9
 10
-494.8364531022071
 20
198.6015721698849
 30
0.0
  0
VERTEX
  5
2A0
  8
0
  6
CONTINUOUS
 62
     9
 10
-494.7952135628647
 20
198.6181712379928
 30
0.0
  0
VERTEX
  5
2A1
  8
0
  6
CONTINUOUS
 62
     9
 10
-494.7546224178082
 20
198.6365083676482
 30
0.0
  0
VERTEX
  5
2A2
  8
0
  6
CONTINUOUS
 62
     9
 10
-494.7144708139559
 20
198.6567232386886
 30
0.0
  0
VERTEX
  5
2A3
  8
0
  6
CONTINUOUS
 62
     9
 10
-494.6751363871516
 20
198.6786731950509
 30
0.0
  0
VERTEX
  5
2A4
  8
0
  6
CONTINUOUS
 62
     9
 10
-494.636424066916
 20
198.7025174036415
 30
0.0
  0
VERTEX
  5
2A5
  8
0
  6
CONTINUOUS
 62
     9
 10
-494.5987069334746
 20
198.728078893888
 30
0.0
  0
VERTEX
  5
2A6
  8
0
  6
CONTINUOUS
 62
     9
 10
-494.5619626350755
 20
198.7554130965701
 30
0.0
  0
VERTEX
  5
2A7
  8
0
  6
CONTINUOUS
 62
     9
 10
-494.5320075392333
 20
198.7796571278144
 30
0.0
  0
VERTEX
  5
2A8
  8
0
  6
CONTINUOUS
 62
     9
 10
-494.5029767343217
 20
198.8050117350644
 30
0.0
  0
VERTEX
  5
2A9
  8
0
  6
CONTINUOUS
 62
     9
 10
-494.4747592511518
 20
198.831602367441
 30
0.0
  0
VERTEX
  5
2AA
  8
0
  6
CONTINUOUS
 62
     9
 10
-494.4475698223607
 20
198.8592534023775
 30
0.0
  0
VERTEX
  5
2AB
  8
0
  6
CONTINUOUS
 62
     9
 10
-494.4248569946404
 20
198.8840670786005
 30
0.0
  0
VERTEX
  5
2AC
  8
0
  6
CONTINUOUS
 62
     9
 10
-494.4029806560394
 20
198.9096281121357
 30
0.0
  0
VERTEX
  5
2AD
  8
0
  6
CONTINUOUS
 62
     9
 10
-494.3818765103441
 20
198.9360321044128
 30
0.0
  0
VERTEX
  5
2AE
  8
0
  6
CONTINUOUS
 62
     9
 10
-494.3616729342999
 20
198.9631375844772
 30
0.0
  0
VERTEX
  5
2AF
  8
0
  6
CONTINUOUS
 62
     9
 10
-494.3442163490431
 20
198.9882073319367
 30
0.0
  0
VERTEX
  5
2B0
  8
0
  6
CONTINUOUS
 62
     9
 10
-494.32752114162
 20
199.0138296360564
 30
0.0
  0
VERTEX
  5
2B1
  8
0
  6
CONTINUOUS
 62
     9
 10
-494.3058913177061
 20
199.049846694472
 30
0.0
  0
VERTEX
  5
2B2
  8
0
  6
CONTINUOUS
 62
     9
 10
-494.285811150958
 20
199.0867575179637
 30
0.0
  0
VERTEX
  5
2B3
  8
0
  6
CONTINUOUS
 62
     9
 10
-494.2671944086308
 20
199.1247828232227
 30
0.0
  0
VERTEX
  5
2B4
  8
0
  6
CONTINUOUS
 62
     9
 10
-494.2502364019663
 20
199.163582493584
 30
0.0
  0
VERTEX
  5
2B5
  8
0
  6
CONTINUOUS
 62
     9
 10
-494.2348385959907
 20
199.203470505506
 30
0.0
  0
VERTEX
  5
2B6
  8
0
  6
CONTINUOUS
 62
     9
 10
-494.2212066439066
 20
199.2440010300371
 30
0.0
  0
VERTEX
  5
2B7
  8
0
  6
CONTINUOUS
 62
     9
 10
-494.2092879806497
 20
199.2854253727411
 30
0.0
  0
VERTEX
  5
2B8
  8
0
  6
CONTINUOUS
 62
     9
 10
-494.1992246548593
 20
199.3273428873752
 30
0.0
  0
VERTEX
  5
2B9
  8
0
  6
CONTINUOUS
 62
     9
 10
-494.1941497425773
 20
199.3523712213099
 30
0.0
  0
VERTEX
  5
2BA
  8
0
  6
CONTINUOUS
 62
     9
 10
-494.1897390562814
 20
199.3775260861071
 30
0.0
  0
VERTEX
  5
2BB
  8
0
  6
CONTINUOUS
 62
     9
 10
-494.1859869611527
 20
199.4028618560171
 30
0.0
  0
VERTEX
  5
2BC
  8
0
  6
CONTINUOUS
 62
     9
 10
-494.1829099570758
 20
199.4282891491721
 30
0.0
  0
VERTEX
  5
2BD
  8
0
  6
CONTINUOUS
 62
     9
 10
-494.1805035886667
 20
199.4538816600908
 30
0.0
  0
VERTEX
  5
2BE
  8
0
  6
CONTINUOUS
 62
     9
 10
-494.1787819850897
 20
199.4795297618758
 30
0.0
  0
VERTEX
  5
2BF
  8
0
  6
CONTINUOUS
 62
     9
 10
-494.1777449276668
 20
199.5052894522868
 30
0.0
  0
VERTEX
  5
2C0
  8
0
  6
CONTINUOUS
 62
     9
 10
-494.1773990498747
 20
199.5310678321776
 30
0.0
  0
SEQEND
  5
46E
  8
0
  6
CONTINUOUS
 62
     9
  0
LINE
  5
7A
  8
0
  6
CONTINUOUS
 62
     9
 10
-521.3080558264028
 20
198.537536827266
 30
0.0
 11
-521.1930398557415
 21
198.5310678304851
 31
0.0
  0
LINE
  5
7B
  8
0
  6
CONTINUOUS
 62
     9
 10
-523.7785440600687
 20
213.7884271432034
 30
0.0
 11
-523.7466645599883
 21
213.7884271432054
 31
0.0
  0
ARC
  5
7C
  8
0
  6
CONTINUOUS
 62
     7
 10
-547.8285440602917
 20
76.73106783130562
 30
0.0
 40
2.200000000000001
 50
256.8634412130551
 51
283.1365587869568
  0
LINE
  5
7D
  8
0
  6
CONTINUOUS
 62
     7
 10
-547.3285440602917
 20
75.73106783130562
 30
0.0
 11
-547.3285440602917
 21
74.58863930274286
 31
0.0
  0
POLYLINE
  5
7E
  8
0
  6
CONTINUOUS
 62
     7
 66
     1
 10
0.0
 20
0.0
 30
0.0
  0
VERTEX
  5
2C1
  8
0
  6
CONTINUOUS
 62
     7
 10
-546.8285440602917
 20
76.23106783130562
 30
0.0
  0
VERTEX
  5
2C2
  8
0
  6
CONTINUOUS
 62
     7
 10
-546.8489791972512
 20
76.23064845676942
 30
0.0
  0
VERTEX
  5
2C3
  8
0
  6
CONTINUOUS
 62
     7
 10
-546.869417380719
 20
76.22939154327678
 30
0.0
  0
VERTEX
  5
2C4
  8
0
  6
CONTINUOUS
 62
     7
 10
-546.8898067708518
 20
76.22729890600169
 30
0.0
  0
VERTEX
  5
2C5
  8
0
  6
CONTINUOUS
 62
     7
 10
-546.9100955278063
 20
76.22437236011808
 30
0.0
  0
VERTEX
  5
2C6
  8
0
  6
CONTINUOUS
 62
     7
 10
-546.9308411006365
 20
76.22048936604031
 30
0.0
  0
VERTEX
  5
2C7
  8
0
  6
CONTINUOUS
 62
     7
 10
-546.9514422057758
 20
76.2157251436999
 30
0.0
  0
VERTEX
  5
2C8
  8
0
  6
CONTINUOUS
 62
     7
 10
-546.9718421513238
 20
76.21009161292591
 30
0.0
  0
VERTEX
  5
2C9
  8
0
  6
CONTINUOUS
 62
     7
 10
-546.9919842453796
 20
76.20360069354743
 30
0.0
  0
VERTEX
  5
2CA
  8
0
  6
CONTINUOUS
 62
     7
 10
-547.0113029677352
 20
76.19646813332263
 30
0.0
  0
VERTEX
  5
2CB
  8
0
  6
CONTINUOUS
 62
     7
 10
-547.030342070787
 20
76.18853309670307
 30
0.0
  0
VERTEX
  5
2CC
  8
0
  6
CONTINUOUS
 62
     7
 10
-547.0490511055642
 20
76.17981598388587
 30
0.0
  0
VERTEX
  5
2CD
  8
0
  6
CONTINUOUS
 62
     7
 10
-547.067379623096
 20
76.17033719506816
 30
0.0
  0
VERTEX
  5
2CE
  8
0
  6
CONTINUOUS
 62
     7
 10
-547.0858371428102
 20
76.15978482646938
 30
0.0
  0
VERTEX
  5
2CF
  8
0
  6
CONTINUOUS
 62
     7
 10
-547.1038549827176
 20
76.14844095730814
 30
0.0
  0
VERTEX
  5
2D0
  8
0
  6
CONTINUOUS
 62
     7
 10
-547.1213822030235
 20
76.1363378842729
 30
0.0
  0
VERTEX
  5
2D1
  8
0
  6
CONTINUOUS
 62
     7
 10
-547.1383678639332
 20
76.123507904052
 30
0.0
  0
VERTEX
  5
2D2
  8
0
  6
CONTINUOUS
 62
     7
 10
-547.1541263885285
 20
76.11053381549716
 30
0.0
  0
VERTEX
  5
2D3
  8
0
  6
CONTINUOUS
 62
     7
 10
-547.1693577968056
 20
76.09691335625605
 30
0.0
  0
VERTEX
  5
2D4
  8
0
  6
CONTINUOUS
 62
     7
 10
-547.184022832025
 20
76.0826828603817
 30
0.0
  0
VERTEX
  5
2D5
  8
0
  6
CONTINUOUS
 62
     7
 10
-547.1980822374483
 20
76.06787866192712
 30
0.0
  0
VERTEX
  5
2D6
  8
0
  6
CONTINUOUS
 62
     7
 10
-547.211907176939
 20
76.05205195058765
 30
0.0
  0
VERTEX
  5
2D7
  8
0
  6
CONTINUOUS
 62
     7
 10
-547.225064768491
 20
76.03564609634444
 30
0.0
  0
VERTEX
  5
2D8
  8
0
  6
CONTINUOUS
 62
     7
 10
-547.2375201087517
 20
76.01870766678275
 30
0.0
  0
VERTEX
  5
2D9
  8
0
  6
CONTINUOUS
 62
     7
 10
-547.2492382943683
 20
76.0012832294878
 30
0.0
  0
VERTEX
  5
2DA
  8
0
  6
CONTINUOUS
 62
     7
 10
-547.2598473930183
 20
75.9840022069658
 30
0.0
  0
VERTEX
  5
2DB
  8
0
  6
CONTINUOUS
 62
     7
 10
-547.2697509966974
 20
75.9662986261022
 30
0.0
  0
VERTEX
  5
2DC
  8
0
  6
CONTINUOUS
 62
     7
 10
-547.2789258752614
 20
75.94821889019524
 30
0.0
  0
VERTEX
  5
2DD
  8
0
  6
CONTINUOUS
 62
     7
 10
-547.2873487985651
 20
75.92980940254316
 30
0.0
  0
VERTEX
  5
2DE
  8
0
  6
CONTINUOUS
 62
     7
 10
-547.2952190539818
 20
75.91054673281972
 30
0.0
  0
VERTEX
  5
2DF
  8
0
  6
CONTINUOUS
 62
     7
 10
-547.3022823632441
 20
75.89097049720267
 30
0.0
  0
VERTEX
  5
2E0
  8
0
  6
CONTINUOUS
 62
     7
 10
-547.3085229530934
 20
75.87113383611324
 30
0.0
  0
VERTEX
  5
2E1
  8
0
  6
CONTINUOUS
 62
     7
 10
-547.3139250502711
 20
75.85108988997274
 30
0.0
  0
VERTEX
  5
2E2
  8
0
  6
CONTINUOUS
 62
     7
 10
-547.3191705671268
 20
75.82740069346235
 30
0.0
  0
VERTEX
  5
2E3
  8
0
  6
CONTINUOUS
 62
     7
 10
-547.3232617240886
 20
75.80346797653878
 30
0.0
  0
VERTEX
  5
2E4
  8
0
  6
CONTINUOUS
 62
     7
 10
-547.3261920236247
 20
75.77937765200366
 30
0.0
  0
VERTEX
  5
2E5
  8
0
  6
CONTINUOUS
 62
     7
 10
-547.327954968203
 20
75.75521563265872
 30
0.0
  0
VERTEX
  5
2E6
  8
0
  6
CONTINUOUS
 62
     7
 10
-547.3285440602917
 20
75.73106783130562
 30
0.0
  0
SEQEND
  5
46F
  8
0
  6
CONTINUOUS
 62
     7
  0
POLYLINE
  5
7F
  8
0
  6
CONTINUOUS
 62
     7
 66
     1
 10
0.0
 20
0.0
 30
0.0
  0
VERTEX
  5
2E7
  8
0
  6
CONTINUOUS
 62
     7
 10
-548.3285440602917
 20
75.73106783130562
 30
0.0
  0
VERTEX
  5
2E8
  8
0
  6
CONTINUOUS
 62
     7
 10
-548.328963434828
 20
75.75150296826504
 30
0.0
  0
VERTEX
  5
2E9
  8
0
  6
CONTINUOUS
 62
     7
 10
-548.3302203483206
 20
75.77194115173283
 30
0.0
  0
VERTEX
  5
2EA
  8
0
  6
CONTINUOUS
 62
     7
 10
-548.3323129855956
 20
75.79233054186565
 30
0.0
  0
VERTEX
  5
2EB
  8
0
  6
CONTINUOUS
 62
     7
 10
-548.3352395314794
 20
75.81261929882021
 30
0.0
  0
VERTEX
  5
2EC
  8
0
  6
CONTINUOUS
 62
     7
 10
-548.3391225255571
 20
75.83336487165026
 30
0.0
  0
VERTEX
  5
2ED
  8
0
  6
CONTINUOUS
 62
     7
 10
-548.3438867478975
 20
75.85396597678964
 30
0.0
  0
VERTEX
  5
2EE
  8
0
  6
CONTINUOUS
 62
     7
 10
-548.3495202786714
 20
75.8743659223376
 30
0.0
  0
VERTEX
  5
2EF
  8
0
  6
CONTINUOUS
 62
     7
 10
-548.3560111980499
 20
75.89450801639353
 30
0.0
  0
VERTEX
  5
2F0
  8
0
  6
CONTINUOUS
 62
     7
 10
-548.3631437582748
 20
75.91382673874902
 30
0.0
  0
VERTEX
  5
2F1
  8
0
  6
CONTINUOUS
 62
     7
 10
-548.3710787948943
 20
75.93286584180083
 30
0.0
  0
VERTEX
  5
2F2
  8
0
  6
CONTINUOUS
 62
     7
 10
-548.3797959077116
 20
75.95157487657809
 30
0.0
  0
VERTEX
  5
2F3
  8
0
  6
CONTINUOUS
 62
     7
 10
-548.3892746965292
 20
75.9699033941099
 30
0.0
  0
VERTEX
  5
2F4
  8
0
  6
CONTINUOUS
 62
     7
 10
-548.399827065128
 20
75.98836091382402
 30
0.0
  0
VERTEX
  5
2F5
  8
0
  6
CONTINUOUS
 62
     7
 10
-548.4111709342892
 20
76.00637875373143
 30
0.0
  0
VERTEX
  5
2F6
  8
0
  6
CONTINUOUS
 62
     7
 10
-548.4232740073245
 20
76.02390597403732
 30
0.0
  0
VERTEX
  5
2F7
  8
0
  6
CONTINUOUS
 62
     7
 10
-548.4361039875454
 20
76.040891634947
 30
0.0
  0
VERTEX
  5
2F8
  8
0
  6
CONTINUOUS
 62
     7
 10
-548.4490780761002
 20
76.05665015954241
 30
0.0
  0
VERTEX
  5
2F9
  8
0
  6
CONTINUOUS
 62
     7
 10
-548.4626985353414
 20
76.07188156781935
 30
0.0
  0
VERTEX
  5
2FA
  8
0
  6
CONTINUOUS
 62
     7
 10
-548.4769290312157
 20
76.08654660303888
 30
0.0
  0
VERTEX
  5
2FB
  8
0
  6
CONTINUOUS
 62
     7
 10
-548.4917332296702
 20
76.1006060084621
 30
0.0
  0
VERTEX
  5
2FC
  8
0
  6
CONTINUOUS
 62
     7
 10
-548.5075599410097
 20
76.11443094795284
 30
0.0
  0
VERTEX
  5
2FD
  8
0
  6
CONTINUOUS
 62
     7
 10
-548.5239657952529
 20
76.1275885395049
 30
0.0
  0
VERTEX
  5
2FE
  8
0
  6
CONTINUOUS
 62
     7
 10
-548.5409042248145
 20
76.14004387976556
 30
0.0
  0
VERTEX
  5
2FF
  8
0
  6
CONTINUOUS
 62
     7
 10
-548.5583286621096
 20
76.15176206538216
 30
0.0
  0
VERTEX
  5
300
  8
0
  6
CONTINUOUS
 62
     7
 10
-548.5756096846316
 20
76.16237116403207
 30
0.0
  0
VERTEX
  5
301
  8
0
  6
CONTINUOUS
 62
     7
 10
-548.5933132654952
 20
76.17227476771137
 30
0.0
  0
VERTEX
  5
302
  8
0
  6
CONTINUOUS
 62
     7
 10
-548.6113930014021
 20
76.18144964627524
 30
0.0
  0
VERTEX
  5
303
  8
0
  6
CONTINUOUS
 62
     7
 10
-548.6298024890542
 20
76.18987256957891
 30
0.0
  0
VERTEX
  5
304
  8
0
  6
CONTINUOUS
 62
     7
 10
-548.6490651587776
 20
76.19774282499561
 30
0.0
  0
VERTEX
  5
305
  8
0
  6
CONTINUOUS
 62
     7
 10
-548.6686413943947
 20
76.2048061342579
 30
0.0
  0
VERTEX
  5
306
  8
0
  6
CONTINUOUS
 62
     7
 10
-548.6884780554841
 20
76.2110467241072
 30
0.0
  0
VERTEX
  5
307
  8
0
  6
CONTINUOUS
 62
     7
 10
-548.7085220016247
 20
76.21644882128493
 30
0.0
  0
VERTEX
  5
308
  8
0
  6
CONTINUOUS
 62
     7
 10
-548.7322111981351
 20
76.22169433814061
 30
0.0
  0
VERTEX
  5
309
  8
0
  6
CONTINUOUS
 62
     7
 10
-548.7561439150587
 20
76.22578549510244
 30
0.0
  0
VERTEX
  5
30A
  8
0
  6
CONTINUOUS
 62
     7
 10
-548.7802342395937
 20
76.22871579463848
 30
0.0
  0
VERTEX
  5
30B
  8
0
  6
CONTINUOUS
 62
     7
 10
-548.8043962589386
 20
76.23047873921685
 30
0.0
  0
VERTEX
  5
30C
  8
0
  6
CONTINUOUS
 62
     7
 10
-548.8285440602917
 20
76.23106783130562
 30
0.0
  0
SEQEND
  5
470
  8
0
  6
CONTINUOUS
 62
     7
  0
LINE
  5
80
  8
0
  6
CONTINUOUS
 62
     7
 10
-548.3285440602917
 20
74.58863930274276
 30
0.0
 11
-548.3285440602917
 21
75.73106783130561
 31
0.0
  0
ARC
  5
81
  8
0
  6
CONTINUOUS
 62
     7
 10
-547.8285440602917
 20
76.73106783130562
 30
0.0
 40
2.200000000000001
 50
76.86344121305513
 51
103.1365587869569
  0
LINE
  5
82
  8
0
  6
CONTINUOUS
 62
     7
 10
-548.3285440602917
 20
77.73106783130562
 30
0.0
 11
-548.3285440602917
 21
78.87349635986834
 31
0.0
  0
POLYLINE
  5
83
  8
0
  6
CONTINUOUS
 62
     7
 66
     1
 10
0.0
 20
0.0
 30
0.0
  0
VERTEX
  5
30D
  8
0
  6
CONTINUOUS
 62
     7
 10
-548.8285440602917
 20
77.23106783130562
 30
0.0
  0
VERTEX
  5
30E
  8
0
  6
CONTINUOUS
 62
     7
 10
-548.8081089233323
 20
77.23148720584182
 30
0.0
  0
VERTEX
  5
30F
  8
0
  6
CONTINUOUS
 62
     7
 10
-548.7876707398646
 20
77.23274411933446
 30
0.0
  0
VERTEX
  5
310
  8
0
  6
CONTINUOUS
 62
     7
 10
-548.7672813497318
 20
77.23483675660955
 30
0.0
  0
VERTEX
  5
311
  8
0
  6
CONTINUOUS
 62
     7
 10
-548.7469925927771
 20
77.23776330249315
 30
0.0
  0
VERTEX
  5
312
  8
0
  6
CONTINUOUS
 62
     7
 10
-548.7262470199471
 20
77.2416462965709
 30
0.0
  0
VERTEX
  5
313
  8
0
  6
CONTINUOUS
 62
     7
 10
-548.7056459148077
 20
77.24641051891133
 30
0.0
  0
VERTEX
  5
314
  8
0
  6
CONTINUOUS
 62
     7
 10
-548.6852459692598
 20
77.25204404968531
 30
0.0
  0
VERTEX
  5
315
  8
0
  6
CONTINUOUS
 62
     7
 10
-548.6651038752038
 20
77.25853496906382
 30
0.0
  0
VERTEX
  5
316
  8
0
  6
CONTINUOUS
 62
     7
 10
-548.6457851528484
 20
77.2656675292886
 30
0.0
  0
VERTEX
  5
317
  8
0
  6
CONTINUOUS
 62
     7
 10
-548.6267460497966
 20
77.27360256590818
 30
0.0
  0
VERTEX
  5
318
  8
0
  6
CONTINUOUS
 62
     7
 10
-548.6080370150192
 20
77.28231967872537
 30
0.0
  0
VERTEX
  5
319
  8
0
  6
CONTINUOUS
 62
     7
 10
-548.5897084974874
 20
77.29179846754306
 30
0.0
  0
VERTEX
  5
31A
  8
0
  6
CONTINUOUS
 62
     7
 10
-548.5712509777734
 20
77.30235083614187
 30
0.0
  0
VERTEX
  5
31B
  8
0
  6
CONTINUOUS
 62
     7
 10
-548.553233137866
 20
77.31369470530308
 30
0.0
  0
VERTEX
  5
31C
  8
0
  6
CONTINUOUS
 62
     7
 10
-548.5357059175601
 20
77.32579777833833
 30
0.0
  0
VERTEX
  5
31D
  8
0
  6
CONTINUOUS
 62
     7
 10
-548.5187202566503
 20
77.33862775855924
 30
0.0
  0
VERTEX
  5
31E
  8
0
  6
CONTINUOUS
 62
     7
 10
-548.502961732055
 20
77.35160184711407
 30
0.0
  0
VERTEX
  5
31F
  8
0
  6
CONTINUOUS
 62
     7
 10
-548.487730323778
 20
77.36522230635518
 30
0.0
  0
VERTEX
  5
320
  8
0
  6
CONTINUOUS
 62
     7
 10
-548.4730652885586
 20
77.37945280222952
 30
0.0
  0
VERTEX
  5
321
  8
0
  6
CONTINUOUS
 62
     7
 10
-548.4590058831353
 20
77.39425700068408
 30
0.0
  0
VERTEX
  5
322
  8
0
  6
CONTINUOUS
 62
     7
 10
-548.4451809436446
 20
77.41008371202356
 30
0.0
  0
VERTEX
  5
323
  8
0
  6
CONTINUOUS
 62
     7
 10
-548.4320233520925
 20
77.42648956626677
 30
0.0
  0
VERTEX
  5
324
  8
0
  6
CONTINUOUS
 62
     7
 10
-548.4195680118318
 20
77.44342799582849
 30
0.0
  0
VERTEX
  5
325
  8
0
  6
CONTINUOUS
 62
     7
 10
-548.4078498262153
 20
77.46085243312343
 30
0.0
  0
VERTEX
  5
326
  8
0
  6
CONTINUOUS
 62
     7
 10
-548.3972407275653
 20
77.47813345564543
 30
0.0
  0
VERTEX
  5
327
  8
0
  6
CONTINUOUS
 62
     7
 10
-548.387337123886
 20
77.49583703650903
 30
0.0
  0
VERTEX
  5
328
  8
0
  6
CONTINUOUS
 62
     7
 10
-548.3781622453221
 20
77.51391677241601
 30
0.0
  0
VERTEX
  5
329
  8
0
  6
CONTINUOUS
 62
     7
 10
-548.3697393220185
 20
77.53232626006809
 30
0.0
  0
VERTEX
  5
32A
  8
0
  6
CONTINUOUS
 62
     7
 10
-548.3618690666018
 20
77.55158892979149
 30
0.0
  0
VERTEX
  5
32B
  8
0
  6
CONTINUOUS
 62
     7
 10
-548.3548057573395
 20
77.57116516540857
 30
0.0
  0
VERTEX
  5
32C
  8
0
  6
CONTINUOUS
 62
     7
 10
-548.3485651674902
 20
77.59100182649799
 30
0.0
  0
VERTEX
  5
32D
  8
0
  6
CONTINUOUS
 62
     7
 10
-548.3431630703125
 20
77.61104577263848
 30
0.0
  0
VERTEX
  5
32E
  8
0
  6
CONTINUOUS
 62
     7
 10
-548.3379175534568
 20
77.63473496914885
 30
0.0
  0
VERTEX
  5
32F
  8
0
  6
CONTINUOUS
 62
     7
 10
-548.3338263964949
 20
77.65866768607245
 30
0.0
  0
VERTEX
  5
330
  8
0
  6
CONTINUOUS
 62
     7
 10
-548.3308960969589
 20
77.68275801060756
 30
0.0
  0
VERTEX
  5
331
  8
0
  6
CONTINUOUS
 62
     7
 10
-548.3291331523806
 20
77.7069200299525
 30
0.0
  0
VERTEX
  5
332
  8
0
  6
CONTINUOUS
 62
     7
 10
-548.3285440602917
 20
77.73106783130562
 30
0.0
  0
SEQEND
  5
471
  8
0
  6
CONTINUOUS
 62
     7
  0
LINE
  5
84
  8
0
  6
CONTINUOUS
 62
     7
 10
-547.3285440602917
 20
78.87349635986847
 30
0.0
 11
-547.3285440602917
 21
77.73106783130562
 31
0.0
  0
POLYLINE
  5
85
  8
0
  6
CONTINUOUS
 62
     7
 66
     1
 10
0.0
 20
0.0
 30
0.0
  0
VERTEX
  5
333
  8
0
  6
CONTINUOUS
 62
     7
 10
-547.3285440602917
 20
77.73106783130562
 30
0.0
  0
VERTEX
  5
334
  8
0
  6
CONTINUOUS
 62
     7
 10
-547.3281246857555
 20
77.71063269434619
 30
0.0
  0
VERTEX
  5
335
  8
0
  6
CONTINUOUS
 62
     7
 10
-547.3268677722629
 20
77.69019451087841
 30
0.0
  0
VERTEX
  5
336
  8
0
  6
CONTINUOUS
 62
     7
 10
-547.3247751349879
 20
77.66980512074558
 30
0.0
  0
VERTEX
  5
337
  8
0
  6
CONTINUOUS
 62
     7
 10
-547.3218485891042
 20
77.64951636379101
 30
0.0
  0
VERTEX
  5
338
  8
0
  6
CONTINUOUS
 62
     7
 10
-547.3179655950264
 20
77.62877079096094
 30
0.0
  0
VERTEX
  5
339
  8
0
  6
CONTINUOUS
 62
     7
 10
-547.313201372686
 20
77.6081696858216
 30
0.0
  0
VERTEX
  5
33A
  8
0
  6
CONTINUOUS
 62
     7
 10
-547.307567841912
 20
77.58776974027361
 30
0.0
  0
VERTEX
  5
33B
  8
0
  6
CONTINUOUS
 62
     7
 10
-547.3010769225336
 20
77.56762764621772
 30
0.0
  0
VERTEX
  5
33C
  8
0
  6
CONTINUOUS
 62
     7
 10
-547.2939443623088
 20
77.54830892386222
 30
0.0
  0
VERTEX
  5
33D
  8
0
  6
CONTINUOUS
 62
     7
 10
-547.2860093256893
 20
77.52926982081038
 30
0.0
  0
VERTEX
  5
33E
  8
0
  6
CONTINUOUS
 62
     7
 10
-547.277292212872
 20
77.51056078603314
 30
0.0
  0
VERTEX
  5
33F
  8
0
  6
CONTINUOUS
 62
     7
 10
-547.2678134240542
 20
77.49223226850133
 30
0.0
  0
VERTEX
  5
340
  8
0
  6
CONTINUOUS
 62
     7
 10
-547.2572610554556
 20
77.4737747487872
 30
0.0
  0
VERTEX
  5
341
  8
0
  6
CONTINUOUS
 62
     7
 10
-547.2459171862944
 20
77.4557569088798
 30
0.0
  0
VERTEX
  5
342
  8
0
  6
CONTINUOUS
 62
     7
 10
-547.2338141132591
 20
77.43822968857388
 30
0.0
  0
VERTEX
  5
343
  8
0
  6
CONTINUOUS
 62
     7
 10
-547.2209841330382
 20
77.42124402766423
 30
0.0
  0
VERTEX
  5
344
  8
0
  6
CONTINUOUS
 62
     7
 10
-547.2080100444833
 20
77.40548550306883
 30
0.0
  0
VERTEX
  5
345
  8
0
  6
CONTINUOUS
 62
     7
 10
-547.1943895852422
 20
77.39025409479189
 30
0.0
  0
VERTEX
  5
346
  8
0
  6
CONTINUOUS
 62
     7
 10
-547.1801590893679
 20
77.37558905957233
 30
0.0
  0
VERTEX
  5
347
  8
0
  6
CONTINUOUS
 62
     7
 10
-547.1653548909134
 20
77.36152965414914
 30
0.0
  0
VERTEX
  5
348
  8
0
  6
CONTINUOUS
 62
     7
 10
-547.1495281795738
 20
77.34770471465838
 30
0.0
  0
VERTEX
  5
349
  8
0
  6
CONTINUOUS
 62
     7
 10
-547.1331223253306
 20
77.33454712310633
 30
0.0
  0
VERTEX
  5
34A
  8
0
  6
CONTINUOUS
 62
     7
 10
-547.1161838957689
 20
77.32209178284566
 30
0.0
  0
VERTEX
  5
34B
  8
0
  6
CONTINUOUS
 62
     7
 10
-547.098759458474
 20
77.31037359722907
 30
0.0
  0
VERTEX
  5
34C
  8
0
  6
CONTINUOUS
 62
     7
 10
-547.081478435952
 20
77.29976449857915
 30
0.0
  0
VERTEX
  5
34D
  8
0
  6
CONTINUOUS
 62
     7
 10
-547.0637748550884
 20
77.28986089489986
 30
0.0
  0
VERTEX
  5
34E
  8
0
  6
CONTINUOUS
 62
     7
 10
-547.0456951191815
 20
77.28068601633598
 30
0.0
  0
VERTEX
  5
34F
  8
0
  6
CONTINUOUS
 62
     7
 10
-547.0272856315294
 20
77.27226309303231
 30
0.0
  0
VERTEX
  5
350
  8
0
  6
CONTINUOUS
 62
     7
 10
-547.008022961806
 20
77.26439283761562
 30
0.0
  0
VERTEX
  5
351
  8
0
  6
CONTINUOUS
 62
     7
 10
-546.9884467261888
 20
77.25732952835332
 30
0.0
  0
VERTEX
  5
352
  8
0
  6
CONTINUOUS
 62
     7
 10
-546.9686100650995
 20
77.25108893850401
 30
0.0
  0
VERTEX
  5
353
  8
0
  6
CONTINUOUS
 62
     7
 10
-546.9485661189589
 20
77.24568684132629
 30
0.0
  0
VERTEX
  5
354
  8
0
  6
CONTINUOUS
 62
     7
 10
-546.9248769224484
 20
77.2404413244706
 30
0.0
  0
VERTEX
  5
355
  8
0
  6
CONTINUOUS
 62
     7
 10
-546.9009442055249
 20
77.23635016750879
 30
0.0
  0
VERTEX
  5
356
  8
0
  6
CONTINUOUS
 62
     7
 10
-546.8768538809899
 20
77.23341986797274
 30
0.0
  0
VERTEX
  5
357
  8
0
  6
CONTINUOUS
 62
     7
 10
-546.8526918616449
 20
77.23165692339438
 30
0.0
  0
VERTEX
  5
358
  8
0
  6
CONTINUOUS
 62
     7
 10
-546.8285440602917
 20
77.23106783130562
 30
0.0
  0
SEQEND
  5
472
  8
0
  6
CONTINUOUS
 62
     7
  0
ARC
  5
86
  8
0
  6
CONTINUOUS
 62
     7
 10
-547.8285440602917
 20
76.73106783130562
 30
0.0
 40
3.377515871063706
 50
171.4867690477392
 51
188.5132309522607
  0
ARC
  5
87
  8
0
  6
CONTINUOUS
 62
     7
 10
-547.8285440602917
 20
76.73106783130562
 30
0.0
 40
3.377515871063706
 50
351.4867690477394
 51
8.513230952260756
  0
ARC
  5
88
  8
0
  6
CONTINUOUS
 62
     7
 10
-503.3285440602918
 20
181.7310678313056
 30
0.0
 40
2.2
 50
76.86344121305513
 51
103.1365587869569
  0
LINE
  5
89
  8
0
  6
CONTINUOUS
 62
     7
 10
-503.8285440602917
 20
182.7310678313056
 30
0.0
 11
-503.8285440602917
 21
183.8734963598683
 31
0.0
  0
POLYLINE
  5
8A
  8
0
  6
CONTINUOUS
 62
     7
 66
     1
 10
0.0
 20
0.0
 30
0.0
  0
VERTEX
  5
359
  8
0
  6
CONTINUOUS
 62
     7
 10
-504.3285440602918
 20
182.2310678313056
 30
0.0
  0
VERTEX
  5
35A
  8
0
  6
CONTINUOUS
 62
     7
 10
-504.3081089233323
 20
182.2314872058418
 30
0.0
  0
VERTEX
  5
35B
  8
0
  6
CONTINUOUS
 62
     7
 10
-504.2876707398646
 20
182.2327441193345
 30
0.0
  0
VERTEX
  5
35C
  8
0
  6
CONTINUOUS
 62
     7
 10
-504.2672813497317
 20
182.2348367566095
 30
0.0
  0
VERTEX
  5
35D
  8
0
  6
CONTINUOUS
 62
     7
 10
-504.2469925927771
 20
182.2377633024931
 30
0.0
  0
VERTEX
  5
35E
  8
0
  6
CONTINUOUS
 62
     7
 10
-504.2262470199471
 20
182.2416462965709
 30
0.0
  0
VERTEX
  5
35F
  8
0
  6
CONTINUOUS
 62
     7
 10
-504.2056459148077
 20
182.2464105189113
 30
0.0
  0
VERTEX
  5
360
  8
0
  6
CONTINUOUS
 62
     7
 10
-504.1852459692597
 20
182.2520440496853
 30
0.0
  0
VERTEX
  5
361
  8
0
  6
CONTINUOUS
 62
     7
 10
-504.1651038752038
 20
182.2585349690638
 30
0.0
  0
VERTEX
  5
362
  8
0
  6
CONTINUOUS
 62
     7
 10
-504.1457851528484
 20
182.2656675292886
 30
0.0
  0
VERTEX
  5
363
  8
0
  6
CONTINUOUS
 62
     7
 10
-504.1267460497966
 20
182.2736025659082
 30
0.0
  0
VERTEX
  5
364
  8
0
  6
CONTINUOUS
 62
     7
 10
-504.1080370150192
 20
182.2823196787253
 30
0.0
  0
VERTEX
  5
365
  8
0
  6
CONTINUOUS
 62
     7
 10
-504.0897084974874
 20
182.2917984675431
 30
0.0
  0
VERTEX
  5
366
  8
0
  6
CONTINUOUS
 62
     7
 10
-504.0712509777734
 20
182.3023508361418
 30
0.0
  0
VERTEX
  5
367
  8
0
  6
CONTINUOUS
 62
     7
 10
-504.053233137866
 20
182.3136947053031
 30
0.0
  0
VERTEX
  5
368
  8
0
  6
CONTINUOUS
 62
     7
 10
-504.0357059175601
 20
182.3257977783383
 30
0.0
  0
VERTEX
  5
369
  8
0
  6
CONTINUOUS
 62
     7
 10
-504.0187202566504
 20
182.3386277585592
 30
0.0
  0
VERTEX
  5
36A
  8
0
  6
CONTINUOUS
 62
     7
 10
-504.0029617320549
 20
182.351601847114
 30
0.0
  0
VERTEX
  5
36B
  8
0
  6
CONTINUOUS
 62
     7
 10
-503.9877303237781
 20
182.3652223063552
 30
0.0
  0
VERTEX
  5
36C
  8
0
  6
CONTINUOUS
 62
     7
 10
-503.9730652885585
 20
182.3794528022295
 30
0.0
  0
VERTEX
  5
36D
  8
0
  6
CONTINUOUS
 62
     7
 10
-503.9590058831354
 20
182.3942570006841
 30
0.0
  0
VERTEX
  5
36E
  8
0
  6
CONTINUOUS
 62
     7
 10
-503.9451809436446
 20
182.4100837120236
 30
0.0
  0
VERTEX
  5
36F
  8
0
  6
CONTINUOUS
 62
     7
 10
-503.9320233520925
 20
182.4264895662668
 30
0.0
  0
VERTEX
  5
370
  8
0
  6
CONTINUOUS
 62
     7
 10
-503.9195680118318
 20
182.4434279958285
 30
0.0
  0
VERTEX
  5
371
  8
0
  6
CONTINUOUS
 62
     7
 10
-503.9078498262153
 20
182.4608524331234
 30
0.0
  0
VERTEX
  5
372
  8
0
  6
CONTINUOUS
 62
     7
 10
-503.8972407275654
 20
182.4781334556454
 30
0.0
  0
VERTEX
  5
373
  8
0
  6
CONTINUOUS
 62
     7
 10
-503.887337123886
 20
182.495837036509
 30
0.0
  0
VERTEX
  5
374
  8
0
  6
CONTINUOUS
 62
     7
 10
-503.8781622453221
 20
182.513916772416
 30
0.0
  0
VERTEX
  5
375
  8
0
  6
CONTINUOUS
 62
     7
 10
-503.8697393220185
 20
182.5323262600681
 30
0.0
  0
VERTEX
  5
376
  8
0
  6
CONTINUOUS
 62
     7
 10
-503.8618690666018
 20
182.5515889297915
 30
0.0
  0
VERTEX
  5
377
  8
0
  6
CONTINUOUS
 62
     7
 10
-503.8548057573395
 20
182.5711651654086
 30
0.0
  0
VERTEX
  5
378
  8
0
  6
CONTINUOUS
 62
     7
 10
-503.8485651674902
 20
182.591001826498
 30
0.0
  0
VERTEX
  5
379
  8
0
  6
CONTINUOUS
 62
     7
 10
-503.8431630703124
 20
182.6110457726385
 30
0.0
  0
VERTEX
  5
37A
  8
0
  6
CONTINUOUS
 62
     7
 10
-503.8379175534567
 20
182.6347349691489
 30
0.0
  0
VERTEX
  5
37B
  8
0
  6
CONTINUOUS
 62
     7
 10
-503.833826396495
 20
182.6586676860724
 30
0.0
  0
VERTEX
  5
37C
  8
0
  6
CONTINUOUS
 62
     7
 10
-503.8308960969588
 20
182.6827580106075
 30
0.0
  0
VERTEX
  5
37D
  8
0
  6
CONTINUOUS
 62
     7
 10
-503.8291331523805
 20
182.7069200299525
 30
0.0
  0
VERTEX
  5
37E
  8
0
  6
CONTINUOUS
 62
     7
 10
-503.8285440602917
 20
182.7310678313056
 30
0.0
  0
SEQEND
  5
473
  8
0
  6
CONTINUOUS
 62
     7
  0
POLYLINE
  5
8B
  8
0
  6
CONTINUOUS
 62
     7
 66
     1
 10
0.0
 20
0.0
 30
0.0
  0
VERTEX
  5
37F
  8
0
  6
CONTINUOUS
 62
     7
 10
-502.8285440602917
 20
182.7310678313056
 30
0.0
  0
VERTEX
  5
380
  8
0
  6
CONTINUOUS
 62
     7
 10
-502.8281246857555
 20
182.7106326943462
 30
0.0
  0
VERTEX
  5
381
  8
0
  6
CONTINUOUS
 62
     7
 10
-502.8268677722629
 20
182.6901945108784
 30
0.0
  0
VERTEX
  5
382
  8
0
  6
CONTINUOUS
 62
     7
 10
-502.8247751349879
 20
182.6698051207456
 30
0.0
  0
VERTEX
  5
383
  8
0
  6
CONTINUOUS
 62
     7
 10
-502.8218485891043
 20
182.649516363791
 30
0.0
  0
VERTEX
  5
384
  8
0
  6
CONTINUOUS
 62
     7
 10
-502.8179655950265
 20
182.6287707909609
 30
0.0
  0
VERTEX
  5
385
  8
0
  6
CONTINUOUS
 62
     7
 10
-502.813201372686
 20
182.6081696858216
 30
0.0
  0
VERTEX
  5
386
  8
0
  6
CONTINUOUS
 62
     7
 10
-502.807567841912
 20
182.5877697402736
 30
0.0
  0
VERTEX
  5
387
  8
0
  6
CONTINUOUS
 62
     7
 10
-502.8010769225336
 20
182.5676276462177
 30
0.0
  0
VERTEX
  5
388
  8
0
  6
CONTINUOUS
 62
     7
 10
-502.7939443623088
 20
182.5483089238622
 30
0.0
  0
VERTEX
  5
389
  8
0
  6
CONTINUOUS
 62
     7
 10
-502.7860093256893
 20
182.5292698208104
 30
0.0
  0
VERTEX
  5
38A
  8
0
  6
CONTINUOUS
 62
     7
 10
-502.7772922128721
 20
182.5105607860332
 30
0.0
  0
VERTEX
  5
38B
  8
0
  6
CONTINUOUS
 62
     7
 10
-502.7678134240543
 20
182.4922322685013
 30
0.0
  0
VERTEX
  5
38C
  8
0
  6
CONTINUOUS
 62
     7
 10
-502.7572610554556
 20
182.4737747487872
 30
0.0
  0
VERTEX
  5
38D
  8
0
  6
CONTINUOUS
 62
     7
 10
-502.7459171862943
 20
182.4557569088798
 30
0.0
  0
VERTEX
  5
38E
  8
0
  6
CONTINUOUS
 62
     7
 10
-502.7338141132591
 20
182.4382296885739
 30
0.0
  0
VERTEX
  5
38F
  8
0
  6
CONTINUOUS
 62
     7
 10
-502.7209841330382
 20
182.4212440276642
 30
0.0
  0
VERTEX
  5
390
  8
0
  6
CONTINUOUS
 62
     7
 10
-502.7080100444833
 20
182.4054855030688
 30
0.0
  0
VERTEX
  5
391
  8
0
  6
CONTINUOUS
 62
     7
 10
-502.6943895852423
 20
182.3902540947919
 30
0.0
  0
VERTEX
  5
392
  8
0
  6
CONTINUOUS
 62
     7
 10
-502.6801590893679
 20
182.3755890595723
 30
0.0
  0
VERTEX
  5
393
  8
0
  6
CONTINUOUS
 62
     7
 10
-502.6653548909132
 20
182.3615296541491
 30
0.0
  0
VERTEX
  5
394
  8
0
  6
CONTINUOUS
 62
     7
 10
-502.6495281795738
 20
182.3477047146584
 30
0.0
  0
VERTEX
  5
395
  8
0
  6
CONTINUOUS
 62
     7
 10
-502.6331223253306
 20
182.3345471231063
 30
0.0
  0
VERTEX
  5
396
  8
0
  6
CONTINUOUS
 62
     7
 10
-502.6161838957689
 20
182.3220917828457
 30
0.0
  0
VERTEX
  5
397
  8
0
  6
CONTINUOUS
 62
     7
 10
-502.598759458474
 20
182.3103735972291
 30
0.0
  0
VERTEX
  5
398
  8
0
  6
CONTINUOUS
 62
     7
 10
-502.5814784359519
 20
182.2997644985792
 30
0.0
  0
VERTEX
  5
399
  8
0
  6
CONTINUOUS
 62
     7
 10
-502.5637748550884
 20
182.2898608948998
 30
0.0
  0
VERTEX
  5
39A
  8
0
  6
CONTINUOUS
 62
     7
 10
-502.5456951191813
 20
182.280686016336
 30
0.0
  0
VERTEX
  5
39B
  8
0
  6
CONTINUOUS
 62
     7
 10
-502.5272856315293
 20
182.2722630930323
 30
0.0
  0
VERTEX
  5
39C
  8
0
  6
CONTINUOUS
 62
     7
 10
-502.5080229618059
 20
182.2643928376156
 30
0.0
  0
VERTEX
  5
39D
  8
0
  6
CONTINUOUS
 62
     7
 10
-502.4884467261888
 20
182.2573295283533
 30
0.0
  0
VERTEX
  5
39E
  8
0
  6
CONTINUOUS
 62
     7
 10
-502.4686100650994
 20
182.251088938504
 30
0.0
  0
VERTEX
  5
39F
  8
0
  6
CONTINUOUS
 62
     7
 10
-502.4485661189589
 20
182.2456868413263
 30
0.0
  0
VERTEX
  5
3A0
  8
0
  6
CONTINUOUS
 62
     7
 10
-502.4248769224485
 20
182.2404413244706
 30
0.0
  0
VERTEX
  5
3A1
  8
0
  6
CONTINUOUS
 62
     7
 10
-502.4009442055249
 20
182.2363501675088
 30
0.0
  0
VERTEX
  5
3A2
  8
0
  6
CONTINUOUS
 62
     7
 10
-502.3768538809898
 20
182.2334198679727
 30
0.0
  0
VERTEX
  5
3A3
  8
0
  6
CONTINUOUS
 62
     7
 10
-502.3526918616449
 20
182.2316569233944
 30
0.0
  0
VERTEX
  5
3A4
  8
0
  6
CONTINUOUS
 62
     7
 10
-502.3285440602918
 20
182.2310678313056
 30
0.0
  0
SEQEND
  5
474
  8
0
  6
CONTINUOUS
 62
     7
  0
LINE
  5
8C
  8
0
  6
CONTINUOUS
 62
     7
 10
-502.8285440602917
 20
183.8734963598685
 30
0.0
 11
-502.8285440602917
 21
182.7310678313056
 31
0.0
  0
ARC
  5
8D
  8
0
  6
CONTINUOUS
 62
     7
 10
-503.3285440602918
 20
181.7310678313056
 30
0.0
 40
2.200000000000003
 50
256.8634412130551
 51
283.1365587869568
  0
LINE
  5
8E
  8
0
  6
CONTINUOUS
 62
     7
 10
-502.8285440602917
 20
180.7310678313056
 30
0.0
 11
-502.8285440602917
 21
179.5886393027429
 31
0.0
  0
POLYLINE
  5
8F
  8
0
  6
CONTINUOUS
 62
     7
 66
     1
 10
0.0
 20
0.0
 30
0.0
  0
VERTEX
  5
3A5
  8
0
  6
CONTINUOUS
 62
     7
 10
-502.3285440602918
 20
181.2310678313056
 30
0.0
  0
VERTEX
  5
3A6
  8
0
  6
CONTINUOUS
 62
     7
 10
-502.3489791972512
 20
181.2306484567694
 30
0.0
  0
VERTEX
  5
3A7
  8
0
  6
CONTINUOUS
 62
     7
 10
-502.3694173807189
 20
181.2293915432768
 30
0.0
  0
VERTEX
  5
3A8
  8
0
  6
CONTINUOUS
 62
     7
 10
-502.3898067708519
 20
181.2272989060017
 30
0.0
  0
VERTEX
  5
3A9
  8
0
  6
CONTINUOUS
 62
     7
 10
-502.4100955278063
 20
181.2243723601181
 30
0.0
  0
VERTEX
  5
3AA
  8
0
  6
CONTINUOUS
 62
     7
 10
-502.4308411006364
 20
181.2204893660403
 30
0.0
  0
VERTEX
  5
3AB
  8
0
  6
CONTINUOUS
 62
     7
 10
-502.4514422057757
 20
181.2157251436999
 30
0.0
  0
VERTEX
  5
3AC
  8
0
  6
CONTINUOUS
 62
     7
 10
-502.4718421513238
 20
181.2100916129259
 30
0.0
  0
VERTEX
  5
3AD
  8
0
  6
CONTINUOUS
 62
     7
 10
-502.4919842453796
 20
181.2036006935474
 30
0.0
  0
VERTEX
  5
3AE
  8
0
  6
CONTINUOUS
 62
     7
 10
-502.5113029677352
 20
181.1964681333226
 30
0.0
  0
VERTEX
  5
3AF
  8
0
  6
CONTINUOUS
 62
     7
 10
-502.530342070787
 20
181.1885330967031
 30
0.0
  0
VERTEX
  5
3B0
  8
0
  6
CONTINUOUS
 62
     7
 10
-502.5490511055642
 20
181.1798159838858
 30
0.0
  0
VERTEX
  5
3B1
  8
0
  6
CONTINUOUS
 62
     7
 10
-502.567379623096
 20
181.1703371950682
 30
0.0
  0
VERTEX
  5
3B2
  8
0
  6
CONTINUOUS
 62
     7
 10
-502.5858371428102
 20
181.1597848264693
 30
0.0
  0
VERTEX
  5
3B3
  8
0
  6
CONTINUOUS
 62
     7
 10
-502.6038549827176
 20
181.1484409573081
 30
0.0
  0
VERTEX
  5
3B4
  8
0
  6
CONTINUOUS
 62
     7
 10
-502.6213822030234
 20
181.1363378842729
 30
0.0
  0
VERTEX
  5
3B5
  8
0
  6
CONTINUOUS
 62
     7
 10
-502.6383678639331
 20
181.123507904052
 30
0.0
  0
VERTEX
  5
3B6
  8
0
  6
CONTINUOUS
 62
     7
 10
-502.6541263885285
 20
181.1105338154971
 30
0.0
  0
VERTEX
  5
3B7
  8
0
  6
CONTINUOUS
 62
     7
 10
-502.6693577968055
 20
181.096913356256
 30
0.0
  0
VERTEX
  5
3B8
  8
0
  6
CONTINUOUS
 62
     7
 10
-502.6840228320251
 20
181.0826828603817
 30
0.0
  0
VERTEX
  5
3B9
  8
0
  6
CONTINUOUS
 62
     7
 10
-502.6980822374483
 20
181.0678786619271
 30
0.0
  0
VERTEX
  5
3BA
  8
0
  6
CONTINUOUS
 62
     7
 10
-502.711907176939
 20
181.0520519505876
 30
0.0
  0
VERTEX
  5
3BB
  8
0
  6
CONTINUOUS
 62
     7
 10
-502.7250647684911
 20
181.0356460963445
 30
0.0
  0
VERTEX
  5
3BC
  8
0
  6
CONTINUOUS
 62
     7
 10
-502.7375201087517
 20
181.0187076667827
 30
0.0
  0
VERTEX
  5
3BD
  8
0
  6
CONTINUOUS
 62
     7
 10
-502.7492382943684
 20
181.0012832294878
 30
0.0
  0
VERTEX
  5
3BE
  8
0
  6
CONTINUOUS
 62
     7
 10
-502.7598473930183
 20
180.9840022069658
 30
0.0
  0
VERTEX
  5
3BF
  8
0
  6
CONTINUOUS
 62
     7
 10
-502.7697509966975
 20
180.9662986261022
 30
0.0
  0
VERTEX
  5
3C0
  8
0
  6
CONTINUOUS
 62
     7
 10
-502.7789258752614
 20
180.9482188901952
 30
0.0
  0
VERTEX
  5
3C1
  8
0
  6
CONTINUOUS
 62
     7
 10
-502.7873487985651
 20
180.9298094025431
 30
0.0
  0
VERTEX
  5
3C2
  8
0
  6
CONTINUOUS
 62
     7
 10
-502.7952190539817
 20
180.9105467328197
 30
0.0
  0
VERTEX
  5
3C3
  8
0
  6
CONTINUOUS
 62
     7
 10
-502.8022823632441
 20
180.8909704972027
 30
0.0
  0
VERTEX
  5
3C4
  8
0
  6
CONTINUOUS
 62
     7
 10
-502.8085229530934
 20
180.8711338361132
 30
0.0
  0
VERTEX
  5
3C5
  8
0
  6
CONTINUOUS
 62
     7
 10
-502.8139250502711
 20
180.8510898899727
 30
0.0
  0
VERTEX
  5
3C6
  8
0
  6
CONTINUOUS
 62
     7
 10
-502.8191705671268
 20
180.8274006934624
 30
0.0
  0
VERTEX
  5
3C7
  8
0
  6
CONTINUOUS
 62
     7
 10
-502.8232617240886
 20
180.8034679765388
 30
0.0
  0
VERTEX
  5
3C8
  8
0
  6
CONTINUOUS
 62
     7
 10
-502.8261920236246
 20
180.7793776520037
 30
0.0
  0
VERTEX
  5
3C9
  8
0
  6
CONTINUOUS
 62
     7
 10
-502.827954968203
 20
180.7552156326587
 30
0.0
  0
VERTEX
  5
3CA
  8
0
  6
CONTINUOUS
 62
     7
 10
-502.8285440602917
 20
180.7310678313056
 30
0.0
  0
SEQEND
  5
475
  8
0
  6
CONTINUOUS
 62
     7
  0
LINE
  5
90
  8
0
  6
CONTINUOUS
 62
     7
 10
-503.8285440602917
 20
179.5886393027427
 30
0.0
 11
-503.8285440602917
 21
180.7310678313056
 31
0.0
  0
POLYLINE
  5
91
  8
0
  6
CONTINUOUS
 62
     7
 66
     1
 10
0.0
 20
0.0
 30
0.0
  0
VERTEX
  5
3CB
  8
0
  6
CONTINUOUS
 62
     7
 10
-503.8285440602917
 20
180.7310678313056
 30
0.0
  0
VERTEX
  5
3CC
  8
0
  6
CONTINUOUS
 62
     7
 10
-503.828963434828
 20
180.751502968265
 30
0.0
  0
VERTEX
  5
3CD
  8
0
  6
CONTINUOUS
 62
     7
 10
-503.8302203483206
 20
180.7719411517328
 30
0.0
  0
VERTEX
  5
3CE
  8
0
  6
CONTINUOUS
 62
     7
 10
-503.8323129855957
 20
180.7923305418656
 30
0.0
  0
VERTEX
  5
3CF
  8
0
  6
CONTINUOUS
 62
     7
 10
-503.8352395314793
 20
180.8126192988202
 30
0.0
  0
VERTEX
  5
3D0
  8
0
  6
CONTINUOUS
 62
     7
 10
-503.8391225255571
 20
180.8333648716503
 30
0.0
  0
VERTEX
  5
3D1
  8
0
  6
CONTINUOUS
 62
     7
 10
-503.8438867478975
 20
180.8539659767896
 30
0.0
  0
VERTEX
  5
3D2
  8
0
  6
CONTINUOUS
 62
     7
 10
-503.8495202786714
 20
180.8743659223376
 30
0.0
  0
VERTEX
  5
3D3
  8
0
  6
CONTINUOUS
 62
     7
 10
-503.85601119805
 20
180.8945080163935
 30
0.0
  0
VERTEX
  5
3D4
  8
0
  6
CONTINUOUS
 62
     7
 10
-503.8631437582748
 20
180.913826738749
 30
0.0
  0
VERTEX
  5
3D5
  8
0
  6
CONTINUOUS
 62
     7
 10
-503.8710787948943
 20
180.9328658418008
 30
0.0
  0
VERTEX
  5
3D6
  8
0
  6
CONTINUOUS
 62
     7
 10
-503.8797959077115
 20
180.9515748765781
 30
0.0
  0
VERTEX
  5
3D7
  8
0
  6
CONTINUOUS
 62
     7
 10
-503.8892746965292
 20
180.9699033941099
 30
0.0
  0
VERTEX
  5
3D8
  8
0
  6
CONTINUOUS
 62
     7
 10
-503.899827065128
 20
180.988360913824
 30
0.0
  0
VERTEX
  5
3D9
  8
0
  6
CONTINUOUS
 62
     7
 10
-503.9111709342893
 20
181.0063787537314
 30
0.0
  0
VERTEX
  5
3DA
  8
0
  6
CONTINUOUS
 62
     7
 10
-503.9232740073245
 20
181.0239059740373
 30
0.0
  0
VERTEX
  5
3DB
  8
0
  6
CONTINUOUS
 62
     7
 10
-503.9361039875454
 20
181.040891634947
 30
0.0
  0
VERTEX
  5
3DC
  8
0
  6
CONTINUOUS
 62
     7
 10
-503.9490780761002
 20
181.0566501595424
 30
0.0
  0
VERTEX
  5
3DD
  8
0
  6
CONTINUOUS
 62
     7
 10
-503.9626985353414
 20
181.0718815678193
 30
0.0
  0
VERTEX
  5
3DE
  8
0
  6
CONTINUOUS
 62
     7
 10
-503.9769290312157
 20
181.0865466030389
 30
0.0
  0
VERTEX
  5
3DF
  8
0
  6
CONTINUOUS
 62
     7
 10
-503.9917332296703
 20
181.1006060084621
 30
0.0
  0
VERTEX
  5
3E0
  8
0
  6
CONTINUOUS
 62
     7
 10
-504.0075599410097
 20
181.1144309479529
 30
0.0
  0
VERTEX
  5
3E1
  8
0
  6
CONTINUOUS
 62
     7
 10
-504.023965795253
 20
181.1275885395049
 30
0.0
  0
VERTEX
  5
3E2
  8
0
  6
CONTINUOUS
 62
     7
 10
-504.0409042248146
 20
181.1400438797656
 30
0.0
  0
VERTEX
  5
3E3
  8
0
  6
CONTINUOUS
 62
     7
 10
-504.0583286621097
 20
181.1517620653822
 30
0.0
  0
VERTEX
  5
3E4
  8
0
  6
CONTINUOUS
 62
     7
 10
-504.0756096846316
 20
181.1623711640321
 30
0.0
  0
VERTEX
  5
3E5
  8
0
  6
CONTINUOUS
 62
     7
 10
-504.0933132654952
 20
181.1722747677113
 30
0.0
  0
VERTEX
  5
3E6
  8
0
  6
CONTINUOUS
 62
     7
 10
-504.1113930014022
 20
181.1814496462752
 30
0.0
  0
VERTEX
  5
3E7
  8
0
  6
CONTINUOUS
 62
     7
 10
-504.1298024890543
 20
181.1898725695789
 30
0.0
  0
VERTEX
  5
3E8
  8
0
  6
CONTINUOUS
 62
     7
 10
-504.1490651587777
 20
181.1977428249956
 30
0.0
  0
VERTEX
  5
3E9
  8
0
  6
CONTINUOUS
 62
     7
 10
-504.1686413943947
 20
181.2048061342579
 30
0.0
  0
VERTEX
  5
3EA
  8
0
  6
CONTINUOUS
 62
     7
 10
-504.1884780554842
 20
181.2110467241072
 30
0.0
  0
VERTEX
  5
3EB
  8
0
  6
CONTINUOUS
 62
     7
 10
-504.2085220016247
 20
181.2164488212849
 30
0.0
  0
VERTEX
  5
3EC
  8
0
  6
CONTINUOUS
 62
     7
 10
-504.232211198135
 20
181.2216943381407
 30
0.0
  0
VERTEX
  5
3ED
  8
0
  6
CONTINUOUS
 62
     7
 10
-504.2561439150585
 20
181.2257854951024
 30
0.0
  0
VERTEX
  5
3EE
  8
0
  6
CONTINUOUS
 62
     7
 10
-504.2802342395938
 20
181.2287157946385
 30
0.0
  0
VERTEX
  5
3EF
  8
0
  6
CONTINUOUS
 62
     7
 10
-504.3043962589387
 20
181.2304787392169
 30
0.0
  0
VERTEX
  5
3F0
  8
0
  6
CONTINUOUS
 62
     7
 10
-504.3285440602918
 20
181.2310678313056
 30
0.0
  0
SEQEND
  5
476
  8
0
  6
CONTINUOUS
 62
     7
  0
ARC
  5
92
  8
0
  6
CONTINUOUS
 62
     7
 10
-503.3285440602918
 20
181.7310678313056
 30
0.0
 40
3.377515871063713
 50
351.4867690477394
 51
8.513230952260756
  0
ARC
  5
93
  8
0
  6
CONTINUOUS
 62
     7
 10
-503.3285440602918
 20
181.7310678313056
 30
0.0
 40
3.3775158710637
 50
171.4867690477392
 51
188.5132309522607
  0
LINE
  5
94
  8
0
  6
CONTINUOUS
 62
     9
 10
-495.2785440602918
 20
189.5239610501191
 30
0.0
 11
-495.3417594340494
 21
189.5239610501191
 31
0.0
  0
LINE
  5
95
  8
0
  6
CONTINUOUS
 62
     9
 10
-495.3417594340493
 20
189.5239610501191
 30
0.0
 11
-495.4630383539205
 21
190.8059382798851
 31
0.0
  0
LINE
  5
96
  8
0
  6
CONTINUOUS
 62
     9
 10
-495.4630383539205
 20
190.8059382798851
 30
0.0
 11
-495.4630383539205
 21
198.5310678313056
 31
0.0
  0
LINE
  5
97
  8
0
  6
CONTINUOUS
 62
     9
 10
-555.8153286865344
 20
189.5239610501191
 30
0.0
 11
-555.8785440602918
 21
189.5239610501191
 31
0.0
  0
LINE
  5
98
  8
0
  6
CONTINUOUS
 62
     9
 10
-555.694049766663
 20
190.8059382798732
 30
0.0
 11
-555.8153286865343
 21
189.5239610501191
 31
0.0
  0
LINE
  5
99
  8
0
  6
CONTINUOUS
 62
     9
 10
-555.694049766663
 20
198.5310678313056
 30
0.0
 11
-555.694049766663
 21
190.8059382798732
 31
0.0
  0
POLYLINE
  5
9A
  8
0
  6
CONTINUOUS
 62
     9
 66
     1
 10
0.0
 20
0.0
 30
0.0
  0
VERTEX
  5
3F1
  8
0
  6
CONTINUOUS
 62
     9
 10
-495.1960360806699
 20
189.8775144407123
 30
0.0
  0
VERTEX
  5
3F2
  8
0
  6
CONTINUOUS
 62
     9
 10
-495.2579104008041
 20
189.8017461666289
 30
0.0
  0
VERTEX
  5
3F3
  8
0
  6
CONTINUOUS
 62
     9
 10
-495.3038871684223
 20
189.7153027663016
 30
0.0
  0
VERTEX
  5
3F4
  8
0
  6
CONTINUOUS
 62
     9
 10
-495.3321995221291
 20
189.6215062111271
 30
0.0
  0
VERTEX
  5
3F5
  8
0
  6
CONTINUOUS
 62
     9
 10
-495.3417594340494
 20
189.5239610501191
 30
0.0
  0
SEQEND
  5
477
  8
0
  6
CONTINUOUS
 62
     9
  0
POLYLINE
  5
9B
  8
0
  6
CONTINUOUS
 62
     9
 66
     1
 10
0.0
 20
0.0
 30
0.0
  0
VERTEX
  5
3F6
  8
0
  6
CONTINUOUS
 62
     9
 10
-555.8153286865343
 20
189.5239610501191
 30
0.0
  0
VERTEX
  5
3F7
  8
0
  6
CONTINUOUS
 62
     9
 10
-555.8248885984545
 20
189.6215062111272
 30
0.0
  0
VERTEX
  5
3F8
  8
0
  6
CONTINUOUS
 62
     9
 10
-555.8532009521614
 20
189.7153027663016
 30
0.0
  0
VERTEX
  5
3F9
  8
0
  6
CONTINUOUS
 62
     9
 10
-555.8991777197797
 20
189.8017461666289
 30
0.0
  0
VERTEX
  5
3FA
  8
0
  6
CONTINUOUS
 62
     9
 10
-555.9610520399139
 20
189.8775144407123
 30
0.0
  0
SEQEND
  5
478
  8
0
  6
CONTINUOUS
 62
     9
  0
LINE
  5
9C
  8
0
  6
CONTINUOUS
 62
     9
 10
-495.19603608067
 20
189.8775144407124
 30
0.0
 11
-495.1320974508851
 21
189.8775144407124
 31
0.0
  0
LINE
  5
9D
  8
0
  6
CONTINUOUS
 62
     9
 10
-556.0249906696986
 20
189.8775144407124
 30
0.0
 11
-555.9610520399137
 21
189.8775144407124
 31
0.0
  0
CIRCLE
  5
9E
  8
0
  6
CONTINUOUS
 62
     7
 10
-525.5785440602918
 20
129.2310678313056
 30
0.0
 40
13.5
  0
CIRCLE
  5
9F
  8
0
  6
CONTINUOUS
 62
     7
 10
-525.5785440602918
 20
129.2310678313056
 30
0.0
 40
11.0
  0
CIRCLE
  5
A0
  8
0
  6
CONTINUOUS
 62
     7
 10
-521.3285938259753
 20
121.8700554036124
 30
0.0
 40
1.500006008427565
  0
CIRCLE
  5
A1
  8
0
  6
CONTINUOUS
 62
     7
 10
-529.828577639759
 20
121.8699854543618
 30
0.0
 40
1.499981015975334
  0
CIRCLE
  5
A2
  8
0
  6
CONTINUOUS
 62
     7
 10
-534.0785538010686
 20
129.2313082417218
 30
0.0
 40
1.499990278489081
  0
CIRCLE
  5
A3
  8
0
  6
CONTINUOUS
 62
     7
 10
-529.8285266202552
 20
136.5926358027434
 30
0.0
 40
1.499979439372286
  0
CIRCLE
  5
A4
  8
0
  6
CONTINUOUS
 62
     7
 10
-521.3285102979944
 20
136.5924571159683
 30
0.0
 40
1.499986583772228
  0
CIRCLE
  5
A5
  8
0
  6
CONTINUOUS
 62
     7
 10
-517.0785514000395
 20
129.2313153058199
 30
0.0
 40
1.499992680666809
  0
CIRCLE
  5
A6
  8
0
  6
CONTINUOUS
 62
     7
 10
-525.5785440602918
 20
129.2310678313056
 30
0.0
 40
5.750000000000005
  0
CIRCLE
  5
A7
  8
0
  6
CONTINUOUS
 62
     7
 10
-506.5785440602918
 20
129.2310678313056
 30
0.0
 40
4.000000000000004
  0
CIRCLE
  5
A8
  8
0
  6
CONTINUOUS
 62
     7
 10
-506.5785440602918
 20
129.2310678313056
 30
0.0
 40
3.000000000000003
  0
CIRCLE
  5
A9
  8
0
  6
CONTINUOUS
 62
     7
 10
-544.5785440602917
 20
129.2310678313056
 30
0.0
 40
4.000000000000004
  0
CIRCLE
  5
AA
  8
0
  6
CONTINUOUS
 62
     7
 10
-544.5785440602917
 20
129.2310678313056
 30
0.0
 40
3.000000000000003
  0
ARC
  5
AB
  8
0
  6
CONTINUOUS
 62
     7
 10
-544.5785440602917
 20
129.2310678313056
 30
0.0
 40
5.000000000000002
 50
205.8419327631669
 51
154.1580672368332
  0
ARC
  5
AC
  8
0
  6
CONTINUOUS
 62
     7
 10
-506.5785440602918
 20
129.2310678313056
 30
0.0
 40
4.999999999999991
 50
341.3370751150575
 51
18.66292488494253
  0
CIRCLE
  5
AD
  8
0
  6
CONTINUOUS
 62
     7
 10
-525.5785440602918
 20
148.2310678313056
 30
0.0
 40
3.000000000000003
  0
CIRCLE
  5
AE
  8
0
  6
CONTINUOUS
 62
     7
 10
-525.5785440602918
 20
110.2310678313056
 30
0.0
 40
2.999999999999989
  0
CIRCLE
  5
AF
  8
0
  6
CONTINUOUS
 62
     7
 10
-525.5785440602918
 20
87.4810678313056
 30
0.0
 40
1.649999999999999
  0
CIRCLE
  5
B0
  8
0
  6
CONTINUOUS
 62
     7
 10
-525.5785440602918
 20
170.9810678313056
 30
0.0
 40
1.649999999999999
  0
CIRCLE
  5
B1
  8
0
  6
CONTINUOUS
 62
     7
 10
-525.5785440602918
 20
87.4810678313056
 30
0.0
 40
4.000000000000004
  0
ARC
  5
B2
  8
0
  6
CONTINUOUS
 62
     7
 10
-505.5785440602919
 20
161.9538810639958
 30
0.0
 40
8.000000000000021
 50
359.9999999999998
 51
55.15009542095351
  0
LINE
  5
B3
  8
0
  6
CONTINUOUS
 62
     7
 10
-497.5785440602918
 20
96.50825459861547
 30
0.0
 11
-497.5785440602918
 21
161.9538810639957
 31
0.0
  0
ARC
  5
B4
  8
0
  6
CONTINUOUS
 62
     7
 10
-505.5785440602919
 20
96.50825459861545
 30
0.0
 40
8.000000000000021
 50
304.8499045790465
 51
0.0000000000001137
  0
ARC
  5
B5
  8
0
  6
CONTINUOUS
 62
     7
 10
-525.578544060292
 20
125.2310678313056
 30
0.0
 40
43.00000000000009
 50
272.3314930610618
 51
304.8499045790466
  0
ARC
  5
B6
  8
0
  6
CONTINUOUS
 62
     7
 10
-525.5785440602917
 20
87.4810678313056
 30
0.0
 40
5.50000000000001
 50
251.4548734429633
 51
288.5451265570346
  0
ARC
  5
B7
  8
0
  6
CONTINUOUS
 62
     7
 10
-525.5785440602917
 20
125.2310678313056
 30
0.0
 40
43.00000000000009
 50
235.1500954209535
 51
267.6685069389382
  0
ARC
  5
B8
  8
0
  6
CONTINUOUS
 62
     7
 10
-545.5785440602917
 20
96.50825459861545
 30
0.0
 40
8.000000000000021
 50
179.9999999999999
 51
235.1500954209536
  0
LINE
  5
B9
  8
0
  6
CONTINUOUS
 62
     7
 10
-553.5785440602917
 20
96.50825459861547
 30
0.0
 11
-553.5785440602917
 21
161.9538810639957
 31
0.0
  0
ARC
  5
BA
  8
0
  6
CONTINUOUS
 62
     7
 10
-545.5785440602917
 20
161.9538810639958
 30
0.0
 40
8.000000000000021
 50
124.8499045790464
 51
180.0000000000001
  0
ARC
  5
BB
  8
0
  6
CONTINUOUS
 62
     7
 10
-525.5785440602917
 20
133.2310678313056
 30
0.0
 40
43.00000000000009
 50
92.33149306106185
 51
124.8499045790465
  0
ARC
  5
BC
  8
0
  6
CONTINUOUS
 62
     7
 10
-525.5785440602917
 20
170.9810678313056
 30
0.0
 40
5.499999999999984
 50
71.45487344296545
 51
108.5451265570367
  0
ARC
  5
BD
  8
0
  6
CONTINUOUS
 62
     7
 10
-525.578544060292
 20
133.2310678313056
 30
0.0
 40
43.00000000000009
 50
55.15009542095351
 51
87.66850693893815
  0
CIRCLE
  5
BE
  8
0
  6
CONTINUOUS
 62
     7
 10
-525.5785440602918
 20
170.9810678313056
 30
0.0
 40
4.000000000000004
  0
ARC
  5
BF
  8
0
  6
CONTINUOUS
 62
     7
 10
-525.5785440602917
 20
170.9810678313056
 30
0.0
 40
5.500000000000024
 50
203.0440075950247
 51
252.6585571972405
  0
ARC
  5
C0
  8
0
  6
CONTINUOUS
 62
     7
 10
-535.2406909973777
 20
166.8709684935573
 30
0.0
 40
5.000000000000012
 50
23.04400759502462
 51
106.0252731407752
  0
ARC
  5
C1
  8
0
  6
CONTINUOUS
 62
     7
 10
-525.5785440602917
 20
133.2310678313056
 30
0.0
 40
40.0000000000001
 50
106.0252731407751
 51
124.8499045790465
  0
ARC
  5
C2
  8
0
  6
CONTINUOUS
 62
     7
 10
-545.5785440602917
 20
161.9538810639958
 30
0.0
 40
5.000000000000016
 50
124.8499045790464
 51
180.0000000000002
  0
LINE
  5
C3
  8
0
  6
CONTINUOUS
 62
     7
 10
-550.5785440602917
 20
161.9538810639957
 30
0.0
 11
-550.5785440602917
 21
96.50825459861547
 31
0.0
  0
ARC
  5
C4
  8
0
  6
CONTINUOUS
 62
     7
 10
-545.5785440602917
 20
96.50825459861545
 30
0.0
 40
5.000000000000016
 50
179.9999999999998
 51
235.1500954209536
  0
ARC
  5
C5
  8
0
  6
CONTINUOUS
 62
     7
 10
-525.5785440602917
 20
125.2310678313056
 30
0.0
 40
40.00000000000009
 50
235.1500954209534
 51
253.9747268592248
  0
ARC
  5
C6
  8
0
  6
CONTINUOUS
 62
     7
 10
-535.2406909973777
 20
91.59116716905393
 30
0.0
 40
5.000000000000012
 50
253.9747268592248
 51
336.9559924049754
  0
ARC
  5
C7
  8
0
  6
CONTINUOUS
 62
     7
 10
-525.5785440602917
 20
87.4810678313056
 30
0.0
 40
5.500000000000011
 50
107.3414428027595
 51
156.9559924049754
  0
LINE
  5
C8
  8
0
  6
CONTINUOUS
 62
     7
 10
-523.9391844292164
 20
92.73106783130561
 30
0.0
 11
-527.2179036913672
 21
92.73106783130561
 31
0.0
  0
ARC
  5
C9
  8
0
  6
CONTINUOUS
 62
     7
 10
-525.578544060292
 20
87.4810678313056
 30
0.0
 40
5.500000000000011
 50
23.04400759502471
 51
72.6585571972405
  0
ARC
  5
CA
  8
0
  6
CONTINUOUS
 62
     7
 10
-515.9163971232059
 20
91.59116716905393
 30
0.0
 40
5.000000000000012
 50
203.0440075950246
 51
286.0252731407752
  0
ARC
  5
CB
  8
0
  6
CONTINUOUS
 62
     7
 10
-525.578544060292
 20
125.2310678313056
 30
0.0
 40
40.00000000000009
 50
286.0252731407751
 51
304.8499045790465
  0
ARC
  5
CC
  8
0
  6
CONTINUOUS
 62
     7
 10
-505.5785440602919
 20
96.50825459861545
 30
0.0
 40
5.000000000000016
 50
304.8499045790464
 51
0.0000000000001705
  0
LINE
  5
CD
  8
0
  6
CONTINUOUS
 62
     7
 10
-500.5785440602919
 20
161.9538810639957
 30
0.0
 11
-500.5785440602919
 21
96.50825459861547
 31
0.0
  0
ARC
  5
CE
  8
0
  6
CONTINUOUS
 62
     7
 10
-505.5785440602919
 20
161.9538810639958
 30
0.0
 40
5.000000000000016
 50
359.9999999999998
 51
55.15009542095362
  0
ARC
  5
CF
  8
0
  6
CONTINUOUS
 62
     7
 10
-525.578544060292
 20
133.2310678313056
 30
0.0
 40
40.0000000000001
 50
55.15009542095351
 51
73.97472685922486
  0
ARC
  5
D0
  8
0
  6
CONTINUOUS
 62
     7
 10
-515.9163971232059
 20
166.8709684935573
 30
0.0
 40
5.000000000000012
 50
73.9747268592248
 51
156.9559924049754
  0
ARC
  5
D1
  8
0
  6
CONTINUOUS
 62
     7
 10
-525.578544060292
 20
170.9810678313056
 30
0.0
 40
5.500000000000024
 50
287.3414428027595
 51
336.9559924049753
  0
LINE
  5
D2
  8
0
  6
CONTINUOUS
 62
     7
 10
-523.9391844292164
 20
165.7310678313056
 30
0.0
 11
-527.2179036913672
 21
165.7310678313056
 31
0.0
  0
CIRCLE
  5
D3
  8
0
  6
CONTINUOUS
 62
     7
 10
-525.5785440602918
 20
170.9810678313056
 30
0.0
 40
2.250000000000002
  0
CIRCLE
  5
D4
  8
0
  6
CONTINUOUS
 62
     7
 10
-525.5785440602918
 20
87.4810678313056
 30
0.0
 40
2.250000000000002
  0
LINE
  5
D5
  8
0
  6
CONTINUOUS
 62
     7
 10
-502.0785440602917
 20
132.3310678313056
 30
0.0
 11
-502.0785440602917
 21
130.8310678313056
 31
0.0
  0
LINE
  5
D6
  8
0
  6
CONTINUOUS
 62
     7
 10
-500.5785440602918
 20
132.3310678313056
 30
0.0
 11
-502.0785440602917
 21
132.3310678313056
 31
0.0
  0
LINE
  5
D7
  8
0
  6
CONTINUOUS
 62
     7
 10
-502.0785440602917
 20
130.8310678313056
 30
0.0
 11
-500.5785440602917
 21
130.8310678313056
 31
0.0
  0
LINE
  5
D8
  8
0
  6
CONTINUOUS
 62
     7
 10
-500.5785440602918
 20
126.1310678313056
 30
0.0
 11
-502.0785440602917
 21
126.1310678313056
 31
0.0
  0
LINE
  5
D9
  8
0
  6
CONTINUOUS
 62
     7
 10
-502.0785440602917
 20
127.6310678313056
 30
0.0
 11
-500.5785440602917
 21
127.6310678313056
 31
0.0
  0
LINE
  5
DA
  8
0
  6
CONTINUOUS
 62
     7
 10
-502.0785440602917
 20
126.1310678313056
 30
0.0
 11
-502.0785440602917
 21
127.6310678313056
 31
0.0
  0
LINE
  5
DB
  8
0
  6
CONTINUOUS
 62
     7
 10
-550.5785440602918
 20
132.3310678313056
 30
0.0
 11
-549.0785440602918
 21
132.3310678313056
 31
0.0
  0
LINE
  5
DC
  8
0
  6
CONTINUOUS
 62
     7
 10
-549.0785440602917
 20
132.3310678313056
 30
0.0
 11
-549.0785440602917
 21
130.8310678313056
 31
0.0
  0
LINE
  5
DD
  8
0
  6
CONTINUOUS
 62
     7
 10
-549.0785440602917
 20
130.8310678313056
 30
0.0
 11
-550.5785440602917
 21
130.8310678313056
 31
0.0
  0
LINE
  5
DE
  8
0
  6
CONTINUOUS
 62
     7
 10
-549.0785440602917
 20
126.1310678313056
 30
0.0
 11
-549.0785440602917
 21
127.6310678313056
 31
0.0
  0
LINE
  5
DF
  8
0
  6
CONTINUOUS
 62
     7
 10
-550.5785440602918
 20
126.1310678313056
 30
0.0
 11
-549.0785440602918
 21
126.1310678313056
 31
0.0
  0
LINE
  5
E0
  8
0
  6
CONTINUOUS
 62
     7
 10
-549.0785440602917
 20
127.6310678313056
 30
0.0
 11
-550.5785440602917
 21
127.6310678313056
 31
0.0
  0
LINE
  5
E1
  8
0
  6
CONTINUOUS
 62
     9
 10
-559.1137278187797
 20
128.2310678313056
 30
0.0
 11
-559.1137278187797
 21
130.2310678313056
 31
0.0
  0
LINE
  5
E2
  8
0
  6
CONTINUOUS
 62
     9
 10
-492.0433603018039
 20
130.2310678313056
 30
0.0
 11
-492.0433603018039
 21
128.2310678313056
 31
0.0
  0
LINE
  5
E3
  8
0
  6
CONTINUOUS
 62
     9
 10
-492.0433603018039
 20
157.2310678313056
 30
0.0
 11
-492.0433603018039
 21
155.2310678313056
 31
0.0
  0
LINE
  5
E4
  8
0
  6
CONTINUOUS
 62
     9
 10
-559.1137278187797
 20
155.2310678313056
 30
0.0
 11
-559.1137278187797
 21
157.2310678313056
 31
0.0
  0
LINE
  5
E5
  8
0
  6
CONTINUOUS
 62
     9
 10
-492.0433603018038
 20
103.2310678313056
 30
0.0
 11
-492.0433603018038
 21
101.2310678313055
 31
0.0
  0
LINE
  5
E6
  8
0
  6
CONTINUOUS
 62
     9
 10
-559.1137278187797
 20
101.2310678313055
 30
0.0
 11
-559.1137278187797
 21
103.2310678313056
 31
0.0
  0
ARC
  5
E7
  8
0
  6
CONTINUOUS
 62
     7
 10
-549.5132539219375
 20
81.02575316196534
 30
0.0
 40
1.000000000000001
 50
186.8260681728336
 51
243.5948662149995
  0
ARC
  5
E8
  8
0
  6
CONTINUOUS
 62
     7
 10
-554.9742673613404
 20
80.37204664168105
 30
0.0
 40
4.499999999999997
 50
6.826068172832948
 51
295.6058180370452
  0
ARC
  5
E9
  8
0
  6
CONTINUOUS
 62
     7
 10
-552.5972920894149
 20
75.41220908822676
 30
0.0
 40
1.000000000000011
 50
63.34191961450465
 51
115.605818037045
  0
ARC
  5
EA
  8
0
  6
CONTINUOUS
 62
     7
 10
-525.5785440602918
 20
129.2310678313057
 30
0.0
 40
59.22028147948764
 50
249.7165478213171
 51
250.0481938173507
  0
ARC
  5
EB
  8
0
  6
CONTINUOUS
 62
     7
 10
-525.5785440602918
 20
129.2310678313057
 30
0.0
 40
59.22028147948764
 50
243.3419196145067
 51
244.3480653775609
  0
ARC
  5
EC
  8
0
  6
CONTINUOUS
 62
     7
 10
-545.035552393569
 20
75.63314504768678
 30
0.0
 40
2.200000000000011
 50
250.0481938173514
 51
70.04819381735041
  0
ARC
  5
ED
  8
0
  6
CONTINUOUS
 62
     7
 10
-525.5785440602918
 20
129.2310678313057
 30
0.0
 40
54.82028147948762
 50
243.5948662149992
 51
244.2424021269159
  0
ARC
  5
EE
  8
0
  6
CONTINUOUS
 62
     7
 10
-525.5785440602918
 20
129.2310678313057
 30
0.0
 40
54.82028147948763
 50
249.8222110719622
 51
250.0481938173507
  0
ARC
  5
EF
  8
0
  6
CONTINUOUS
 62
     7
 10
-501.643834198646
 20
177.4363825006459
 30
0.0
 40
0.999999999999987
 50
6.826068172833567
 51
63.59486621499947
  0
ARC
  5
F0
  8
0
  6
CONTINUOUS
 62
     7
 10
-496.1828207592432
 20
178.0900890209302
 30
0.0
 40
4.499999999999984
 50
186.826068172833
 51
115.6058180370453
  0
ARC
  5
F1
  8
0
  6
CONTINUOUS
 62
     7
 10
-498.5597960311686
 20
183.0499265743844
 30
0.0
 40
1.000000000000008
 50
243.3419196145046
 51
295.605818037045
  0
ARC
  5
F2
  8
0
  6
CONTINUOUS
 62
     7
 10
-525.5785440602918
 20
129.2310678313055
 30
0.0
 40
59.22028147948764
 50
69.71654782131702
 51
70.0481938173507
  0
ARC
  5
F3
  8
0
  6
CONTINUOUS
 62
     7
 10
-525.5785440602918
 20
129.2310678313055
 30
0.0
 40
59.22028147948764
 50
63.34191961450676
 51
64.34806537756117
  0
ARC
  5
F4
  8
0
  6
CONTINUOUS
 62
     7
 10
-506.1215357270145
 20
182.8289906149244
 30
0.0
 40
2.200000000000011
 50
70.04819381735138
 51
250.0481938173504
  0
ARC
  5
F5
  8
0
  6
CONTINUOUS
 62
     7
 10
-525.5785440602918
 20
129.2310678313055
 30
0.0
 40
54.82028147948762
 50
63.59486621499917
 51
64.28261720258554
  0
ARC
  5
F6
  8
0
  6
CONTINUOUS
 62
     7
 10
-525.5785440602918
 20
129.2310678313055
 30
0.0
 40
54.82028147948763
 50
69.82221107196226
 51
70.04819381735068
  0
LINE
  5
F7
  8
0
  6
CONTINUOUS
 62
     7
 10
-493.5785440602917
 20
188.7310678313056
 30
0.0
 11
-524.8285440602916
 21
188.7310678313056
 31
0.0
  0
ARC
  5
F8
  8
0
  6
CONTINUOUS
 62
     7
 10
-493.5785440602918
 20
184.7310678313056
 30
0.0
 40
4.000000000000004
 50
0.0000000000001988
 51
89.99999999999982
  0
LINE
  5
F9
  8
0
  6
CONTINUOUS
 62
     7
 10
-489.5785440602917
 20
129.9810678313056
 30
0.0
 11
-489.5785440602917
 21
184.7310678313056
 31
0.0
  0
LINE
  5
FA
  8
0
  6
CONTINUOUS
 62
     7
 10
-489.2785440602917
 20
129.9810678313056
 30
0.0
 11
-489.5785440602917
 21
129.9810678313056
 31
0.0
  0
LINE
  5
FB
  8
0
  6
CONTINUOUS
 62
     7
 10
-489.2785440602917
 20
128.4810678313056
 30
0.0
 11
-489.2785440602917
 21
129.9810678313056
 31
0.0
  0
LINE
  5
FC
  8
0
  6
CONTINUOUS
 62
     7
 10
-489.2785440602917
 20
128.4810678313056
 30
0.0
 11
-489.5785440602917
 21
128.4810678313056
 31
0.0
  0
LINE
  5
FD
  8
0
  6
CONTINUOUS
 62
     7
 10
-489.5785440602917
 20
128.4810678313056
 30
0.0
 11
-489.5785440602917
 21
73.73106783130561
 31
0.0
  0
ARC
  5
FE
  8
0
  6
CONTINUOUS
 62
     7
 10
-493.5785440602918
 20
73.73106783130562
 30
0.0
 40
4.000000000000004
 50
270.0000000000002
 51
359.9999999999998
  0
LINE
  5
FF
  8
0
  6
CONTINUOUS
 62
     7
 10
-493.5785440602917
 20
69.73106783130561
 30
0.0
 11
-524.8285440602916
 21
69.73106783130561
 31
0.0
  0
LINE
  5
100
  8
0
  6
CONTINUOUS
 62
     7
 10
-524.8285440602917
 20
69.73106783130561
 30
0.0
 11
-524.8285440602917
 21
69.43106783130564
 31
0.0
  0
LINE
  5
101
  8
0
  6
CONTINUOUS
 62
     7
 10
-526.3285440602918
 20
69.43106783130564
 30
0.0
 11
-524.8285440602917
 21
69.43106783130564
 31
0.0
  0
LINE
  5
102
  8
0
  6
CONTINUOUS
 62
     7
 10
-526.3285440602918
 20
69.73106783130561
 30
0.0
 11
-526.3285440602918
 21
69.43106783130564
 31
0.0
  0
LINE
  5
103
  8
0
  6
CONTINUOUS
 62
     7
 10
-557.5785440602918
 20
69.73106783130561
 30
0.0
 11
-526.3285440602918
 21
69.73106783130561
 31
0.0
  0
ARC
  5
104
  8
0
  6
CONTINUOUS
 62
     7
 10
-557.5785440602918
 20
73.73106783130562
 30
0.0
 40
3.999999999999996
 50
180.0000000000002
 51
269.9999999999998
  0
LINE
  5
105
  8
0
  6
CONTINUOUS
 62
     7
 10
-561.5785440602918
 20
128.4810678313056
 30
0.0
 11
-561.5785440602918
 21
73.73106783130561
 31
0.0
  0
LINE
  5
106
  8
0
  6
CONTINUOUS
 62
     7
 10
-561.8785440602918
 20
128.4810678313056
 30
0.0
 11
-561.5785440602918
 21
128.4810678313056
 31
0.0
  0
LINE
  5
107
  8
0
  6
CONTINUOUS
 62
     7
 10
-561.8785440602918
 20
128.4810678313056
 30
0.0
 11
-561.8785440602918
 21
129.9810678313056
 31
0.0
  0
LINE
  5
108
  8
0
  6
CONTINUOUS
 62
     7
 10
-561.8785440602918
 20
129.9810678313056
 30
0.0
 11
-561.5785440602918
 21
129.9810678313056
 31
0.0
  0
LINE
  5
109
  8
0
  6
CONTINUOUS
 62
     7
 10
-561.5785440602918
 20
129.9810678313056
 30
0.0
 11
-561.5785440602918
 21
184.7310678313056
 31
0.0
  0
ARC
  5
10A
  8
0
  6
CONTINUOUS
 62
     7
 10
-557.5785440602918
 20
184.7310678313056
 30
0.0
 40
3.999999999999996
 50
90.00000000000021
 51
179.9999999999998
  0
LINE
  5
10B
  8
0
  6
CONTINUOUS
 62
     7
 10
-557.5785440602918
 20
188.7310678313056
 30
0.0
 11
-526.3285440602918
 21
188.7310678313056
 31
0.0
  0
LINE
  5
10C
  8
0
  6
CONTINUOUS
 62
     7
 10
-526.3285440602918
 20
188.7310678313056
 30
0.0
 11
-526.3285440602918
 21
189.0310678313056
 31
0.0
  0
LINE
  5
10D
  8
0
  6
CONTINUOUS
 62
     7
 10
-526.3285440602918
 20
189.0310678313056
 30
0.0
 11
-524.8285440602917
 21
189.0310678313056
 31
0.0
  0
LINE
  5
10E
  8
0
  6
CONTINUOUS
 62
     7
 10
-524.8285440602917
 20
188.7310678313056
 30
0.0
 11
-524.8285440602917
 21
189.0310678313056
 31
0.0
  0
ARC
  5
10F
  8
0
  6
CONTINUOUS
 62
     7
 10
-556.2785440602354
 20
216.5310678304791
 30
0.0
 40
1.000000000000001
 50
90.00000000375128
 51
180.0000000035861
  0
ARC
  5
110
  8
0
  6
CONTINUOUS
 62
     7
 10
-529.8785440602479
 20
216.5310678321316
 30
0.0
 40
0.999999999999987
 50
0.0000000035868705
 51
90.000000003422
  0
LINE
  5
111
  8
0
  6
CONTINUOUS
 62
     7
 10
-530.0799249978404
 20
198.5404805298583
 30
0.0
 11
-530.0916704520635
 21
198.5387319185083
 31
0.0
  0
LINE
  5
112
  8
0
  6
CONTINUOUS
 62
     7
 10
-530.0950318181907
 20
198.5382411847463
 30
0.0
 11
-530.1471545283309
 21
198.531172498977
 31
0.0
  0
LINE
  5
113
  8
0
  6
CONTINUOUS
 62
     7
 10
-528.257223716647
 20
215.9097474886735
 30
0.0
 11
-528.8785440602453
 21
216.5310678321943
 31
0.0
  0
LINE
  5
114
  8
0
  6
CONTINUOUS
 62
     7
 10
-527.378544059119
 20
198.5310678322888
 30
0.0
 11
-527.378544060074
 21
213.788427145169
 31
0.0
  0
ARC
  5
115
  8
0
  6
CONTINUOUS
 62
     7
 10
-530.378544060076
 20
213.7884271449812
 30
0.0
 40
3.000000000000003
 50
0.0000000035866055
 51
45.00000000355536
  0
LINE
  5
116
  8
0
  6
CONTINUOUS
 62
     7
 10
-556.2559044525631
 20
198.5310899101112
 30
0.0
 11
-556.3060424076443
 21
198.537311573127
 31
0.0
  0
LINE
  5
117
  8
0
  6
CONTINUOUS
 62
     7
 10
-557.278544060238
 20
216.5310678304165
 30
0.0
 11
-557.8998644037586
 21
215.909747486818
 31
0.0
  0
LINE
  5
118
  8
0
  6
CONTINUOUS
 62
     7
 10
-558.7785440600659
 20
213.7884271432034
 30
0.0
 11
-558.7785440591109
 21
198.5310678303233
 31
0.0
  0
ARC
  5
119
  8
0
  6
CONTINUOUS
 62
     7
 10
-555.778544060064
 20
213.7884271433912
 30
0.0
 40
2.999999999999989
 50
135.0000000036178
 51
180.0000000035866
  0
ARC
  5
11A
  8
0
  6
CONTINUOUS
 62
     7
 10
-521.2785440602354
 20
216.5310678304791
 30
0.0
 40
1.000000000000001
 50
90.00000000375118
 51
180.0000000035861
  0
ARC
  5
11B
  8
0
  6
CONTINUOUS
 62
     7
 10
-494.8785440602479
 20
216.5310678321316
 30
0.0
 40
1.000000000000001
 50
0.0000000035868705
 51
90.00000000342189
  0
LINE
  5
11C
  8
0
  6
CONTINUOUS
 62
     7
 10
-495.0799249978404
 20
198.5404805298583
 30
0.0
 11
-495.0916704520636
 21
198.5387319185083
 31
0.0
  0
LINE
  5
11D
  8
0
  6
CONTINUOUS
 62
     7
 10
-495.0950318181907
 20
198.5382411847463
 30
0.0
 11
-495.1471545283309
 21
198.531172498977
 31
0.0
  0
LINE
  5
11E
  8
0
  6
CONTINUOUS
 62
     7
 10
-493.2572237166469
 20
215.9097474886735
 30
0.0
 11
-493.8785440602453
 21
216.5310678321943
 31
0.0
  0
LINE
  5
11F
  8
0
  6
CONTINUOUS
 62
     7
 10
-492.378544059119
 20
198.5310678322888
 30
0.0
 11
-492.378544060074
 21
213.788427145169
 31
0.0
  0
ARC
  5
120
  8
0
  6
CONTINUOUS
 62
     7
 10
-495.378544060076
 20
213.7884271449812
 30
0.0
 40
2.999999999999989
 50
0.0000000035866055
 51
45.00000000355538
  0
LINE
  5
121
  8
0
  6
CONTINUOUS
 62
     7
 10
-522.278544060238
 20
216.5310678304165
 30
0.0
 11
-522.8998644037586
 21
215.909747486818
 31
0.0
  0
ARC
  5
122
  8
0
  6
CONTINUOUS
 62
     7
 10
-520.778544060064
 20
213.7884271433912
 30
0.0
 40
2.999999999999999
 50
135.0000000036178
 51
180.0000000035866
  0
LINE
  5
123
  8
0
  6
CONTINUOUS
 62
     7
 10
-523.778544060066
 20
213.7884271432034
 30
0.0
 11
-523.7785440591109
 21
198.5310678303233
 31
0.0
  0
LINE
  5
124
  8
0
  6
CONTINUOUS
 62
     7
 10
-520.8785440602918
 20
198.5310678305048
 30
0.0
 11
-520.8785440602918
 21
188.7310678313056
 31
0.0
  0
LINE
  5
125
  8
0
  6
CONTINUOUS
 62
     7
 10
-495.2785440602918
 20
188.7310678313056
 30
0.0
 11
-495.2785440602918
 21
189.5239610501191
 31
0.0
  0
LINE
  5
126
  8
0
  6
CONTINUOUS
 62
     7
 10
-555.8785440602918
 20
189.5239610501191
 30
0.0
 11
-555.8785440602918
 21
188.7310678313056
 31
0.0
  0
LINE
  5
127
  8
0
  6
CONTINUOUS
 62
     7
 10
-530.2785440602918
 20
188.7310678313056
 30
0.0
 11
-530.2785440602918
 21
198.5310678321073
 31
0.0
  0
ARC
  5
128
  8
0
  6
CONTINUOUS
 62
     7
 10
-495.5785440602918
 20
193.6737085184249
 30
0.0
 40
2.999999999999999
 50
315.0000000000001
 51
0.0
  0
ARC
  5
129
  8
0
  6
CONTINUOUS
 62
     7
 10
-555.5785440602918
 20
193.6737085184249
 30
0.0
 40
3.000000000000003
 50
180.0
 51
225.0
  0
LINE
  5
12A
  8
0
  6
CONTINUOUS
 62
     7
 10
-558.5785440602917
 20
198.5310678313056
 30
0.0
 11
-558.5785440602917
 21
193.6737085184249
 31
0.0
  0
LINE
  5
12B
  8
0
  6
CONTINUOUS
 62
     7
 10
-492.5785440602918
 20
193.6737085184249
 30
0.0
 11
-492.5785440602918
 21
198.5310678313056
 31
0.0
  0
ARC
  5
12C
  8
0
  6
CONTINUOUS
 62
     7
 10
-494.7785440602918
 20
189.5239610501191
 30
0.0
 40
0.5000000000000004
 50
135.0
 51
180.0
  0
LINE
  5
12D
  8
0
  6
CONTINUOUS
 62
     7
 10
-557.6998644038514
 20
191.5523881748653
 30
0.0
 11
-556.0249906696986
 21
189.8775144407124
 31
0.0
  0
LINE
  5
12E
  8
0
  6
CONTINUOUS
 62
     7
 10
-495.1320974508851
 20
189.8775144407124
 30
0.0
 11
-493.4572237167321
 21
191.5523881748653
 31
0.0
  0
ARC
  5
12F
  8
0
  6
CONTINUOUS
 62
     7
 10
-556.3785440602917
 20
189.5239610501191
 30
0.0
 40
0.500000000000008
 50
0.0
 51
45.0
  0
ENDBLK
  8
0
  0
BLOCK
  8
0
  2
D_FRAME_VIEW_2359
 70
     0
 10
0.0
 20
0.0
 30
0.0
  0
LINE
  5
175
  8
0
  6
CONTINUOUS
 62
     7
 10
-544.451028189228
 20
31.23969094752714
 30
0.0
 11
-544.4882426578301
 21
31.23969094752714
 31
0.0
  0
LINE
  5
176
  8
0
  6
CONTINUOUS
 62
     7
 10
-551.1688454627534
 20
31.23969094752714
 30
0.0
 11
-551.2060599313555
 21
31.23969094752714
 31
0.0
  0
LINE
  5
177
  8
0
  6
CONTINUOUS
 62
     7
 10
-551.1616616864063
 20
31.32089524657149
 30
0.0
 11
-551.1688454627534
 21
31.23969094752714
 31
0.0
  0
LINE
  5
178
  8
0
  6
CONTINUOUS
 62
     7
 10
-544.4882426578301
 20
31.23969094752714
 30
0.0
 11
-544.4954264341773
 21
31.32089524657149
 31
0.0
  0
ARC
  5
179
  8
0
  6
CONTINUOUS
 62
     7
 10
-549.8686453136575
 20
31.20368179879929
 30
0.0
 40
1.298318270893318
 50
112.9119507901818
 51
174.8202280498845
  0
ARC
  5
17A
  8
0
  6
CONTINUOUS
 62
     7
 10
-545.7881280884015
 20
31.20391158093189
 30
0.0
 40
1.297984108092549
 50
5.170924513441935
 51
67.09689664649203
  0
LINE
  5
17B
  8
0
  6
CONTINUOUS
 62
     7
 10
-547.3285440602913
 20
32.55606242087634
 30
0.0
 11
-548.3285440602917
 21
32.55606242087637
 31
0.0
  0
LINE
  5
17C
  8
0
  6
CONTINUOUS
 62
     7
 10
-547.3285440602917
 20
32.84281518495999
 30
0.0
 11
-547.3285440602917
 21
32.5560624208764
 31
0.0
  0
LINE
  5
17D
  8
0
  6
CONTINUOUS
 62
     7
 10
-546.8285440602917
 20
32.84281518495999
 30
0.0
 11
-547.3285440602917
 21
32.84281518495999
 31
0.0
  0
ARC
  5
17E
  8
0
  6
CONTINUOUS
 62
     7
 10
-547.8285440602917
 20
26.43969094752714
 30
0.0
 40
6.480740698407851
 50
66.87190898975544
 51
81.12360491902666
  0
ARC
  5
17F
  8
0
  6
CONTINUOUS
 62
     7
 10
-547.8285440602917
 20
26.43969094752714
 30
0.0
 40
6.480740698407859
 50
98.87639508097337
 51
113.1280910102446
  0
LINE
  5
180
  8
0
  6
CONTINUOUS
 62
     7
 10
-548.3285440602917
 20
32.84281518495999
 30
0.0
 11
-548.8285440602917
 21
32.84281518495999
 31
0.0
  0
LINE
  5
181
  8
0
  6
CONTINUOUS
 62
     7
 10
-548.3285440602917
 20
32.55606242087636
 30
0.0
 11
-548.3285440602917
 21
32.84281518495999
 31
0.0
  0
ARC
  5
182
  8
0
  6
CONTINUOUS
 62
     7
 10
-556.4714814073792
 20
-14.90813374545352
 30
0.0
 40
2.753521224607458
 50
220.3611121447479
 51
268.2084854403631
  0
LINE
  5
183
  8
0
  6
CONTINUOUS
 62
     7
 10
-558.569604071234
 20
-16.69132201980449
 30
0.0
 11
-558.5994555718556
 21
-16.66030905247286
 31
0.0
  0
ARC
  5
184
  8
0
  6
CONTINUOUS
 62
     7
 10
-556.4470248627913
 20
-14.38490965731494
 30
0.0
 40
3.132155865343934
 50
185.0443293560465
 51
226.5907964046646
  0
LINE
  5
185
  8
0
  6
CONTINUOUS
 62
     7
 10
-559.5785440602917
 20
-13.56030905247287
 30
0.0
 11
-559.5156038976164
 21
-13.56030905247287
 31
0.0
  0
LINE
  5
186
  8
0
  6
CONTINUOUS
 62
     7
 10
-559.5156038976164
 20
-13.56030905247287
 30
0.0
 11
-559.5156038976164
 21
-11.36030905247286
 31
0.0
  0
LINE
  5
187
  8
0
  6
CONTINUOUS
 62
     7
 10
-559.5785440602917
 20
-11.36030905247286
 30
0.0
 11
-559.5156038976164
 21
-11.36030905247286
 31
0.0
  0
LINE
  5
188
  8
0
  6
CONTINUOUS
 62
     7
 10
-514.0785440602917
 20
-8.86030905247287
 30
0.0
 11
-505.0785440602917
 21
-8.86030905247287
 31
0.0
  0
CIRCLE
  5
189
  8
0
  6
CONTINUOUS
 62
     7
 10
-531.0785440602917
 20
6.839690947527135
 30
0.0
 40
13.54999999999999
  0
ARC
  5
18A
  8
0
  6
CONTINUOUS
 62
     7
 10
-548.6285440602918
 20
-21.24272164327196
 30
0.0
 40
3.878618306912383
 50
67.46283727193372
 51
112.5371627280663
  0
LINE
  5
18B
  8
0
  6
CONTINUOUS
 62
     7
 10
-492.5576325487313
 20
-16.66030905247641
 30
0.0
 11
-492.5874840493602
 21
-16.69132201981552
 31
0.0
  0
ARC
  5
18C
  8
0
  6
CONTINUOUS
 62
     7
 10
-494.6954162254399
 20
-14.88776491597499
 30
0.0
 40
2.774201918708509
 50
271.9808608245105
 51
319.4495415901057
  0
ARC
  5
18D
  8
0
  6
CONTINUOUS
 62
     7
 10
-494.7187899769557
 20
-14.38068769581827
 30
0.0
 40
3.141221889536202
 50
313.4719180842512
 51
354.8929561549593
  0
LINE
  5
18E
  8
0
  6
CONTINUOUS
 62
     7
 10
-491.5785440602918
 20
27.33969094752714
 30
0.0
 11
-491.5785440602918
 21
-16.66030905247286
 31
0.0
  0
ARC
  5
18F
  8
0
  6
CONTINUOUS
 62
     7
 10
-558.5785440602917
 20
-16.66030905247286
 30
0.0
 40
1.000000000000001
 50
180.0
 51
270.0
  0
ARC
  5
190
  8
0
  6
CONTINUOUS
 62
     7
 10
-492.5785440602918
 20
-16.66030905247286
 30
0.0
 40
1.000000000000001
 50
270.0
 51
0.0
  0
LINE
  5
191
  8
0
  6
CONTINUOUS
 62
     7
 10
-559.5785440602917
 20
18.33969094752716
 30
0.0
 11
-561.5785440602918
 21
18.33969094752716
 31
0.0
  0
LINE
  5
192
  8
0
  6
CONTINUOUS
 62
     7
 10
-491.5785440602918
 20
-6.060309052472859
 30
0.0
 11
-489.5785440602918
 21
-6.060309052472859
 31
0.0
  0
LINE
  5
193
  8
0
  6
CONTINUOUS
 62
     7
 10
-559.5785440602917
 20
-6.060309052472859
 30
0.0
 11
-561.5785440602918
 21
-6.060309052472859
 31
0.0
  0
LINE
  5
194
  8
0
  6
CONTINUOUS
 62
     7
 10
-491.5785440602918
 20
3.939690947527136
 30
0.0
 11
-489.5785440602918
 21
3.939690947527136
 31
0.0
  0
LINE
  5
195
  8
0
  6
CONTINUOUS
 62
     7
 10
-559.5785440602917
 20
3.939690947527136
 30
0.0
 11
-561.5785440602918
 21
3.939690947527136
 31
0.0
  0
LINE
  5
196
  8
0
  6
CONTINUOUS
 62
     7
 10
-559.5785440602917
 20
21.33969094752716
 30
0.0
 11
-561.5785440602918
 21
21.33969094752716
 31
0.0
  0
LINE
  5
197
  8
0
  6
CONTINUOUS
 62
     7
 10
-491.5785440602918
 20
21.33969094752715
 30
0.0
 11
-489.5785440602918
 21
21.33969094752715
 31
0.0
  0
LINE
  5
198
  8
0
  6
CONTINUOUS
 62
     7
 10
-491.5785440602918
 20
7.33969094752715
 30
0.0
 11
-489.5785440602918
 21
7.33969094752715
 31
0.0
  0
LINE
  5
199
  8
0
  6
CONTINUOUS
 62
     7
 10
-559.5785440602917
 20
7.33969094752715
 30
0.0
 11
-561.5785440602918
 21
7.33969094752715
 31
0.0
  0
LINE
  5
19A
  8
0
  6
CONTINUOUS
 62
     7
 10
-524.8285440602917
 20
29.83969094752714
 30
0.0
 11
-524.8285440602917
 21
27.33969094752714
 31
0.0
  0
LINE
  5
19B
  8
0
  6
CONTINUOUS
 62
     7
 10
-526.3285440602918
 20
29.83969094752714
 30
0.0
 11
-526.3285440602918
 21
27.33969094752714
 31
0.0
  0
LINE
  5
19C
  8
0
  6
CONTINUOUS
 62
     7
 10
-561.5785440602918
 20
29.83969094752714
 30
0.0
 11
-561.5785440602918
 21
27.33969094752714
 31
0.0
  0
LINE
  5
19D
  8
0
  6
CONTINUOUS
 62
     9
 10
-557.5785440602918
 20
29.83969094752714
 30
0.0
 11
-557.5785440602918
 21
27.33969094752714
 31
0.0
  0
LINE
  5
19E
  8
0
  6
CONTINUOUS
 62
     7
 10
-489.5785440602917
 20
29.83969094752714
 30
0.0
 11
-489.5785440602917
 21
27.33969094752714
 31
0.0
  0
LINE
  5
19F
  8
0
  6
CONTINUOUS
 62
     7
 10
-527.3278271137292
 20
29.83969094752728
 30
0.0
 11
-527.3278271137292
 21
40.33969094752712
 31
0.0
  0
LINE
  5
1A0
  8
0
  6
CONTINUOUS
 62
     7
 10
-523.8292610068544
 20
29.83969094752728
 30
0.0
 11
-523.8292610068544
 21
40.33969094752712
 31
0.0
  0
LINE
  5
1A1
  8
0
  6
CONTINUOUS
 62
     7
 10
-553.5785440602917
 20
29.83969094752728
 30
0.0
 11
-553.5785440602917
 21
40.33969094752712
 31
0.0
  0
LINE
  5
1A2
  8
0
  6
CONTINUOUS
 62
     7
 10
-497.5785440602918
 20
29.83969094752728
 30
0.0
 11
-497.5785440602918
 21
40.33969094752712
 31
0.0
  0
ARC
  5
1A3
  8
0
  6
CONTINUOUS
 62
     7
 10
-559.1137278187797
 20
30.83969094752714
 30
0.0
 40
1.000000000000006
 50
270.0
 51
326.3099324740203
  0
ARC
  5
1A4
  8
0
  6
CONTINUOUS
 62
     7
 10
-554.5785440602917
 20
37.64246658525911
 30
0.0
 40
1.000000000000001
 50
326.3099324740205
 51
0.0
  0
LINE
  5
1A5
  8
0
  6
CONTINUOUS
 62
     7
 10
-553.7464937659538
 20
37.0877663890339
 30
0.0
 11
-558.2816775244418
 21
30.28499075130191
 31
0.0
  0
LINE
  5
1A6
  8
0
  6
CONTINUOUS
 62
     7
 10
-492.8754105961417
 20
30.28499075130192
 30
0.0
 11
-497.4105943546296
 21
37.08776638903391
 31
0.0
  0
ARC
  5
1A7
  8
0
  6
CONTINUOUS
 62
     7
 10
-492.0433603018038
 20
30.83969094752714
 30
0.0
 40
1.000000000000001
 50
213.6900675259794
 51
270.0
  0
ARC
  5
1A8
  8
0
  6
CONTINUOUS
 62
     7
 10
-496.5785440602918
 20
37.64246658525913
 30
0.0
 40
0.9999999999999982
 50
180.0
 51
213.6900675259797
  0
LINE
  5
1A9
  8
0
  6
CONTINUOUS
 62
     7
 10
-561.8785440602918
 20
29.83969094752714
 30
0.0
 11
-561.8785440602918
 21
27.33969094752714
 31
0.0
  0
LINE
  5
1AA
  8
0
  6
CONTINUOUS
 62
     7
 10
-489.2785440602917
 20
29.83969094752714
 30
0.0
 11
-489.2785440602917
 21
27.33969094752714
 31
0.0
  0
LINE
  5
1AB
  8
0
  6
CONTINUOUS
 62
     7
 10
-544.3285440602917
 20
29.83969094752714
 30
0.0
 11
-544.451028189228
 21
31.23969094752714
 31
0.0
  0
LINE
  5
1AC
  8
0
  6
CONTINUOUS
 62
     7
 10
-551.2060599313555
 20
31.23969094752714
 30
0.0
 11
-551.3285440602918
 21
29.83969094752714
 31
0.0
  0
ENDBLK
  8
0
  0
BLOCK
  8
0
  2
D_FRAME_VIEW_2162
 70
     0
 10
0.0
 20
0.0
 30
0.0
  0
POLYLINE
  5
1B1
  8
0
  6
CONTINUOUS
 62
     7
 66
     1
 10
0.0
 20
0.0
 30
0.0
  0
VERTEX
  5
3FD
  8
0
  6
CONTINUOUS
 62
     7
 10
-407.893263763217
 20
216.5310678321756
 30
0.0
  0
VERTEX
  5
3FE
  8
0
  6
CONTINUOUS
 62
     7
 10
-407.8773732144708
 20
216.530791107279
 30
0.0
  0
VERTEX
  5
3FF
  8
0
  6
CONTINUOUS
 62
     7
 10
-407.8616085901452
 20
216.5299657916903
 30
0.0
  0
VERTEX
  5
400
  8
0
  6
CONTINUOUS
 62
     7
 10
-407.8460194462852
 20
216.5285991740607
 30
0.0
  0
VERTEX
  5
401
  8
0
  6
CONTINUOUS
 62
     7
 10
-407.8306553389359
 20
216.5266985430419
 30
0.0
  0
VERTEX
  5
402
  8
0
  6
CONTINUOUS
 62
     7
 10
-407.8149997108699
 20
216.5241733550129
 30
0.0
  0
VERTEX
  5
403
  8
0
  6
CONTINUOUS
 62
     7
 10
-407.7996135188543
 20
216.5210961471358
 30
0.0
  0
VERTEX
  5
404
  8
0
  6
CONTINUOUS
 62
     7
 10
-407.7845381719148
 20
216.517487966954
 30
0.0
  0
VERTEX
  5
405
  8
0
  6
CONTINUOUS
 62
     7
 10
-407.7698150790771
 20
216.5133698620111
 30
0.0
  0
VERTEX
  5
406
  8
0
  6
CONTINUOUS
 62
     7
 10
-407.751233732099
 20
216.5072786811116
 30
0.0
  0
VERTEX
  5
407
  8
0
  6
CONTINUOUS
 62
     7
 10
-407.7332527517065
 20
216.5003810504707
 30
0.0
  0
VERTEX
  5
408
  8
0
  6
CONTINUOUS
 62
     7
 10
-407.7159112877544
 20
216.4927354366118
 30
0.0
  0
VERTEX
  5
409
  8
0
  6
CONTINUOUS
 62
     7
 10
-407.6992484900978
 20
216.4844003060583
 30
0.0
  0
VERTEX
  5
40A
  8
0
  6
CONTINUOUS
 62
     7
 10
-407.6833035085915
 20
216.4754341253336
 30
0.0
  0
VERTEX
  5
40B
  8
0
  6
CONTINUOUS
 62
     7
 10
-407.6681154930903
 20
216.465895360961
 30
0.0
  0
VERTEX
  5
40C
  8
0
  6
CONTINUOUS
 62
     7
 10
-407.6527929357965
 20
216.4551758173248
 30
0.0
  0
VERTEX
  5
40D
  8
0
  6
CONTINUOUS
 62
     7
 10
-407.6382525386243
 20
216.4438794890006
 30
0.0
  0
VERTEX
  5
40E
  8
0
  6
CONTINUOUS
 62
     7
 10
-407.6244994258994
 20
216.4320631396542
 30
0.0
  0
VERTEX
  5
40F
  8
0
  6
CONTINUOUS
 62
     7
 10
-407.6115387219474
 20
216.4197835329515
 30
0.0
  0
VERTEX
  5
410
  8
0
  6
CONTINUOUS
 62
     7
 10
-407.5950183534169
 20
216.4022534940223
 30
0.0
  0
VERTEX
  5
411
  8
0
  6
CONTINUOUS
 62
     7
 10
-407.5798941469039
 20
216.3839914263141
 30
0.0
  0
VERTEX
  5
412
  8
0
  6
CONTINUOUS
 62
     7
 10
-407.5661473435973
 20
216.3651051879169
 30
0.0
  0
VERTEX
  5
413
  8
0
  6
CONTINUOUS
 62
     7
 10
-407.5534629755056
 20
216.3452101190207
 30
0.0
  0
VERTEX
  5
414
  8
0
  6
CONTINUOUS
 62
     7
 10
-407.5421194254376
 20
216.3247818828982
 30
0.0
  0
VERTEX
  5
415
  8
0
  6
CONTINUOUS
 62
     7
 10
-407.5320886243264
 20
216.3038997047624
 30
0.0
  0
VERTEX
  5
416
  8
0
  6
CONTINUOUS
 62
     7
 10
-407.5233425031055
 20
216.282642809826
 30
0.0
  0
VERTEX
  5
417
  8
0
  6
CONTINUOUS
 62
     7
 10
-407.5133641149005
 20
216.2529595355259
 30
0.0
  0
VERTEX
  5
418
  8
0
  6
CONTINUOUS
 62
     7
 10
-407.5056333125787
 20
216.2227239604084
 30
0.0
  0
VERTEX
  5
419
  8
0
  6
CONTINUOUS
 62
     7
 10
-407.5000909553382
 20
216.1920754977665
 30
0.0
  0
VERTEX
  5
41A
  8
0
  6
CONTINUOUS
 62
     7
 10
-407.4964926144683
 20
216.1586393763924
 30
0.0
  0
VERTEX
  5
41B
  8
0
  6
CONTINUOUS
 62
     7
 10
-407.4953045795436
 20
216.1249047494658
 30
0.0
  0
SEQEND
  5
479
  8
0
  6
CONTINUOUS
 62
     7
  0
LINE
  5
1B2
  8
0
  6
CONTINUOUS
 62
     7
 10
-407.8932637632175
 20
216.5310678313053
 30
0.0
 11
-403.5463249877077
 21
216.5310678313053
 31
0.0
  0
POLYLINE
  5
1B3
  8
0
  6
CONTINUOUS
 62
     7
 66
     1
 10
0.0
 20
0.0
 30
0.0
  0
VERTEX
  5
41C
  8
0
  6
CONTINUOUS
 62
     7
 10
-403.9953045795444
 20
216.0736465037606
 30
0.0
  0
VERTEX
  5
41D
  8
0
  6
CONTINUOUS
 62
     7
 10
-403.994529242482
 20
216.10136381476
 30
0.0
  0
VERTEX
  5
41E
  8
0
  6
CONTINUOUS
 62
     7
 10
-403.9921922773457
 20
216.129005806724
 30
0.0
  0
VERTEX
  5
41F
  8
0
  6
CONTINUOUS
 62
     7
 10
-403.9882772532115
 20
216.1565020223325
 30
0.0
  0
VERTEX
  5
420
  8
0
  6
CONTINUOUS
 62
     7
 10
-403.9827677391555
 20
216.1837820042655
 30
0.0
  0
VERTEX
  5
421
  8
0
  6
CONTINUOUS
 62
     7
 10
-403.975398716458
 20
216.211610945732
 30
0.0
  0
VERTEX
  5
422
  8
0
  6
CONTINUOUS
 62
     7
 10
-403.966262590884
 20
216.2391437478151
 30
0.0
  0
VERTEX
  5
423
  8
0
  6
CONTINUOUS
 62
     7
 10
-403.9553252484748
 20
216.26627644575
 30
0.0
  0
VERTEX
  5
424
  8
0
  6
CONTINUOUS
 62
     7
 10
-403.9425525752717
 20
216.2929050747724
 30
0.0
  0
VERTEX
  5
425
  8
0
  6
CONTINUOUS
 62
     7
 10
-403.929878504092
 20
216.3156446251024
 30
0.0
  0
VERTEX
  5
426
  8
0
  6
CONTINUOUS
 62
     7
 10
-403.915681286855
 20
216.3379516762495
 30
0.0
  0
VERTEX
  5
427
  8
0
  6
CONTINUOUS
 62
     7
 10
-403.8999403577662
 20
216.3597047492436
 30
0.0
  0
VERTEX
  5
428
  8
0
  6
CONTINUOUS
 62
     7
 10
-403.8826351510309
 20
216.3807823651146
 30
0.0
  0
VERTEX
  5
429
  8
0
  6
CONTINUOUS
 62
     7
 10
-403.8637451008541
 20
216.4010630448924
 30
0.0
  0
VERTEX
  5
42A
  8
0
  6
CONTINUOUS
 62
     7
 10
-403.8432496414415
 20
216.4204253096067
 30
0.0
  0
VERTEX
  5
42B
  8
0
  6
CONTINUOUS
 62
     7
 10
-403.826889999701
 20
216.4342074100126
 30
0.0
  0
VERTEX
  5
42C
  8
0
  6
CONTINUOUS
 62
     7
 10
-403.8095766723255
 20
216.4473845053562
 30
0.0
  0
VERTEX
  5
42D
  8
0
  6
CONTINUOUS
 62
     7
 10
-403.7913231179399
 20
216.4598767490313
 30
0.0
  0
VERTEX
  5
42E
  8
0
  6
CONTINUOUS
 62
     7
 10
-403.7766451992526
 20
216.4689731326698
 30
0.0
  0
VERTEX
  5
42F
  8
0
  6
CONTINUOUS
 62
     7
 10
-403.7613928407307
 20
216.4776029732502
 30
0.0
  0
VERTEX
  5
430
  8
0
  6
CONTINUOUS
 62
     7
 10
-403.7455887009389
 20
216.4857224030856
 30
0.0
  0
VERTEX
  5
431
  8
0
  6
CONTINUOUS
 62
     7
 10
-403.729255438442
 20
216.4932875544891
 30
0.0
  0
VERTEX
  5
432
  8
0
  6
CONTINUOUS
 62
     7
 10
-403.7115853551526
 20
216.5005796484323
 30
0.0
  0
VERTEX
  5
433
  8
0
  6
CONTINUOUS
 62
     7
 10
-403.6933466835456
 20
216.507192840243
 30
0.0
  0
VERTEX
  5
434
  8
0
  6
CONTINUOUS
 62
     7
 10
-403.6745937356108
 20
216.5130751490443
 30
0.0
  0
VERTEX
  5
435
  8
0
  6
CONTINUOUS
 62
     7
 10
-403.6598092416413
 20
216.5170821306187
 30
0.0
  0
VERTEX
  5
436
  8
0
  6
CONTINUOUS
 62
     7
 10
-403.6447394140188
 20
216.5206181422765
 30
0.0
  0
VERTEX
  5
437
  8
0
  6
CONTINUOUS
 62
     7
 10
-403.6294231914245
 20
216.5236640847327
 30
0.0
  0
VERTEX
  5
438
  8
0
  6
CONTINUOUS
 62
     7
 10
-403.6138995125398
 20
216.5262008587027
 30
0.0
  0
VERTEX
  5
439
  8
0
  6
CONTINUOUS
 62
     7
 10
-403.5972479180523
 20
216.5283166200014
 30
0.0
  0
VERTEX
  5
43A
  8
0
  6
CONTINUOUS
 62
     7
 10
-403.5803950597223
 20
216.5298390536164
 30
0.0
  0
VERTEX
  5
43B
  8
0
  6
CONTINUOUS
 62
     7
 10
-403.5634007965932
 20
216.5307591331463
 30
0.0
  0
VERTEX
  5
43C
  8
0
  6
CONTINUOUS
 62
     7
 10
-403.5463249877077
 20
216.5310678321896
 30
0.0
  0
SEQEND
  5
47A
  8
0
  6
CONTINUOUS
 62
     7
  0
LINE
  5
1B4
  8
0
  6
CONTINUOUS
 62
     7
 10
-418.1953045795432
 20
217.5310678313053
 30
0.0
 11
-391.7953045795452
 21
217.5310678313053
 31
0.0
  0
LINE
  5
1B5
  8
0
  6
CONTINUOUS
 62
     7
 10
-431.8953045795441
 20
77.23106783130562
 30
0.0
 11
-431.8953045795441
 21
76.23106783130562
 31
0.0
  0
LINE
  5
1B6
  8
0
  6
CONTINUOUS
 62
     7
 10
-433.2116760528933
 20
78.93106783130561
 30
0.0
 11
-433.2116760528933
 21
78.87349635986847
 31
0.0
  0
LINE
  5
1B7
  8
0
  6
CONTINUOUS
 62
     7
 10
-433.4984288169769
 20
77.73106783130562
 30
0.0
 11
-433.4984288169769
 21
77.23106783130562
 31
0.0
  0
ARC
  5
1B8
  8
0
  6
CONTINUOUS
 62
     7
 10
-427.095304579544
 20
76.73106783130562
 30
0.0
 40
6.480740698407862
 50
160.6957803932084
 51
171.1236049190266
  0
LINE
  5
1B9
  8
0
  6
CONTINUOUS
 62
     7
 10
-433.211676052893
 20
74.58863930274286
 30
0.0
 11
-433.211676052893
 21
74.5310678313056
 31
0.0
  0
ARC
  5
1BA
  8
0
  6
CONTINUOUS
 62
     7
 10
-427.095304579544
 20
76.73106783130562
 30
0.0
 40
6.480740698407859
 50
188.8763950809733
 51
199.3042196067905
  0
LINE
  5
1BB
  8
0
  6
CONTINUOUS
 62
     7
 10
-433.4984288169769
 20
76.23106783130562
 30
0.0
 11
-433.4984288169769
 21
75.73106783130562
 31
0.0
  0
LINE
  5
1BC
  8
0
  6
CONTINUOUS
 62
     7
 10
-431.8953045795441
 20
182.2310678313056
 30
0.0
 11
-431.8953045795441
 21
181.2310678313056
 31
0.0
  0
LINE
  5
1BD
  8
0
  6
CONTINUOUS
 62
     7
 10
-433.2116760528933
 20
183.9310678313056
 30
0.0
 11
-433.2116760528933
 21
183.8734963598685
 31
0.0
  0
LINE
  5
1BE
  8
0
  6
CONTINUOUS
 62
     7
 10
-433.4984288169769
 20
182.7310678313056
 30
0.0
 11
-433.4984288169769
 21
182.2310678313056
 31
0.0
  0
ARC
  5
1BF
  8
0
  6
CONTINUOUS
 62
     7
 10
-427.095304579544
 20
181.7310678313056
 30
0.0
 40
6.480740698407867
 50
160.6957803932084
 51
171.1236049190266
  0
LINE
  5
1C0
  8
0
  6
CONTINUOUS
 62
     7
 10
-433.211676052893
 20
179.5886393027428
 30
0.0
 11
-433.211676052893
 21
179.5310678313056
 31
0.0
  0
ARC
  5
1C1
  8
0
  6
CONTINUOUS
 62
     7
 10
-427.095304579544
 20
181.7310678313056
 30
0.0
 40
6.480740698407859
 50
188.8763950809733
 51
199.3042196067905
  0
LINE
  5
1C2
  8
0
  6
CONTINUOUS
 62
     7
 10
-433.4984288169769
 20
181.2310678313056
 30
0.0
 11
-433.4984288169769
 21
180.7310678313056
 31
0.0
  0
LINE
  5
1C3
  8
0
  6
CONTINUOUS
 62
     7
 10
-407.995304579544
 20
128.9810678313056
 30
0.0
 11
-407.995304579544
 21
129.4810678313056
 31
0.0
  0
ARC
  5
1C4
  8
0
  6
CONTINUOUS
 62
     7
 10
-408.4953045795441
 20
128.9810678313056
 30
0.0
 40
0.5000000000000004
 50
269.9999999999996
 51
0.0
  0
LINE
  5
1C5
  8
0
  6
CONTINUOUS
 62
     7
 10
-421.4953045795441
 20
128.4810678313056
 30
0.0
 11
-408.4953045795441
 21
128.4810678313056
 31
0.0
  0
ARC
  5
1C6
  8
0
  6
CONTINUOUS
 62
     7
 10
-421.4953045795441
 20
128.9810678313056
 30
0.0
 40
0.5000000000000004
 50
180.0
 51
269.9999999999984
  0
LINE
  5
1C7
  8
0
  6
CONTINUOUS
 62
     7
 10
-421.9953045795441
 20
129.4810678313056
 30
0.0
 11
-421.9953045795441
 21
128.9810678313056
 31
0.0
  0
ARC
  5
1C8
  8
0
  6
CONTINUOUS
 62
     7
 10
-421.4953045795441
 20
129.4810678313056
 30
0.0
 40
0.5000000000000004
 50
89.9999999999992
 51
180.0
  0
LINE
  5
1C9
  8
0
  6
CONTINUOUS
 62
     7
 10
-408.4953045795441
 20
129.9810678313056
 30
0.0
 11
-421.4953045795441
 21
129.9810678313056
 31
0.0
  0
ARC
  5
1CA
  8
0
  6
CONTINUOUS
 62
     7
 10
-408.4953045795441
 20
129.4810678313056
 30
0.0
 40
0.5000000000000004
 50
359.9999999999998
 51
89.9999999999992
  0
LINE
  5
1CB
  8
0
  6
CONTINUOUS
 62
     7
 10
-394.5953045795441
 20
178.7310678313056
 30
0.0
 11
-394.5953045795441
 21
179.2310678313056
 31
0.0
  0
ARC
  5
1CC
  8
0
  6
CONTINUOUS
 62
     7
 10
-395.0953045795441
 20
178.7310678313056
 30
0.0
 40
0.5000000000000004
 50
269.9999999999998
 51
0.0000000000015916
  0
LINE
  5
1CD
  8
0
  6
CONTINUOUS
 62
     7
 10
-404.0953045795441
 20
178.2310678313056
 30
0.0
 11
-395.0953045795441
 21
178.2310678313056
 31
0.0
  0
ARC
  5
1CE
  8
0
  6
CONTINUOUS
 62
     7
 10
-404.0953045795441
 20
178.7310678313056
 30
0.0
 40
0.5000000000000004
 50
180.0000000000016
 51
270.0
  0
LINE
  5
1CF
  8
0
  6
CONTINUOUS
 62
     7
 10
-404.5953045795441
 20
179.2310678313056
 30
0.0
 11
-404.5953045795441
 21
178.7310678313056
 31
0.0
  0
ARC
  5
1D0
  8
0
  6
CONTINUOUS
 62
     7
 10
-404.0953045795441
 20
179.2310678313056
 30
0.0
 40
0.5000000000000004
 50
89.99999999999962
 51
179.9999999999984
  0
LINE
  5
1D1
  8
0
  6
CONTINUOUS
 62
     7
 10
-395.0953045795441
 20
179.7310678313056
 30
0.0
 11
-404.0953045795441
 21
179.7310678313056
 31
0.0
  0
ARC
  5
1D2
  8
0
  6
CONTINUOUS
 62
     7
 10
-395.0953045795441
 20
179.2310678313056
 30
0.0
 40
0.5000000000000004
 50
359.9999999999985
 51
90.00000000000021
  0
LINE
  5
1D3
  8
0
  6
CONTINUOUS
 62
     7
 10
-404.5953045795441
 20
79.23106783130558
 30
0.0
 11
-404.5953045795441
 21
79.7310678313056
 31
0.0
  0
ARC
  5
1D4
  8
0
  6
CONTINUOUS
 62
     7
 10
-395.0953045795441
 20
79.23106783130558
 30
0.0
 40
0.5000000000000004
 50
269.9999999999998
 51
0.0000000000015916
  0
LINE
  5
1D5
  8
0
  6
CONTINUOUS
 62
     7
 10
-394.5953045795441
 20
79.73106783130558
 30
0.0
 11
-394.5953045795441
 21
79.2310678313056
 31
0.0
  0
ARC
  5
1D6
  8
0
  6
CONTINUOUS
 62
     7
 10
-395.0953045795441
 20
79.7310678313056
 30
0.0
 40
0.5000000000000004
 50
359.9999999999985
 51
90.00000000000021
  0
LINE
  5
1D7
  8
0
  6
CONTINUOUS
 62
     7
 10
-404.0953045795441
 20
80.23106783130558
 30
0.0
 11
-395.0953045795441
 21
80.2310678313056
 31
0.0
  0
ARC
  5
1D8
  8
0
  6
CONTINUOUS
 62
     7
 10
-404.0953045795441
 20
79.73106783130558
 30
0.0
 40
0.5000000000000004
 50
90.0
 51
179.9999999999984
  0
ARC
  5
1D9
  8
0
  6
CONTINUOUS
 62
     7
 10
-404.0953045795441
 20
79.2310678313056
 30
0.0
 40
0.5000000000000004
 50
180.0000000000016
 51
270.0000000000005
  0
LINE
  5
1DA
  8
0
  6
CONTINUOUS
 62
     7
 10
-395.0953045795441
 20
78.7310678313056
 30
0.0
 11
-404.0953045795441
 21
78.7310678313056
 31
0.0
  0
ARC
  5
1DB
  8
0
  6
CONTINUOUS
 62
     7
 10
-380.9256592877588
 20
185.8712255903733
 30
0.0
 40
9.378480305864976
 50
237.2781298866264
 51
250.8945777403858
  0
LINE
  5
1DC
  8
0
  6
CONTINUOUS
 62
     7
 10
-383.7592366020443
 20
81.45280437481888
 30
0.0
 11
-383.995304579544
 21
81.45280437481888
 31
0.0
  0
ARC
  5
1DD
  8
0
  6
CONTINUOUS
 62
     7
 10
-380.7117077339305
 20
72.15056118290882
 30
0.0
 40
9.864772508576198
 50
109.4425114711947
 51
122.3847809017931
  0
LINE
  5
1DE
  8
0
  6
CONTINUOUS
 62
     7
 10
-383.995304579544
 20
177.0093312877923
 30
0.0
 11
-383.7592366020443
 21
177.0093312877923
 31
0.0
  0
LINE
  5
1DF
  8
0
  6
CONTINUOUS
 62
     7
 10
-389.2953045795441
 20
178.7682891886665
 30
0.0
 11
-389.2953045795441
 21
177.4810678313056
 31
0.0
  0
LINE
  5
1E0
  8
0
  6
CONTINUOUS
 62
     7
 10
-389.2953045795441
 20
177.4810678313056
 30
0.0
 11
-387.0953045795441
 21
177.4810678313056
 31
0.0
  0
LINE
  5
1E1
  8
0
  6
CONTINUOUS
 62
     7
 10
-387.0953045795441
 20
178.7682891886666
 30
0.0
 11
-387.0953045795441
 21
177.4810678313056
 31
0.0
  0
ARC
  5
1E2
  8
0
  6
CONTINUOUS
 62
     7
 10
-388.1953045795441
 20
180.7310678313056
 30
0.0
 40
2.249999999999995
 50
299.2675775975314
 51
60.73242240246918
  0
ARC
  5
1E3
  8
0
  6
CONTINUOUS
 62
     7
 10
-388.1953045795441
 20
180.7310678313056
 30
0.0
 40
2.250000000000005
 50
119.2675775975309
 51
240.7324224024692
  0
CIRCLE
  5
1E4
  8
0
  6
CONTINUOUS
 62
     7
 10
-388.1953045795441
 20
77.7310678313056
 30
0.0
 40
2.250000000000002
  0
CIRCLE
  5
1E5
  8
0
  6
CONTINUOUS
 62
     7
 10
-404.5953045795441
 20
101.7310678313056
 30
0.0
 40
13.54999999999999
  0
CIRCLE
  5
1E6
  8
0
  6
CONTINUOUS
 62
     7
 10
-404.5953045795441
 20
156.7310678313056
 30
0.0
 40
13.55000000000001
  0
LINE
  5
1E7
  8
0
  6
CONTINUOUS
 62
     7
 10
-387.0953045795441
 20
183.9810678313056
 30
0.0
 11
-389.2953045795441
 21
183.9810678313056
 31
0.0
  0
ARC
  5
1E8
  8
0
  6
CONTINUOUS
 62
     7
 10
-383.995304579544
 20
80.4810678313056
 30
0.0
 40
0.9999999999999977
 50
0.0
 51
76.34541525402487
  0
ARC
  5
1E9
  8
0
  6
CONTINUOUS
 62
     7
 10
-383.995304579544
 20
177.9810678313056
 30
0.0
 40
0.9999999999999977
 50
283.6545847459752
 51
0.0
  0
LINE
  5
1EA
  8
0
  6
CONTINUOUS
 62
     7
 10
-385.995304579544
 20
70.73106783130561
 30
0.0
 11
-427.995304579544
 21
70.73106783130561
 31
0.0
  0
LINE
  5
1EB
  8
0
  6
CONTINUOUS
 62
     7
 10
-383.9953045795405
 20
73.98151348665453
 30
0.0
 11
-383.9642916122014
 21
73.98154884906636
 31
0.0
  0
ARC
  5
1EC
  8
0
  6
CONTINUOUS
 62
     7
 10
-385.995304579544
 20
73.73106783130562
 30
0.0
 40
3.000000000000003
 50
269.9999999999999
 51
0.0
  0
ARC
  5
1ED
  8
0
  6
CONTINUOUS
 62
     7
 10
-382.8650456442186
 20
79.03602951396698
 30
0.0
 40
5.179345280171379
 50
232.8162285042975
 51
257.3952417426194
  0
ARC
  5
1EE
  8
0
  6
CONTINUOUS
 62
     7
 10
-382.9833882919901
 20
179.6811203960397
 30
0.0
 40
4.905017014082888
 50
101.9057450320392
 51
127.882784721117
  0
ARC
  5
1EF
  8
0
  6
CONTINUOUS
 62
     7
 10
-385.995304579544
 20
184.7310678313056
 30
0.0
 40
3.000000000000003
 50
0.0
 51
90.00000000000006
  0
LINE
  5
1F0
  8
0
  6
CONTINUOUS
 62
     7
 10
-383.9642916122124
 20
184.4805868135452
 30
0.0
 11
-383.9953045795441
 21
184.4806221759566
 31
0.0
  0
ARC
  5
1F1
  8
0
  6
CONTINUOUS
 62
     7
 10
-383.995304579544
 20
183.4810678313056
 30
0.0
 40
0.9999999999999991
 50
0.0
 51
88.22280289812471
  0
ARC
  5
1F2
  8
0
  6
CONTINUOUS
 62
     7
 10
-383.995304579544
 20
74.98106783130561
 30
0.0
 40
0.9999999999999941
 50
271.777197102507
 51
0.0
  0
LINE
  5
1F3
  8
0
  6
CONTINUOUS
 62
     9
 10
-406.2803991150541
 20
189.8775144407124
 30
0.0
 11
-403.710210044034
 21
189.8775144407124
 31
0.0
  0
ARC
  5
1F4
  8
0
  6
CONTINUOUS
 62
     9
 10
-405.1670184835556
 20
190.766744280515
 30
0.0
 40
1.578772678499664
 50
178.5774510094928
 51
203.8199856873781
  0
POLYLINE
  5
1F5
  8
0
  6
CONTINUOUS
 62
     9
 66
     1
 10
0.0
 20
0.0
 30
0.0
  0
VERTEX
  5
43D
  8
0
  6
CONTINUOUS
 62
     9
 10
-406.611309488314
 20
190.1291341614367
 30
0.0
  0
VERTEX
  5
43E
  8
0
  6
CONTINUOUS
 62
     9
 10
-406.5566408882977
 20
190.038182612411
 30
0.0
  0
VERTEX
  5
43F
  8
0
  6
CONTINUOUS
 62
     9
 10
-406.4876496888109
 20
189.959584513379
 30
0.0
  0
VERTEX
  5
440
  8
0
  6
CONTINUOUS
 62
     9
 10
-406.4000400969923
 20
189.9008337064461
 30
0.0
  0
VERTEX
  5
441
  8
0
  6
CONTINUOUS
 62
     9
 10
-406.2925752514686
 20
189.8772011970544
 30
0.0
  0
VERTEX
  5
442
  8
0
  6
CONTINUOUS
 62
     9
 10
-406.2803991150541
 20
189.8775144407124
 30
0.0
  0
SEQEND
  5
47B
  8
0
  6
CONTINUOUS
 62
     9
  0
POLYLINE
  5
1F6
  8
0
  6
CONTINUOUS
 62
     9
 66
     1
 10
0.0
 20
0.0
 30
0.0
  0
VERTEX
  5
443
  8
0
  6
CONTINUOUS
 62
     9
 10
-403.7102100440341
 20
189.8775144407123
 30
0.0
  0
VERTEX
  5
444
  8
0
  6
CONTINUOUS
 62
     9
 10
-403.700094261348
 20
189.8772127448193
 30
0.0
  0
VERTEX
  5
445
  8
0
  6
CONTINUOUS
 62
     9
 10
-403.6899590409979
 20
189.8773179799063
 30
0.0
  0
VERTEX
  5
446
  8
0
  6
CONTINUOUS
 62
     9
 10
-403.6797505686455
 20
189.8778396661177
 30
0.0
  0
VERTEX
  5
447
  8
0
  6
CONTINUOUS
 62
     9
 10
-403.6695581434921
 20
189.8787794506491
 30
0.0
  0
VERTEX
  5
448
  8
0
  6
CONTINUOUS
 62
     9
 10
-403.65917507657
 20
189.8801720208675
 30
0.0
  0
VERTEX
  5
449
  8
0
  6
CONTINUOUS
 62
     9
 10
-403.6488472016578
 20
189.8819970491644
 30
0.0
  0
VERTEX
  5
44A
  8
0
  6
CONTINUOUS
 62
     9
 10
-403.6385168735937
 20
189.8842676180822
 30
0.0
  0
VERTEX
  5
44B
  8
0
  6
CONTINUOUS
 62
     9
 10
-403.6282798587459
 20
189.8869623225856
 30
0.0
  0
VERTEX
  5
44C
  8
0
  6
CONTINUOUS
 62
     9
 10
-403.6195314163526
 20
189.8896216650012
 30
0.0
  0
VERTEX
  5
44D
  8
0
  6
CONTINUOUS
 62
     9
 10
-403.6108753566305
 20
189.8925808278212
 30
0.0
  0
VERTEX
  5
44E
  8
0
  6
CONTINUOUS
 62
     9
 10
-403.6022779948302
 20
189.8958481494521
 30
0.0
  0
VERTEX
  5
44F
  8
0
  6
CONTINUOUS
 62
     9
 10
-403.5937916193142
 20
189.8993991266907
 30
0.0
  0
VERTEX
  5
450
  8
0
  6
CONTINUOUS
 62
     9
 10
-403.5844328798447
 20
189.9036979764473
 30
0.0
  0
VERTEX
  5
451
  8
0
  6
CONTINUOUS
 62
     9
 10
-403.5752280363392
 20
189.9083249637115
 30
0.0
  0
VERTEX
  5
452
  8
0
  6
CONTINUOUS
 62
     9
 10
-403.5661904742511
 20
189.9132611398306
 30
0.0
  0
VERTEX
  5
453
  8
0
  6
CONTINUOUS
 62
     9
 10
-403.5528066248148
 20
189.9213080343538
 30
0.0
  0
VERTEX
  5
454
  8
0
  6
CONTINUOUS
 62
     9
 10
-403.5398280022742
 20
189.9299778216593
 30
0.0
  0
VERTEX
  5
455
  8
0
  6
CONTINUOUS
 62
     9
 10
-403.5268920787352
 20
189.9395031603649
 30
0.0
  0
VERTEX
  5
456
  8
0
  6
CONTINUOUS
 62
     9
 10
-403.5143973302538
 20
189.9495767830253
 30
0.0
  0
VERTEX
  5
457
  8
0
  6
CONTINUOUS
 62
     9
 10
-403.5022500802273
 20
189.9602307740658
 30
0.0
  0
VERTEX
  5
458
  8
0
  6
CONTINUOUS
 62
     9
 10
-403.490542906198
 20
189.9713397540866
 30
0.0
  0
VERTEX
  5
459
  8
0
  6
CONTINUOUS
 62
     9
 10
-403.4757238027563
 20
189.9866513789869
 30
0.0
  0
VERTEX
  5
45A
  8
0
  6
CONTINUOUS
 62
     9
 10
-403.4591961236414
 20
190.00548737214
 30
0.0
  0
VERTEX
  5
45B
  8
0
  6
CONTINUOUS
 62
     9
 10
-403.4436306892746
 20
190.0250632448219
 30
0.0
  0
VERTEX
  5
45C
  8
0
  6
CONTINUOUS
 62
     9
 10
-403.4288496606219
 20
190.0454511073312
 30
0.0
  0
VERTEX
  5
45D
  8
0
  6
CONTINUOUS
 62
     9
 10
-403.414943942845
 20
190.0663864172925
 30
0.0
  0
VERTEX
  5
45E
  8
0
  6
CONTINUOUS
 62
     9
 10
-403.401595260357
 20
190.0882439577855
 30
0.0
  0
VERTEX
  5
45F
  8
0
  6
CONTINUOUS
 62
     9
 10
-403.3890547316868
 20
190.1105191150025
 30
0.0
  0
VERTEX
  5
460
  8
0
  6
CONTINUOUS
 62
     9
 10
-403.3772197556207
 20
190.1332595274352
 30
0.0
  0
VERTEX
  5
461
  8
0
  6
CONTINUOUS
 62
     9
 10
-403.3661071246819
 20
190.1563109512154
 30
0.0
  0
VERTEX
  5
462
  8
0
  6
CONTINUOUS
 62
     9
 10
-403.3467894418455
 20
190.2009131491384
 30
0.0
  0
VERTEX
  5
463
  8
0
  6
CONTINUOUS
 62
     9
 10
-403.3296877869917
 20
190.246288171255
 30
0.0
  0
VERTEX
  5
464
  8
0
  6
CONTINUOUS
 62
     9
 10
-403.3146076854159
 20
190.2922102200939
 30
0.0
  0
VERTEX
  5
465
  8
0
  6
CONTINUOUS
 62
     9
 10
-403.2950820535337
 20
190.3629678259562
 30
0.0
  0
VERTEX
  5
466
  8
0
  6
CONTINUOUS
 62
     9
 10
-403.2793077835822
 20
190.4343931892736
 30
0.0
  0
VERTEX
  5
467
  8
0
  6
CONTINUOUS
 62
     9
 10
-403.2639192569691
 20
190.5265779202582
 30
0.0
  0
VERTEX
  5
468
  8
0
  6
CONTINUOUS
 62
     9
 10
-403.2534199086466
 20
190.6191027197443
 30
0.0
  0
VERTEX
  5
469
  8
0
  6
CONTINUOUS
 62
     9
 10
-403.2472850820193
 20
190.7125751208786
 30
0.0
  0
VERTEX
  5
46A
  8
0
  6
CONTINUOUS
 62
     9
 10
-403.245304579544
 20
190.8059382798732
 30
0.0
  0
SEQEND
  5
47C
  8
0
  6
CONTINUOUS
 62
     9
  0
LINE
  5
1F7
  8
0
  6
CONTINUOUS
 62
     7
 10
-430.495304579544
 20
128.4810678313056
 30
0.0
 11
-427.995304579544
 21
128.4810678313056
 31
0.0
  0
LINE
  5
1F8
  8
0
  6
CONTINUOUS
 62
     7
 10
-430.495304579544
 20
129.9810678313056
 30
0.0
 11
-427.995304579544
 21
129.9810678313056
 31
0.0
  0
LINE
  5
1F9
  8
0
  6
CONTINUOUS
 62
     9
 10
-438.298080217276
 20
128.2310678313056
 30
0.0
 11
-438.2980802172767
 21
130.2310678313056
 31
0.0
  0
LINE
  5
1FA
  8
0
  6
CONTINUOUS
 62
     9
 10
-438.298080217276
 20
101.2310678313055
 30
0.0
 11
-438.2980802172766
 21
103.2310678313056
 31
0.0
  0
LINE
  5
1FB
  8
0
  6
CONTINUOUS
 62
     9
 10
-438.298080217276
 20
155.2310678313056
 30
0.0
 11
-438.2980802172767
 21
157.2310678313056
 31
0.0
  0
LINE
  5
1FC
  8
0
  6
CONTINUOUS
 62
     7
 10
-430.495304579544
 20
189.0310678313056
 30
0.0
 11
-427.995304579544
 21
189.0310678313056
 31
0.0
  0
LINE
  5
1FD
  8
0
  6
CONTINUOUS
 62
     7
 10
-430.495304579544
 20
69.43106783130564
 30
0.0
 11
-427.995304579544
 21
69.43106783130564
 31
0.0
  0
ARC
  5
1FE
  8
0
  6
CONTINUOUS
 62
     7
 10
-418.1953045795379
 20
216.5310678313053
 30
0.0
 40
1.000000000000001
 50
90.00000000019362
 51
180.0
  0
ARC
  5
1FF
  8
0
  6
CONTINUOUS
 62
     7
 10
-391.7953045795505
 20
216.5310678313053
 30
0.0
 40
1.000000000000001
 50
0.0
 51
89.99999999980608
  0
ARC
  5
200
  8
0
  6
CONTINUOUS
 62
     7
 10
-391.7953045795505
 20
199.531067831306
 30
0.0
 40
1.000000000000001
 50
270.0000000001935
 51
0.0
  0
LINE
  5
201
  8
0
  6
CONTINUOUS
 62
     7
 10
-390.7953045795472
 20
199.531067831306
 30
0.0
 11
-390.7953045795472
 21
216.5310678313053
 31
0.0
  0
ARC
  5
202
  8
0
  6
CONTINUOUS
 62
     7
 10
-418.1953045795379
 20
199.531067831306
 30
0.0
 40
1.000000000000001
 50
180.0
 51
269.9999999998063
  0
LINE
  5
203
  8
0
  6
CONTINUOUS
 62
     7
 10
-419.1953045795411
 20
216.5310678313053
 30
0.0
 11
-419.1953045795411
 21
199.531067831306
 31
0.0
  0
LINE
  5
204
  8
0
  6
CONTINUOUS
 62
     7
 10
-430.495304579544
 20
80.23106783130562
 30
0.0
 11
-431.9765088785884
 21
80.10147924677338
 31
0.0
  0
LINE
  5
205
  8
0
  6
CONTINUOUS
 62
     7
 10
-431.9765088785884
 20
73.36065641583787
 30
0.0
 11
-430.495304579544
 21
73.23106783130562
 31
0.0
  0
ARC
  5
206
  8
0
  6
CONTINUOUS
 62
     7
 10
-431.8632064130164
 20
74.65570952335712
 30
0.0
 40
1.299999999999985
 50
203.5223875269064
 51
264.9999999999999
  0
ARC
  5
207
  8
0
  6
CONTINUOUS
 62
     7
 10
-431.8632064130164
 20
78.80642613925409
 30
0.0
 40
1.300000000000006
 50
95.00000000000014
 51
156.4776124730936
  0
ARC
  5
208
  8
0
  6
CONTINUOUS
 62
     7
 10
-427.095304579544
 20
76.73106783130562
 30
0.0
 40
6.500000000000004
 50
156.4776124730937
 51
160.2168296273385
  0
ARC
  5
209
  8
0
  6
CONTINUOUS
 62
     7
 10
-427.095304579544
 20
76.73106783130562
 30
0.0
 40
6.500000000000007
 50
199.7831703726616
 51
203.5223875269063
  0
LINE
  5
20A
  8
0
  6
CONTINUOUS
 62
     7
 10
-430.495304579544
 20
185.2310678313056
 30
0.0
 11
-431.9765088785884
 21
185.1014792467734
 31
0.0
  0
LINE
  5
20B
  8
0
  6
CONTINUOUS
 62
     7
 10
-431.9765088785884
 20
178.3606564158378
 30
0.0
 11
-430.495304579544
 21
178.2310678313056
 31
0.0
  0
ARC
  5
20C
  8
0
  6
CONTINUOUS
 62
     7
 10
-431.8632064130164
 20
183.8064261392541
 30
0.0
 40
1.299999999999992
 50
95.00000000000014
 51
156.4776124730936
  0
ARC
  5
20D
  8
0
  6
CONTINUOUS
 62
     7
 10
-431.8632064130164
 20
179.6557095233571
 30
0.0
 40
1.299999999999996
 50
203.5223875269064
 51
264.9999999999999
  0
ARC
  5
20E
  8
0
  6
CONTINUOUS
 62
     7
 10
-427.095304579544
 20
181.7310678313056
 30
0.0
 40
6.50000000000001
 50
156.4776124730937
 51
160.2168296273385
  0
ARC
  5
20F
  8
0
  6
CONTINUOUS
 62
     7
 10
-427.095304579544
 20
181.7310678313056
 30
0.0
 40
6.499999999999998
 50
199.7831703726616
 51
203.5223875269063
  0
LINE
  5
210
  8
0
  6
CONTINUOUS
 62
     7
 10
-417.7953045795441
 20
198.5310678315079
 30
0.0
 11
-417.7953045795441
 21
187.7310678313056
 31
0.0
  0
LINE
  5
211
  8
0
  6
CONTINUOUS
 62
     7
 10
-392.1953045795441
 20
187.7310678313056
 30
0.0
 11
-392.1953045795441
 21
198.5310678315079
 31
0.0
  0
LINE
  5
212
  8
0
  6
CONTINUOUS
 62
     7
 10
-430.4953045795445
 20
176.4810678313056
 30
0.0
 11
-440.9953045795444
 21
176.4810678313056
 31
0.0
  0
LINE
  5
213
  8
0
  6
CONTINUOUS
 62
     7
 10
-440.9953045795444
 20
81.98106783130557
 30
0.0
 11
-430.4953045795445
 21
81.98106783130557
 31
0.0
  0
ENDBLK
  8
0
  0
ENDSEC
  0
SECTION
  2
ENTITIES
  0
INSERT
  5
130
  8
0
  6
CONTINUOUS
 62
     7
  2
D_FRAME_VIEW_1330
 10
0.0
 20
0.0
 30
0.0
  0
LINE
  5
131
  8
0
  6
CONTINUOUS
 62
     7
 10
-403.245304579544
 20
198.5310678313056
 30
0.0
 11
-403.245304579544
 21
190.8059382798732
 31
0.0
  0
LINE
  5
132
  8
0
  6
CONTINUOUS
 62
     7
 10
-559.5785440602918
 20
27.33969094752714
 30
0.0
 11
-559.5785440602918
 21
-16.66030905247286
 31
0.0
  0
LINE
  5
133
  8
0
  6
CONTINUOUS
 62
     7
 10
-561.5785440602918
 20
-6.060309052472859
 30
0.0
 11
-561.5785440602918
 21
3.939690947527136
 31
0.0
  0
LINE
  5
134
  8
0
  6
CONTINUOUS
 62
     7
 10
-527.378544059116
 20
198.531067832283
 30
0.0
 11
-558.7785440591136
 21
198.5310678303238
 31
0.0
  0
LINE
  5
135
  8
0
  6
CONTINUOUS
 62
     7
 10
-391.7953045795458
 20
198.5310678338603
 30
0.0
 11
-418.1953045795431
 21
198.5310678310091
 31
0.0
  0
LINE
  5
136
  8
0
  6
CONTINUOUS
 62
     7
 10
-553.5785440602917
 20
40.33969094752712
 30
0.0
 11
-497.5785440602918
 21
40.33969094752712
 31
0.0
  0
LINE
  5
137
  8
0
  6
CONTINUOUS
 62
     7
 10
-430.495304579544
 20
189.0310678313056
 30
0.0
 11
-430.495304579544
 21
69.43106783130565
 31
0.0
  0
LINE
  5
138
  8
0
  6
CONTINUOUS
 62
     7
 10
-561.8785440602918
 20
27.33969094752714
 30
0.0
 11
-489.2785440602917
 21
27.33969094752714
 31
0.0
  0
LINE
  5
139
  8
0
  6
CONTINUOUS
 62
     7
 10
-558.5785440602917
 20
-17.66030905247286
 30
0.0
 11
-492.5785440602918
 21
-17.66030905247286
 31
0.0
  0
LINE
  5
13A
  8
0
  6
CONTINUOUS
 62
     9
 10
-505.0785440602918
 20
-8.86030905247287
 30
0.0
 11
-505.0785440602918
 21
-17.66030905247286
 31
0.0
  0
LINE
  5
13B
  8
0
  6
CONTINUOUS
 62
     7
 10
-561.8785440602918
 20
29.83969094752714
 30
0.0
 11
-489.2785440602917
 21
29.83969094752714
 31
0.0
  0
LINE
  5
13C
  8
0
  6
CONTINUOUS
 62
     9
 10
-514.0785440602917
 20
-17.66030905247286
 30
0.0
 11
-514.0785440602917
 21
-8.86030905247287
 31
0.0
  0
LINE
  5
13D
  8
0
  6
CONTINUOUS
 62
     7
 10
-406.745304579544
 20
190.8059382798851
 30
0.0
 11
-406.745304579544
 21
198.5310678313056
 31
0.0
  0
LINE
  5
13E
  8
0
  6
CONTINUOUS
 62
     7
 10
-561.5785440602918
 20
21.33969094752716
 30
0.0
 11
-561.5785440602918
 21
7.339690947527152
 31
0.0
  0
LINE
  5
13F
  8
0
  6
CONTINUOUS
 62
     7
 10
-559.1137278187797
 20
101.2310678313056
 30
0.0
 11
-553.5785440602917
 21
101.2310678313055
 31
0.0
  0
LINE
  5
140
  8
0
  6
CONTINUOUS
 62
     7
 10
-440.995304579544
 20
81.98106783130557
 30
0.0
 11
-440.995304579544
 21
176.4810678313057
 31
0.0
  0
LINE
  5
141
  8
0
  6
CONTINUOUS
 62
     7
 10
-489.5785440602918
 20
-6.060309052472859
 30
0.0
 11
-489.5785440602918
 21
3.939690947527136
 31
0.0
  0
LINE
  5
142
  8
0
  6
CONTINUOUS
 62
     7
 10
-553.5785440602917
 20
157.2310678313056
 30
0.0
 11
-559.1137278187797
 21
157.2310678313056
 31
0.0
  0
LINE
  5
143
  8
0
  6
CONTINUOUS
 62
     7
 10
-382.995304579544
 20
73.73106783130562
 30
0.0
 11
-382.995304579544
 21
184.7310678313056
 31
0.0
  0
LINE
  5
144
  8
0
  6
CONTINUOUS
 62
     7
 10
-438.298080217276
 20
155.2310678313056
 30
0.0
 11
-430.495304579544
 21
155.2310678313056
 31
0.0
  0
LINE
  5
145
  8
0
  6
CONTINUOUS
 62
     7
 10
-403.9953045795444
 20
216.0736465037606
 30
0.0
 11
-403.9953045795444
 21
198.5310678322868
 31
0.0
  0
LINE
  5
146
  8
0
  6
CONTINUOUS
 62
     7
 10
-430.495304579544
 20
103.2310678313056
 30
0.0
 11
-438.2980802172767
 21
103.2310678313056
 31
0.0
  0
LINE
  5
147
  8
0
  6
CONTINUOUS
 62
     7
 10
-430.495304579544
 20
157.2310678313056
 30
0.0
 11
-438.2980802172768
 21
157.2310678313056
 31
0.0
  0
LINE
  5
148
  8
0
  6
CONTINUOUS
 62
     7
 10
-553.5785440602917
 20
103.2310678313056
 30
0.0
 11
-559.1137278187797
 21
103.2310678313056
 31
0.0
  0
LINE
  5
149
  8
0
  6
CONTINUOUS
 62
     7
 10
-553.5785440602917
 20
130.2310678313056
 30
0.0
 11
-559.1137278187797
 21
130.2310678313056
 31
0.0
  0
LINE
  5
14A
  8
0
  6
CONTINUOUS
 62
     7
 10
-438.298080217276
 20
101.2310678313055
 30
0.0
 11
-430.495304579544
 21
101.2310678313055
 31
0.0
  0
LINE
  5
14B
  8
0
  6
CONTINUOUS
 62
     7
 10
-389.2953045795441
 20
183.9810678313056
 30
0.0
 11
-389.2953045795441
 21
182.6519892577396
 31
0.0
  0
LINE
  5
14C
  8
0
  6
CONTINUOUS
 62
     7
 10
-492.0433603018039
 20
157.2310678313056
 30
0.0
 11
-497.5785440602918
 21
157.2310678313056
 31
0.0
  0
LINE
  5
14D
  8
0
  6
CONTINUOUS
 62
     7
 10
-497.5785440602918
 20
128.2310678313056
 30
0.0
 11
-492.0433603018038
 21
128.2310678313056
 31
0.0
  0
LINE
  5
14E
  8
0
  6
CONTINUOUS
 62
     7
 10
-407.4953045795436
 20
198.5310678322763
 30
0.0
 11
-407.4953045795436
 21
216.1249047494658
 31
0.0
  0
LINE
  5
14F
  8
0
  6
CONTINUOUS
 62
     7
 10
-427.995304579544
 20
189.0310678313056
 30
0.0
 11
-427.995304579544
 21
69.43106783130565
 31
0.0
  0
LINE
  5
150
  8
0
  6
CONTINUOUS
 62
     7
 10
-497.5785440602918
 20
155.2310678313056
 30
0.0
 11
-492.0433603018038
 21
155.2310678313056
 31
0.0
  0
LINE
  5
151
  8
0
  6
CONTINUOUS
 62
     7
 10
-497.5785440602918
 20
101.2310678313055
 30
0.0
 11
-492.0433603018038
 21
101.2310678313055
 31
0.0
  0
LINE
  5
152
  8
0
  6
CONTINUOUS
 62
     7
 10
-559.1137278187797
 20
128.2310678313056
 30
0.0
 11
-553.5785440602917
 21
128.2310678313056
 31
0.0
  0
LINE
  5
153
  8
0
  6
CONTINUOUS
 62
     7
 10
-387.0953045795441
 20
183.9810678313056
 30
0.0
 11
-387.0953045795441
 21
182.6519892577404
 31
0.0
  0
LINE
  5
154
  8
0
  6
CONTINUOUS
 62
     7
 10
-489.5785440602918
 20
21.33969094752715
 30
0.0
 11
-489.5785440602918
 21
7.339690947527152
 31
0.0
  0
LINE
  5
155
  8
0
  6
CONTINUOUS
 62
     7
 10
-430.495304579544
 20
130.2310678313056
 30
0.0
 11
-438.2980802172768
 21
130.2310678313056
 31
0.0
  0
LINE
  5
156
  8
0
  6
CONTINUOUS
 62
     7
 10
-492.0433603018039
 20
130.2310678313056
 30
0.0
 11
-497.5785440602918
 21
130.2310678313056
 31
0.0
  0
LINE
  5
157
  8
0
  6
CONTINUOUS
 62
     7
 10
-438.298080217276
 20
128.2310678313056
 30
0.0
 11
-430.495304579544
 21
128.2310678313056
 31
0.0
  0
LINE
  5
158
  8
0
  6
CONTINUOUS
 62
     7
 10
-385.995304579544
 20
187.7310678313056
 30
0.0
 11
-427.995304579544
 21
187.7310678313056
 31
0.0
  0
LINE
  5
159
  8
0
  6
CONTINUOUS
 62
     7
 10
-492.0433603018038
 20
103.2310678313056
 30
0.0
 11
-497.5785440602918
 21
103.2310678313056
 31
0.0
  0
LINE
  5
15A
  8
0
  6
CONTINUOUS
 62
     7
 10
-499.9954264341773
 20
181.2310678313056
 30
0.0
 11
-502.3285440602918
 21
181.2310678313056
 31
0.0
  0
LINE
  5
15B
  8
0
  6
CONTINUOUS
 62
     7
 10
-506.6616616864064
 20
182.2310678313056
 30
0.0
 11
-504.3285440602918
 21
182.2310678313056
 31
0.0
  0
LINE
  5
15C
  8
0
  6
CONTINUOUS
 62
     7
 10
-559.1137278187797
 20
155.2310678313056
 30
0.0
 11
-553.5785440602917
 21
155.2310678313056
 31
0.0
  0
CIRCLE
  5
15D
  8
0
  6
CONTINUOUS
 62
     7
 10
-503.3285440602918
 20
181.7310678313056
 30
0.0
 40
3.499999999999998
  0
ARC
  5
15E
  8
0
  6
CONTINUOUS
 62
     7
 10
-544.5785440602917
 20
129.2310678313056
 30
0.0
 40
4.999999999999998
 50
161.3370751150576
 51
198.6629248849424
  0
LINE
  5
15F
  8
0
  6
CONTINUOUS
 62
     7
 10
-546.8285440602917
 20
77.23106783130562
 30
0.0
 11
-544.4954264341773
 21
77.23106783130562
 31
0.0
  0
LINE
  5
160
  8
0
  6
CONTINUOUS
 62
     7
 10
-504.3285440602918
 20
181.2310678313056
 30
0.0
 11
-506.6616616864064
 21
181.2310678313056
 31
0.0
  0
CIRCLE
  5
161
  8
0
  6
CONTINUOUS
 62
     7
 10
-547.8285440602917
 20
76.73106783130562
 30
0.0
 40
3.499999999999998
  0
LINE
  5
162
  8
0
  6
CONTINUOUS
 62
     7
 10
-556.2785440603031
 20
217.531067830479
 30
0.0
 11
-529.8785440603058
 21
217.5310678321316
 31
0.0
  0
LINE
  5
163
  8
0
  6
CONTINUOUS
 62
     7
 10
-521.2785440603031
 20
217.531067830479
 30
0.0
 11
-494.8785440603058
 21
217.5310678321316
 31
0.0
  0
LINE
  5
164
  8
0
  6
CONTINUOUS
 62
     7
 10
-551.1616616864063
 20
77.23106783130562
 30
0.0
 11
-548.8285440602917
 21
77.23106783130562
 31
0.0
  0
LINE
  5
165
  8
0
  6
CONTINUOUS
 62
     7
 10
-502.3285440602918
 20
182.2310678313056
 30
0.0
 11
-499.9954264341773
 21
182.2310678313056
 31
0.0
  0
LINE
  5
166
  8
0
  6
CONTINUOUS
 62
     7
 10
-516.5785440602917
 20
127.8168542689325
 30
0.0
 11
-516.5785440602917
 21
130.6452813936787
 31
0.0
  0
ARC
  5
167
  8
0
  6
CONTINUOUS
 62
     7
 10
-506.5785440602918
 20
129.2310678313056
 30
0.0
 40
4.999999999999995
 50
25.8419327631666
 51
334.1580672368331
  0
LINE
  5
168
  8
0
  6
CONTINUOUS
 62
     7
 10
-544.4954264341773
 20
76.23106783130562
 30
0.0
 11
-546.8285440602917
 21
76.23106783130562
 31
0.0
  0
LINE
  5
169
  8
0
  6
CONTINUOUS
 62
     7
 10
-534.5785440602918
 20
130.6452813936787
 30
0.0
 11
-534.5785440602918
 21
127.8168542689325
 31
0.0
  0
LINE
  5
16A
  8
0
  6
CONTINUOUS
 62
     7
 10
-548.8285440602917
 20
76.23106783130562
 30
0.0
 11
-551.1616616864063
 21
76.23106783130562
 31
0.0
  0
LINE
  5
16B
  8
0
  6
CONTINUOUS
 62
     7
 10
-433.4984288169769
 20
77.23106783130562
 30
0.0
 11
-431.8953045795441
 21
77.23106783130562
 31
0.0
  0
LINE
  5
16C
  8
0
  6
CONTINUOUS
 62
     7
 10
-521.2556017939205
 20
198.5310678304812
 30
0.0
 11
-523.7785440591136
 21
198.5310678303232
 31
0.0
  0
LINE
  5
16D
  8
0
  6
CONTINUOUS
 62
     7
 10
-431.8953045795441
 20
181.2310678313056
 30
0.0
 11
-433.4984288169769
 21
181.2310678313056
 31
0.0
  0
LINE
  5
16E
  8
0
  6
CONTINUOUS
 62
     7
 10
-433.4984288169769
 20
182.2310678313056
 30
0.0
 11
-431.8953045795441
 21
182.2310678313056
 31
0.0
  0
LINE
  5
16F
  8
0
  6
CONTINUOUS
 62
     7
 10
-521.2559037381923
 20
198.5310956723655
 30
0.0
 11
-521.3060424076443
 21
198.537311573127
 31
0.0
  0
LINE
  5
170
  8
0
  6
CONTINUOUS
 62
     7
 10
-431.8953045795441
 20
76.23106783130562
 30
0.0
 11
-433.4984288169769
 21
76.23106783130562
 31
0.0
  0
LINE
  5
171
  8
0
  6
CONTINUOUS
 62
     7
 10
-492.3785440591162
 20
198.531067832289
 30
0.0
 11
-521.1930398557505
 21
198.5310678304831
 31
0.0
  0
INSERT
  5
1AD
  8
0
  6
CONTINUOUS
 62
     7
  2
D_FRAME_VIEW_2359
 10
0.0
 20
0.0
 30
0.0
  0
INSERT
  5
214
  8
0
  6
CONTINUOUS
 62
     7
  2
D_FRAME_VIEW_2162
 10
0.0
 20
0.0
 30
0.0
  0
TEXT
  5
215
  8
0
  6
CONTINUOUS
 62
     7
 10
-507.1049889363088
 20
-42.7535279526285
 30
0.0
 40
6.0
  1
CDO-16SWG
  0
ENDSEC
  0
EOF
