  0
SECTION
  2
HEADER
  9
$ACADVER
  1
AC1006
  9
$DWGCODEPAGE
  3
ansi_932
  9
$INSBASE
 10
0.0
 20
0.0
 30
0.0
  9
$EXTMIN
 10
-772.5765225103273
 20
82.34090909090911
  9
$EXTMAX
 10
-622.4372457752326
 20
329.6881230873755
  9
$LIMMIN
 10
0.0
 20
0.0
  9
$LIMMAX
 10
12.0
 20
9.0
  9
$ORTHOMODE
 70
     0
  9
$REGENMODE
 70
     1
  9
$FILLMODE
 70
     1
  9
$QTEXTMODE
 70
     0
  9
$MIRRTEXT
 70
     1
  9
$DRAGMODE
 70
     2
  9
$LTSCALE
 40
1.0
  9
$OSMODE
 70
    37
  9
$ATTMODE
 70
     1
  9
$TEXTSIZE
 40
0.2
  9
$TRACEWID
 40
0.05
  9
$TEXTSTYLE
  7
STANDARD
  9
$CLAYER
  8
0
  9
$CELTYPE
  6
BYLAYER
  9
$CECOLOR
 62
   256
  9
$DIMSCALE
 40
1.0
  9
$DIMASZ
 40
3.0
  9
$DIMEXO
 40
0.0625
  9
$DIMDLI
 40
0.38
  9
$DIMRND
 40
0.0
  9
$DIMDLE
 40
0.0
  9
$DIMEXE
 40
1.5
  9
$DIMTP
 40
0.0
  9
$DIMTM
 40
0.0
  9
$DIMTXT
 40
3.0
  9
$DIMCEN
 40
0.09
  9
$DIMTSZ
 40
0.0
  9
$DIMTOL
 70
     0
  9
$DIMLIM
 70
     0
  9
$DIMTIH
 70
     1
  9
$DIMTOH
 70
     1
  9
$DIMSE1
 70
     0
  9
$DIMSE2
 70
     0
  9
$DIMTAD
 70
     1
  9
$DIMZIN
 70
     0
  9
$DIMBLK
  1

  9
$DIMASO
 70
     1
  9
$DIMSHO
 70
     1
  9
$DIMPOST
  1

  9
$DIMAPOST
  1

  9
$DIMALT
 70
     0
  9
$DIMALTD
 70
     2
  9
$DIMALTF
 40
25.4
  9
$DIMLFAC
 40
1.0
  9
$DIMTOFL
 70
     0
  9
$DIMTVP
 40
0.0
  9
$DIMTIX
 70
     0
  9
$DIMSOXD
 70
     0
  9
$DIMSAH
 70
     0
  9
$DIMBLK1
  1

  9
$DIMBLK2
  1

  9
$LUNITS
 70
     2
  9
$LUPREC
 70
     4
  9
$SKETCHINC
 40
0.1
  9
$FILLETRAD
 40
0.5
  9
$AUNITS
 70
     0
  9
$AUPREC
 70
     0
  9
$MENU
  1
.
  9
$ELEVATION
 40
0.0
  9
$THICKNESS
 40
0.0
  9
$LIMCHECK
 70
     0
  9
$CHAMFERA
 40
0.0
  9
$CHAMFERB
 40
0.0
  9
$SKPOLY
 70
     0
  9
$TDCREATE
 40
2459395.617457049
  9
$TDUPDATE
 40
2459395.617457234
  9
$TDINDWG
 40
0.0000000116
  9
$TDUSRTIMER
 40
0.0000000116
  9
$USRTIMER
 70
     1
  9
$ANGBASE
 50
0.0
  9
$ANGDIR
 70
     0
  9
$PDMODE
 70
     0
  9
$PDSIZE
 40
0.0
  9
$PLINEWID
 40
0.0
  9
$COORDS
 70
     1
  9
$SPLFRAME
 70
     0
  9
$SPLINETYPE
 70
     6
  9
$SPLINESEGS
 70
     8
  9
$ATTDIA
 70
     0
  9
$ATTREQ
 70
     1
  9
$HANDLING
 70
     1
  9
$HANDSEED
  5
2FB
  9
$SURFTAB1
 70
     6
  9
$SURFTAB2
 70
     6
  9
$SURFTYPE
 70
     6
  9
$SURFU
 70
     6
  9
$SURFV
 70
     6
  9
$UCSNAME
  2

  9
$UCSORG
 10
0.0
 20
0.0
 30
0.0
  9
$UCSXDIR
 10
1.0
 20
0.0
 30
0.0
  9
$UCSYDIR
 10
0.0
 20
1.0
 30
0.0
  9
$USERI1
 70
     0
  9
$USERI2
 70
     0
  9
$USERI3
 70
     0
  9
$USERI4
 70
     0
  9
$USERI5
 70
     0
  9
$USERR1
 40
0.0
  9
$USERR2
 40
0.0
  9
$USERR3
 40
0.0
  9
$USERR4
 40
0.0
  9
$USERR5
 40
0.0
  9
$WORLDVIEW
 70
     1
  0
ENDSEC
  0
SECTION
  2
TABLES
  0
TABLE
  2
VPORT
 70
     1
  0
VPORT
  2
*ACTIVE
 70
     0
 10
0.0
 20
0.0
 11
1.0
 21
1.0
 12
-697.5068841427799
 22
206.0145160891423
 13
0.0
 23
0.0
 14
0.5
 24
0.5
 15
0.5
 25
0.5
 16
0.0
 26
0.0
 36
1.0
 17
0.0
 27
0.0
 37
0.0
 40
247.3472139964664
 41
1.6
 42
50.0
 43
0.0
 44
0.0
 50
0.0
 51
0.0
 71
     0
 72
   100
 73
     1
 74
     3
 75
     0
 76
     0
 77
     0
 78
     0
  0
ENDTAB
  0
TABLE
  2
LTYPE
 70
     2
  0
LTYPE
  2
CONTINUOUS
 70
     0
  3
Solid line
 72
    65
 73
     0
 40
0.0
  0
LTYPE
  2
DOT
 70
     0
  3

 72
    65
 73
     0
 40
0.0
  0
ENDTAB
  0
TABLE
  2
LAYER
 70
     1
  0
LAYER
  2
0
 70
     0
 62
     7
  6
CONTINUOUS
  0
ENDTAB
  0
TABLE
  2
STYLE
 70
     2
  0
STYLE
  2
STANDARD
 70
     0
 40
0.0
 41
1.0
 50
0.0
 71
     0
 42
0.2
  3
txt
  4

  0
STYLE
  2
ＭＳ_ゴシック
 70
     0
 40
0.0
 41
1.0
 50
0.0
 71
     0
 42
0.2
  3
ＭＳ ゴシック.shx
  4

  0
ENDTAB
  0
TABLE
  2
VIEW
 70
     0
  0
ENDTAB
  0
TABLE
  2
UCS
 70
     0
  0
ENDTAB
  0
ENDSEC
  0
SECTION
  2
BLOCKS
  0
BLOCK
  8
0
  2
D_FRAME_VIEW_1401
 70
     0
 10
0.0
 20
0.0
 30
0.0
  0
CIRCLE
  5
9C
  8
0
  6
CONTINUOUS
 62
    15
 10
-736.5765225103273
 20
241.3881230865514
 30
0.0
 40
4.762500000000003
  0
CIRCLE
  5
9D
  8
0
  6
CONTINUOUS
 62
     7
 10
-736.5765225103273
 20
199.6381230865514
 30
0.0
 40
1.649999999999999
  0
CIRCLE
  5
9E
  8
0
  6
CONTINUOUS
 62
     7
 10
-736.5765225103273
 20
283.1381230865514
 30
0.0
 40
1.649999999999999
  0
ARC
  5
9F
  8
0
  6
CONTINUOUS
 62
     7
 10
-758.8265225103273
 20
188.8881230865514
 30
0.0
 40
2.250000000000012
 50
77.16041159309587
 51
102.8395884069042
  0
LINE
  5
A0
  8
0
  6
CONTINUOUS
 62
     7
 10
-759.3265225103274
 20
191.0818641833995
 30
0.0
 11
-759.3265225103274
 21
190.1881230865514
 31
0.0
  0
LINE
  5
A1
  8
0
  6
CONTINUOUS
 62
     7
 10
-761.5765225103273
 20
189.3881230865514
 30
0.0
 11
-761.5765225103273
 21
188.3881230865514
 31
0.0
  0
LINE
  5
A2
  8
0
  6
CONTINUOUS
 62
     7
 10
-761.5765225103273
 20
188.3881230865514
 30
0.0
 11
-760.1265225103274
 21
188.3881230865514
 31
0.0
  0
ARC
  5
A3
  8
0
  6
CONTINUOUS
 62
     7
 10
-760.1265225103273
 20
187.5881230865514
 30
0.0
 40
0.800000000000009
 50
0.0
 51
89.99999999999949
  0
ARC
  5
A4
  8
0
  6
CONTINUOUS
 62
     7
 10
-758.8265225103273
 20
188.8881230865514
 30
0.0
 40
2.250000000000012
 50
257.1604115930959
 51
282.8395884069041
  0
LINE
  5
A5
  8
0
  6
CONTINUOUS
 62
     7
 10
-756.0765225103273
 20
188.3881230865514
 30
0.0
 11
-756.0765225103273
 21
189.3881230865514
 31
0.0
  0
ARC
  5
A6
  8
0
  6
CONTINUOUS
 62
     7
 10
-760.1265225103273
 20
190.1881230865514
 30
0.0
 40
0.800000000000002
 50
270.0
 51
359.9999999999996
  0
LINE
  5
A7
  8
0
  6
CONTINUOUS
 62
     7
 10
-758.3265225103273
 20
190.1881230865514
 30
0.0
 11
-758.3265225103273
 21
191.0818641833995
 31
0.0
  0
ARC
  5
A8
  8
0
  6
CONTINUOUS
 62
     7
 10
-757.5265225103274
 20
190.1881230865514
 30
0.0
 40
0.800000000000009
 50
180.0
 51
269.9999999999995
  0
LINE
  5
A9
  8
0
  6
CONTINUOUS
 62
     7
 10
-756.0765225103273
 20
189.3881230865514
 30
0.0
 11
-757.5265225103274
 21
189.3881230865514
 31
0.0
  0
ARC
  5
AA
  8
0
  6
CONTINUOUS
 62
     7
 10
-757.5265225103274
 20
187.5881230865514
 30
0.0
 40
0.800000000000002
 50
90.0
 51
180.0
  0
LINE
  5
AB
  8
0
  6
CONTINUOUS
 62
     7
 10
-758.3265225103273
 20
186.6943819897034
 30
0.0
 11
-758.3265225103273
 21
187.5881230865514
 31
0.0
  0
LINE
  5
AC
  8
0
  6
CONTINUOUS
 62
     7
 10
-759.3265225103274
 20
187.5881230865514
 30
0.0
 11
-759.3265225103274
 21
186.6943819897034
 31
0.0
  0
LINE
  5
AD
  8
0
  6
CONTINUOUS
 62
     7
 10
-757.5265225103274
 20
188.3881230865514
 30
0.0
 11
-756.0765225103274
 21
188.3881230865514
 31
0.0
  0
LINE
  5
AE
  8
0
  6
CONTINUOUS
 62
     7
 10
-760.1265225103273
 20
189.3881230865514
 30
0.0
 11
-761.5765225103272
 21
189.3881230865514
 31
0.0
  0
ARC
  5
AF
  8
0
  6
CONTINUOUS
 62
     7
 10
-714.3265225103273
 20
293.8881230865514
 30
0.0
 40
2.250000000000025
 50
257.1604115930959
 51
282.8395884069043
  0
ARC
  5
B0
  8
0
  6
CONTINUOUS
 62
     7
 10
-714.3265225103273
 20
293.8881230865514
 30
0.0
 40
2.249999999999998
 50
77.16041159309587
 51
102.8395884069042
  0
LINE
  5
B1
  8
0
  6
CONTINUOUS
 62
     7
 10
-717.0765225103273
 20
293.3881230865514
 30
0.0
 11
-715.6265225103273
 21
293.3881230865514
 31
0.0
  0
ARC
  5
B2
  8
0
  6
CONTINUOUS
 62
     7
 10
-713.0265225103274
 20
292.5881230865514
 30
0.0
 40
0.7999999999999952
 50
90.0
 51
179.9999999999995
  0
LINE
  5
B3
  8
0
  6
CONTINUOUS
 62
     7
 10
-711.5765225103273
 20
293.3881230865514
 30
0.0
 11
-711.5765225103273
 21
294.3881230865514
 31
0.0
  0
LINE
  5
B4
  8
0
  6
CONTINUOUS
 62
     7
 10
-713.8265225103273
 20
295.1881230865514
 30
0.0
 11
-713.8265225103273
 21
296.0818641833994
 31
0.0
  0
LINE
  5
B5
  8
0
  6
CONTINUOUS
 62
     7
 10
-714.8265225103274
 20
296.0818641833994
 30
0.0
 11
-714.8265225103274
 21
295.1881230865514
 31
0.0
  0
ARC
  5
B6
  8
0
  6
CONTINUOUS
 62
     7
 10
-715.6265225103273
 20
295.1881230865514
 30
0.0
 40
0.7999999999999952
 50
270.0
 51
0.0
  0
LINE
  5
B7
  8
0
  6
CONTINUOUS
 62
     7
 10
-715.6265225103273
 20
294.3881230865514
 30
0.0
 11
-717.0765225103272
 21
294.3881230865514
 31
0.0
  0
ARC
  5
B8
  8
0
  6
CONTINUOUS
 62
     7
 10
-715.6265225103273
 20
292.5881230865514
 30
0.0
 40
0.8000000000000229
 50
0.0
 51
89.99999999999949
  0
ARC
  5
B9
  8
0
  6
CONTINUOUS
 62
     7
 10
-713.0265225103274
 20
295.1881230865514
 30
0.0
 40
0.7999999999999952
 50
180.0
 51
269.9999999999995
  0
LINE
  5
BA
  8
0
  6
CONTINUOUS
 62
     7
 10
-714.8265225103274
 20
292.5881230865514
 30
0.0
 11
-714.8265225103274
 21
291.6943819897033
 31
0.0
  0
LINE
  5
BB
  8
0
  6
CONTINUOUS
 62
     7
 10
-717.0765225103273
 20
294.3881230865514
 30
0.0
 11
-717.0765225103273
 21
293.3881230865514
 31
0.0
  0
LINE
  5
BC
  8
0
  6
CONTINUOUS
 62
     7
 10
-713.8265225103273
 20
291.6943819897033
 30
0.0
 11
-713.8265225103273
 21
292.5881230865514
 31
0.0
  0
LINE
  5
BD
  8
0
  6
CONTINUOUS
 62
     7
 10
-711.5765225103273
 20
294.3881230865514
 30
0.0
 11
-713.0265225103274
 21
294.3881230865514
 31
0.0
  0
LINE
  5
BE
  8
0
  6
CONTINUOUS
 62
     7
 10
-713.0265225103274
 20
293.3881230865514
 30
0.0
 11
-711.5765225103274
 21
293.3881230865514
 31
0.0
  0
CIRCLE
  5
BF
  8
0
  6
CONTINUOUS
 62
     7
 10
-714.3265225103273
 20
188.8881230865514
 30
0.0
 40
1.999999999999988
  0
CIRCLE
  5
C0
  8
0
  6
CONTINUOUS
 62
     7
 10
-736.5765225103273
 20
199.6381230865514
 30
0.0
 40
4.000000000000004
  0
LINE
  5
C1
  8
0
  6
CONTINUOUS
 62
     7
 10
-707.5765225103273
 20
296.6381230865514
 30
0.0
 11
-710.7645707981336
 21
296.6381230865514
 31
0.0
  0
ARC
  5
C2
  8
0
  6
CONTINUOUS
 62
     7
 10
-707.5765225103273
 20
294.8881230865514
 30
0.0
 40
1.750000000000002
 50
359.9999999999998
 51
90.0
  0
LINE
  5
C3
  8
0
  6
CONTINUOUS
 62
     7
 10
-705.8265225103273
 20
187.8881230865514
 30
0.0
 11
-705.8265225103273
 21
294.8881230865514
 31
0.0
  0
ARC
  5
C4
  8
0
  6
CONTINUOUS
 62
     7
 10
-707.5765225103273
 20
187.8881230865514
 30
0.0
 40
1.750000000000002
 50
270.0
 51
0.0000000000002274
  0
LINE
  5
C5
  8
0
  6
CONTINUOUS
 62
     7
 10
-707.5765225103273
 20
186.1381230865514
 30
0.0
 11
-710.7645707981336
 21
186.1381230865514
 31
0.0
  0
ARC
  5
C6
  8
0
  6
CONTINUOUS
 62
     7
 10
-714.3265225103272
 20
188.8881230865514
 30
0.0
 40
4.499999999999992
 50
217.6698869643297
 51
322.3301130356701
  0
LINE
  5
C7
  8
0
  6
CONTINUOUS
 62
     7
 10
-755.2645707981336
 20
186.1381230865514
 30
0.0
 11
-717.888474222521
 21
186.1381230865514
 31
0.0
  0
ARC
  5
C8
  8
0
  6
CONTINUOUS
 62
     7
 10
-758.8265225103273
 20
188.8881230865514
 30
0.0
 40
4.499999999999997
 50
217.6698869643299
 51
322.3301130356703
  0
LINE
  5
C9
  8
0
  6
CONTINUOUS
 62
     7
 10
-765.5765225103273
 20
186.1381230865514
 30
0.0
 11
-762.388474222521
 21
186.1381230865514
 31
0.0
  0
ARC
  5
CA
  8
0
  6
CONTINUOUS
 62
     7
 10
-765.5765225103273
 20
187.8881230865514
 30
0.0
 40
1.750000000000002
 50
179.9999999999998
 51
270.0
  0
LINE
  5
CB
  8
0
  6
CONTINUOUS
 62
     7
 10
-767.3265225103274
 20
187.8881230865514
 30
0.0
 11
-767.3265225103274
 21
294.8881230865514
 31
0.0
  0
ARC
  5
CC
  8
0
  6
CONTINUOUS
 62
     7
 10
-765.5765225103273
 20
294.8881230865514
 30
0.0
 40
1.750000000000002
 50
90.0
 51
180.0000000000002
  0
LINE
  5
CD
  8
0
  6
CONTINUOUS
 62
     7
 10
-765.5765225103273
 20
296.6381230865514
 30
0.0
 11
-762.388474222521
 21
296.6381230865514
 31
0.0
  0
ARC
  5
CE
  8
0
  6
CONTINUOUS
 62
     7
 10
-758.8265225103273
 20
293.8881230865514
 30
0.0
 40
4.500000000000005
 50
37.66988696432974
 51
142.3301130356701
  0
LINE
  5
CF
  8
0
  6
CONTINUOUS
 62
     7
 10
-755.2645707981336
 20
296.6381230865514
 30
0.0
 11
-717.888474222521
 21
296.6381230865514
 31
0.0
  0
ARC
  5
D0
  8
0
  6
CONTINUOUS
 62
     7
 10
-714.3265225103272
 20
293.8881230865514
 30
0.0
 40
4.5
 50
37.66988696432986
 51
142.3301130356703
  0
CIRCLE
  5
D1
  8
0
  6
CONTINUOUS
 62
     7
 10
-736.5765225103273
 20
283.1381230865514
 30
0.0
 40
4.000000000000004
  0
ARC
  5
D2
  8
0
  6
CONTINUOUS
 62
     7
 10
-745.2330180181144
 20
280.3318648084057
 30
0.0
 40
4.000000000000001
 50
17.96163070225044
 51
103.9135857707628
  0
ARC
  5
D3
  8
0
  6
CONTINUOUS
 62
     7
 10
-736.5765225103273
 20
245.3881230865514
 30
0.0
 40
39.99999999999995
 50
103.9135857707628
 51
124.8499045790465
  0
ARC
  5
D4
  8
0
  6
CONTINUOUS
 62
     7
 10
-756.5765225103273
 20
274.1109363192415
 30
0.0
 40
4.999999999999992
 50
124.8499045790466
 51
180.0000000000002
  0
LINE
  5
D5
  8
0
  6
CONTINUOUS
 62
     7
 10
-761.5765225103273
 20
274.1109363192415
 30
0.0
 11
-761.5765225103273
 21
208.6653098538613
 31
0.0
  0
ARC
  5
D6
  8
0
  6
CONTINUOUS
 62
     7
 10
-756.5765225103273
 20
208.6653098538613
 30
0.0
 40
5.000000000000004
 50
179.9999999999999
 51
235.1500954209534
  0
ARC
  5
D7
  8
0
  6
CONTINUOUS
 62
     7
 10
-736.5765225103273
 20
237.3881230865514
 30
0.0
 40
39.99999999999995
 50
235.1500954209534
 51
256.0864142292371
  0
ARC
  5
D8
  8
0
  6
CONTINUOUS
 62
     7
 10
-745.2330180181144
 20
202.4443813646971
 30
0.0
 40
4.000000000000001
 50
256.0864142292372
 51
342.0383692977496
  0
ARC
  5
D9
  8
0
  6
CONTINUOUS
 62
     7
 10
-736.5765225103273
 20
199.6381230865514
 30
0.0
 40
5.100000000000003
 50
17.96163070225003
 51
162.0383692977496
  0
ARC
  5
DA
  8
0
  6
CONTINUOUS
 62
     7
 10
-727.9200270025401
 20
202.4443813646971
 30
0.0
 40
4.000000000000008
 50
197.9616307022505
 51
283.9135857707628
  0
ARC
  5
DB
  8
0
  6
CONTINUOUS
 62
     7
 10
-736.5765225103273
 20
237.3881230865514
 30
0.0
 40
39.99999999999995
 50
283.9135857707628
 51
304.8499045790465
  0
ARC
  5
DC
  8
0
  6
CONTINUOUS
 62
     7
 10
-716.5765225103273
 20
208.6653098538613
 30
0.0
 40
5.000000000000004
 50
304.8499045790466
 51
0.0000000000001705
  0
LINE
  5
DD
  8
0
  6
CONTINUOUS
 62
     7
 10
-711.5765225103273
 20
274.1109363192415
 30
0.0
 11
-711.5765225103273
 21
208.6653098538613
 31
0.0
  0
ARC
  5
DE
  8
0
  6
CONTINUOUS
 62
     7
 10
-716.5765225103273
 20
274.1109363192415
 30
0.0
 40
4.999999999999992
 50
359.9999999999998
 51
55.15009542095333
  0
ARC
  5
DF
  8
0
  6
CONTINUOUS
 62
     7
 10
-736.5765225103273
 20
245.3881230865514
 30
0.0
 40
39.99999999999995
 50
55.15009542095351
 51
76.08641422923716
  0
ARC
  5
E0
  8
0
  6
CONTINUOUS
 62
     7
 10
-727.9200270025401
 20
280.3318648084057
 30
0.0
 40
4.000000000000008
 50
76.08641422923722
 51
162.0383692977496
  0
ARC
  5
E1
  8
0
  6
CONTINUOUS
 62
     7
 10
-736.5765225103273
 20
283.1381230865514
 30
0.0
 40
5.100000000000003
 50
197.9616307022505
 51
342.03836929775
  0
CIRCLE
  5
E2
  8
0
  6
CONTINUOUS
 62
     7
 10
-758.8265225103273
 20
293.8881230865514
 30
0.0
 40
2.000000000000002
  0
ARC
  5
E3
  8
0
  6
CONTINUOUS
 62
     7
 10
-763.6265225103274
 20
292.6881230865514
 30
0.0
 40
0.6000000000000033
 50
180.0
 51
270.0000000000003
  0
LINE
  5
E4
  8
0
  6
CONTINUOUS
 62
     7
 10
-763.6265225103274
 20
292.0881230865514
 30
0.0
 11
-763.4265225103273
 21
292.0881230865514
 31
0.0
  0
ARC
  5
E5
  8
0
  6
CONTINUOUS
 62
     7
 10
-763.4265225103273
 20
292.6881230865514
 30
0.0
 40
0.5999999999999894
 50
270.0000000000007
 51
359.9999999999987
  0
LINE
  5
E6
  8
0
  6
CONTINUOUS
 62
     7
 10
-762.8265225103273
 20
292.6881230865514
 30
0.0
 11
-762.8265225103273
 21
295.0881230865514
 31
0.0
  0
ARC
  5
E7
  8
0
  6
CONTINUOUS
 62
     7
 10
-763.4265225103273
 20
295.0881230865514
 30
0.0
 40
0.6000000000000033
 50
0.0000000000006626
 51
90.00000000000034
  0
LINE
  5
E8
  8
0
  6
CONTINUOUS
 62
     7
 10
-763.4265225103273
 20
295.6881230865514
 30
0.0
 11
-763.6265225103274
 21
295.6881230865514
 31
0.0
  0
LINE
  5
E9
  8
0
  6
CONTINUOUS
 62
     7
 10
-764.2265225103273
 20
295.0881230865514
 30
0.0
 11
-764.2265225103273
 21
292.6881230865514
 31
0.0
  0
ARC
  5
EA
  8
0
  6
CONTINUOUS
 62
     7
 10
-709.5265225103274
 20
190.0881230865514
 30
0.0
 40
0.6000000000000033
 50
0.0000000000013252
 51
90.0
  0
LINE
  5
EB
  8
0
  6
CONTINUOUS
 62
     7
 10
-709.5265225103274
 20
190.6881230865514
 30
0.0
 11
-709.7265225103273
 21
190.6881230865514
 31
0.0
  0
ARC
  5
EC
  8
0
  6
CONTINUOUS
 62
     7
 10
-709.7265225103273
 20
190.0881230865514
 30
0.0
 40
0.6000000000000033
 50
90.00000000000068
 51
179.9999999999994
  0
LINE
  5
ED
  8
0
  6
CONTINUOUS
 62
     7
 10
-710.3265225103273
 20
190.0881230865514
 30
0.0
 11
-710.3265225103273
 21
187.6881230865514
 31
0.0
  0
ARC
  5
EE
  8
0
  6
CONTINUOUS
 62
     7
 10
-709.7265225103273
 20
187.6881230865514
 30
0.0
 40
0.5999999999999894
 50
180.0
 51
270.0000000000003
  0
LINE
  5
EF
  8
0
  6
CONTINUOUS
 62
     7
 10
-709.7265225103273
 20
187.0881230865514
 30
0.0
 11
-709.5265225103274
 21
187.0881230865514
 31
0.0
  0
ARC
  5
F0
  8
0
  6
CONTINUOUS
 62
     7
 10
-709.5265225103274
 20
187.6881230865514
 30
0.0
 40
0.6000000000000033
 50
269.999999999999
 51
359.9999999999986
  0
ARC
  5
F1
  8
0
  6
CONTINUOUS
 62
     7
 10
-754.2265225103274
 20
292.6881230865514
 30
0.0
 40
0.6000000000000033
 50
180.0
 51
269.999999999999
  0
LINE
  5
F2
  8
0
  6
CONTINUOUS
 62
     7
 10
-754.2265225103274
 20
292.0881230865514
 30
0.0
 11
-754.0265225103273
 21
292.0881230865514
 31
0.0
  0
ARC
  5
F3
  8
0
  6
CONTINUOUS
 62
     7
 10
-754.0265225103273
 20
292.6881230865515
 30
0.0
 40
0.6000000000000172
 50
270.0000000000013
 51
359.9999999999986
  0
LINE
  5
F4
  8
0
  6
CONTINUOUS
 62
     7
 10
-753.4265225103273
 20
292.6881230865514
 30
0.0
 11
-753.4265225103273
 21
295.0881230865514
 31
0.0
  0
ARC
  5
F5
  8
0
  6
CONTINUOUS
 62
     7
 10
-754.0265225103273
 20
295.0881230865514
 30
0.0
 40
0.6000000000000033
 50
0.0
 51
89.999999999999
  0
LINE
  5
F6
  8
0
  6
CONTINUOUS
 62
     7
 10
-754.0265225103273
 20
295.6881230865514
 30
0.0
 11
-754.2265225103273
 21
295.6881230865514
 31
0.0
  0
ARC
  5
F7
  8
0
  6
CONTINUOUS
 62
     7
 10
-754.2265225103273
 20
295.0881230865514
 30
0.0
 40
0.5999999999999894
 50
89.99999999999935
 51
179.9999999999987
  0
LINE
  5
F8
  8
0
  6
CONTINUOUS
 62
     7
 10
-754.8265225103273
 20
295.0881230865514
 30
0.0
 11
-754.8265225103273
 21
292.6881230865514
 31
0.0
  0
ARC
  5
F9
  8
0
  6
CONTINUOUS
 62
     7
 10
-709.7265225103273
 20
292.6881230865514
 30
0.0
 40
0.6000000000000033
 50
180.0000000000014
 51
269.9999999999993
  0
LINE
  5
FA
  8
0
  6
CONTINUOUS
 62
     7
 10
-709.7265225103273
 20
292.0881230865514
 30
0.0
 11
-709.5265225103274
 21
292.0881230865514
 31
0.0
  0
ARC
  5
FB
  8
0
  6
CONTINUOUS
 62
     7
 10
-709.5265225103274
 20
292.6881230865514
 30
0.0
 40
0.5999999999999894
 50
270.0
 51
359.9999999999987
  0
LINE
  5
FC
  8
0
  6
CONTINUOUS
 62
     7
 10
-708.9265225103273
 20
292.6881230865514
 30
0.0
 11
-708.9265225103273
 21
295.0881230865514
 31
0.0
  0
ARC
  5
FD
  8
0
  6
CONTINUOUS
 62
     7
 10
-709.5265225103274
 20
295.0881230865514
 30
0.0
 40
0.6000000000000033
 50
0.0000000000013252
 51
90.000000000001
  0
LINE
  5
FE
  8
0
  6
CONTINUOUS
 62
     7
 10
-709.5265225103274
 20
295.6881230865514
 30
0.0
 11
-709.7265225103273
 21
295.6881230865514
 31
0.0
  0
ARC
  5
FF
  8
0
  6
CONTINUOUS
 62
     7
 10
-709.7265225103273
 20
295.0881230865514
 30
0.0
 40
0.5999999999999894
 50
89.99999999999969
 51
180.0
  0
ARC
  5
100
  8
0
  6
CONTINUOUS
 62
     7
 10
-718.9265225103273
 20
295.0881230865514
 30
0.0
 40
0.5999999999999894
 50
0.0000000000013252
 51
90.00000000000064
  0
LINE
  5
101
  8
0
  6
CONTINUOUS
 62
     7
 10
-718.9265225103273
 20
295.6881230865514
 30
0.0
 11
-719.1265225103274
 21
295.6881230865514
 31
0.0
  0
ARC
  5
102
  8
0
  6
CONTINUOUS
 62
     7
 10
-719.1265225103274
 20
295.0881230865514
 30
0.0
 40
0.6000000000000172
 50
90.00000000000068
 51
180.0
  0
LINE
  5
103
  8
0
  6
CONTINUOUS
 62
     7
 10
-719.7265225103273
 20
295.0881230865514
 30
0.0
 11
-719.7265225103273
 21
292.6881230865514
 31
0.0
  0
ARC
  5
104
  8
0
  6
CONTINUOUS
 62
     7
 10
-719.1265225103274
 20
292.6881230865515
 30
0.0
 40
0.5999999999999894
 50
180.0000000000014
 51
269.9999999999987
  0
LINE
  5
105
  8
0
  6
CONTINUOUS
 62
     7
 10
-719.1265225103274
 20
292.0881230865514
 30
0.0
 11
-718.9265225103272
 21
292.0881230865514
 31
0.0
  0
ARC
  5
106
  8
0
  6
CONTINUOUS
 62
     7
 10
-718.9265225103272
 20
292.6881230865514
 30
0.0
 40
0.5999999999999894
 50
270.0000000000013
 51
359.9999999999986
  0
ARC
  5
107
  8
0
  6
CONTINUOUS
 62
     7
 10
-763.4265225103273
 20
190.0881230865514
 30
0.0
 40
0.6000000000000033
 50
0.0000000000006626
 51
89.99999999999935
  0
LINE
  5
108
  8
0
  6
CONTINUOUS
 62
     7
 10
-763.4265225103273
 20
190.6881230865514
 30
0.0
 11
-763.6265225103274
 21
190.6881230865514
 31
0.0
  0
ARC
  5
109
  8
0
  6
CONTINUOUS
 62
     7
 10
-763.6265225103274
 20
190.0881230865514
 30
0.0
 40
0.6000000000000033
 50
89.99999999999969
 51
179.9999999999994
  0
LINE
  5
10A
  8
0
  6
CONTINUOUS
 62
     7
 10
-764.2265225103273
 20
190.0881230865514
 30
0.0
 11
-764.2265225103273
 21
187.6881230865514
 31
0.0
  0
ARC
  5
10B
  8
0
  6
CONTINUOUS
 62
     7
 10
-763.6265225103274
 20
187.6881230865514
 30
0.0
 40
0.6000000000000033
 50
180.0
 51
270.000000000001
  0
ARC
  5
10C
  8
0
  6
CONTINUOUS
 62
     7
 10
-763.4265225103273
 20
187.6881230865514
 30
0.0
 40
0.6000000000000033
 50
269.9999999999997
 51
359.9999999999993
  0
ARC
  5
10D
  8
0
  6
CONTINUOUS
 62
     7
 10
-754.2265225103273
 20
187.6881230865514
 30
0.0
 40
0.5999999999999963
 50
180.0
 51
270.0000000000007
  0
LINE
  5
10E
  8
0
  6
CONTINUOUS
 62
     7
 10
-754.2265225103273
 20
187.0881230865514
 30
0.0
 11
-754.0265225103273
 21
187.0881230865514
 31
0.0
  0
ARC
  5
10F
  8
0
  6
CONTINUOUS
 62
     7
 10
-754.0265225103273
 20
187.6881230865514
 30
0.0
 40
0.6000000000000172
 50
270.000000000001
 51
0.0
  0
LINE
  5
110
  8
0
  6
CONTINUOUS
 62
     7
 10
-753.4265225103273
 20
187.6881230865514
 30
0.0
 11
-753.4265225103273
 21
190.0881230865514
 31
0.0
  0
ARC
  5
111
  8
0
  6
CONTINUOUS
 62
     7
 10
-754.0265225103273
 20
190.0881230865514
 30
0.0
 40
0.5999999999999963
 50
0.0000000000013252
 51
89.99999999999868
  0
LINE
  5
112
  8
0
  6
CONTINUOUS
 62
     7
 10
-754.0265225103273
 20
190.6881230865514
 30
0.0
 11
-754.2265225103274
 21
190.6881230865514
 31
0.0
  0
ARC
  5
113
  8
0
  6
CONTINUOUS
 62
     7
 10
-754.2265225103274
 20
190.0881230865514
 30
0.0
 40
0.6000000000000033
 50
90.000000000001
 51
180.0
  0
ARC
  5
114
  8
0
  6
CONTINUOUS
 62
     7
 10
-718.9265225103272
 20
190.0881230865514
 30
0.0
 40
0.6000000000000033
 50
0.0000000000013252
 51
89.99999999999868
  0
LINE
  5
115
  8
0
  6
CONTINUOUS
 62
     7
 10
-718.9265225103272
 20
190.6881230865514
 30
0.0
 11
-719.1265225103274
 21
190.6881230865514
 31
0.0
  0
ARC
  5
116
  8
0
  6
CONTINUOUS
 62
     7
 10
-719.1265225103274
 20
190.0881230865514
 30
0.0
 40
0.6000000000000033
 50
90.00000000000132
 51
179.9999999999987
  0
LINE
  5
117
  8
0
  6
CONTINUOUS
 62
     7
 10
-719.7265225103273
 20
190.0881230865514
 30
0.0
 11
-719.7265225103273
 21
187.6881230865514
 31
0.0
  0
ARC
  5
118
  8
0
  6
CONTINUOUS
 62
     7
 10
-719.1265225103274
 20
187.6881230865514
 30
0.0
 40
0.6000000000000033
 50
180.0
 51
269.9999999999993
  0
LINE
  5
119
  8
0
  6
CONTINUOUS
 62
     7
 10
-719.1265225103274
 20
187.0881230865514
 30
0.0
 11
-718.9265225103273
 21
187.0881230865514
 31
0.0
  0
ARC
  5
11A
  8
0
  6
CONTINUOUS
 62
     7
 10
-718.9265225103273
 20
187.6881230865514
 30
0.0
 40
0.6000000000000033
 50
269.9999999999993
 51
359.9999999999986
  0
LINE
  5
11B
  8
0
  6
CONTINUOUS
 62
     7
 10
-718.3265225103273
 20
187.6881230865514
 30
0.0
 11
-718.3265225103273
 21
190.0881230865514
 31
0.0
  0
ARC
  5
11C
  8
0
  6
CONTINUOUS
 62
     7
 10
-763.6265225103274
 20
295.0881230865514
 30
0.0
 40
0.5999999999999894
 50
89.999999999999
 51
179.9999999999987
  0
LINE
  5
11D
  8
0
  6
CONTINUOUS
 62
     7
 10
-763.6265225103274
 20
187.0881230865514
 30
0.0
 11
-763.4265225103273
 21
187.0881230865514
 31
0.0
  0
LINE
  5
11E
  8
0
  6
CONTINUOUS
 62
     7
 10
-708.9265225103273
 20
187.6881230865514
 30
0.0
 11
-708.9265225103273
 21
190.0881230865514
 31
0.0
  0
CIRCLE
  5
11F
  8
0
  6
CONTINUOUS
 62
     7
 10
-736.5765225103273
 20
199.6381230865514
 30
0.0
 40
2.100000000000005
  0
CIRCLE
  5
120
  8
0
  6
CONTINUOUS
 62
     7
 10
-736.5765225103273
 20
283.1381230865514
 30
0.0
 40
2.100000000000005
  0
CIRCLE
  5
121
  8
0
  6
CONTINUOUS
 62
     7
 10
-758.8265225103273
 20
293.8881230865514
 30
0.0
 40
1.250000000000001
  0
CIRCLE
  5
122
  8
0
  6
CONTINUOUS
 62
     7
 10
-758.8265225103273
 20
293.8881230865514
 30
0.0
 40
1.750000000000002
  0
CIRCLE
  5
123
  8
0
  6
CONTINUOUS
 62
     7
 10
-714.3265225103273
 20
188.8881230865514
 30
0.0
 40
1.250000000000001
  0
CIRCLE
  5
124
  8
0
  6
CONTINUOUS
 62
     7
 10
-714.3265225103273
 20
188.8881230865514
 30
0.0
 40
1.750000000000002
  0
POLYLINE
  5
125
  8
0
  6
CONTINUOUS
 62
     9
 66
     1
 10
0.0
 20
0.0
 30
0.0
  0
VERTEX
  5
200
  8
0
  6
CONTINUOUS
 62
     9
 10
-768.2024015311437
 20
311.6881230856557
 30
0.0
  0
VERTEX
  5
201
  8
0
  6
CONTINUOUS
 62
     9
 10
-768.2019940289039
 20
311.6597186043587
 30
0.0
  0
VERTEX
  5
202
  8
0
  6
CONTINUOUS
 62
     9
 10
-768.2007705315887
 20
311.6313141230629
 30
0.0
  0
VERTEX
  5
203
  8
0
  6
CONTINUOUS
 62
     9
 10
-768.19893762633
 20
311.6053724474772
 30
0.0
  0
VERTEX
  5
204
  8
0
  6
CONTINUOUS
 62
     9
 10
-768.196424310058
 20
311.5794879492082
 30
0.0
  0
VERTEX
  5
205
  8
0
  6
CONTINUOUS
 62
     9
 10
-768.1932223716061
 20
311.5536069765167
 30
0.0
  0
VERTEX
  5
206
  8
0
  6
CONTINUOUS
 62
     9
 10
-768.1893404341537
 20
311.5278194253477
 30
0.0
  0
VERTEX
  5
207
  8
0
  6
CONTINUOUS
 62
     9
 10
-768.1810879299534
 20
311.4837681895255
 30
0.0
  0
VERTEX
  5
208
  8
0
  6
CONTINUOUS
 62
     9
 10
-768.1708298180682
 20
311.4400466101965
 30
0.0
  0
VERTEX
  5
209
  8
0
  6
CONTINUOUS
 62
     9
 10
-768.1592716324577
 20
311.399017323628
 30
0.0
  0
VERTEX
  5
20A
  8
0
  6
CONTINUOUS
 62
     9
 10
-768.1459361902616
 20
311.3584486996119
 30
0.0
  0
VERTEX
  5
20B
  8
0
  6
CONTINUOUS
 62
     9
 10
-768.1322834495427
 20
311.3220308226879
 30
0.0
  0
VERTEX
  5
20C
  8
0
  6
CONTINUOUS
 62
     9
 10
-768.1171922823928
 20
311.2861214085016
 30
0.0
  0
VERTEX
  5
20D
  8
0
  6
CONTINUOUS
 62
     9
 10
-768.1023025995984
 20
311.2540954311238
 30
0.0
  0
VERTEX
  5
20E
  8
0
  6
CONTINUOUS
 62
     9
 10
-768.0862868000321
 20
311.2226187226494
 30
0.0
  0
VERTEX
  5
20F
  8
0
  6
CONTINUOUS
 62
     9
 10
-768.0690755324588
 20
311.1915753824949
 30
0.0
  0
VERTEX
  5
210
  8
0
  6
CONTINUOUS
 62
     9
 10
-768.0507709753541
 20
311.1611653237145
 30
0.0
  0
VERTEX
  5
211
  8
0
  6
CONTINUOUS
 62
     9
 10
-768.0349224097837
 20
311.1366693528813
 30
0.0
  0
VERTEX
  5
212
  8
0
  6
CONTINUOUS
 62
     9
 10
-768.0183656039422
 20
311.112647531804
 30
0.0
  0
VERTEX
  5
213
  8
0
  6
CONTINUOUS
 62
     9
 10
-768.001054593308
 20
311.0890402265872
 30
0.0
  0
VERTEX
  5
214
  8
0
  6
CONTINUOUS
 62
     9
 10
-767.9830608308046
 20
311.0659503562805
 30
0.0
  0
VERTEX
  5
215
  8
0
  6
CONTINUOUS
 62
     9
 10
-767.9580182151277
 20
311.0359834282024
 30
0.0
  0
VERTEX
  5
216
  8
0
  6
CONTINUOUS
 62
     9
 10
-767.9317875253812
 20
311.0069730198948
 30
0.0
  0
VERTEX
  5
217
  8
0
  6
CONTINUOUS
 62
     9
 10
-767.907045116313
 20
310.9815733895205
 30
0.0
  0
VERTEX
  5
218
  8
0
  6
CONTINUOUS
 62
     9
 10
-767.8814230699567
 20
310.9570637569136
 30
0.0
  0
VERTEX
  5
219
  8
0
  6
CONTINUOUS
 62
     9
 10
-767.8548188855634
 20
310.933358005649
 30
0.0
  0
VERTEX
  5
21A
  8
0
  6
CONTINUOUS
 62
     9
 10
-767.8273940161021
 20
310.9106094058076
 30
0.0
  0
VERTEX
  5
21B
  8
0
  6
CONTINUOUS
 62
     9
 10
-767.8042632558787
 20
310.8926483245236
 30
0.0
  0
VERTEX
  5
21C
  8
0
  6
CONTINUOUS
 62
     9
 10
-767.7806219994504
 20
310.8753667331944
 30
0.0
  0
VERTEX
  5
21D
  8
0
  6
CONTINUOUS
 62
     9
 10
-767.7564080187589
 20
310.8587237869219
 30
0.0
  0
VERTEX
  5
21E
  8
0
  6
CONTINUOUS
 62
     9
 10
-767.7317216735719
 20
310.8427921408681
 30
0.0
  0
VERTEX
  5
21F
  8
0
  6
CONTINUOUS
 62
     9
 10
-767.6957946256147
 20
310.8213581101134
 30
0.0
  0
VERTEX
  5
220
  8
0
  6
CONTINUOUS
 62
     9
 10
-767.6589519844425
 20
310.8013938866924
 30
0.0
  0
VERTEX
  5
221
  8
0
  6
CONTINUOUS
 62
     9
 10
-767.6210344075441
 20
310.7828372819191
 30
0.0
  0
VERTEX
  5
222
  8
0
  6
CONTINUOUS
 62
     9
 10
-767.5823133967883
 20
310.7658450098954
 30
0.0
  0
VERTEX
  5
223
  8
0
  6
CONTINUOUS
 62
     9
 10
-767.5425181747488
 20
310.750329752826
 30
0.0
  0
VERTEX
  5
224
  8
0
  6
CONTINUOUS
 62
     9
 10
-767.5020380076669
 20
310.7364745658786
 30
0.0
  0
VERTEX
  5
225
  8
0
  6
CONTINUOUS
 62
     9
 10
-767.4607039669598
 20
310.7242454803114
 30
0.0
  0
VERTEX
  5
226
  8
0
  6
CONTINUOUS
 62
     9
 10
-767.4188177157733
 20
310.713755565512
 30
0.0
  0
VERTEX
  5
227
  8
0
  6
CONTINUOUS
 62
     9
 10
-767.3908984106005
 20
310.7077962457502
 30
0.0
  0
VERTEX
  5
228
  8
0
  6
CONTINUOUS
 62
     9
 10
-767.3628026287403
 20
310.7026149785291
 30
0.0
  0
VERTEX
  5
229
  8
0
  6
CONTINUOUS
 62
     9
 10
-767.334474193793
 20
310.6982061387465
 30
0.0
  0
VERTEX
  5
22A
  8
0
  6
CONTINUOUS
 62
     9
 10
-767.3060342764386
 20
310.6945920825082
 30
0.0
  0
SEQEND
  5
2F3
  8
0
  6
CONTINUOUS
 62
     9
  0
LINE
  5
126
  8
0
  6
CONTINUOUS
 62
     9
 10
-741.2219513377757
 20
310.6881230873508
 30
0.0
 11
-741.0848789384569
 21
310.696641609378
 31
0.0
  0
LINE
  5
127
  8
0
  6
CONTINUOUS
 62
     9
 10
-768.2024015322127
 20
328.6881230856537
 30
0.0
 11
-768.2024015311437
 21
311.6881230856544
 31
0.0
  0
LINE
  5
128
  8
0
  6
CONTINUOUS
 62
     9
 10
-740.1753774999047
 20
311.6881230874166
 30
0.0
 11
-740.1753775009736
 21
328.688123087416
 31
0.0
  0
POLYLINE
  5
129
  8
0
  6
CONTINUOUS
 62
     9
 66
     1
 10
0.0
 20
0.0
 30
0.0
  0
VERTEX
  5
22B
  8
0
  6
CONTINUOUS
 62
     9
 10
-741.0848789384569
 20
310.696641609378
 30
0.0
  0
VERTEX
  5
22C
  8
0
  6
CONTINUOUS
 62
     9
 10
-741.0485130058731
 20
310.7018033599531
 30
0.0
  0
VERTEX
  5
22D
  8
0
  6
CONTINUOUS
 62
     9
 10
-741.0050401624421
 20
310.7096178594688
 30
0.0
  0
VERTEX
  5
22E
  8
0
  6
CONTINUOUS
 62
     9
 10
-740.9618414861393
 20
310.7192001044622
 30
0.0
  0
VERTEX
  5
22F
  8
0
  6
CONTINUOUS
 62
     9
 10
-740.9187672953128
 20
310.7306152279775
 30
0.0
  0
VERTEX
  5
230
  8
0
  6
CONTINUOUS
 62
     9
 10
-740.8761193386007
 20
310.7438166733066
 30
0.0
  0
VERTEX
  5
231
  8
0
  6
CONTINUOUS
 62
     9
 10
-740.8344315522368
 20
310.7586274251252
 30
0.0
  0
VERTEX
  5
232
  8
0
  6
CONTINUOUS
 62
     9
 10
-740.7933119582202
 20
310.7751753041744
 30
0.0
  0
VERTEX
  5
233
  8
0
  6
CONTINUOUS
 62
     9
 10
-740.7526008678378
 20
310.7935636228884
 30
0.0
  0
VERTEX
  5
234
  8
0
  6
CONTINUOUS
 62
     9
 10
-740.7126202705806
 20
310.8136878185567
 30
0.0
  0
VERTEX
  5
235
  8
0
  6
CONTINUOUS
 62
     9
 10
-740.6731148371812
 20
310.8357284502912
 30
0.0
  0
VERTEX
  5
236
  8
0
  6
CONTINUOUS
 62
     9
 10
-740.6345154879597
 20
310.8594996563881
 30
0.0
  0
VERTEX
  5
237
  8
0
  6
CONTINUOUS
 62
     9
 10
-740.5966853835043
 20
310.8851341491283
 30
0.0
  0
VERTEX
  5
238
  8
0
  6
CONTINUOUS
 62
     9
 10
-740.5599410851053
 20
310.9124683518104
 30
0.0
  0
VERTEX
  5
239
  8
0
  6
CONTINUOUS
 62
     9
 10
-740.5284944528348
 20
310.937968546821
 30
0.0
  0
VERTEX
  5
23A
  8
0
  6
CONTINUOUS
 62
     9
 10
-740.498024411508
 20
310.9647358901588
 30
0.0
  0
VERTEX
  5
23B
  8
0
  6
CONTINUOUS
 62
     9
 10
-740.4713224512507
 20
310.9900456441508
 30
0.0
  0
VERTEX
  5
23C
  8
0
  6
CONTINUOUS
 62
     9
 10
-740.4455482723905
 20
311.0163086576179
 30
0.0
  0
VERTEX
  5
23D
  8
0
  6
CONTINUOUS
 62
     9
 10
-740.4206117359663
 20
311.0436430108495
 30
0.0
  0
VERTEX
  5
23E
  8
0
  6
CONTINUOUS
 62
     9
 10
-740.3966905776376
 20
311.0718784297496
 30
0.0
  0
VERTEX
  5
23F
  8
0
  6
CONTINUOUS
 62
     9
 10
-740.3778046802745
 20
311.0957522829355
 30
0.0
  0
VERTEX
  5
240
  8
0
  6
CONTINUOUS
 62
     9
 10
-740.3596513843297
 20
311.1201928397175
 30
0.0
  0
VERTEX
  5
241
  8
0
  6
CONTINUOUS
 62
     9
 10
-740.3421867812024
 20
311.1452746953976
 30
0.0
  0
VERTEX
  5
242
  8
0
  6
CONTINUOUS
 62
     9
 10
-740.3254995916499
 20
311.1708848912968
 30
0.0
  0
VERTEX
  5
243
  8
0
  6
CONTINUOUS
 62
     9
 10
-740.3039084982371
 20
311.2068333818117
 30
0.0
  0
VERTEX
  5
244
  8
0
  6
CONTINUOUS
 62
     9
 10
-740.2838268183993
 20
311.2437407429595
 30
0.0
  0
VERTEX
  5
245
  8
0
  6
CONTINUOUS
 62
     9
 10
-740.265189898606
 20
311.2818012889624
 30
0.0
  0
VERTEX
  5
246
  8
0
  6
CONTINUOUS
 62
     9
 10
-740.2482148519961
 20
311.3206377488244
 30
0.0
  0
VERTEX
  5
247
  8
0
  6
CONTINUOUS
 62
     9
 10
-740.2328311358959
 20
311.3604867288196
 30
0.0
  0
VERTEX
  5
248
  8
0
  6
CONTINUOUS
 62
     9
 10
-740.2192098175337
 20
311.4009770498977
 30
0.0
  0
VERTEX
  5
249
  8
0
  6
CONTINUOUS
 62
     9
 10
-740.2072875556694
 20
311.4423985464772
 30
0.0
  0
VERTEX
  5
24A
  8
0
  6
CONTINUOUS
 62
     9
 10
-740.1972031048892
 20
311.4843981426156
 30
0.0
  0
VERTEX
  5
24B
  8
0
  6
CONTINUOUS
 62
     9
 10
-740.1921315102815
 20
311.5094085815881
 30
0.0
  0
VERTEX
  5
24C
  8
0
  6
CONTINUOUS
 62
     9
 10
-740.1877204396278
 20
311.5345632033319
 30
0.0
  0
VERTEX
  5
24D
  8
0
  6
CONTINUOUS
 62
     9
 10
-740.1839666362483
 20
311.5599080061917
 30
0.0
  0
VERTEX
  5
24E
  8
0
  6
CONTINUOUS
 62
     9
 10
-740.1808884071057
 20
311.5853444044126
 30
0.0
  0
VERTEX
  5
24F
  8
0
  6
CONTINUOUS
 62
     9
 10
-740.1784827828021
 20
311.6109276783432
 30
0.0
  0
VERTEX
  5
250
  8
0
  6
CONTINUOUS
 62
     9
 10
-740.1767614291942
 20
311.6365665097163
 30
0.0
  0
VERTEX
  5
251
  8
0
  6
CONTINUOUS
 62
     9
 10
-740.1757238102177
 20
311.6623260852958
 30
0.0
  0
VERTEX
  5
252
  8
0
  6
CONTINUOUS
 62
     9
 10
-740.1753774999047
 20
311.6881230874179
 30
0.0
  0
SEQEND
  5
2F4
  8
0
  6
CONTINUOUS
 62
     9
  0
LINE
  5
12A
  8
0
  6
CONTINUOUS
 62
     9
 10
-733.2024015322122
 20
328.688123085669
 30
0.0
 11
-733.2024015311505
 21
311.6881230856696
 31
0.0
  0
LINE
  5
12B
  8
0
  6
CONTINUOUS
 62
     9
 10
-705.1753774999129
 20
311.68812308742
 30
0.0
 11
-705.1753775009746
 21
328.6881230874193
 31
0.0
  0
POLYLINE
  5
12C
  8
0
  6
CONTINUOUS
 62
     9
 66
     1
 10
0.0
 20
0.0
 30
0.0
  0
VERTEX
  5
253
  8
0
  6
CONTINUOUS
 62
     9
 10
-733.2024015311505
 20
311.688123085671
 30
0.0
  0
VERTEX
  5
254
  8
0
  6
CONTINUOUS
 62
     9
 10
-733.2019940289105
 20
311.6597186043738
 30
0.0
  0
VERTEX
  5
255
  8
0
  6
CONTINUOUS
 62
     9
 10
-733.2007705315953
 20
311.6313141230781
 30
0.0
  0
VERTEX
  5
256
  8
0
  6
CONTINUOUS
 62
     9
 10
-733.1989376263368
 20
311.6053724474925
 30
0.0
  0
VERTEX
  5
257
  8
0
  6
CONTINUOUS
 62
     9
 10
-733.1964243100647
 20
311.5794879492234
 30
0.0
  0
VERTEX
  5
258
  8
0
  6
CONTINUOUS
 62
     9
 10
-733.1932223716128
 20
311.5536069765319
 30
0.0
  0
VERTEX
  5
259
  8
0
  6
CONTINUOUS
 62
     9
 10
-733.1893404341605
 20
311.527819425363
 30
0.0
  0
VERTEX
  5
25A
  8
0
  6
CONTINUOUS
 62
     9
 10
-733.1810879299602
 20
311.4837681895407
 30
0.0
  0
VERTEX
  5
25B
  8
0
  6
CONTINUOUS
 62
     9
 10
-733.170829818075
 20
311.4400466102117
 30
0.0
  0
VERTEX
  5
25C
  8
0
  6
CONTINUOUS
 62
     9
 10
-733.1592716324647
 20
311.3990173236432
 30
0.0
  0
VERTEX
  5
25D
  8
0
  6
CONTINUOUS
 62
     9
 10
-733.1459361902685
 20
311.3584486996272
 30
0.0
  0
VERTEX
  5
25E
  8
0
  6
CONTINUOUS
 62
     9
 10
-733.1322834495495
 20
311.322030822703
 30
0.0
  0
VERTEX
  5
25F
  8
0
  6
CONTINUOUS
 62
     9
 10
-733.1171922823996
 20
311.2861214085168
 30
0.0
  0
VERTEX
  5
260
  8
0
  6
CONTINUOUS
 62
     9
 10
-733.1023025996053
 20
311.254095431139
 30
0.0
  0
VERTEX
  5
261
  8
0
  6
CONTINUOUS
 62
     9
 10
-733.0862868000389
 20
311.2226187226646
 30
0.0
  0
VERTEX
  5
262
  8
0
  6
CONTINUOUS
 62
     9
 10
-733.0690755324657
 20
311.1915753825101
 30
0.0
  0
VERTEX
  5
263
  8
0
  6
CONTINUOUS
 62
     9
 10
-733.050770975361
 20
311.1611653237297
 30
0.0
  0
VERTEX
  5
264
  8
0
  6
CONTINUOUS
 62
     9
 10
-733.0349224097906
 20
311.1366693528964
 30
0.0
  0
VERTEX
  5
265
  8
0
  6
CONTINUOUS
 62
     9
 10
-733.0183656039492
 20
311.1126475318191
 30
0.0
  0
VERTEX
  5
266
  8
0
  6
CONTINUOUS
 62
     9
 10
-733.001054593315
 20
311.0890402266023
 30
0.0
  0
VERTEX
  5
267
  8
0
  6
CONTINUOUS
 62
     9
 10
-732.9830608308115
 20
311.0659503562956
 30
0.0
  0
VERTEX
  5
268
  8
0
  6
CONTINUOUS
 62
     9
 10
-732.9580182151348
 20
311.0359834282175
 30
0.0
  0
VERTEX
  5
269
  8
0
  6
CONTINUOUS
 62
     9
 10
-732.9317875253881
 20
311.0069730199099
 30
0.0
  0
VERTEX
  5
26A
  8
0
  6
CONTINUOUS
 62
     9
 10
-732.90704511632
 20
310.9815733895356
 30
0.0
  0
VERTEX
  5
26B
  8
0
  6
CONTINUOUS
 62
     9
 10
-732.8814230699636
 20
310.9570637569287
 30
0.0
  0
VERTEX
  5
26C
  8
0
  6
CONTINUOUS
 62
     9
 10
-732.8548188855704
 20
310.933358005664
 30
0.0
  0
VERTEX
  5
26D
  8
0
  6
CONTINUOUS
 62
     9
 10
-732.8273940161092
 20
310.9106094058226
 30
0.0
  0
VERTEX
  5
26E
  8
0
  6
CONTINUOUS
 62
     9
 10
-732.8042632558858
 20
310.8926483245386
 30
0.0
  0
VERTEX
  5
26F
  8
0
  6
CONTINUOUS
 62
     9
 10
-732.7806219994574
 20
310.8753667332095
 30
0.0
  0
VERTEX
  5
270
  8
0
  6
CONTINUOUS
 62
     9
 10
-732.7564080187659
 20
310.8587237869369
 30
0.0
  0
VERTEX
  5
271
  8
0
  6
CONTINUOUS
 62
     9
 10
-732.7317216735789
 20
310.8427921408831
 30
0.0
  0
VERTEX
  5
272
  8
0
  6
CONTINUOUS
 62
     9
 10
-732.6957946256217
 20
310.8213581101284
 30
0.0
  0
VERTEX
  5
273
  8
0
  6
CONTINUOUS
 62
     9
 10
-732.6589519844496
 20
310.8013938867074
 30
0.0
  0
VERTEX
  5
274
  8
0
  6
CONTINUOUS
 62
     9
 10
-732.6210344075512
 20
310.7828372819341
 30
0.0
  0
VERTEX
  5
275
  8
0
  6
CONTINUOUS
 62
     9
 10
-732.5823133967954
 20
310.7658450099104
 30
0.0
  0
VERTEX
  5
276
  8
0
  6
CONTINUOUS
 62
     9
 10
-732.5425181747559
 20
310.7503297528409
 30
0.0
  0
VERTEX
  5
277
  8
0
  6
CONTINUOUS
 62
     9
 10
-732.5020380076741
 20
310.7364745658936
 30
0.0
  0
VERTEX
  5
278
  8
0
  6
CONTINUOUS
 62
     9
 10
-732.460703966967
 20
310.7242454803263
 30
0.0
  0
VERTEX
  5
279
  8
0
  6
CONTINUOUS
 62
     9
 10
-732.4188177157804
 20
310.7137555655269
 30
0.0
  0
VERTEX
  5
27A
  8
0
  6
CONTINUOUS
 62
     9
 10
-732.3908984106076
 20
310.7077962457651
 30
0.0
  0
VERTEX
  5
27B
  8
0
  6
CONTINUOUS
 62
     9
 10
-732.3628026287474
 20
310.702614978544
 30
0.0
  0
VERTEX
  5
27C
  8
0
  6
CONTINUOUS
 62
     9
 10
-732.3344741938
 20
310.6982061387614
 30
0.0
  0
VERTEX
  5
27D
  8
0
  6
CONTINUOUS
 62
     9
 10
-732.3060342764456
 20
310.694592082523
 30
0.0
  0
SEQEND
  5
2F5
  8
0
  6
CONTINUOUS
 62
     9
  0
LINE
  5
12D
  8
0
  6
CONTINUOUS
 62
     9
 10
-706.2219513377843
 20
310.6881230873547
 30
0.0
 11
-706.0848789384667
 21
310.6966416093816
 31
0.0
  0
POLYLINE
  5
12E
  8
0
  6
CONTINUOUS
 62
     9
 66
     1
 10
0.0
 20
0.0
 30
0.0
  0
VERTEX
  5
27E
  8
0
  6
CONTINUOUS
 62
     9
 10
-706.0848789384668
 20
310.6966416093816
 30
0.0
  0
VERTEX
  5
27F
  8
0
  6
CONTINUOUS
 62
     9
 10
-706.0485130058818
 20
310.7018033599568
 30
0.0
  0
VERTEX
  5
280
  8
0
  6
CONTINUOUS
 62
     9
 10
-706.0050401624508
 20
310.7096178594725
 30
0.0
  0
VERTEX
  5
281
  8
0
  6
CONTINUOUS
 62
     9
 10
-705.9618414861479
 20
310.7192001044659
 30
0.0
  0
VERTEX
  5
282
  8
0
  6
CONTINUOUS
 62
     9
 10
-705.9187672953213
 20
310.7306152279811
 30
0.0
  0
VERTEX
  5
283
  8
0
  6
CONTINUOUS
 62
     9
 10
-705.8761193386092
 20
310.7438166733103
 30
0.0
  0
VERTEX
  5
284
  8
0
  6
CONTINUOUS
 62
     9
 10
-705.8344315522454
 20
310.7586274251289
 30
0.0
  0
VERTEX
  5
285
  8
0
  6
CONTINUOUS
 62
     9
 10
-705.7933119582287
 20
310.775175304178
 30
0.0
  0
VERTEX
  5
286
  8
0
  6
CONTINUOUS
 62
     9
 10
-705.7526008678464
 20
310.7935636228921
 30
0.0
  0
VERTEX
  5
287
  8
0
  6
CONTINUOUS
 62
     9
 10
-705.7126202705892
 20
310.8136878185602
 30
0.0
  0
VERTEX
  5
288
  8
0
  6
CONTINUOUS
 62
     9
 10
-705.6731148371897
 20
310.8357284502948
 30
0.0
  0
VERTEX
  5
289
  8
0
  6
CONTINUOUS
 62
     9
 10
-705.6345154879682
 20
310.8594996563916
 30
0.0
  0
VERTEX
  5
28A
  8
0
  6
CONTINUOUS
 62
     9
 10
-705.5966853835129
 20
310.8851341491318
 30
0.0
  0
VERTEX
  5
28B
  8
0
  6
CONTINUOUS
 62
     9
 10
-705.5599410851138
 20
310.912468351814
 30
0.0
  0
VERTEX
  5
28C
  8
0
  6
CONTINUOUS
 62
     9
 10
-705.5284944528433
 20
310.9379685468244
 30
0.0
  0
VERTEX
  5
28D
  8
0
  6
CONTINUOUS
 62
     9
 10
-705.4980244115166
 20
310.9647358901623
 30
0.0
  0
VERTEX
  5
28E
  8
0
  6
CONTINUOUS
 62
     9
 10
-705.4713224512592
 20
310.9900456441543
 30
0.0
  0
VERTEX
  5
28F
  8
0
  6
CONTINUOUS
 62
     9
 10
-705.4455482723989
 20
311.0163086576213
 30
0.0
  0
VERTEX
  5
290
  8
0
  6
CONTINUOUS
 62
     9
 10
-705.4206117359748
 20
311.043643010853
 30
0.0
  0
VERTEX
  5
291
  8
0
  6
CONTINUOUS
 62
     9
 10
-705.396690577646
 20
311.071878429753
 30
0.0
  0
VERTEX
  5
292
  8
0
  6
CONTINUOUS
 62
     9
 10
-705.3778046802829
 20
311.0957522829389
 30
0.0
  0
VERTEX
  5
293
  8
0
  6
CONTINUOUS
 62
     9
 10
-705.3596513843381
 20
311.120192839721
 30
0.0
  0
VERTEX
  5
294
  8
0
  6
CONTINUOUS
 62
     9
 10
-705.3421867812108
 20
311.1452746954011
 30
0.0
  0
VERTEX
  5
295
  8
0
  6
CONTINUOUS
 62
     9
 10
-705.3254995916583
 20
311.1708848913001
 30
0.0
  0
VERTEX
  5
296
  8
0
  6
CONTINUOUS
 62
     9
 10
-705.3039084982455
 20
311.2068333818152
 30
0.0
  0
VERTEX
  5
297
  8
0
  6
CONTINUOUS
 62
     9
 10
-705.2838268184076
 20
311.2437407429629
 30
0.0
  0
VERTEX
  5
298
  8
0
  6
CONTINUOUS
 62
     9
 10
-705.2651898986144
 20
311.2818012889658
 30
0.0
  0
VERTEX
  5
299
  8
0
  6
CONTINUOUS
 62
     9
 10
-705.2482148520045
 20
311.3206377488278
 30
0.0
  0
VERTEX
  5
29A
  8
0
  6
CONTINUOUS
 62
     9
 10
-705.2328311359043
 20
311.360486728823
 30
0.0
  0
VERTEX
  5
29B
  8
0
  6
CONTINUOUS
 62
     9
 10
-705.219209817542
 20
311.4009770499011
 30
0.0
  0
VERTEX
  5
29C
  8
0
  6
CONTINUOUS
 62
     9
 10
-705.2072875556777
 20
311.4423985464806
 30
0.0
  0
VERTEX
  5
29D
  8
0
  6
CONTINUOUS
 62
     9
 10
-705.1972031048975
 20
311.484398142619
 30
0.0
  0
VERTEX
  5
29E
  8
0
  6
CONTINUOUS
 62
     9
 10
-705.1921315102898
 20
311.5094085815915
 30
0.0
  0
VERTEX
  5
29F
  8
0
  6
CONTINUOUS
 62
     9
 10
-705.1877204396361
 20
311.5345632033353
 30
0.0
  0
VERTEX
  5
2A0
  8
0
  6
CONTINUOUS
 62
     9
 10
-705.1839666362565
 20
311.559908006195
 30
0.0
  0
VERTEX
  5
2A1
  8
0
  6
CONTINUOUS
 62
     9
 10
-705.180888407114
 20
311.5853444044159
 30
0.0
  0
VERTEX
  5
2A2
  8
0
  6
CONTINUOUS
 62
     9
 10
-705.1784827828103
 20
311.6109276783465
 30
0.0
  0
VERTEX
  5
2A3
  8
0
  6
CONTINUOUS
 62
     9
 10
-705.1767614292025
 20
311.6365665097196
 30
0.0
  0
VERTEX
  5
2A4
  8
0
  6
CONTINUOUS
 62
     9
 10
-705.175723810226
 20
311.6623260852991
 30
0.0
  0
VERTEX
  5
2A5
  8
0
  6
CONTINUOUS
 62
     9
 10
-705.1753774999129
 20
311.6881230874214
 30
0.0
  0
SEQEND
  5
2F6
  8
0
  6
CONTINUOUS
 62
     9
  0
LINE
  5
12F
  8
0
  6
CONTINUOUS
 62
     9
 10
-732.3060342764411
 20
310.6945920825137
 30
0.0
 11
-732.1910183057798
 21
310.6881230857328
 31
0.0
  0
CIRCLE
  5
130
  8
0
  6
CONTINUOUS
 62
     7
 10
-736.5765225103273
 20
241.3881230865514
 30
0.0
 40
4.762500000000003
  0
LINE
  5
131
  8
0
  6
CONTINUOUS
 62
     7
 10
-710.7085120073023
 20
296.8881230865514
 30
0.0
 11
-707.0765225103272
 21
296.8881230865514
 31
0.0
  0
LINE
  5
132
  8
0
  6
CONTINUOUS
 62
     7
 10
-766.0765225103273
 20
296.8881230865514
 30
0.0
 11
-762.4445330133525
 21
296.8881230865514
 31
0.0
  0
LINE
  5
133
  8
0
  6
CONTINUOUS
 62
     7
 10
-755.2085120073021
 20
296.8881230865514
 30
0.0
 11
-717.9445330133525
 21
296.8881230865514
 31
0.0
  0
LINE
  5
134
  8
0
  6
CONTINUOUS
 62
     7
 10
-763.0265225103273
 20
189.9881230865514
 30
0.0
 11
-763.0265225103273
 21
187.7881230865514
 31
0.0
  0
ARC
  5
135
  8
0
  6
CONTINUOUS
 62
     7
 10
-763.5265225103274
 20
189.9881230865514
 30
0.0
 40
0.5000000000000004
 50
0.0
 51
180.0
  0
LINE
  5
136
  8
0
  6
CONTINUOUS
 62
     7
 10
-764.0265225103273
 20
187.7881230865514
 30
0.0
 11
-764.0265225103273
 21
189.9881230865514
 31
0.0
  0
ARC
  5
137
  8
0
  6
CONTINUOUS
 62
     7
 10
-763.5265225103274
 20
187.7881230865514
 30
0.0
 40
0.5000000000000004
 50
180.0
 51
0.0
  0
LINE
  5
138
  8
0
  6
CONTINUOUS
 62
     7
 10
-767.5765225103273
 20
187.3881230865514
 30
0.0
 11
-767.5765225103273
 21
295.3881230865514
 31
0.0
  0
LINE
  5
139
  8
0
  6
CONTINUOUS
 62
     7
 10
-719.5265225103274
 20
292.7881230865514
 30
0.0
 11
-719.5265225103274
 21
294.9881230865514
 31
0.0
  0
ARC
  5
13A
  8
0
  6
CONTINUOUS
 62
     7
 10
-719.0265225103274
 20
294.9881230865514
 30
0.0
 40
0.5000000000000004
 50
0.0
 51
180.0
  0
LINE
  5
13B
  8
0
  6
CONTINUOUS
 62
     7
 10
-718.5265225103274
 20
294.9881230865514
 30
0.0
 11
-718.5265225103274
 21
292.7881230865514
 31
0.0
  0
ARC
  5
13C
  8
0
  6
CONTINUOUS
 62
     7
 10
-719.0265225103274
 20
292.7881230865514
 30
0.0
 40
0.5000000000000004
 50
180.0
 51
0.0
  0
ARC
  5
13D
  8
0
  6
CONTINUOUS
 62
     7
 10
-709.6265225103273
 20
294.9881230865514
 30
0.0
 40
0.5000000000000004
 50
0.0
 51
180.0
  0
LINE
  5
13E
  8
0
  6
CONTINUOUS
 62
     7
 10
-709.1265225103274
 20
294.9881230865514
 30
0.0
 11
-709.1265225103274
 21
292.7881230865514
 31
0.0
  0
ARC
  5
13F
  8
0
  6
CONTINUOUS
 62
     7
 10
-709.6265225103273
 20
292.7881230865514
 30
0.0
 40
0.5000000000000004
 50
180.0
 51
0.0
  0
LINE
  5
140
  8
0
  6
CONTINUOUS
 62
     7
 10
-710.1265225103274
 20
292.7881230865514
 30
0.0
 11
-710.1265225103274
 21
294.9881230865514
 31
0.0
  0
ARC
  5
141
  8
0
  6
CONTINUOUS
 62
     7
 10
-754.1265225103273
 20
187.7881230865514
 30
0.0
 40
0.5000000000000004
 50
180.0
 51
0.0
  0
LINE
  5
142
  8
0
  6
CONTINUOUS
 62
     7
 10
-753.6265225103274
 20
189.9881230865514
 30
0.0
 11
-753.6265225103274
 21
187.7881230865514
 31
0.0
  0
ARC
  5
143
  8
0
  6
CONTINUOUS
 62
     7
 10
-754.1265225103273
 20
189.9881230865514
 30
0.0
 40
0.5000000000000004
 50
0.0
 51
180.0
  0
LINE
  5
144
  8
0
  6
CONTINUOUS
 62
     7
 10
-754.6265225103274
 20
187.7881230865514
 30
0.0
 11
-754.6265225103274
 21
189.9881230865514
 31
0.0
  0
LINE
  5
145
  8
0
  6
CONTINUOUS
 62
     7
 10
-705.5765225103273
 20
295.3881230865514
 30
0.0
 11
-705.5765225103273
 21
187.3881230865514
 31
0.0
  0
ARC
  5
146
  8
0
  6
CONTINUOUS
 62
     7
 10
-707.0765225103273
 20
187.3881230865514
 30
0.0
 40
1.500000000000001
 50
270.0000000000001
 51
0.0
  0
ARC
  5
147
  8
0
  6
CONTINUOUS
 62
     7
 10
-766.0765225103273
 20
295.3881230865514
 30
0.0
 40
1.500000000000001
 50
90.0
 51
180.0
  0
LINE
  5
148
  8
0
  6
CONTINUOUS
 62
     7
 10
-762.4445330133525
 20
185.8881230865514
 30
0.0
 11
-766.0765225103274
 21
185.8881230865514
 31
0.0
  0
LINE
  5
149
  8
0
  6
CONTINUOUS
 62
     7
 10
-707.0765225103273
 20
185.8881230865514
 30
0.0
 11
-710.7085120073023
 21
185.8881230865514
 31
0.0
  0
LINE
  5
14A
  8
0
  6
CONTINUOUS
 62
     7
 10
-717.9445330133525
 20
185.8881230865514
 30
0.0
 11
-755.2085120073021
 21
185.8881230865514
 31
0.0
  0
ARC
  5
14B
  8
0
  6
CONTINUOUS
 62
     7
 10
-707.0765225103273
 20
295.3881230865514
 30
0.0
 40
1.500000000000001
 50
0.0000000000002274
 51
90.00000000000011
  0
LINE
  5
14C
  8
0
  6
CONTINUOUS
 62
     7
 10
-707.0765225103273
 20
182.8881230865514
 30
0.0
 11
-766.0765225103274
 21
182.8881230865514
 31
0.0
  0
ARC
  5
14D
  8
0
  6
CONTINUOUS
 62
     7
 10
-707.0765225103273
 20
295.3881230865514
 30
0.0
 40
4.500000000000004
 50
0.0
 51
90.0
  0
ARC
  5
14E
  8
0
  6
CONTINUOUS
 62
     7
 10
-766.0765225103273
 20
187.3881230865514
 30
0.0
 40
1.500000000000001
 50
180.0
 51
270.0
  0
ARC
  5
14F
  8
0
  6
CONTINUOUS
 62
     7
 10
-758.8265225103273
 20
293.8881230865514
 30
0.0
 40
4.699999999999999
 50
39.6650129075932
 51
140.3349870924068
  0
ARC
  5
150
  8
0
  6
CONTINUOUS
 62
     7
 10
-758.8265225103273
 20
188.8881230865514
 30
0.0
 40
4.699999999999999
 50
219.6650129075932
 51
320.3349870924068
  0
ARC
  5
151
  8
0
  6
CONTINUOUS
 62
     7
 10
-714.3265225103273
 20
293.8881230865514
 30
0.0
 40
4.699999999999994
 50
39.6650129075932
 51
140.3349870924068
  0
LINE
  5
152
  8
0
  6
CONTINUOUS
 62
     7
 10
-766.0765225103273
 20
299.8881230865514
 30
0.0
 11
-707.0765225103272
 21
299.8881230865514
 31
0.0
  0
ARC
  5
153
  8
0
  6
CONTINUOUS
 62
     7
 10
-714.3265225103273
 20
188.8881230865514
 30
0.0
 40
4.699999999999994
 50
219.6650129075932
 51
320.3349870924068
  0
ARC
  5
154
  8
0
  6
CONTINUOUS
 62
     7
 10
-707.0765225103273
 20
187.3881230865514
 30
0.0
 40
4.500000000000004
 50
270.0
 51
0.0
  0
ARC
  5
155
  8
0
  6
CONTINUOUS
 62
     7
 10
-766.0765225103273
 20
187.3881230865514
 30
0.0
 40
4.499999999999997
 50
180.0
 51
270.0
  0
LINE
  5
156
  8
0
  6
CONTINUOUS
 62
     7
 10
-702.5765225103273
 20
295.3881230865514
 30
0.0
 11
-702.5765225103273
 21
187.3881230865514
 31
0.0
  0
LINE
  5
157
  8
0
  6
CONTINUOUS
 62
     7
 10
-770.5765225103273
 20
187.3881230865514
 30
0.0
 11
-770.5765225103273
 21
295.3881230865514
 31
0.0
  0
ARC
  5
158
  8
0
  6
CONTINUOUS
 62
     7
 10
-766.0765225103273
 20
295.3881230865514
 30
0.0
 40
4.500000000000004
 50
90.0
 51
180.0
  0
LINE
  5
159
  8
0
  6
CONTINUOUS
 62
     7
 10
-770.5765225103272
 20
190.8881230865514
 30
0.0
 11
-772.5765225103273
 21
190.8881230865514
 31
0.0
  0
LINE
  5
15A
  8
0
  6
CONTINUOUS
 62
     7
 10
-770.5765225103272
 20
242.1381230865514
 30
0.0
 11
-772.5765225103273
 21
242.1381230865514
 31
0.0
  0
LINE
  5
15B
  8
0
  6
CONTINUOUS
 62
     7
 10
-770.5765225103272
 20
291.8881230865514
 30
0.0
 11
-772.5765225103273
 21
291.8881230865514
 31
0.0
  0
LINE
  5
15C
  8
0
  6
CONTINUOUS
 62
     7
 10
-702.5765225103274
 20
242.1381230865514
 30
0.0
 11
-700.5765225103273
 21
242.1381230865514
 31
0.0
  0
LINE
  5
15D
  8
0
  6
CONTINUOUS
 62
     7
 10
-770.5765225103272
 20
290.3881230865514
 30
0.0
 11
-772.5765225103273
 21
290.3881230865514
 31
0.0
  0
LINE
  5
15E
  8
0
  6
CONTINUOUS
 62
     7
 10
-770.5765225103272
 20
192.3881230865514
 30
0.0
 11
-772.5765225103273
 21
192.3881230865514
 31
0.0
  0
LINE
  5
15F
  8
0
  6
CONTINUOUS
 62
     7
 10
-770.5765225103272
 20
240.6381230865514
 30
0.0
 11
-772.5765225103273
 21
240.6381230865514
 31
0.0
  0
LINE
  5
160
  8
0
  6
CONTINUOUS
 62
     7
 10
-702.5765225103274
 20
240.6381230865514
 30
0.0
 11
-700.5765225103273
 21
240.6381230865514
 31
0.0
  0
LINE
  5
161
  8
0
  6
CONTINUOUS
 62
     9
 10
-766.6920282166986
 20
302.962993535119
 30
0.0
 11
-766.81330713657
 21
301.6810163053649
 31
0.0
  0
LINE
  5
162
  8
0
  6
CONTINUOUS
 62
     9
 10
-766.6920282166986
 20
310.6881230865514
 30
0.0
 11
-766.6920282166986
 21
302.962993535119
 31
0.0
  0
LINE
  5
163
  8
0
  6
CONTINUOUS
 62
     9
 10
-706.339737884085
 20
301.6810163053648
 30
0.0
 11
-706.4610168039561
 21
302.9629935351309
 31
0.0
  0
LINE
  5
164
  8
0
  6
CONTINUOUS
 62
     9
 10
-706.4610168039561
 20
302.9629935351309
 30
0.0
 11
-706.4610168039561
 21
310.6881230865513
 31
0.0
  0
LINE
  5
165
  8
0
  6
CONTINUOUS
 62
     7
 10
-702.5765225103274
 20
190.8881230865514
 30
0.0
 11
-700.5765225103273
 21
190.8881230865514
 31
0.0
  0
LINE
  5
166
  8
0
  6
CONTINUOUS
 62
     7
 10
-702.5765225103274
 20
290.3881230865514
 30
0.0
 11
-700.5765225103273
 21
290.3881230865514
 31
0.0
  0
LINE
  5
167
  8
0
  6
CONTINUOUS
 62
     7
 10
-702.5765225103274
 20
291.8881230865514
 30
0.0
 11
-700.5765225103273
 21
291.8881230865514
 31
0.0
  0
LINE
  5
168
  8
0
  6
CONTINUOUS
 62
     7
 10
-702.5765225103274
 20
192.3881230865514
 30
0.0
 11
-700.5765225103273
 21
192.3881230865514
 31
0.0
  0
CIRCLE
  5
169
  8
0
  6
CONTINUOUS
 62
     7
 10
-736.5765225103273
 20
241.3881230865514
 30
0.0
 40
13.5
  0
CIRCLE
  5
16A
  8
0
  6
CONTINUOUS
 62
     7
 10
-732.3265233475612
 20
234.0269102721845
 30
0.0
 40
1.500000019714716
  0
CIRCLE
  5
16B
  8
0
  6
CONTINUOUS
 62
     7
 10
-740.8265412241678
 20
234.0270426473007
 30
0.0
 40
1.499996003878008
  0
CIRCLE
  5
16C
  8
0
  6
CONTINUOUS
 62
     7
 10
-745.0765225103273
 20
241.3881230865514
 30
0.0
 40
1.500000000000001
  0
CIRCLE
  5
16D
  8
0
  6
CONTINUOUS
 62
     7
 10
-740.8265223328006
 20
248.7493449331959
 30
0.0
 40
1.499999539082992
  0
CIRCLE
  5
16E
  8
0
  6
CONTINUOUS
 62
     7
 10
-732.3265225103273
 20
248.7493390187192
 30
0.0
 40
1.499999999999998
  0
CIRCLE
  5
16F
  8
0
  6
CONTINUOUS
 62
     7
 10
-728.0765272122076
 20
241.3881229749379
 30
0.0
 40
1.499995298119773
  0
CIRCLE
  5
170
  8
0
  6
CONTINUOUS
 62
     7
 10
-736.5765225103273
 20
241.3881230865514
 30
0.0
 40
11.0
  0
CIRCLE
  5
171
  8
0
  6
CONTINUOUS
 62
     7
 10
-736.5765225103273
 20
241.3881230865514
 30
0.0
 40
5.750000000000005
  0
CIRCLE
  5
172
  8
0
  6
CONTINUOUS
 62
     7
 10
-755.5765225103273
 20
241.3881230865514
 30
0.0
 40
4.000000000000004
  0
CIRCLE
  5
173
  8
0
  6
CONTINUOUS
 62
     7
 10
-755.5765225103273
 20
241.3881230865514
 30
0.0
 40
2.999999999999996
  0
CIRCLE
  5
174
  8
0
  6
CONTINUOUS
 62
     7
 10
-755.5765225103273
 20
241.3881230865514
 30
0.0
 40
5.000000000000004
  0
CIRCLE
  5
175
  8
0
  6
CONTINUOUS
 62
     7
 10
-717.5765225103273
 20
241.3881230865514
 30
0.0
 40
5.000000000000004
  0
CIRCLE
  5
176
  8
0
  6
CONTINUOUS
 62
     7
 10
-717.5765225103273
 20
241.3881230865514
 30
0.0
 40
4.000000000000004
  0
CIRCLE
  5
177
  8
0
  6
CONTINUOUS
 62
     7
 10
-717.5765225103273
 20
241.3881230865514
 30
0.0
 40
3.000000000000003
  0
CIRCLE
  5
178
  8
0
  6
CONTINUOUS
 62
     7
 10
-736.5765225103273
 20
260.3881230865514
 30
0.0
 40
3.000000000000003
  0
CIRCLE
  5
179
  8
0
  6
CONTINUOUS
 62
     7
 10
-736.5765225103273
 20
222.3881230865514
 30
0.0
 40
2.999999999999989
  0
ARC
  5
17A
  8
0
  6
CONTINUOUS
 62
     7
 10
-767.2765225102722
 20
328.688123085712
 30
0.0
 40
1.000000000000001
 50
90.0000000037282
 51
180.000000003602
  0
ARC
  5
17B
  8
0
  6
CONTINUOUS
 62
     7
 10
-740.8765225102819
 20
328.6881230873719
 30
0.0
 40
1.000000000000001
 50
0.0000000036027733
 51
90.00000000347704
  0
LINE
  5
17C
  8
0
  6
CONTINUOUS
 62
     7
 10
-739.2552021666813
 20
328.0668027439143
 30
0.0
 11
-739.87652251028
 21
328.6881230874347
 31
0.0
  0
ARC
  5
17D
  8
0
  6
CONTINUOUS
 62
     7
 10
-741.3765225101093
 20
325.9454824002213
 30
0.0
 40
3.000000000000003
 50
0.0000000036025083
 51
45.00000000357876
  0
LINE
  5
17E
  8
0
  6
CONTINUOUS
 62
     7
 10
-738.3765225091486
 20
310.6881230875298
 30
0.0
 11
-738.3765225101079
 21
325.94548240041
 31
0.0
  0
LINE
  5
17F
  8
0
  6
CONTINUOUS
 62
     7
 10
-767.2538829025942
 20
310.6881451653441
 30
0.0
 11
-767.3040208576755
 21
310.6943668283599
 31
0.0
  0
LINE
  5
180
  8
0
  6
CONTINUOUS
 62
     7
 10
-768.2765225102742
 20
328.6881230856491
 30
0.0
 11
-768.8978428537947
 21
328.0668027420504
 31
0.0
  0
ARC
  5
181
  8
0
  6
CONTINUOUS
 62
     7
 10
-766.7765225101
 20
325.9454823986242
 30
0.0
 40
2.999999999999999
 50
135.0000000036263
 51
180.0000000036025
  0
LINE
  5
182
  8
0
  6
CONTINUOUS
 62
     7
 10
-769.7765225101014
 20
325.9454823984356
 30
0.0
 11
-769.7765225091421
 21
310.6881230855555
 31
0.0
  0
ARC
  5
183
  8
0
  6
CONTINUOUS
 62
     7
 10
-732.2765225102718
 20
328.6881230857268
 30
0.0
 40
1.000000000000001
 50
90.00000000370376
 51
180.0000000035782
  0
ARC
  5
184
  8
0
  6
CONTINUOUS
 62
     7
 10
-705.8765225102828
 20
328.6881230873755
 30
0.0
 40
1.000000000000001
 50
0.000000003578124
 51
90.00000000345248
  0
LINE
  5
185
  8
0
  6
CONTINUOUS
 62
     7
 10
-704.2552021666827
 20
328.0668027439172
 30
0.0
 11
-704.876522510281
 21
328.688123087438
 31
0.0
  0
LINE
  5
186
  8
0
  6
CONTINUOUS
 62
     7
 10
-703.3765225091571
 20
310.6881230875323
 30
0.0
 11
-703.37652251011
 21
325.9454824004125
 31
0.0
  0
ARC
  5
187
  8
0
  6
CONTINUOUS
 62
     7
 10
-706.3765225101114
 20
325.9454824002252
 30
0.0
 40
3.000000000000003
 50
0.0000000035783891
 51
45.00000000355593
  0
LINE
  5
188
  8
0
  6
CONTINUOUS
 62
     7
 10
-733.2765225102736
 20
328.6881230856643
 30
0.0
 11
-733.8978428537944
 21
328.0668027420659
 31
0.0
  0
ARC
  5
189
  8
0
  6
CONTINUOUS
 62
     7
 10
-731.7765225101007
 20
325.9454823986388
 30
0.0
 40
3.000000000000009
 50
135.0000000036004
 51
180.0000000035782
  0
LINE
  5
18A
  8
0
  6
CONTINUOUS
 62
     7
 10
-734.7765225101019
 20
325.9454823984514
 30
0.0
 11
-734.7765225091491
 21
310.6881230855714
 31
0.0
  0
LINE
  5
18B
  8
0
  6
CONTINUOUS
 62
     7
 10
-766.8765225103273
 20
301.6810163053649
 30
0.0
 11
-766.8765225103273
 21
299.8881230865514
 31
0.0
  0
LINE
  5
18C
  8
0
  6
CONTINUOUS
 62
     7
 10
-741.2765225103274
 20
299.8881230865514
 30
0.0
 11
-741.2765225103274
 21
310.6881230873474
 31
0.0
  0
LINE
  5
18D
  8
0
  6
CONTINUOUS
 62
     7
 10
-731.8765225103274
 20
310.6881230857524
 30
0.0
 11
-731.8765225103274
 21
299.8881230865514
 31
0.0
  0
LINE
  5
18E
  8
0
  6
CONTINUOUS
 62
     7
 10
-706.2765225103274
 20
299.8881230865514
 30
0.0
 11
-706.2765225103274
 21
301.6810163053649
 31
0.0
  0
ARC
  5
18F
  8
0
  6
CONTINUOUS
 62
     7
 10
-766.0765225103273
 20
295.4598051214545
 30
0.0
 40
4.500000000000003
 50
100.2403483211864
 51
180.0
  0
ARC
  5
190
  8
0
  6
CONTINUOUS
 62
     7
 10
-707.0765225103273
 20
295.4598051214545
 30
0.0
 40
4.49999999999999
 50
0.0
 51
79.75965167881417
  0
ARC
  5
191
  8
0
  6
CONTINUOUS
 62
     7
 10
-706.5765225103273
 20
305.8307637736707
 30
0.0
 40
2.999999999999999
 50
315.0000000000001
 51
0.0
  0
ARC
  5
192
  8
0
  6
CONTINUOUS
 62
     7
 10
-766.5765225103273
 20
305.8307637736707
 30
0.0
 40
3.000000000000003
 50
180.0
 51
225.0
  0
LINE
  5
193
  8
0
  6
CONTINUOUS
 62
     7
 10
-769.5765225103273
 20
310.6881230865514
 30
0.0
 11
-769.5765225103273
 21
305.8307637736707
 31
0.0
  0
LINE
  5
194
  8
0
  6
CONTINUOUS
 62
     7
 10
-703.5765225103273
 20
305.8307637736707
 30
0.0
 11
-703.5765225103273
 21
310.6881230865513
 31
0.0
  0
ARC
  5
195
  8
0
  6
CONTINUOUS
 62
     7
 10
-767.3765225103274
 20
301.6810163053649
 30
0.0
 40
0.500000000000008
 50
0.0
 51
45.0
  0
ARC
  5
196
  8
0
  6
CONTINUOUS
 62
     7
 10
-705.7765225103274
 20
301.6810163053648
 30
0.0
 40
0.5000000000000004
 50
135.0
 51
180.0
  0
LINE
  5
197
  8
0
  6
CONTINUOUS
 62
     7
 10
-768.697842853887
 20
303.7094434301111
 30
0.0
 11
-767.0229691197341
 21
302.0345696959582
 31
0.0
  0
LINE
  5
198
  8
0
  6
CONTINUOUS
 62
     7
 10
-706.1300759009206
 20
302.0345696959582
 30
0.0
 11
-704.4552021667675
 21
303.7094434301111
 31
0.0
  0
ENDBLK
  8
0
  0
BLOCK
  8
0
  2
D_FRAME_VIEW_2034
 70
     0
 10
0.0
 20
0.0
 30
0.0
  0
LINE
  5
19E
  8
0
  6
CONTINUOUS
 62
     7
 10
-770.5765225103273
 20
110.1144621058792
 30
0.0
 11
-770.5135823476521
 21
110.1144621058792
 31
0.0
  0
LINE
  5
19F
  8
0
  6
CONTINUOUS
 62
     7
 10
-770.5135823476521
 20
110.1144621058792
 30
0.0
 11
-770.5135823476521
 21
112.3144621058792
 31
0.0
  0
LINE
  5
1A0
  8
0
  6
CONTINUOUS
 62
     7
 10
-770.5765225103273
 20
112.3144621058792
 30
0.0
 11
-770.5135823476521
 21
112.3144621058792
 31
0.0
  0
ARC
  5
1A1
  8
0
  6
CONTINUOUS
 62
     7
 10
-767.4679045800605
 20
108.7698668476009
 30
0.0
 40
2.7567980861898
 50
220.3913220606649
 51
268.1782755244462
  0
LINE
  5
1A2
  8
0
  6
CONTINUOUS
 62
     7
 10
-769.5675825212695
 20
106.9834491385476
 30
0.0
 11
-769.5974340218912
 21
107.0144621058792
 31
0.0
  0
ARC
  5
1A3
  8
0
  6
CONTINUOUS
 62
     7
 10
-767.4450236325271
 20
109.2898516704249
 30
0.0
 40
3.132134759981818
 50
185.0441829050698
 51
226.5909428556417
  0
LINE
  5
1A4
  8
0
  6
CONTINUOUS
 62
     7
 10
-703.5556109987668
 20
107.0144621058756
 30
0.0
 11
-703.5854624993958
 21
106.9834491385365
 31
0.0
  0
ARC
  5
1A5
  8
0
  6
CONTINUOUS
 62
     7
 10
-705.6934531545941
 20
108.7871276705546
 30
0.0
 40
2.774325296223591
 50
271.9819811401613
 51
319.4484212744549
  0
ARC
  5
1A6
  8
0
  6
CONTINUOUS
 62
     7
 10
-705.7342005034876
 20
109.3025170507361
 30
0.0
 40
3.159342915984232
 50
313.5961155868871
 51
354.7687586523235
  0
LINE
  5
1A7
  8
0
  6
CONTINUOUS
 62
     7
 10
-702.5765225103273
 20
151.0144621058792
 30
0.0
 11
-702.5765225103273
 21
107.0144621058792
 31
0.0
  0
LINE
  5
1A8
  8
0
  6
CONTINUOUS
 62
     7
 10
-725.0765225103273
 20
114.8144621058792
 30
0.0
 11
-716.0765225103273
 21
114.8144621058792
 31
0.0
  0
CIRCLE
  5
1A9
  8
0
  6
CONTINUOUS
 62
     7
 10
-742.0765225103273
 20
130.5144621058792
 30
0.0
 40
13.54999999999998
  0
ARC
  5
1AA
  8
0
  6
CONTINUOUS
 62
     7
 10
-703.5765225103273
 20
107.0144621058792
 30
0.0
 40
1.000000000000001
 50
270.0
 51
0.0
  0
ARC
  5
1AB
  8
0
  6
CONTINUOUS
 62
     7
 10
-769.5765225103273
 20
107.0144621058792
 30
0.0
 40
1.000000000000001
 50
180.0
 51
270.0
  0
LINE
  5
1AC
  8
0
  6
CONTINUOUS
 62
     7
 10
-770.5765225103272
 20
142.0144621058792
 30
0.0
 11
-772.5765225103273
 21
142.0144621058792
 31
0.0
  0
LINE
  5
1AD
  8
0
  6
CONTINUOUS
 62
     7
 10
-770.5765225103272
 20
117.6144621058792
 30
0.0
 11
-772.5765225103273
 21
117.6144621058792
 31
0.0
  0
LINE
  5
1AE
  8
0
  6
CONTINUOUS
 62
     7
 10
-702.5765225103273
 20
117.6144621058792
 30
0.0
 11
-700.5765225103273
 21
117.6144621058792
 31
0.0
  0
LINE
  5
1AF
  8
0
  6
CONTINUOUS
 62
     7
 10
-702.5765225103274
 20
127.6144621058792
 30
0.0
 11
-700.5765225103273
 21
127.6144621058792
 31
0.0
  0
LINE
  5
1B0
  8
0
  6
CONTINUOUS
 62
     7
 10
-770.5765225103272
 20
127.6144621058792
 30
0.0
 11
-772.5765225103273
 21
127.6144621058792
 31
0.0
  0
LINE
  5
1B1
  8
0
  6
CONTINUOUS
 62
     7
 10
-770.5765225103272
 20
145.0144621058792
 30
0.0
 11
-772.5765225103273
 21
145.0144621058792
 31
0.0
  0
LINE
  5
1B2
  8
0
  6
CONTINUOUS
 62
     7
 10
-702.5765225103274
 20
145.0144621058792
 30
0.0
 11
-700.5765225103273
 21
145.0144621058792
 31
0.0
  0
LINE
  5
1B3
  8
0
  6
CONTINUOUS
 62
     7
 10
-702.5765225103273
 20
131.0144621058792
 30
0.0
 11
-700.5765225103273
 21
131.0144621058792
 31
0.0
  0
LINE
  5
1B4
  8
0
  6
CONTINUOUS
 62
     7
 10
-770.5765225103272
 20
131.0144621058792
 30
0.0
 11
-772.5765225103273
 21
131.0144621058792
 31
0.0
  0
ENDBLK
  8
0
  0
BLOCK
  8
0
  2
D_FRAME_VIEW_2297
 70
     0
 10
0.0
 20
0.0
 30
0.0
  0
POLYLINE
  5
1B9
  8
0
  6
CONTINUOUS
 62
     7
 66
     1
 10
0.0
 20
0.0
 30
0.0
  0
VERTEX
  5
2A8
  8
0
  6
CONTINUOUS
 62
     7
 10
-647.3352049589055
 20
328.6881230874193
 30
0.0
  0
VERTEX
  5
2A9
  8
0
  6
CONTINUOUS
 62
     7
 10
-647.3193144101593
 20
328.6878463625229
 30
0.0
  0
VERTEX
  5
2AA
  8
0
  6
CONTINUOUS
 62
     7
 10
-647.3035497858336
 20
328.687021046934
 30
0.0
  0
VERTEX
  5
2AB
  8
0
  6
CONTINUOUS
 62
     7
 10
-647.2879606419737
 20
328.6856544293045
 30
0.0
  0
VERTEX
  5
2AC
  8
0
  6
CONTINUOUS
 62
     7
 10
-647.2725965346244
 20
328.6837537982857
 30
0.0
  0
VERTEX
  5
2AD
  8
0
  6
CONTINUOUS
 62
     7
 10
-647.2569409065583
 20
328.6812286102566
 30
0.0
  0
VERTEX
  5
2AE
  8
0
  6
CONTINUOUS
 62
     7
 10
-647.2415547145426
 20
328.6781514023795
 30
0.0
  0
VERTEX
  5
2AF
  8
0
  6
CONTINUOUS
 62
     7
 10
-647.2264793676032
 20
328.6745432221978
 30
0.0
  0
VERTEX
  5
2B0
  8
0
  6
CONTINUOUS
 62
     7
 10
-647.2117562747655
 20
328.6704251172549
 30
0.0
  0
VERTEX
  5
2B1
  8
0
  6
CONTINUOUS
 62
     7
 10
-647.1931749277875
 20
328.6643339363554
 30
0.0
  0
VERTEX
  5
2B2
  8
0
  6
CONTINUOUS
 62
     7
 10
-647.1751939473949
 20
328.6574363057145
 30
0.0
  0
VERTEX
  5
2B3
  8
0
  6
CONTINUOUS
 62
     7
 10
-647.1578524834428
 20
328.6497906918556
 30
0.0
  0
VERTEX
  5
2B4
  8
0
  6
CONTINUOUS
 62
     7
 10
-647.1411896857862
 20
328.6414555613021
 30
0.0
  0
VERTEX
  5
2B5
  8
0
  6
CONTINUOUS
 62
     7
 10
-647.1252447042799
 20
328.6324893805773
 30
0.0
  0
VERTEX
  5
2B6
  8
0
  6
CONTINUOUS
 62
     7
 10
-647.1100566887787
 20
328.6229506162047
 30
0.0
  0
VERTEX
  5
2B7
  8
0
  6
CONTINUOUS
 62
     7
 10
-647.0947341314849
 20
328.6122310725685
 30
0.0
  0
VERTEX
  5
2B8
  8
0
  6
CONTINUOUS
 62
     7
 10
-647.0801937343128
 20
328.6009347442443
 30
0.0
  0
VERTEX
  5
2B9
  8
0
  6
CONTINUOUS
 62
     7
 10
-647.0664406215878
 20
328.589118394898
 30
0.0
  0
VERTEX
  5
2BA
  8
0
  6
CONTINUOUS
 62
     7
 10
-647.0534799176359
 20
328.5768387881952
 30
0.0
  0
VERTEX
  5
2BB
  8
0
  6
CONTINUOUS
 62
     7
 10
-647.0369595491053
 20
328.5593087492661
 30
0.0
  0
VERTEX
  5
2BC
  8
0
  6
CONTINUOUS
 62
     7
 10
-647.0218353425922
 20
328.5410466815578
 30
0.0
  0
VERTEX
  5
2BD
  8
0
  6
CONTINUOUS
 62
     7
 10
-647.0080885392857
 20
328.5221604431606
 30
0.0
  0
VERTEX
  5
2BE
  8
0
  6
CONTINUOUS
 62
     7
 10
-646.9954041711942
 20
328.5022653742644
 30
0.0
  0
VERTEX
  5
2BF
  8
0
  6
CONTINUOUS
 62
     7
 10
-646.984060621126
 20
328.4818371381419
 30
0.0
  0
VERTEX
  5
2C0
  8
0
  6
CONTINUOUS
 62
     7
 10
-646.9740298200148
 20
328.4609549600061
 30
0.0
  0
VERTEX
  5
2C1
  8
0
  6
CONTINUOUS
 62
     7
 10
-646.965283698794
 20
328.4396980650698
 30
0.0
  0
VERTEX
  5
2C2
  8
0
  6
CONTINUOUS
 62
     7
 10
-646.9553053105889
 20
328.4100147907697
 30
0.0
  0
VERTEX
  5
2C3
  8
0
  6
CONTINUOUS
 62
     7
 10
-646.9475745082672
 20
328.3797792156521
 30
0.0
  0
VERTEX
  5
2C4
  8
0
  6
CONTINUOUS
 62
     7
 10
-646.9420321510268
 20
328.3491307530102
 30
0.0
  0
VERTEX
  5
2C5
  8
0
  6
CONTINUOUS
 62
     7
 10
-646.9384338101568
 20
328.3156946316361
 30
0.0
  0
VERTEX
  5
2C6
  8
0
  6
CONTINUOUS
 62
     7
 10
-646.9372457752321
 20
328.2819600047096
 30
0.0
  0
SEQEND
  5
2F7
  8
0
  6
CONTINUOUS
 62
     7
  0
LINE
  5
1BA
  8
0
  6
CONTINUOUS
 62
     7
 10
-647.3352049589059
 20
328.6881230865512
 30
0.0
 11
-642.9882661833961
 21
328.6881230865512
 31
0.0
  0
POLYLINE
  5
1BB
  8
0
  6
CONTINUOUS
 62
     7
 66
     1
 10
0.0
 20
0.0
 30
0.0
  0
VERTEX
  5
2C7
  8
0
  6
CONTINUOUS
 62
     7
 10
-643.4372457752329
 20
328.2307017590042
 30
0.0
  0
VERTEX
  5
2C8
  8
0
  6
CONTINUOUS
 62
     7
 10
-643.4364704381705
 20
328.2584190700037
 30
0.0
  0
VERTEX
  5
2C9
  8
0
  6
CONTINUOUS
 62
     7
 10
-643.4341334730341
 20
328.2860610619676
 30
0.0
  0
VERTEX
  5
2CA
  8
0
  6
CONTINUOUS
 62
     7
 10
-643.4302184489
 20
328.3135572775761
 30
0.0
  0
VERTEX
  5
2CB
  8
0
  6
CONTINUOUS
 62
     7
 10
-643.424708934844
 20
328.3408372595092
 30
0.0
  0
VERTEX
  5
2CC
  8
0
  6
CONTINUOUS
 62
     7
 10
-643.4173399121465
 20
328.3686662009757
 30
0.0
  0
VERTEX
  5
2CD
  8
0
  6
CONTINUOUS
 62
     7
 10
-643.4082037865725
 20
328.3961990030587
 30
0.0
  0
VERTEX
  5
2CE
  8
0
  6
CONTINUOUS
 62
     7
 10
-643.3972664441632
 20
328.4233317009937
 30
0.0
  0
VERTEX
  5
2CF
  8
0
  6
CONTINUOUS
 62
     7
 10
-643.3844937709601
 20
328.4499603300162
 30
0.0
  0
VERTEX
  5
2D0
  8
0
  6
CONTINUOUS
 62
     7
 10
-643.3718196997804
 20
328.4726998803461
 30
0.0
  0
VERTEX
  5
2D1
  8
0
  6
CONTINUOUS
 62
     7
 10
-643.3576224825434
 20
328.4950069314932
 30
0.0
  0
VERTEX
  5
2D2
  8
0
  6
CONTINUOUS
 62
     7
 10
-643.3418815534548
 20
328.5167600044873
 30
0.0
  0
VERTEX
  5
2D3
  8
0
  6
CONTINUOUS
 62
     7
 10
-643.3245763467193
 20
328.5378376203583
 30
0.0
  0
VERTEX
  5
2D4
  8
0
  6
CONTINUOUS
 62
     7
 10
-643.3056862965426
 20
328.5581183001361
 30
0.0
  0
VERTEX
  5
2D5
  8
0
  6
CONTINUOUS
 62
     7
 10
-643.28519083713
 20
328.5774805648504
 30
0.0
  0
VERTEX
  5
2D6
  8
0
  6
CONTINUOUS
 62
     7
 10
-643.2688311953895
 20
328.5912626652564
 30
0.0
  0
VERTEX
  5
2D7
  8
0
  6
CONTINUOUS
 62
     7
 10
-643.251517868014
 20
328.6044397605999
 30
0.0
  0
VERTEX
  5
2D8
  8
0
  6
CONTINUOUS
 62
     7
 10
-643.2332643136284
 20
328.616932004275
 30
0.0
  0
VERTEX
  5
2D9
  8
0
  6
CONTINUOUS
 62
     7
 10
-643.2185863949411
 20
328.6260283879135
 30
0.0
  0
VERTEX
  5
2DA
  8
0
  6
CONTINUOUS
 62
     7
 10
-643.2033340364192
 20
328.6346582284939
 30
0.0
  0
VERTEX
  5
2DB
  8
0
  6
CONTINUOUS
 62
     7
 10
-643.1875298966273
 20
328.6427776583294
 30
0.0
  0
VERTEX
  5
2DC
  8
0
  6
CONTINUOUS
 62
     7
 10
-643.1711966341303
 20
328.6503428097328
 30
0.0
  0
VERTEX
  5
2DD
  8
0
  6
CONTINUOUS
 62
     7
 10
-643.1535265508411
 20
328.657634903676
 30
0.0
  0
VERTEX
  5
2DE
  8
0
  6
CONTINUOUS
 62
     7
 10
-643.135287879234
 20
328.6642480954867
 30
0.0
  0
VERTEX
  5
2DF
  8
0
  6
CONTINUOUS
 62
     7
 10
-643.1165349312992
 20
328.670130404288
 30
0.0
  0
VERTEX
  5
2E0
  8
0
  6
CONTINUOUS
 62
     7
 10
-643.1017504373298
 20
328.6741373858625
 30
0.0
  0
VERTEX
  5
2E1
  8
0
  6
CONTINUOUS
 62
     7
 10
-643.0866806097072
 20
328.6776733975202
 30
0.0
  0
VERTEX
  5
2E2
  8
0
  6
CONTINUOUS
 62
     7
 10
-643.0713643871129
 20
328.6807193399765
 30
0.0
  0
VERTEX
  5
2E3
  8
0
  6
CONTINUOUS
 62
     7
 10
-643.0558407082282
 20
328.6832561139464
 30
0.0
  0
VERTEX
  5
2E4
  8
0
  6
CONTINUOUS
 62
     7
 10
-643.0391891137407
 20
328.6853718752452
 30
0.0
  0
VERTEX
  5
2E5
  8
0
  6
CONTINUOUS
 62
     7
 10
-643.0223362554107
 20
328.6868943088601
 30
0.0
  0
VERTEX
  5
2E6
  8
0
  6
CONTINUOUS
 62
     7
 10
-643.0053419922815
 20
328.6878143883901
 30
0.0
  0
VERTEX
  5
2E7
  8
0
  6
CONTINUOUS
 62
     7
 10
-642.9882661833961
 20
328.6881230874333
 30
0.0
  0
SEQEND
  5
2F8
  8
0
  6
CONTINUOUS
 62
     7
  0
LINE
  5
1BC
  8
0
  6
CONTINUOUS
 62
     7
 10
-657.6372457752316
 20
329.6881230865511
 30
0.0
 11
-631.2372457752336
 21
329.6881230865511
 31
0.0
  0
ARC
  5
1BD
  8
0
  6
CONTINUOUS
 62
     7
 10
-643.5372457752325
 20
191.8881230865514
 30
0.0
 40
0.5000000000000004
 50
90.0
 51
179.9999999999984
  0
LINE
  5
1BE
  8
0
  6
CONTINUOUS
 62
     7
 10
-644.0372457752325
 20
191.3881230865514
 30
0.0
 11
-644.0372457752325
 21
191.8881230865514
 31
0.0
  0
ARC
  5
1BF
  8
0
  6
CONTINUOUS
 62
     7
 10
-643.5372457752325
 20
191.3881230865514
 30
0.0
 40
0.5000000000000004
 50
180.0000000000016
 51
270.0000000000005
  0
LINE
  5
1C0
  8
0
  6
CONTINUOUS
 62
     7
 10
-634.5372457752325
 20
190.8881230865514
 30
0.0
 11
-643.5372457752325
 21
190.8881230865514
 31
0.0
  0
ARC
  5
1C1
  8
0
  6
CONTINUOUS
 62
     7
 10
-634.5372457752325
 20
191.3881230865514
 30
0.0
 40
0.5000000000000004
 50
269.9999999999998
 51
0.0000000000015916
  0
LINE
  5
1C2
  8
0
  6
CONTINUOUS
 62
     7
 10
-634.0372457752325
 20
191.8881230865514
 30
0.0
 11
-634.0372457752325
 21
191.3881230865514
 31
0.0
  0
ARC
  5
1C3
  8
0
  6
CONTINUOUS
 62
     7
 10
-634.5372457752325
 20
191.8881230865514
 30
0.0
 40
0.5000000000000004
 50
359.9999999999985
 51
90.00000000000021
  0
LINE
  5
1C4
  8
0
  6
CONTINUOUS
 62
     7
 10
-643.5372457752325
 20
192.3881230865514
 30
0.0
 11
-634.5372457752325
 21
192.3881230865514
 31
0.0
  0
ARC
  5
1C5
  8
0
  6
CONTINUOUS
 62
     7
 10
-647.9372457752324
 20
241.1381230865514
 30
0.0
 40
0.5000000000000004
 50
269.9999999999996
 51
0.0
  0
ARC
  5
1C6
  8
0
  6
CONTINUOUS
 62
     7
 10
-660.9372457752324
 20
241.6381230865514
 30
0.0
 40
0.5000000000000004
 50
89.9999999999992
 51
180.0
  0
LINE
  5
1C7
  8
0
  6
CONTINUOUS
 62
     7
 10
-647.9372457752324
 20
242.1381230865514
 30
0.0
 11
-660.9372457752324
 21
242.1381230865514
 31
0.0
  0
ARC
  5
1C8
  8
0
  6
CONTINUOUS
 62
     7
 10
-647.9372457752324
 20
241.6381230865514
 30
0.0
 40
0.5000000000000004
 50
359.9999999999998
 51
89.9999999999992
  0
LINE
  5
1C9
  8
0
  6
CONTINUOUS
 62
     7
 10
-647.4372457752326
 20
241.1381230865514
 30
0.0
 11
-647.4372457752326
 21
241.6381230865514
 31
0.0
  0
LINE
  5
1CA
  8
0
  6
CONTINUOUS
 62
     7
 10
-660.9372457752324
 20
240.6381230865514
 30
0.0
 11
-647.9372457752324
 21
240.6381230865514
 31
0.0
  0
ARC
  5
1CB
  8
0
  6
CONTINUOUS
 62
     7
 10
-660.9372457752324
 20
241.1381230865514
 30
0.0
 40
0.5000000000000004
 50
180.0
 51
269.9999999999984
  0
LINE
  5
1CC
  8
0
  6
CONTINUOUS
 62
     7
 10
-661.4372457752326
 20
241.6381230865514
 30
0.0
 11
-661.4372457752326
 21
241.1381230865514
 31
0.0
  0
ARC
  5
1CD
  8
0
  6
CONTINUOUS
 62
     7
 10
-643.5372457752325
 20
291.3881230865514
 30
0.0
 40
0.5000000000000004
 50
89.99999999999962
 51
179.9999999999984
  0
ARC
  5
1CE
  8
0
  6
CONTINUOUS
 62
     7
 10
-643.5372457752325
 20
290.8881230865514
 30
0.0
 40
0.5000000000000004
 50
180.0000000000016
 51
270.0
  0
LINE
  5
1CF
  8
0
  6
CONTINUOUS
 62
     7
 10
-644.0372457752325
 20
291.3881230865514
 30
0.0
 11
-644.0372457752325
 21
290.8881230865514
 31
0.0
  0
LINE
  5
1D0
  8
0
  6
CONTINUOUS
 62
     7
 10
-634.5372457752325
 20
291.8881230865514
 30
0.0
 11
-643.5372457752325
 21
291.8881230865514
 31
0.0
  0
ARC
  5
1D1
  8
0
  6
CONTINUOUS
 62
     7
 10
-634.5372457752325
 20
291.3881230865514
 30
0.0
 40
0.5000000000000004
 50
359.9999999999985
 51
90.00000000000021
  0
LINE
  5
1D2
  8
0
  6
CONTINUOUS
 62
     7
 10
-634.0372457752325
 20
290.8881230865514
 30
0.0
 11
-634.0372457752325
 21
291.3881230865514
 31
0.0
  0
ARC
  5
1D3
  8
0
  6
CONTINUOUS
 62
     7
 10
-634.5372457752325
 20
290.8881230865514
 30
0.0
 40
0.5000000000000004
 50
269.9999999999998
 51
0.0000000000015916
  0
LINE
  5
1D4
  8
0
  6
CONTINUOUS
 62
     7
 10
-643.5372457752325
 20
290.3881230865514
 30
0.0
 11
-634.5372457752325
 21
290.3881230865514
 31
0.0
  0
ARC
  5
1D5
  8
0
  6
CONTINUOUS
 62
     7
 10
-620.3680692751997
 20
298.0273159920164
 30
0.0
 40
9.377415160273273
 50
237.2773529049154
 51
250.8953547220967
  0
LINE
  5
1D6
  8
0
  6
CONTINUOUS
 62
     7
 10
-626.5372457752325
 20
296.1381230865514
 30
0.0
 11
-628.7372457752325
 21
296.1381230865514
 31
0.0
  0
LINE
  5
1D7
  8
0
  6
CONTINUOUS
 62
     7
 10
-623.2011777977327
 20
193.6098596300647
 30
0.0
 11
-623.4372457752326
 21
193.6098596300647
 31
0.0
  0
ARC
  5
1D8
  8
0
  6
CONTINUOUS
 62
     7
 10
-620.6206554621544
 20
185.2687957529659
 30
0.0
 40
8.803779165424787
 50
108.6586727091685
 51
123.1686196638191
  0
LINE
  5
1D9
  8
0
  6
CONTINUOUS
 62
     7
 10
-623.4372457752326
 20
289.1663865430382
 30
0.0
 11
-623.2011777977327
 21
289.1663865430382
 31
0.0
  0
LINE
  5
1DA
  8
0
  6
CONTINUOUS
 62
     7
 10
-628.7372457752325
 20
289.6381230865514
 30
0.0
 11
-626.5372457752325
 21
289.6381230865514
 31
0.0
  0
ARC
  5
1DB
  8
0
  6
CONTINUOUS
 62
     7
 10
-627.6372457752325
 20
292.8881230865514
 30
0.0
 40
2.249999999999995
 50
299.2675775975314
 51
60.73242240246918
  0
ARC
  5
1DC
  8
0
  6
CONTINUOUS
 62
     7
 10
-627.6372457752325
 20
292.8881230865514
 30
0.0
 40
2.250000000000005
 50
119.2675775975309
 51
240.7324224024692
  0
CIRCLE
  5
1DD
  8
0
  6
CONTINUOUS
 62
     7
 10
-627.6372457752325
 20
189.8881230865514
 30
0.0
 40
2.250000000000002
  0
CIRCLE
  5
1DE
  8
0
  6
CONTINUOUS
 62
     7
 10
-644.0372457752325
 20
213.8881230865514
 30
0.0
 40
13.54999999999999
  0
CIRCLE
  5
1DF
  8
0
  6
CONTINUOUS
 62
     7
 10
-644.0372457752325
 20
268.8881230865514
 30
0.0
 40
13.55000000000001
  0
ARC
  5
1E0
  8
0
  6
CONTINUOUS
 62
     7
 10
-623.4372457752326
 20
290.1381230865514
 30
0.0
 40
0.9999999999999977
 50
283.6545847459752
 51
0.0
  0
LINE
  5
1E1
  8
0
  6
CONTINUOUS
 62
     7
 10
-625.4372457752326
 20
182.8881230865514
 30
0.0
 11
-667.4372457752326
 21
182.8881230865514
 31
0.0
  0
ARC
  5
1E2
  8
0
  6
CONTINUOUS
 62
     7
 10
-623.4372457752326
 20
192.6381230865514
 30
0.0
 40
0.9999999999999977
 50
0.0
 51
76.34541525402487
  0
LINE
  5
1E3
  8
0
  6
CONTINUOUS
 62
     7
 10
-623.4372457752289
 20
186.1385687419003
 30
0.0
 11
-623.4062328078899
 21
186.1386041043122
 31
0.0
  0
ARC
  5
1E4
  8
0
  6
CONTINUOUS
 62
     7
 10
-625.4372457752326
 20
185.8881230865514
 30
0.0
 40
3.000000000000003
 50
269.9999999999999
 51
0.0
  0
ARC
  5
1E5
  8
0
  6
CONTINUOUS
 62
     7
 10
-622.306986839907
 20
191.1930847692128
 30
0.0
 40
5.179345280171379
 50
232.8162285042975
 51
257.3952417426194
  0
ARC
  5
1E6
  8
0
  6
CONTINUOUS
 62
     7
 10
-622.4253294876786
 20
291.8381756512854
 30
0.0
 40
4.905017014082888
 50
101.9057450320392
 51
127.882784721117
  0
ARC
  5
1E7
  8
0
  6
CONTINUOUS
 62
     7
 10
-625.4372457752326
 20
296.8881230865514
 30
0.0
 40
3.000000000000003
 50
0.0
 51
90.00000000000006
  0
LINE
  5
1E8
  8
0
  6
CONTINUOUS
 62
     7
 10
-623.4062328079009
 20
296.637642068791
 30
0.0
 11
-623.4372457752326
 21
296.6376774312024
 31
0.0
  0
ARC
  5
1E9
  8
0
  6
CONTINUOUS
 62
     7
 10
-623.4372457752326
 20
187.1381230865514
 30
0.0
 40
0.9999999999999941
 50
271.777197102507
 51
0.0
  0
ARC
  5
1EA
  8
0
  6
CONTINUOUS
 62
     7
 10
-623.4372457752326
 20
295.6381230865514
 30
0.0
 40
0.9999999999999991
 50
0.0
 51
88.22280289812471
  0
LINE
  5
1EB
  8
0
  6
CONTINUOUS
 62
     9
 10
-645.7223403107424
 20
302.0345696959582
 30
0.0
 11
-643.1521512397225
 21
302.0345696959582
 31
0.0
  0
POLYLINE
  5
1EC
  8
0
  6
CONTINUOUS
 62
     9
 66
     1
 10
0.0
 20
0.0
 30
0.0
  0
VERTEX
  5
2E8
  8
0
  6
CONTINUOUS
 62
     9
 10
-643.1521512397225
 20
302.0345696959581
 30
0.0
  0
VERTEX
  5
2E9
  8
0
  6
CONTINUOUS
 62
     9
 10
-643.0470426786549
 20
302.0517949583876
 30
0.0
  0
VERTEX
  5
2EA
  8
0
  6
CONTINUOUS
 62
     9
 10
-642.9562462108527
 20
302.106711333149
 30
0.0
  0
VERTEX
  5
2EB
  8
0
  6
CONTINUOUS
 62
     9
 10
-642.8854390337553
 20
302.1822872963391
 30
0.0
  0
VERTEX
  5
2EC
  8
0
  6
CONTINUOUS
 62
     9
 10
-642.8229830300977
 20
302.2827706628438
 30
0.0
  0
SEQEND
  5
2F9
  8
0
  6
CONTINUOUS
 62
     9
  0
ARC
  5
1ED
  8
0
  6
CONTINUOUS
 62
     9
 10
-644.1817693678929
 20
302.9075685400183
 30
0.0
 40
1.495550968406163
 50
335.306056564008
 51
2.123863201185429
  0
ARC
  5
1EE
  8
0
  6
CONTINUOUS
 62
     9
 10
-644.49235095905
 20
302.9329488764667
 30
0.0
 40
1.695161089524107
 50
178.9844491547181
 51
198.5806480712012
  0
POLYLINE
  5
1EF
  8
0
  6
CONTINUOUS
 62
     9
 66
     1
 10
0.0
 20
0.0
 30
0.0
  0
VERTEX
  5
2ED
  8
0
  6
CONTINUOUS
 62
     9
 10
-646.0991536177428
 20
302.3928041408132
 30
0.0
  0
VERTEX
  5
2EE
  8
0
  6
CONTINUOUS
 62
     9
 10
-646.0451285889299
 20
302.2706019058213
 30
0.0
  0
VERTEX
  5
2EF
  8
0
  6
CONTINUOUS
 62
     9
 10
-645.9821970613208
 20
302.1734300717691
 30
0.0
  0
VERTEX
  5
2F0
  8
0
  6
CONTINUOUS
 62
     9
 10
-645.9058183462184
 20
302.0966840800763
 30
0.0
  0
VERTEX
  5
2F1
  8
0
  6
CONTINUOUS
 62
     9
 10
-645.8126414026902
 20
302.0465552286186
 30
0.0
  0
VERTEX
  5
2F2
  8
0
  6
CONTINUOUS
 62
     9
 10
-645.7223403107424
 20
302.0345696959582
 30
0.0
  0
SEQEND
  5
2FA
  8
0
  6
CONTINUOUS
 62
     9
  0
ARC
  5
1F0
  8
0
  6
CONTINUOUS
 62
     7
 10
-657.6372457752265
 20
328.6881230865512
 30
0.0
 40
1.000000000000001
 50
90.000000000194
 51
180.0
  0
ARC
  5
1F1
  8
0
  6
CONTINUOUS
 62
     7
 10
-631.2372457752389
 20
328.6881230865512
 30
0.0
 40
1.000000000000001
 50
0.0
 51
89.99999999980608
  0
ARC
  5
1F2
  8
0
  6
CONTINUOUS
 62
     7
 10
-631.2372457752389
 20
311.6881230865518
 30
0.0
 40
1.000000000000001
 50
270.0000000001935
 51
0.0
  0
LINE
  5
1F3
  8
0
  6
CONTINUOUS
 62
     7
 10
-630.2372457752358
 20
311.6881230865518
 30
0.0
 11
-630.2372457752358
 21
328.6881230865512
 31
0.0
  0
ARC
  5
1F4
  8
0
  6
CONTINUOUS
 62
     7
 10
-657.6372457752265
 20
311.6881230865518
 30
0.0
 40
1.000000000000001
 50
180.0
 51
269.9999999998063
  0
LINE
  5
1F5
  8
0
  6
CONTINUOUS
 62
     7
 10
-658.6372457752295
 20
328.6881230865512
 30
0.0
 11
-658.6372457752295
 21
311.6881230865518
 31
0.0
  0
LINE
  5
1F6
  8
0
  6
CONTINUOUS
 62
     7
 10
-657.2372457752325
 20
310.6881230867533
 30
0.0
 11
-657.2372457752325
 21
299.8881230865514
 31
0.0
  0
LINE
  5
1F7
  8
0
  6
CONTINUOUS
 62
     7
 10
-631.6372457752325
 20
299.8881230865514
 30
0.0
 11
-631.6372457752325
 21
310.6881230867533
 31
0.0
  0
ENDBLK
  8
0
  0
ENDSEC
  0
SECTION
  2
ENTITIES
  0
LINE
  5
6F
  8
0
  6
CONTINUOUS
 62
     7
 10
-646.1872457752326
 20
302.9629935351309
 30
0.0
 11
-646.1872457752326
 21
310.6881230865513
 31
0.0
  0
LINE
  5
70
  8
0
  6
CONTINUOUS
 62
     7
 10
-772.5765225103273
 20
145.0144621058792
 30
0.0
 11
-772.5765225103273
 21
131.0144621058792
 31
0.0
  0
LINE
  5
71
  8
0
  6
CONTINUOUS
 62
     7
 10
-700.5765225103273
 20
145.0144621058792
 30
0.0
 11
-700.5765225103273
 21
131.0144621058792
 31
0.0
  0
LINE
  5
72
  8
0
  6
CONTINUOUS
 62
     7
 10
-642.6872457752324
 20
310.6881230865514
 30
0.0
 11
-642.6872457752324
 21
302.962993535119
 31
0.0
  0
LINE
  5
73
  8
0
  6
CONTINUOUS
 62
     7
 10
-631.2372457752342
 20
310.6881230865514
 30
0.0
 11
-657.6372457752316
 21
310.6881230865514
 31
0.0
  0
LINE
  5
74
  8
0
  6
CONTINUOUS
 62
     9
 10
-716.0765225103273
 20
114.8144621058792
 30
0.0
 11
-716.0765225103273
 21
106.0144621058792
 31
0.0
  0
LINE
  5
75
  8
0
  6
CONTINUOUS
 62
     7
 10
-622.4372457752326
 20
185.8881230865514
 30
0.0
 11
-622.4372457752326
 21
296.8881230865514
 31
0.0
  0
LINE
  5
76
  8
0
  6
CONTINUOUS
 62
     7
 10
-643.4372457752329
 20
328.2307017590042
 30
0.0
 11
-643.4372457752329
 21
310.6881230875304
 31
0.0
  0
LINE
  5
77
  8
0
  6
CONTINUOUS
 62
     7
 10
-769.5765225103272
 20
106.0144621058792
 30
0.0
 11
-703.5765225103274
 21
106.0144621058792
 31
0.0
  0
LINE
  5
78
  8
0
  6
CONTINUOUS
 62
     7
 10
-770.5765225103273
 20
151.0144621058792
 30
0.0
 11
-770.5765225103273
 21
107.0144621058792
 31
0.0
  0
LINE
  5
79
  8
0
  6
CONTINUOUS
 62
     7
 10
-772.5765225103273
 20
117.6144621058792
 30
0.0
 11
-772.5765225103273
 21
127.6144621058792
 31
0.0
  0
LINE
  5
7A
  8
0
  6
CONTINUOUS
 62
     7
 10
-700.5765225103273
 20
117.6144621058792
 30
0.0
 11
-700.5765225103273
 21
127.6144621058792
 31
0.0
  0
LINE
  5
7B
  8
0
  6
CONTINUOUS
 62
     7
 10
-667.4372457752326
 20
182.8881230865514
 30
0.0
 11
-667.4372457752326
 21
299.8881230865514
 31
0.0
  0
LINE
  5
7C
  8
0
  6
CONTINUOUS
 62
     7
 10
-626.5372457752325
 20
290.9672016601174
 30
0.0
 11
-626.5372457752325
 21
289.6381230865514
 31
0.0
  0
LINE
  5
7D
  8
0
  6
CONTINUOUS
 62
     7
 10
-667.4372457752326
 20
299.8881230865514
 30
0.0
 11
-625.4372457752326
 21
299.8881230865514
 31
0.0
  0
LINE
  5
7E
  8
0
  6
CONTINUOUS
 62
     7
 10
-646.9372457752321
 20
310.6881230875198
 30
0.0
 11
-646.9372457752321
 21
328.2819600047096
 31
0.0
  0
LINE
  5
7F
  8
0
  6
CONTINUOUS
 62
     7
 10
-628.7372457752325
 20
290.9672016601174
 30
0.0
 11
-628.7372457752325
 21
289.6381230865514
 31
0.0
  0
LINE
  5
80
  8
0
  6
CONTINUOUS
 62
     7
 10
-628.7372457752325
 20
296.1381230865514
 30
0.0
 11
-628.7372457752325
 21
294.8090445129854
 31
0.0
  0
LINE
  5
81
  8
0
  6
CONTINUOUS
 62
     7
 10
-626.5372457752325
 20
296.1381230865514
 30
0.0
 11
-626.5372457752325
 21
294.8090445129862
 31
0.0
  0
LINE
  5
82
  8
0
  6
CONTINUOUS
 62
     7
 10
-772.5765225103273
 20
291.8881230865514
 30
0.0
 11
-772.5765225103273
 21
290.3881230865514
 31
0.0
  0
LINE
  5
83
  8
0
  6
CONTINUOUS
 62
     9
 10
-725.0765225103273
 20
106.0144621058792
 30
0.0
 11
-725.0765225103273
 21
114.8144621058792
 31
0.0
  0
LINE
  5
84
  8
0
  6
CONTINUOUS
 62
     7
 10
-762.8265225103273
 20
187.6881230865514
 30
0.0
 11
-762.8265225103273
 21
190.0881230865514
 31
0.0
  0
CIRCLE
  5
85
  8
0
  6
CONTINUOUS
 62
     7
 10
-714.3265225103273
 20
293.8881230865514
 30
0.0
 40
4.000000000000004
  0
LINE
  5
86
  8
0
  6
CONTINUOUS
 62
     7
 10
-700.5765225103273
 20
291.8881230865514
 30
0.0
 11
-700.5765225103273
 21
290.3881230865514
 31
0.0
  0
LINE
  5
87
  8
0
  6
CONTINUOUS
 62
     7
 10
-700.5765225103273
 20
190.8881230865514
 30
0.0
 11
-700.5765225103273
 21
192.3881230865514
 31
0.0
  0
LINE
  5
88
  8
0
  6
CONTINUOUS
 62
     7
 10
-772.5765225103273
 20
242.1381230865514
 30
0.0
 11
-772.5765225103273
 21
240.6381230865514
 31
0.0
  0
LINE
  5
89
  8
0
  6
CONTINUOUS
 62
     7
 10
-754.8265225103273
 20
190.0881230865514
 30
0.0
 11
-754.8265225103272
 21
187.6881230865514
 31
0.0
  0
LINE
  5
8A
  8
0
  6
CONTINUOUS
 62
     7
 10
-767.276522510339
 20
329.688123085712
 30
0.0
 11
-740.8765225103414
 21
329.6881230873719
 31
0.0
  0
LINE
  5
8B
  8
0
  6
CONTINUOUS
 62
     7
 10
-718.3265225103273
 20
292.6881230865514
 30
0.0
 11
-718.3265225103274
 21
295.0881230865514
 31
0.0
  0
LINE
  5
8C
  8
0
  6
CONTINUOUS
 62
     7
 10
-770.5765225103273
 20
151.0144621058792
 30
0.0
 11
-702.5765225103273
 21
151.0144621058792
 31
0.0
  0
LINE
  5
8D
  8
0
  6
CONTINUOUS
 62
     7
 10
-732.2765225103387
 20
329.6881230857267
 30
0.0
 11
-705.8765225103413
 21
329.6881230873755
 31
0.0
  0
LINE
  5
8E
  8
0
  6
CONTINUOUS
 62
     7
 10
-727.5765225103273
 20
239.9739095241783
 30
0.0
 11
-727.5765225103273
 21
242.8023366489245
 31
0.0
  0
LINE
  5
8F
  8
0
  6
CONTINUOUS
 62
     7
 10
-710.3265225103273
 20
295.0881230865514
 30
0.0
 11
-710.3265225103273
 21
292.6881230865515
 31
0.0
  0
CIRCLE
  5
90
  8
0
  6
CONTINUOUS
 62
     7
 10
-758.8265225103273
 20
188.8881230865514
 30
0.0
 40
4.000000000000004
  0
LINE
  5
91
  8
0
  6
CONTINUOUS
 62
     7
 10
-745.5765225103273
 20
242.8023366489245
 30
0.0
 11
-745.5765225103273
 21
239.9739095241783
 31
0.0
  0
LINE
  5
92
  8
0
  6
CONTINUOUS
 62
     7
 10
-700.5765225103273
 20
242.1381230865514
 30
0.0
 11
-700.5765225103273
 21
240.6381230865514
 31
0.0
  0
LINE
  5
93
  8
0
  6
CONTINUOUS
 62
     7
 10
-772.5765225103273
 20
190.8881230865514
 30
0.0
 11
-772.5765225103273
 21
192.3881230865514
 31
0.0
  0
LINE
  5
94
  8
0
  6
CONTINUOUS
 62
     7
 10
-732.2535802439588
 20
310.6881230857289
 30
0.0
 11
-734.776522509152
 21
310.6881230855713
 31
0.0
  0
LINE
  5
95
  8
0
  6
CONTINUOUS
 62
     7
 10
-703.3765225091544
 20
310.6881230875331
 30
0.0
 11
-732.1910183057888
 21
310.6881230857249
 31
0.0
  0
LINE
  5
96
  8
0
  6
CONTINUOUS
 62
     7
 10
-741.0778780689557
 20
310.6973486481123
 30
0.0
 11
-741.1451329783607
 21
310.6882277542172
 31
0.0
  0
LINE
  5
97
  8
0
  6
CONTINUOUS
 62
     7
 10
-706.0778780689642
 20
310.697348648116
 30
0.0
 11
-706.1451329783692
 21
310.6882277542209
 31
0.0
  0
LINE
  5
98
  8
0
  6
CONTINUOUS
 62
     7
 10
-732.2538821882306
 20
310.6881509276132
 30
0.0
 11
-732.3040208576825
 21
310.6943668283747
 31
0.0
  0
LINE
  5
99
  8
0
  6
CONTINUOUS
 62
     7
 10
-738.3765225091464
 20
310.6881230875318
 30
0.0
 11
-769.7765225091442
 21
310.6881230855553
 31
0.0
  0
TEXT
  5
9A
  8
0
  6
CONTINUOUS
 62
     7
 10
-719.851569338502
 20
81.6568400650244
 30
0.0
 40
6.0
  1
CDO-16SWGF
  0
INSERT
  5
199
  8
0
  6
DOT
 62
     7
  2
D_FRAME_VIEW_1401
 10
0.0
 20
0.0
 30
0.0
  0
INSERT
  5
1B5
  8
0
  6
DOT
 62
     7
  2
D_FRAME_VIEW_2034
 10
0.0
 20
0.0
 30
0.0
  0
INSERT
  5
1F8
  8
0
  6
DOT
 62
     7
  2
D_FRAME_VIEW_2297
 10
0.0
 20
0.0
 30
0.0
  0
ENDSEC
  0
EOF
