  0
SECTION
  2
HEADER
  9
$ACADVER
  1
AC1006
  9
$DWGCODEPAGE
  3
ansi_932
  9
$INSBASE
 10
0.0
 20
0.0
 30
0.0
  9
$EXTMIN
 10
8781.8568696732
 20
-5551.7008278755
  9
$EXTMAX
 10
9283.8568696732
 20
-5258.7008280484
  9
$LIMMIN
 10
0.0
 20
0.0
  9
$LIMMAX
 10
12.0
 20
9.0
  9
$ORTHOMODE
 70
     0
  9
$REGENMODE
 70
     1
  9
$FILLMODE
 70
     1
  9
$QTEXTMODE
 70
     0
  9
$MIRRTEXT
 70
     1
  9
$DRAGMODE
 70
     2
  9
$LTSCALE
 40
1.0
  9
$OSMODE
 70
    37
  9
$ATTMODE
 70
     1
  9
$TEXTSIZE
 40
0.2
  9
$TRACEWID
 40
0.05
  9
$TEXTSTYLE
  7
STANDARD
  9
$CLAYER
  8
0
  9
$CELTYPE
  6
BYLAYER
  9
$CECOLOR
 62
   256
  9
$DIMSCALE
 40
1.0
  9
$DIMASZ
 40
3.0
  9
$DIMEXO
 40
0.0625
  9
$DIMDLI
 40
0.38
  9
$DIMRND
 40
0.0
  9
$DIMDLE
 40
0.0
  9
$DIMEXE
 40
1.5
  9
$DIMTP
 40
0.0
  9
$DIMTM
 40
0.0
  9
$DIMTXT
 40
3.5
  9
$DIMCEN
 40
0.09
  9
$DIMTSZ
 40
0.0
  9
$DIMTOL
 70
     0
  9
$DIMLIM
 70
     0
  9
$DIMTIH
 70
     1
  9
$DIMTOH
 70
     1
  9
$DIMSE1
 70
     0
  9
$DIMSE2
 70
     0
  9
$DIMTAD
 70
     1
  9
$DIMZIN
 70
     0
  9
$DIMBLK
  1

  9
$DIMASO
 70
     1
  9
$DIMSHO
 70
     1
  9
$DIMPOST
  1

  9
$DIMAPOST
  1

  9
$DIMALT
 70
     0
  9
$DIMALTD
 70
     2
  9
$DIMALTF
 40
25.4
  9
$DIMLFAC
 40
1.0
  9
$DIMTOFL
 70
     0
  9
$DIMTVP
 40
0.0
  9
$DIMTIX
 70
     0
  9
$DIMSOXD
 70
     0
  9
$DIMSAH
 70
     0
  9
$DIMBLK1
  1

  9
$DIMBLK2
  1

  9
$LUNITS
 70
     2
  9
$LUPREC
 70
     4
  9
$SKETCHINC
 40
0.1
  9
$FILLETRAD
 40
0.5
  9
$AUNITS
 70
     0
  9
$AUPREC
 70
     0
  9
$MENU
  1
.
  9
$ELEVATION
 40
0.0
  9
$THICKNESS
 40
0.0
  9
$LIMCHECK
 70
     0
  9
$CHAMFERA
 40
0.0
  9
$CHAMFERB
 40
0.0
  9
$SKPOLY
 70
     0
  9
$TDCREATE
 40
2460426.569463704
  9
$TDUPDATE
 40
2460426.56946397
  9
$TDINDWG
 40
0.0000000116
  9
$TDUSRTIMER
 40
0.0000000116
  9
$USRTIMER
 70
     1
  9
$ANGBASE
 50
0.0
  9
$ANGDIR
 70
     0
  9
$PDMODE
 70
     0
  9
$PDSIZE
 40
0.0
  9
$PLINEWID
 40
0.0
  9
$COORDS
 70
     1
  9
$SPLFRAME
 70
     0
  9
$SPLINETYPE
 70
     6
  9
$SPLINESEGS
 70
     8
  9
$ATTDIA
 70
     0
  9
$ATTREQ
 70
     1
  9
$HANDLING
 70
     1
  9
$HANDSEED
  5
273
  9
$SURFTAB1
 70
     6
  9
$SURFTAB2
 70
     6
  9
$SURFTYPE
 70
     6
  9
$SURFU
 70
     6
  9
$SURFV
 70
     6
  9
$UCSNAME
  2

  9
$UCSORG
 10
0.0
 20
0.0
 30
0.0
  9
$UCSXDIR
 10
1.0
 20
0.0
 30
0.0
  9
$UCSYDIR
 10
0.0
 20
1.0
 30
0.0
  9
$USERI1
 70
     0
  9
$USERI2
 70
     0
  9
$USERI3
 70
     0
  9
$USERI4
 70
     0
  9
$USERI5
 70
     0
  9
$USERR1
 40
0.0
  9
$USERR2
 40
0.0
  9
$USERR3
 40
0.0
  9
$USERR4
 40
0.0
  9
$USERR5
 40
0.0
  9
$WORLDVIEW
 70
     1
  0
ENDSEC
  0
SECTION
  2
TABLES
  0
TABLE
  2
VPORT
 70
     1
  0
VPORT
  2
*ACTIVE
 70
     0
 10
0.0
 20
0.0
 11
1.0
 21
1.0
 12
9032.8568696732
 22
-5405.200827961949
 13
0.0
 23
0.0
 14
0.5
 24
0.5
 15
0.5
 25
0.5
 16
0.0
 26
0.0
 36
1.0
 17
0.0
 27
0.0
 37
0.0
 40
292.9999998271005
 41
1.6
 42
50.0
 43
0.0
 44
0.0
 50
0.0
 51
0.0
 71
     0
 72
   100
 73
     1
 74
     3
 75
     0
 76
     0
 77
     0
 78
     0
  0
ENDTAB
  0
TABLE
  2
LTYPE
 70
     3
  0
LTYPE
  2
CONTINUOUS
 70
     0
  3
Solid line
 72
    65
 73
     0
 40
0.0
  0
LTYPE
  2
CENTER
 70
     0
  3

 72
    65
 73
     0
 40
0.0
  0
LTYPE
  2
DASHED
 70
     0
  3

 72
    65
 73
     0
 40
0.0
  0
ENDTAB
  0
TABLE
  2
LAYER
 70
     2
  0
LAYER
  2
0
 70
     0
 62
     7
  6
CONTINUOUS
  0
LAYER
  2
1
 70
     0
 62
     7
  6
CONTINUOUS
  0
ENDTAB
  0
TABLE
  2
STYLE
 70
     2
  0
STYLE
  2
STANDARD
 70
     0
 40
0.0
 41
1.0
 50
0.0
 71
     0
 42
0.2
  3
txt
  4

  0
STYLE
  2
ＭＳ_ゴシック
 70
     0
 40
0.0
 41
1.0
 50
0.0
 71
     0
 42
0.2
  3
ＭＳ ゴシック.shx
  4

  0
ENDTAB
  0
TABLE
  2
VIEW
 70
     0
  0
ENDTAB
  0
TABLE
  2
UCS
 70
     0
  0
ENDTAB
  0
ENDSEC
  0
SECTION
  2
BLOCKS
  0
ENDSEC
  0
SECTION
  2
ENTITIES
  0
POINT
  5
70
  8
0
 62
     7
 10
9197.8568696732
 20
-5363.7008278747
 30
0.0
  0
LINE
  5
71
  8
0
  6
CONTINUOUS
 62
     7
 10
8948.8568696732
 20
-5495.7008278755
 30
0.0
 11
8786.8568696732
 21
-5495.7008278755
 31
0.0
  0
LINE
  5
72
  8
0
  6
CONTINUOUS
 62
     7
 10
9014.345730889101
 20
-5263.7008280482
 30
0.0
 11
9014.345730889101
 21
-5425.7008276859
 31
0.0
  0
LINE
  5
73
  8
1
  6
CONTINUOUS
 62
     7
 10
8811.8568696559
 20
-5345.45084871
 30
0.0
 11
8813.8568675255
 21
-5345.45084871
 31
0.0
  0
LINE
  5
74
  8
1
  6
CONTINUOUS
 62
     7
 10
8819.1631834824
 20
-5345.850848714
 30
0.0
 11
8817.3743234046
 21
-5345.8508487107
 31
0.0
  0
LINE
  5
75
  8
1
  6
CONTINUOUS
 62
     7
 10
8843.376243502
 20
-5294.5630137244
 30
0.0
 11
8865.2068696732
 21
-5294.5630137244
 31
0.0
  0
LINE
  5
76
  8
1
  6
CONTINUOUS
 62
     7
 10
8902.8568696732
 20
-5400.6930189962
 30
0.0
 11
8902.8568696732
 21
-5398.9008474916
 31
0.0
  0
ARC
  5
77
  8
1
  6
CONTINUOUS
 62
     7
 10
8818.6631834823
 20
-5342.5508487108
 30
0.0
 40
0.5
 50
0.0
 51
90.0
  0
LINE
  5
78
  8
1
  6
CONTINUOUS
 62
     7
 10
8813.8568675255
 20
-5343.95084871
 30
0.0
 11
8811.8568696559
 21
-5343.95084871
 31
0.0
  0
LINE
  5
79
  8
1
  6
CONTINUOUS
 62
     7
 10
8907.1068813614
 20
-5394.8386387466
 30
0.0
 11
8903.3762434371
 21
-5394.8386823377
 31
0.0
  0
LINE
  5
7A
  8
1
  6
CONTINUOUS
 62
     7
 10
8868.6068696732
 20
-5288.7008487112
 30
0.0
 11
8867.1068696732
 21
-5288.7008487112
 31
0.0
  0
ARC
  5
7B
  8
1
  6
CONTINUOUS
 62
     7
 10
8834.3568696732
 20
-5303.7008487108
 30
0.0
 40
2.0
 50
180.0
 51
270.0
  0
LINE
  5
7C
  8
1
  6
CONTINUOUS
 62
     7
 10
8818.8743234048
 20
-5342.5508487108
 30
0.0
 11
8818.8743234046
 21
-5343.5508486528
 31
0.0
  0
ARC
  5
7D
  8
1
  6
CONTINUOUS
 62
     7
 10
8901.3568696732
 20
-5385.7008487108
 30
0.0
 40
2.0
 50
0.0
 51
90.0
  0
LINE
  5
7E
  8
1
  6
CONTINUOUS
 62
     7
 10
8899.8568696732
 20
-5293.450848711
 30
0.0
 11
8835.8568696732
 21
-5293.450848711
 31
0.0
  0
ARC
  5
7F
  8
1
  6
CONTINUOUS
 62
     7
 10
8818.374323427
 20
-5346.8508487108
 30
0.0
 40
0.5
 50
270.0
 51
0.0000000055999863
  0
LINE
  5
80
  8
1
  6
CONTINUOUS
 62
     7
 10
8916.5505558641
 20
-5343.5508487076
 30
0.0
 11
8918.3394159419
 21
-5343.5508487109
 31
0.0
  0
LINE
  5
81
  8
1
  6
CONTINUOUS
 62
     7
 10
8818.8743234048
 20
-5346.8508487108
 30
0.0
 11
8818.8743234046
 21
-5345.8508487689
 31
0.0
  0
LINE
  5
82
  8
1
  6
CONTINUOUS
 62
     7
 10
8822.1761861634
 20
-5394.8814117727
 30
0.0
 11
8827.6068696697
 21
-5394.8815166052
 31
0.0
  0
ARC
  5
83
  8
1
  6
CONTINUOUS
 62
     7
 10
8821.8567712937
 20
-5390.7008414663
 30
0.0
 40
4.5
 50
179.6197615354
 51
269.9999925777
  0
LINE
  5
84
  8
1
  6
CONTINUOUS
 62
     7
 10
8817.6762730303
 20
-5298.0203725148
 30
0.0
 11
8817.6762730303
 21
-5334.7008487106
 31
0.0
  0
LINE
  5
85
  8
1
  6
CONTINUOUS
 62
     7
 10
8914.8568691669
 20
-5395.2008475774
 30
0.0
 11
8903.8568696732
 21
-5395.2008475774
 31
0.0
  0
LINE
  5
86
  8
1
  6
CONTINUOUS
 62
     7
 10
8826.3568696382
 20
-5355.1729847284
 30
0.0
 11
8826.3568696382
 21
-5388.700847446
 31
0.0
  0
LINE
  5
87
  8
1
  6
CONTINUOUS
 62
     7
 10
8816.6068696697
 20
-5376.7008487106
 30
0.0
 11
8816.6068696697
 21
-5312.7008487106
 31
0.0
  0
LINE
  5
88
  8
1
  6
CONTINUOUS
 62
     7
 10
8899.8568696732
 20
-5291.450848711
 30
0.0
 11
8835.8568696732
 21
-5291.450848711
 31
0.0
  0
ARC
  5
89
  8
1
  6
CONTINUOUS
 62
     7
 10
8822.1762730303
 20
-5390.3814117735
 30
0.0
 40
4.5
 50
180.0
 51
269.9988939764
  0
LINE
  5
8A
  8
1
  6
CONTINUOUS
 62
     7
 10
8820.8568713127
 20
-5294.2008487111
 30
0.0
 11
8831.8568696732
 21
-5294.2008487111
 31
0.0
  0
LINE
  5
8B
  8
1
  6
CONTINUOUS
 62
     7
 10
8817.6631834824
 20
-5354.700848711
 30
0.0
 11
8817.6631834824
 21
-5347.3508487108
 31
0.0
  0
LINE
  5
8C
  8
1
  6
CONTINUOUS
 62
     7
 10
8828.6068695083
 20
-5394.8386766564
 30
0.0
 11
8865.2068696729
 21
-5394.8386825641
 31
0.0
  0
LINE
  5
8D
  8
1
  6
CONTINUOUS
 62
     7
 10
8868.6068696732
 20
-5290.700846566
 30
0.0
 11
8868.6068696732
 21
-5288.7008487112
 31
0.0
  0
LINE
  5
8E
  8
1
  6
CONTINUOUS
 62
     7
 10
8835.8568696732
 20
-5397.9508464827
 30
0.0
 11
8899.8568696732
 21
-5397.9508475897
 31
0.0
  0
LINE
  5
8F
  8
1
  6
CONTINUOUS
 62
     7
 10
8817.6631834824
 20
-5334.7008487106
 30
0.0
 11
8817.6631834824
 21
-5342.0508487108
 31
0.0
  0
LINE
  5
90
  8
1
  6
CONTINUOUS
 62
     7
 10
8817.3743234046
 20
-5342.0508487108
 30
0.0
 11
8817.3743234046
 21
-5343.5508487109
 31
0.0
  0
LINE
  5
91
  8
1
  6
CONTINUOUS
 62
     7
 10
8835.8568696732
 20
-5395.9508464827
 30
0.0
 11
8899.8568696732
 21
-5395.9508475897
 31
0.0
  0
LINE
  5
92
  8
1
  6
CONTINUOUS
 62
     7
 10
8909.8568696732
 20
-5290.5008487111
 30
0.0
 11
8909.8568696732
 21
-5288.7008487112
 31
0.0
  0
LINE
  5
93
  8
1
  6
CONTINUOUS
 62
     7
 10
8867.1068696732
 20
-5288.7008487112
 30
0.0
 11
8867.1068696732
 21
-5290.700846566
 31
0.0
  0
ARC
  5
94
  8
1
  6
CONTINUOUS
 62
     7
 10
8818.374323427
 20
-5342.5508487108
 30
0.0
 40
0.5
 50
0.0
 51
90.0
  0
LINE
  5
95
  8
1
  6
CONTINUOUS
 62
     7
 10
8817.3743234046
 20
-5347.3508487108
 30
0.0
 11
8817.3743234046
 21
-5345.8508487107
 31
0.0
  0
LINE
  5
96
  8
1
  6
CONTINUOUS
 62
     7
 10
8921.8568696776
 20
-5396.7008475774
 30
0.0
 11
8921.8568696776
 21
-5386.9008487108
 31
0.0
  0
LINE
  5
97
  8
1
  6
CONTINUOUS
 62
     7
 10
8821.8567707107
 20
-5395.2008414663
 30
0.0
 11
8891.8568696732
 21
-5395.2008505344
 31
0.0
  0
ARC
  5
98
  8
1
  6
CONTINUOUS
 62
     7
 10
8818.6631834823
 20
-5346.8508487108
 30
0.0
 40
0.5
 50
270.0
 51
0.0
  0
LINE
  5
99
  8
1
  6
CONTINUOUS
 62
     7
 10
8867.1068696732
 20
-5398.700849742
 30
0.0
 11
8867.1068696732
 21
-5400.7008475151
 31
0.0
  0
LINE
  5
9A
  8
1
  6
CONTINUOUS
 62
     7
 10
8818.6631834823
 20
-5347.3508487108
 30
0.0
 11
8817.3743234046
 21
-5347.3508487108
 31
0.0
  0
LINE
  5
9B
  8
1
  6
CONTINUOUS
 62
     7
 10
8819.1631834824
 20
-5346.8508487108
 30
0.0
 11
8819.1631834824
 21
-5345.8508487108
 31
0.0
  0
LINE
  5
9C
  8
1
  6
CONTINUOUS
 62
     7
 10
8817.6762730303
 20
-5390.3814117735
 30
0.0
 11
8817.6762730303
 21
-5354.7008487108
 31
0.0
  0
LINE
  5
9D
  8
1
  6
CONTINUOUS
 62
     7
 10
8902.8568696732
 20
-5288.7008487112
 30
0.0
 11
8902.8568696732
 21
-5290.5008487111
 31
0.0
  0
LINE
  5
9E
  8
1
  6
CONTINUOUS
 62
     7
 10
8828.6068529225
 20
-5294.5630765266
 30
0.0
 11
8832.3374959375
 21
-5294.5630140488
 31
0.0
  0
LINE
  5
9F
  8
1
  6
CONTINUOUS
 62
     7
 10
8817.3568746619
 20
-5297.7008455227
 30
0.0
 11
8817.356870385
 21
-5390.7307046926
 31
0.0
  0
LINE
  5
A0
  8
1
  6
CONTINUOUS
 62
     7
 10
8841.3568696732
 20
-5305.7008487108
 30
0.0
 11
8834.3568696732
 21
-5305.7008487108
 31
0.0
  0
LINE
  5
A1
  8
1
  6
CONTINUOUS
 62
     7
 10
8867.1068696732
 20
-5400.7008475151
 30
0.0
 11
8868.6068696732
 21
-5400.7008475151
 31
0.0
  0
LINE
  5
A2
  8
1
  6
CONTINUOUS
 62
     7
 10
8921.8568696767
 20
-5379.5008487106
 30
0.0
 11
8921.8568696767
 21
-5309.9008487106
 31
0.0
  0
LINE
  5
A3
  8
1
  6
CONTINUOUS
 62
     7
 10
8907.106869834
 20
-5294.5630194782
 30
0.0
 11
8870.5068696732
 21
-5294.5630137243
 31
0.0
  0
LINE
  5
A4
  8
1
  6
CONTINUOUS
 62
     7
 10
8913.8642814483
 20
-5294.2008487111
 30
0.0
 11
8843.8568696732
 21
-5294.2008487111
 31
0.0
  0
LINE
  5
A5
  8
1
  6
CONTINUOUS
 62
     7
 10
8826.3568696382
 20
-5300.7008499748
 30
0.0
 11
8826.3568696382
 21
-5334.2287127601
 31
0.0
  0
ARC
  5
A6
  8
1
  6
CONTINUOUS
 62
     7
 10
8841.3568696732
 20
-5303.7008487108
 30
0.0
 40
2.0
 50
270.0
 51
0.0
  0
LINE
  5
A7
  8
1
  6
CONTINUOUS
 62
     7
 10
8814.6068696697
 20
-5376.7008487106
 30
0.0
 11
8814.6068696697
 21
-5312.7008487106
 31
0.0
  0
LINE
  5
A8
  8
1
  6
CONTINUOUS
 62
     7
 10
8921.8568696774
 20
-5302.5008487108
 30
0.0
 11
8921.8568696774
 21
-5298.7008487111
 31
0.0
  0
LINE
  5
A9
  8
1
  6
CONTINUOUS
 62
     7
 10
8892.3374958444
 20
-5394.8386825641
 30
0.0
 11
8870.5068696729
 21
-5394.8386825641
 31
0.0
  0
LINE
  5
AA
  8
1
  6
CONTINUOUS
 62
     7
 10
8894.3568696732
 20
-5383.7008487108
 30
0.0
 11
8901.3568696732
 21
-5383.7008487108
 31
0.0
  0
LINE
  5
AB
  8
1
  6
CONTINUOUS
 62
     7
 10
8821.1762741635
 20
-5294.5203038178
 30
0.0
 11
8827.6068696697
 21
-5294.5201796832
 31
0.0
  0
LINE
  5
AC
  8
1
  6
CONTINUOUS
 62
     7
 10
8922.0568696774
 20
-5302.7008487108
 30
0.0
 11
8923.8490399591
 21
-5302.7008487108
 31
0.0
  0
LINE
  5
AD
  8
1
  6
CONTINUOUS
 62
     7
 10
8817.6631834824
 20
-5343.5508487076
 30
0.0
 11
8817.6631834824
 21
-5345.8508542997
 31
0.0
  0
LINE
  5
AE
  8
1
  6
CONTINUOUS
 62
     7
 10
8868.6068696732
 20
-5400.7008475151
 30
0.0
 11
8868.6068696732
 21
-5398.700849742
 31
0.0
  0
LINE
  5
AF
  8
1
  6
CONTINUOUS
 62
     7
 10
8923.8490399591
 20
-5309.7008487106
 30
0.0
 11
8922.0568696577
 21
-5309.7008487106
 31
0.0
  0
ARC
  5
B0
  8
1
  6
CONTINUOUS
 62
     7
 10
8894.3568696732
 20
-5385.7008487108
 30
0.0
 40
2.0
 50
90.0
 51
180.0
  0
LINE
  5
B1
  8
1
  6
CONTINUOUS
 62
     7
 10
8917.0505558642
 20
-5342.0508487108
 30
0.0
 11
8918.3394159419
 21
-5342.0508487108
 31
0.0
  0
LINE
  5
B2
  8
1
  6
CONTINUOUS
 62
     7
 10
8819.1631834824
 20
-5342.5508487108
 30
0.0
 11
8819.1631834824
 21
-5343.5508487108
 31
0.0
  0
LINE
  5
B3
  8
1
  6
CONTINUOUS
 62
     7
 10
8826.568015257
 20
-5335.1231399511
 30
0.0
 11
8827.8290055919
 21
-5337.6451206208
 31
0.0
  0
LINE
  5
B4
  8
1
  6
CONTINUOUS
 62
     7
 10
8918.0374663161
 20
-5391.3813249069
 30
0.0
 11
8918.0374663161
 21
-5354.7008487108
 31
0.0
  0
LINE
  5
B5
  8
1
  6
CONTINUOUS
 62
     7
 10
8914.5374663161
 20
-5394.8813924706
 30
0.0
 11
8908.1068696767
 21
-5394.8815166052
 31
0.0
  0
LINE
  5
B6
  8
1
  6
CONTINUOUS
 62
     7
 10
8918.0505558641
 20
-5354.700848711
 30
0.0
 11
8918.0505558641
 21
-5347.3508487108
 31
0.0
  0
LINE
  5
B7
  8
1
  6
CONTINUOUS
 62
     7
 10
8916.5505558641
 20
-5345.850848714
 30
0.0
 11
8918.3394159419
 21
-5345.8508487107
 31
0.0
  0
ARC
  5
B8
  8
1
  6
CONTINUOUS
 62
     7
 10
8825.1068696697
 20
-5298.5357864471
 30
0.0
 40
2.5
 50
299.9999991657
 51
0.0
  0
LINE
  5
B9
  8
1
  6
CONTINUOUS
 62
     7
 10
8923.8568696906
 20
-5345.45084871
 30
0.0
 11
8921.856871821
 21
-5345.45084871
 31
0.0
  0
LINE
  5
BA
  8
1
  6
CONTINUOUS
 62
     7
 10
8921.1068696767
 20
-5376.7008487106
 30
0.0
 11
8921.1068696767
 21
-5312.7008487106
 31
0.0
  0
LINE
  5
BB
  8
1
  6
CONTINUOUS
 62
     7
 10
8914.8568691669
 20
-5395.2008475774
 30
0.0
 11
8918.356869006
 21
-5391.7008475774
 31
0.0
  0
LINE
  5
BC
  8
1
  6
CONTINUOUS
 62
     7
 10
8916.8394159417
 20
-5342.5508487108
 30
0.0
 11
8916.8394159419
 21
-5343.5508486528
 31
0.0
  0
ARC
  5
BD
  8
1
  6
CONTINUOUS
 62
     7
 10
8919.8568696776
 20
-5396.7008475774
 30
0.0
 40
2.0
 50
270.0
 51
0.0
  0
LINE
  5
BE
  8
1
  6
CONTINUOUS
 62
     7
 10
8828.3568696368
 20
-5339.8811885982
 30
0.0
 11
8828.3568696368
 21
-5349.5205088425
 31
0.0
  0
LINE
  5
BF
  8
1
  6
CONTINUOUS
 62
     7
 10
8827.8290056081
 20
-5351.7565767874
 30
0.0
 11
8826.5680152496
 21
-5354.2785575504
 31
0.0
  0
LINE
  5
C0
  8
1
  6
CONTINUOUS
 62
     7
 10
8918.0505558641
 20
-5334.7008487106
 30
0.0
 11
8918.0505558641
 21
-5342.0508487108
 31
0.0
  0
LINE
  5
C1
  8
1
  6
CONTINUOUS
 62
     7
 10
8916.8394159417
 20
-5346.8508487108
 30
0.0
 11
8916.8394159419
 21
-5345.8508487689
 31
0.0
  0
LINE
  5
C2
  8
1
  6
CONTINUOUS
 62
     7
 10
8909.3568697083
 20
-5355.1729847284
 30
0.0
 11
8909.3568697083
 21
-5388.7008474459
 31
0.0
  0
LINE
  5
C3
  8
1
  6
CONTINUOUS
 62
     7
 10
8827.6068696697
 20
-5294.5201796824
 30
0.0
 11
8827.6068696697
 21
-5298.5357864471
 31
0.0
  0
ARC
  5
C4
  8
1
  6
CONTINUOUS
 62
     7
 10
8828.6068696697
 20
-5295.5630765264
 30
0.0
 40
1.0
 50
90.000959543
 51
180.0
  0
ARC
  5
C5
  8
1
  6
CONTINUOUS
 62
     7
 10
8907.1068696767
 20
-5295.5630194782
 30
0.0
 40
1.0
 50
0.0
 51
89.9999909924
  0
LINE
  5
C6
  8
1
  6
CONTINUOUS
 62
     7
 10
8817.6762730303
 20
-5298.0203725148
 30
0.0
 11
8821.1762730303
 21
-5294.520304951
 31
0.0
  0
ARC
  5
C7
  8
1
  6
CONTINUOUS
 62
     7
 10
8913.8568696768
 20
-5298.7008487111
 30
0.0
 40
8.0
 50
0.0
 51
90.0
  0
LINE
  5
C8
  8
1
  6
CONTINUOUS
 62
     7
 10
8816.6068696697
 20
-5312.7008487106
 30
0.0
 11
8814.6068696697
 21
-5312.7008487106
 31
0.0
  0
LINE
  5
C9
  8
1
  6
CONTINUOUS
 62
     7
 10
8918.3394159419
 20
-5347.3508487108
 30
0.0
 11
8918.3394159419
 21
-5345.8508487107
 31
0.0
  0
LINE
  5
CA
  8
1
  6
CONTINUOUS
 62
     7
 10
8923.8490399591
 20
-5379.7008487106
 30
0.0
 11
8922.0568696767
 21
-5379.7008487106
 31
0.0
  0
LINE
  5
CB
  8
1
  6
CONTINUOUS
 62
     7
 10
8916.5505558641
 20
-5342.5508487108
 30
0.0
 11
8916.5505558641
 21
-5343.5508487108
 31
0.0
  0
LINE
  5
CC
  8
1
  6
CONTINUOUS
 62
     7
 10
8909.3568697083
 20
-5300.7008499748
 30
0.0
 11
8909.3568697083
 21
-5334.2287127601
 31
0.0
  0
LINE
  5
CD
  8
1
  6
CONTINUOUS
 62
     7
 10
8899.8568696732
 20
-5291.4508487073
 30
0.0
 11
8899.8568696732
 21
-5293.4508487073
 31
0.0
  0
ARC
  5
CE
  8
1
  6
CONTINUOUS
 62
     7
 10
8828.356869639
 20
-5334.2287127601
 30
0.0
 40
2.0
 50
179.9999999997
 51
206.565051176
  0
ARC
  5
CF
  8
1
  6
CONTINUOUS
 62
     7
 10
8828.3568696381
 20
-5355.1729847284
 30
0.0
 40
2.0
 50
153.4349492402
 51
179.9999999999
  0
LINE
  5
D0
  8
1
  6
CONTINUOUS
 62
     7
 10
8913.537553183
 20
-5294.5202845158
 30
0.0
 11
8908.1068696767
 21
-5294.5201796832
 31
0.0
  0
ARC
  5
D1
  8
1
  6
CONTINUOUS
 62
     7
 10
8913.8568647305
 20
-5298.7008487111
 30
0.0
 40
4.5
 50
0.0000026341
 51
90.0
  0
LINE
  5
D2
  8
1
  6
CONTINUOUS
 62
     7
 10
8918.0505558641
 20
-5343.5508487076
 30
0.0
 11
8918.0505558641
 21
-5345.8508542997
 31
0.0
  0
LINE
  5
D3
  8
1
  6
CONTINUOUS
 62
     7
 10
8827.6068696697
 20
-5394.8815177384
 30
0.0
 11
8827.6068696697
 21
-5390.8659109737
 31
0.0
  0
ARC
  5
D4
  8
1
  6
CONTINUOUS
 62
     7
 10
8917.0505558642
 20
-5342.5508487108
 30
0.0
 40
0.5
 50
90.0
 51
180.0
  0
ARC
  5
D5
  8
1
  6
CONTINUOUS
 62
     7
 10
8917.0505558642
 20
-5346.8508487108
 30
0.0
 40
0.5
 50
180.0
 51
270.0
  0
ARC
  5
D6
  8
1
  6
CONTINUOUS
 62
     7
 10
8828.6068696697
 20
-5393.8386766564
 30
0.0
 40
1.0
 50
180.0
 51
269.9999907517
  0
LINE
  5
D7
  8
1
  6
CONTINUOUS
 62
     7
 10
8908.1068696767
 20
-5394.8815177384
 30
0.0
 11
8908.1068696767
 21
-5390.8659109737
 31
0.0
  0
ARC
  5
D8
  8
1
  6
CONTINUOUS
 62
     7
 10
8815.8568696691
 20
-5292.7008487111
 30
0.0
 40
2.0
 50
90.0
 51
180.0
  0
LINE
  5
D9
  8
1
  6
CONTINUOUS
 62
     7
 10
8917.0505558642
 20
-5347.3508487108
 30
0.0
 11
8918.3394159419
 21
-5347.3508487108
 31
0.0
  0
LINE
  5
DA
  8
1
  6
CONTINUOUS
 62
     7
 10
8916.5505558641
 20
-5346.8508487108
 30
0.0
 11
8916.5505558641
 21
-5345.8508487108
 31
0.0
  0
ARC
  5
DB
  8
1
  6
CONTINUOUS
 62
     7
 10
8910.6068696767
 20
-5390.8659109737
 30
0.0
 40
2.5
 50
119.9999991657
 51
180.0
  0
LINE
  5
DC
  8
1
  6
CONTINUOUS
 62
     7
 10
8921.856871821
 20
-5343.95084871
 30
0.0
 11
8923.8568696906
 21
-5343.95084871
 31
0.0
  0
ARC
  5
DD
  8
1
  6
CONTINUOUS
 62
     7
 10
8825.1068696697
 20
-5390.8659109737
 30
0.0
 40
2.5
 50
0.0
 51
60.0000008343
  0
CIRCLE
  5
DE
  8
1
  6
CONTINUOUS
 62
     7
 10
8918.6068696732
 20
-5395.4508487108
 30
0.0
 40
1.65
  0
LINE
  5
DF
  8
1
  6
CONTINUOUS
 62
     7
 10
8921.1068696767
 20
-5376.7008487106
 30
0.0
 11
8919.1068696767
 21
-5376.7008487106
 31
0.0
  0
LINE
  5
E0
  8
1
  6
CONTINUOUS
 62
     7
 10
8918.356869006
 20
-5391.7008475774
 30
0.0
 11
8918.3568647305
 21
-5298.7008485042
 31
0.0
  0
LINE
  5
E1
  8
1
  6
CONTINUOUS
 62
     7
 10
8918.0374663161
 20
-5391.3813249068
 30
0.0
 11
8914.5374663161
 21
-5394.8813924706
 31
0.0
  0
LINE
  5
E2
  8
1
  6
CONTINUOUS
 62
     7
 10
8922.0568696776
 20
-5386.7008487108
 30
0.0
 11
8923.8490399591
 21
-5386.7008487108
 31
0.0
  0
ARC
  5
E3
  8
1
  6
CONTINUOUS
 62
     7
 10
8917.3394159195
 20
-5342.5508487108
 30
0.0
 40
0.5
 50
90.0
 51
180.0000000056
  0
ARC
  5
E4
  8
1
  6
CONTINUOUS
 62
     7
 10
8917.3394159195
 20
-5346.8508487108
 30
0.0
 40
0.5
 50
179.9999999944
 51
270.0
  0
LINE
  5
E5
  8
1
  6
CONTINUOUS
 62
     7
 10
8919.1068696767
 20
-5312.7008487106
 30
0.0
 11
8921.1068696767
 21
-5312.7008487106
 31
0.0
  0
LINE
  5
E6
  8
1
  6
CONTINUOUS
 62
     7
 10
8918.0374663161
 20
-5299.020284536
 30
0.0
 11
8918.0374663161
 21
-5334.7008487106
 31
0.0
  0
LINE
  5
E7
  8
1
  6
CONTINUOUS
 62
     7
 10
8919.1068696767
 20
-5376.7008487106
 30
0.0
 11
8919.1068696767
 21
-5312.7008487106
 31
0.0
  0
ARC
  5
E8
  8
1
  6
CONTINUOUS
 62
     7
 10
8910.6068696767
 20
-5298.5357864471
 30
0.0
 40
2.5
 50
180.0
 51
240.0000008343
  0
ARC
  5
E9
  8
1
  6
CONTINUOUS
 62
     7
 10
8913.5374663161
 20
-5299.020284536
 30
0.0
 40
4.5
 50
0.0
 51
89.9988939764
  0
LINE
  5
EA
  8
1
  6
CONTINUOUS
 62
     7
 10
8908.1068696767
 20
-5294.5201796824
 30
0.0
 11
8908.1068696767
 21
-5298.5357864471
 31
0.0
  0
ARC
  5
EB
  8
1
  6
CONTINUOUS
 62
     7
 10
8907.1068696767
 20
-5393.8386387467
 30
0.0
 40
1.0
 50
270.0006694801
 51
0.0
  0
CIRCLE
  5
EC
  8
1
  6
CONTINUOUS
 62
     7
 10
8817.1068696732
 20
-5293.9508487108
 30
0.0
 40
1.65
  0
LINE
  5
ED
  8
1
  6
CONTINUOUS
 62
     7
 10
8814.6068696697
 20
-5376.7008487106
 30
0.0
 11
8816.6068696697
 21
-5376.7008487106
 31
0.0
  0
LINE
  5
EE
  8
1
  6
CONTINUOUS
 62
     7
 10
8899.8568696732
 20
-5397.9508487055
 30
0.0
 11
8899.8568696732
 21
-5395.9508487055
 31
0.0
  0
LINE
  5
EF
  8
1
  6
CONTINUOUS
 62
     7
 10
8835.8568696732
 20
-5395.9508475985
 30
0.0
 11
8835.8568696732
 21
-5397.9508475985
 31
0.0
  0
LINE
  5
F0
  8
1
  6
CONTINUOUS
 62
     7
 10
8820.8568701795
 20
-5294.2008498442
 30
0.0
 11
8817.3568703404
 21
-5297.7008498442
 31
0.0
  0
LINE
  5
F1
  8
1
  6
CONTINUOUS
 62
     7
 10
8918.3394159419
 20
-5342.0508487108
 30
0.0
 11
8918.3394159419
 21
-5343.5508487109
 31
0.0
  0
LINE
  5
F2
  8
1
  6
CONTINUOUS
 62
     7
 10
8835.8568696732
 20
-5293.4508487073
 30
0.0
 11
8835.8568696732
 21
-5291.4508487073
 31
0.0
  0
LINE
  5
F3
  8
1
  6
CENTER
 62
     7
 10
8897.8568696737
 20
-5349.7008487108
 30
0.0
 11
8897.8568696737
 21
-5339.7008487108
 31
0.0
  0
LINE
  5
F5
  8
1
  6
CONTINUOUS
 62
     7
 10
8825.8568696732
 20
-5288.7086784254
 30
0.0
 11
8832.8568696732
 21
-5288.7086784254
 31
0.0
  0
ARC
  5
F6
  8
1
  6
CONTINUOUS
 62
     7
 10
8823.3568696368
 20
-5339.8811885982
 30
0.0
 40
5.0
 50
0.0
 51
26.5650511761
  0
ARC
  5
F7
  8
1
  6
CONTINUOUS
 62
     7
 10
8825.6568696732
 20
-5290.5008487111
 30
0.0
 40
0.2
 50
270.0
 51
0.0
  0
ARC
  5
F8
  8
1
  6
CONTINUOUS
 62
     7
 10
8902.6568696732
 20
-5290.5008487111
 30
0.0
 40
0.2
 50
270.0
 51
0.0
  0
ARC
  5
F9
  8
1
  6
CONTINUOUS
 62
     7
 10
8907.3568697084
 20
-5355.1729847284
 30
0.0
 40
2.0
 50
0.0000000001
 51
26.56505075979999
  0
LINE
  5
FA
  8
1
  6
CONTINUOUS
 62
     7
 10
8885.3568696732
 20
-5392.8386836964
 30
0.0
 11
8885.3568696732
 21
-5394.8386836964
 31
0.0
  0
ARC
  5
FB
  8
1
  6
CONTINUOUS
 62
     7
 10
8912.3568697096
 20
-5339.8811885982
 30
0.0
 40
5.0
 50
153.4349488239
 51
180.0
  0
CIRCLE
  5
FC
  8
1
  6
CONTINUOUS
 62
     7
 10
8837.8568696732
 20
-5300.2008487108
 30
0.0
 40
2.5
  0
LINE
  5
FD
  8
1
  6
CONTINUOUS
 62
     7
 10
8908.1568697097
 20
-5335.0936608238
 30
0.0
 11
8901.1568697097
 21
-5335.0936608238
 31
0.0
  0
ARC
  5
FE
  8
1
  6
CONTINUOUS
 62
     7
 10
8835.0568735641
 20
-5343.9508486897
 30
0.0
 40
0.5
 50
0.0
 51
90.0000000496
  0
LINE
  5
FF
  8
1
  6
CONTINUOUS
 62
     7
 10
8901.1568697097
 20
-5333.5936608238
 30
0.0
 11
8901.1568697097
 21
-5335.0936608238
 31
0.0
  0
LINE
  5
100
  8
1
  6
CONTINUOUS
 62
     7
 10
8844.9568696732
 20
-5294.5630137244
 30
0.0
 11
8844.9568696732
 21
-5296.5630137244
 31
0.0
  0
LINE
  5
101
  8
1
  6
CONTINUOUS
 62
     7
 10
8833.5068599779
 20
-5343.7326069807
 30
0.0
 11
8833.5067646394
 21
-5343.4508487006
 31
0.0
  0
LINE
  5
102
  8
1
  6
CONTINUOUS
 62
     7
 10
8890.7568696732
 20
-5394.8386836964
 30
0.0
 11
8890.7568696732
 21
-5392.8386836964
 31
0.0
  0
LINE
  5
103
  8
1
  6
CONTINUOUS
 62
     7
 10
8834.9568661279
 20
-5345.4508510398
 30
0.0
 11
8834.9568731457
 21
-5343.950851029
 31
0.0
  0
ARC
  5
104
  8
1
  6
CONTINUOUS
 62
     7
 10
8910.0568696732
 20
-5290.5008487111
 30
0.0
 40
0.2
 50
180.0
 51
270.0
  0
ARC
  5
105
  8
1
  6
CONTINUOUS
 62
     7
 10
8922.0568696774
 20
-5302.5008487108
 30
0.0
 40
0.2
 50
180.0
 51
270.0
  0
ARC
  5
106
  8
1
  6
CONTINUOUS
 62
     7
 10
8922.0568696767
 20
-5379.5008487106
 30
0.0
 40
0.2
 50
180.0
 51
270.0
  0
LINE
  5
107
  8
1
  6
CONTINUOUS
 62
     7
 10
8833.5068597119
 20
-5345.9508487224
 30
0.0
 11
8833.5068583502
 21
-5345.6690988949
 31
0.0
  0
ARC
  5
108
  8
1
  6
CONTINUOUS
 62
     7
 10
8825.6568696732
 20
-5398.9008475781
 30
0.0
 40
0.2
 50
0.0
 51
89.99999999370002
  0
ARC
  5
109
  8
1
  6
CONTINUOUS
 62
     7
 10
8813.6568696822
 20
-5379.5008487106
 30
0.0
 40
0.2
 50
270.0
 51
0.0
  0
ARC
  5
10A
  8
1
  6
CONTINUOUS
 62
     7
 10
8833.0568696732
 20
-5290.5008487112
 30
0.0
 40
0.2
 50
180.0
 51
270.0
  0
LINE
  5
10B
  8
1
  6
CONTINUOUS
 62
     7
 10
8835.5568665463
 20
-5345.4508510398
 30
0.0
 11
8835.5568735641
 21
-5343.950851029
 31
0.0
  0
ARC
  5
10C
  8
1
  6
CONTINUOUS
 62
     7
 10
8813.6568696691
 20
-5302.5008487108
 30
0.0
 40
0.2
 50
270.0
 51
0.0
  0
ARC
  5
10D
  8
1
  6
CONTINUOUS
 62
     7
 10
8813.6568696841
 20
-5309.9008487106
 30
0.0
 40
0.2
 50
0.0
 51
90.0
  0
LINE
  5
10E
  8
1
  6
CONTINUOUS
 62
     7
 10
8909.1457240894
 20
-5335.1231399511
 30
0.0
 11
8907.8847337546
 21
-5337.6451206208
 31
0.0
  0
ARC
  5
10F
  8
1
  6
CONTINUOUS
 62
     7
 10
8922.0568696577
 20
-5309.9008487106
 30
0.0
 40
0.2
 50
90.0
 51
180.0000000036
  0
LINE
  5
110
  8
1
  6
CONTINUOUS
 62
     7
 10
8904.1568697097
 20
-5332.0936608238
 30
0.0
 11
8904.1568697097
 21
-5333.0936608238
 31
0.0
  0
ARC
  5
111
  8
1
  6
CONTINUOUS
 62
     7
 10
8891.8568696732
 20
-5394.7008475774
 30
0.0
 40
0.5
 50
270.0
 51
0.0
  0
ARC
  5
112
  8
1
  6
CONTINUOUS
 62
     7
 10
8902.6568696732
 20
-5398.9008474916
 30
0.0
 40
0.2
 50
0.0
 51
89.9999999062
  0
ARC
  5
113
  8
1
  6
CONTINUOUS
 62
     7
 10
8843.8568696732
 20
-5294.7008487111
 30
0.0
 40
0.5
 50
90.0
 51
180.0
  0
LINE
  5
114
  8
1
  6
CONTINUOUS
 62
     7
 10
8905.1568697097
 20
-5333.0936608238
 30
0.0
 11
8905.1568697097
 21
-5332.0936608238
 31
0.0
  0
LINE
  5
115
  8
1
  6
CONTINUOUS
 62
     7
 10
8902.6568697097
 20
-5332.0936608238
 30
0.0
 11
8904.1568697097
 21
-5332.0936608238
 31
0.0
  0
LINE
  5
116
  8
1
  6
CONTINUOUS
 62
     7
 10
8906.6568697097
 20
-5332.0936608238
 30
0.0
 11
8905.1568697097
 21
-5332.0936608238
 31
0.0
  0
LINE
  5
117
  8
1
  6
CONTINUOUS
 62
     7
 10
8850.3568696732
 20
-5296.5630137244
 30
0.0
 11
8850.3568696732
 21
-5294.5630137244
 31
0.0
  0
ARC
  5
118
  8
1
  6
CONTINUOUS
 62
     7
 10
8828.3568696368
 20
-5344.7008487108
 30
0.0
 40
1.0
 50
270.0
 51
90.0
  0
ARC
  5
119
  8
1
  6
CONTINUOUS
 62
     7
 10
8833.7568696368
 20
-5344.7008487108
 30
0.0
 40
1.0
 50
104.4779148997
 51
255.5219239529
  0
LINE
  5
11A
  8
1
  6
CONTINUOUS
 62
     7
 10
8907.8847337384
 20
-5351.7565767874
 30
0.0
 11
8909.1457240969
 21
-5354.2785575504
 31
0.0
  0
LINE
  5
11B
  8
1
  6
CONTINUOUS
 62
     7
 10
8907.3568697096
 20
-5339.8811885982
 30
0.0
 11
8907.3568697096
 21
-5349.5205088425
 31
0.0
  0
LINE
  5
11C
  8
1
  6
CONTINUOUS
 62
     7
 10
8844.9568696732
 20
-5296.5630137244
 30
0.0
 11
8850.3568696732
 21
-5296.5630137244
 31
0.0
  0
ARC
  5
11D
  8
1
  6
CONTINUOUS
 62
     7
 10
8823.3568696368
 20
-5349.5205088425
 30
0.0
 40
5.0
 50
333.4349492402
 51
0.0
  0
LINE
  5
11E
  8
1
  6
CONTINUOUS
 62
     7
 10
8909.8568696732
 20
-5288.7086784254
 30
0.0
 11
8902.8568696732
 21
-5288.7086784254
 31
0.0
  0
ARC
  5
11F
  8
1
  6
CONTINUOUS
 62
     7
 10
8912.3568697096
 20
-5349.5205088425
 30
0.0
 40
5.0
 50
180.0
 51
206.5650507598
  0
LINE
  5
120
  8
1
  6
CONTINUOUS
 62
     7
 10
8923.8490399591
 20
-5386.7008487104
 30
0.0
 11
8923.8490399591
 21
-5379.7008487104
 31
0.0
  0
ARC
  5
121
  8
1
  6
CONTINUOUS
 62
     7
 10
8907.3568697074
 20
-5334.2287127601
 30
0.0
 40
2.0
 50
333.4349488239
 51
0.0000000003000196
  0
LINE
  5
122
  8
1
  6
CONTINUOUS
 62
     7
 10
8923.8490399591
 20
-5302.7008487104
 30
0.0
 11
8923.8490399591
 21
-5309.7008487104
 31
0.0
  0
LINE
  5
123
  8
1
  6
CONTINUOUS
 62
     7
 10
8811.8646993882
 20
-5386.7008487104
 30
0.0
 11
8811.8646993882
 21
-5379.7008487104
 31
0.0
  0
ARC
  5
124
  8
1
  6
CONTINUOUS
 62
     7
 10
8831.8568696732
 20
-5294.7008487111
 30
0.0
 40
0.5
 50
0.0
 51
90.0
  0
LINE
  5
125
  8
1
  6
CONTINUOUS
 62
     7
 10
8890.7568696732
 20
-5392.8386836964
 30
0.0
 11
8885.3568696732
 21
-5392.8386836964
 31
0.0
  0
ARC
  5
126
  8
1
  6
CONTINUOUS
 62
     7
 10
8922.0568696776
 20
-5386.9008487108
 30
0.0
 40
0.2
 50
90.0
 51
180.0
  0
ARC
  5
127
  8
1
  6
CONTINUOUS
 62
     7
 10
8903.8568696732
 20
-5394.7008475774
 30
0.0
 40
0.5
 50
180.0
 51
270.0
  0
ARC
  5
128
  8
1
  6
CONTINUOUS
 62
     7
 10
8910.0568696732
 20
-5398.9008475774
 30
0.0
 40
0.2
 50
90.0
 51
180.0
  0
ARC
  5
129
  8
1
  6
CONTINUOUS
 62
     7
 10
8833.0568696732
 20
-5398.9008474574
 30
0.0
 40
0.2
 50
90.0
 51
180.0
  0
LINE
  5
12A
  8
1
  6
CONTINUOUS
 62
     7
 10
8833.5065108621
 20
-5343.4508487006
 30
0.0
 11
8835.0568735637
 21
-5343.4508487006
 31
0.0
  0
ARC
  5
12B
  8
1
  6
CONTINUOUS
 62
     7
 10
8834.4568661279
 20
-5345.4508487005
 30
0.0
 40
0.5
 50
270.0
 51
0.0
  0
ARC
  5
12C
  8
1
  6
CONTINUOUS
 62
     7
 10
8813.6568696689
 20
-5386.9008487108
 30
0.0
 40
0.2
 50
0.0
 51
90.0
  0
LINE
  5
12D
  8
1
  6
CONTINUOUS
 62
     7
 10
8904.1568697097
 20
-5333.0936608238
 30
0.0
 11
8905.1568697097
 21
-5333.0936608238
 31
0.0
  0
ARC
  5
12E
  8
1
  6
CONTINUOUS
 62
     7
 10
8835.0568665463
 20
-5345.4508487005
 30
0.0
 40
0.5
 50
270.0
 51
0.0
  0
LINE
  5
12F
  8
1
  6
CONTINUOUS
 62
     7
 10
8908.1568697097
 20
-5333.5936608238
 30
0.0
 11
8908.1568697097
 21
-5335.0936608238
 31
0.0
  0
ARC
  5
130
  8
1
  6
CONTINUOUS
 62
     7
 10
8834.4568731457
 20
-5343.9508486897
 30
0.0
 40
0.5
 50
0.0
 51
90.0000000496
  0
LINE
  5
131
  8
1
  6
CONTINUOUS
 62
     7
 10
8811.8646993882
 20
-5302.7008487104
 30
0.0
 11
8811.8646993882
 21
-5309.7008487104
 31
0.0
  0
CIRCLE
  5
132
  8
1
  6
CONTINUOUS
 62
     7
 10
8897.8568696732
 20
-5389.2008487108
 30
0.0
 40
2.5
  0
LINE
  5
133
  8
1
  6
CONTINUOUS
 62
     7
 10
8835.0568665463
 20
-5345.9508487005
 30
0.0
 11
8833.5065108621
 21
-5345.9508487005
 31
0.0
  0
LINE
  5
134
  8
1
  6
CONTINUOUS
 62
     7
 10
8870.5068696731
 20
-5295.5630137242
 30
0.0
 11
8870.5068696732
 21
-5294.2183024463
 31
0.0
  0
LINE
  5
135
  8
1
  6
CONTINUOUS
 62
     7
 10
8829.0568696368
 20
-5347.0936608238
 30
0.0
 11
8833.0568696368
 21
-5347.0936608238
 31
0.0
  0
LINE
  5
136
  8
1
  6
CENTER
 62
     7
 10
8862.8568696732
 20
-5312.2008487106
 30
0.0
 11
8872.8568696732
 21
-5312.2008487106
 31
0.0
  0
LINE
  5
137
  8
1
  6
CENTER
 62
     7
 10
8872.8568696732
 20
-5377.2008487098
 30
0.0
 11
8862.8568696732
 21
-5377.2008487098
 31
0.0
  0
LINE
  5
138
  8
1
  6
CENTER
 62
     7
 10
8862.8568696732
 20
-5325.7008487102
 30
0.0
 11
8872.8568696732
 21
-5325.7008487102
 31
0.0
  0
CIRCLE
  5
139
  8
1
  6
CONTINUOUS
 62
     7
 10
8867.8568696732
 20
-5344.7008487102
 30
0.0
 40
4.283
  0
LINE
  5
13A
  8
1
  6
CONTINUOUS
 62
     7
 10
8906.6568697097
 20
-5335.0936608238
 30
0.0
 11
8906.6568697097
 21
-5343.986705868
 31
0.0
  0
LINE
  5
13B
  8
1
  6
CONTINUOUS
 62
     7
 10
8900.6568728002
 20
-5345.9508487005
 30
0.0
 11
8902.2072284844
 21
-5345.9508487005
 31
0.0
  0
LINE
  5
13C
  8
1
  6
CONTINUOUS
 62
     7
 10
8869.0068696239
 20
-5395.1833938417
 30
0.0
 11
8869.0069056287
 21
-5393.3386825639
 31
0.0
  0
LINE
  5
13D
  8
1
  6
CONTINUOUS
 62
     7
 10
8902.6568697097
 20
-5345.4149915537
 30
0.0
 11
8902.6568697097
 21
-5347.0936608238
 31
0.0
  0
LINE
  5
13E
  8
1
  6
CONTINUOUS
 62
     7
 10
8865.706869673
 20
-5393.6833938416
 30
0.0
 11
8866.7068696149
 21
-5393.6833938417
 31
0.0
  0
LINE
  5
13F
  8
1
  6
CONTINUOUS
 62
     7
 10
8865.7068696732
 20
-5296.0630137242
 30
0.0
 11
8866.7068533419
 21
-5296.0630137242
 31
0.0
  0
LINE
  5
140
  8
1
  6
CENTER
 62
     7
 10
8872.8568696732
 20
-5363.7008487102
 30
0.0
 11
8862.8568696732
 21
-5363.7008487102
 31
0.0
  0
CIRCLE
  5
141
  8
1
  6
CONTINUOUS
 62
     7
 10
8863.6068696733
 20
-5337.339632778
 30
0.0
 40
1.5
  0
LINE
  5
142
  8
1
  6
CONTINUOUS
 62
     7
 10
8865.2068696729
 20
-5393.8386825637
 30
0.0
 11
8865.2068696729
 21
-5395.1833938417
 31
0.0
  0
ARC
  5
143
  8
1
  6
CONTINUOUS
 62
     7
 10
8906.6568697097
 20
-5333.5936608238
 30
0.0
 40
1.5
 50
0.0
 51
90.0
  0
LINE
  5
144
  8
1
  6
CONTINUOUS
 62
     7
 10
8902.2068793685
 20
-5343.7326069807
 30
0.0
 11
8902.206974707
 21
-5343.4508487006
 31
0.0
  0
LINE
  5
145
  8
1
  6
CONTINUOUS
 62
     7
 10
8865.7068696733
 20
-5295.7183024465
 30
0.0
 11
8866.7068696152
 21
-5295.7183024463
 31
0.0
  0
CIRCLE
  5
146
  8
1
  6
CONTINUOUS
 62
     7
 10
8867.8568696732
 20
-5344.7008487102
 30
0.0
 40
4.864
  0
LINE
  5
147
  8
1
  6
CONTINUOUS
 62
     7
 10
8870.0068696451
 20
-5393.3386825639
 30
0.0
 11
8869.0069056287
 21
-5393.3386825639
 31
0.0
  0
CIRCLE
  5
148
  8
1
  6
CONTINUOUS
 62
     7
 10
8863.606869673
 20
-5352.0620646427
 30
0.0
 40
1.5
  0
CIRCLE
  5
149
  8
1
  6
CONTINUOUS
 62
     7
 10
8872.1068696735
 20
-5352.0620646427
 30
0.0
 40
1.5
  0
LINE
  5
14A
  8
1
  6
CONTINUOUS
 62
     7
 10
8902.6568697097
 20
-5347.0936608238
 30
0.0
 11
8906.6568697097
 21
-5347.0936608238
 31
0.0
  0
ARC
  5
14B
  8
1
  6
CONTINUOUS
 62
     7
 10
8901.9568697096
 20
-5344.7008487108
 30
0.0
 40
1.0
 50
284.4780760471
 51
75.52208510030005
  0
CIRCLE
  5
14C
  8
1
  6
CONTINUOUS
 62
     7
 10
8872.1068696732
 20
-5337.339632778
 30
0.0
 40
1.5
  0
CIRCLE
  5
14D
  8
1
  6
CONTINUOUS
 62
     7
 10
8867.8568696732
 20
-5344.7008487102
 30
0.0
 40
13.5
  0
LINE
  5
14E
  8
1
  6
CONTINUOUS
 62
     7
 10
8900.7568732186
 20
-5345.4508510398
 30
0.0
 11
8900.7568662008
 21
-5343.950851029
 31
0.0
  0
LINE
  5
14F
  8
1
  6
CONTINUOUS
 62
     7
 10
8869.0068696242
 20
-5294.2183024463
 30
0.0
 11
8869.006905629
 21
-5296.0630137242
 31
0.0
  0
CIRCLE
  5
150
  8
1
  6
CONTINUOUS
 62
     7
 10
8867.8568696732
 20
-5344.7008487106
 30
0.0
 40
11.0
  0
LINE
  5
151
  8
1
  6
CONTINUOUS
 62
     7
 10
8865.2068696732
 20
-5294.2183024463
 30
0.0
 11
8866.7068696733
 21
-5294.2183024463
 31
0.0
  0
ARC
  5
152
  8
1
  6
CONTINUOUS
 62
     7
 10
8902.6568697097
 20
-5333.5936608238
 30
0.0
 40
1.5
 50
90.0
 51
180.0
  0
ARC
  5
153
  8
1
  6
CONTINUOUS
 62
     7
 10
8901.2568732186
 20
-5345.4508487005
 30
0.0
 40
0.5
 50
180.000268061
 51
270.0
  0
LINE
  5
154
  8
1
  6
CONTINUOUS
 62
     7
 10
8869.0068696242
 20
-5294.2183024463
 30
0.0
 11
8870.5068696732
 21
-5294.2183024463
 31
0.0
  0
LINE
  5
155
  8
1
  6
CONTINUOUS
 62
     7
 10
8866.7068697101
 20
-5296.0630137242
 30
0.0
 11
8866.7068696733
 21
-5294.2183024463
 31
0.0
  0
ARC
  5
156
  8
1
  6
CONTINUOUS
 62
     7
 10
8870.0068696451
 20
-5393.8386825631
 30
0.0
 40
0.5
 50
0.0000000033
 51
90.0
  0
LINE
  5
157
  8
1
  6
CONTINUOUS
 62
     7
 10
8865.7068696729
 20
-5393.3386825639
 30
0.0
 11
8866.7068533416
 21
-5393.3386825639
 31
0.0
  0
ARC
  5
158
  8
1
  6
CONTINUOUS
 62
     7
 10
8865.7068696732
 20
-5295.2183025225
 30
0.0
 40
0.5
 50
180.0
 51
270.0000000058
  0
CIRCLE
  5
159
  8
1
  6
CONTINUOUS
 62
     7
 10
8876.3568696734
 20
-5344.7008487103
 30
0.0
 40
1.5
  0
LINE
  5
15A
  8
1
  6
CONTINUOUS
 62
     7
 10
8902.6568697097
 20
-5335.0936608238
 30
0.0
 11
8902.6568697097
 21
-5343.986705868
 31
0.0
  0
LINE
  5
15B
  8
1
  6
CONTINUOUS
 62
     7
 10
8866.7068697098
 20
-5393.3386825639
 30
0.0
 11
8866.706869673
 21
-5395.1833938417
 31
0.0
  0
LINE
  5
15C
  8
1
  6
CONTINUOUS
 62
     7
 10
8869.0068696239
 20
-5395.1833938417
 30
0.0
 11
8870.5068696729
 21
-5395.1833938417
 31
0.0
  0
LINE
  5
15D
  8
1
  6
CONTINUOUS
 62
     7
 10
8865.2068696732
 20
-5295.5630137242
 30
0.0
 11
8865.2068696732
 21
-5294.2183024463
 31
0.0
  0
LINE
  5
15E
  8
1
  6
CONTINUOUS
 62
     7
 10
8870.0068697258
 20
-5296.0630137242
 30
0.0
 11
8869.006905629
 21
-5296.0630137242
 31
0.0
  0
ARC
  5
15F
  8
1
  6
CONTINUOUS
 62
     7
 10
8900.6568728002
 20
-5345.4508487005
 30
0.0
 40
0.5
 50
180.0002680612
 51
270.0
  0
LINE
  5
160
  8
1
  6
CONTINUOUS
 62
     7
 10
8870.5068696728
 20
-5393.8386825631
 30
0.0
 11
8870.5068696729
 21
-5395.1833938417
 31
0.0
  0
LINE
  5
161
  8
1
  6
CONTINUOUS
 62
     7
 10
8870.0068696556
 20
-5393.6833938416
 30
0.0
 11
8869.0069047941
 21
-5393.6833938416
 31
0.0
  0
LINE
  5
162
  8
1
  6
CONTINUOUS
 62
     7
 10
8866.7068696152
 20
-5294.520252072
 30
0.0
 11
8869.0068755176
 21
-5294.520252072
 31
0.0
  0
ARC
  5
163
  8
1
  6
CONTINUOUS
 62
     7
 10
8870.0068696932
 20
-5295.218302485
 30
0.0
 40
0.5
 50
270.0000000058
 51
0.0
  0
CIRCLE
  5
164
  8
1
  6
CONTINUOUS
 62
     7
 10
8859.3568696731
 20
-5344.7008487103
 30
0.0
 40
1.5
  0
LINE
  5
165
  8
1
  6
CONTINUOUS
 62
     7
 10
8902.2068796346
 20
-5345.9508486795
 30
0.0
 11
8902.2068809962
 21
-5345.6690988949
 31
0.0
  0
LINE
  5
166
  8
1
  6
CONTINUOUS
 62
     7
 10
8865.2068696729
 20
-5395.1833938417
 30
0.0
 11
8866.706869673
 21
-5395.1833938417
 31
0.0
  0
LINE
  5
167
  8
1
  6
CONTINUOUS
 62
     7
 10
8866.7068696149
 20
-5394.881444216
 30
0.0
 11
8869.0068755173
 21
-5394.881444216
 31
0.0
  0
ARC
  5
168
  8
1
  6
CONTINUOUS
 62
     7
 10
8865.7068696732
 20
-5295.5630137242
 30
0.0
 40
0.5
 50
180.0
 51
270.0
  0
LINE
  5
169
  8
1
  6
CONTINUOUS
 62
     7
 10
8902.2072284844
 20
-5343.4508487006
 30
0.0
 11
8900.6568657828
 21
-5343.4508487006
 31
0.0
  0
ARC
  5
16A
  8
1
  6
CONTINUOUS
 62
     7
 10
8901.2568662007
 20
-5343.9508486897
 30
0.0
 40
0.5
 50
89.9999999504
 51
180.000268061
  0
LINE
  5
16B
  8
1
  6
CONTINUOUS
 62
     7
 10
8900.1568728002
 20
-5345.4508510398
 30
0.0
 11
8900.1568657823
 21
-5343.950851029
 31
0.0
  0
LINE
  5
16C
  8
1
  6
CONTINUOUS
 62
     7
 10
8870.0068696933
 20
-5295.7183024465
 30
0.0
 11
8869.0069047944
 21
-5295.7183024465
 31
0.0
  0
ARC
  5
16D
  8
1
  6
CONTINUOUS
 62
     7
 10
8865.7068696729
 20
-5394.1833935492
 30
0.0
 40
0.5
 50
89.9999999946
 51
180.0
  0
ARC
  5
16E
  8
1
  6
CONTINUOUS
 62
     7
 10
8870.0068697258
 20
-5295.5630137242
 30
0.0
 40
0.5
 50
270.0
 51
0.0
  0
ARC
  5
16F
  8
1
  6
CONTINUOUS
 62
     7
 10
8865.7068696729
 20
-5393.8386825637
 30
0.0
 40
0.5
 50
90.0
 51
180.0
  0
ARC
  5
170
  8
1
  6
CONTINUOUS
 62
     7
 10
8900.6568657823
 20
-5343.9508486897
 30
0.0
 40
0.5
 50
89.9999999504
 51
180.000268061
  0
ARC
  5
171
  8
1
  6
CONTINUOUS
 62
     7
 10
8870.0068696556
 20
-5394.183393814
 30
0.0
 40
0.5
 50
0.0000000033
 51
89.9999999946
  0
LINE
  5
172
  8
1
  6
CONTINUOUS
 62
     7
 10
8906.6568697097
 20
-5345.4149915537
 30
0.0
 11
8906.6568697097
 21
-5347.0936608238
 31
0.0
  0
ARC
  5
173
  8
1
  6
CONTINUOUS
 62
     7
 10
8907.3568697097
 20
-5344.7008487108
 30
0.0
 40
1.0
 50
90.0
 51
270.0
  0
ARC
  5
174
  8
1
  6
CONTINUOUS
 62
     7
 10
8867.8568696732
 20
-5312.2008487106
 30
0.0
 40
2.3430749028
 50
71.3314991701
 51
108.6685008299
  0
ARC
  5
175
  8
1
  6
CONTINUOUS
 62
     7
 10
8867.8568696732
 20
-5377.2008487098
 30
0.0
 40
2.3430749028
 50
251.3314991701
 51
288.6685008299
  0
ARC
  5
176
  8
1
  6
CONTINUOUS
 62
     7
 10
8867.8568696732
 20
-5312.2008487106
 30
0.0
 40
4.5
 50
123.7489885832
 51
236.2510114168
  0
ARC
  5
177
  8
1
  6
CONTINUOUS
 62
     7
 10
8867.8568696732
 20
-5377.2008487106
 30
0.0
 40
4.5
 50
123.7489885959
 51
236.2510114041001
  0
ARC
  5
178
  8
1
  6
CONTINUOUS
 62
     7
 10
8848.8568696714
 20
-5344.7008487109
 30
0.0
 40
4.5
 50
213.7489885793
 51
326.2510114207
  0
LINE
  5
179
  8
1
  6
CONTINUOUS
 62
     7
 10
8863.3568696735
 20
-5357.4287707722
 30
0.0
 11
8863.3568696735
 21
-5394.8386822653
 31
0.0
  0
LINE
  5
17A
  8
1
  6
CONTINUOUS
 62
     7
 10
8870.3568696724
 20
-5357.9673478721
 30
0.0
 11
8870.3568696724
 21
-5359.959191325
 31
0.0
  0
LINE
  5
17B
  8
1
  6
CONTINUOUS
 62
     7
 10
8880.5847917352
 20
-5340.2008487113
 30
0.0
 11
8899.7740633487
 21
-5340.2008487113
 31
0.0
  0
LINE
  5
17C
  8
1
  6
CONTINUOUS
 62
     7
 10
8870.3568696724
 20
-5367.4425061
 30
0.0
 11
8870.3568696724
 21
-5373.4591913233
 31
0.0
  0
LINE
  5
17D
  8
1
  6
CONTINUOUS
 62
     7
 10
8855.1289476116
 20
-5340.2008487109
 30
0.0
 11
8835.9396759933
 21
-5340.2008487109
 31
0.0
  0
LINE
  5
17E
  8
1
  6
CONTINUOUS
 62
     7
 10
8890.598527063
 20
-5342.200848711
 30
0.0
 11
8900.309961734
 21
-5342.200848711
 31
0.0
  0
ARC
  5
17F
  8
1
  6
CONTINUOUS
 62
     7
 10
8867.856869673
 20
-5325.7008487079
 30
0.0
 40
4.5
 50
303.7489885997
 51
56.2510114003
  0
LINE
  5
180
  8
1
  6
CONTINUOUS
 62
     7
 10
8870.3568696732
 20
-5308.459191323
 30
0.0
 11
8870.3568696732
 21
-5295.9200862784
 31
0.0
  0
LINE
  5
181
  8
1
  6
CONTINUOUS
 62
     7
 10
8865.3568696741
 20
-5308.4591913225
 30
0.0
 11
8865.3568696741
 21
-5295.920086252
 31
0.0
  0
LINE
  5
182
  8
1
  6
CONTINUOUS
 62
     7
 10
8865.3568696732
 20
-5380.9425060974
 30
0.0
 11
8865.3568696732
 21
-5393.481611142
 31
0.0
  0
LINE
  5
183
  8
1
  6
CONTINUOUS
 62
     7
 10
8870.3568696732
 20
-5331.4343495483
 30
0.0
 11
8870.3568696732
 21
-5329.4425060945
 31
0.0
  0
ARC
  5
184
  8
1
  6
CONTINUOUS
 62
     7
 10
8867.8568696732
 20
-5312.2008487106
 30
0.0
 40
4.5
 50
303.7489885959001
 51
56.25101140409998
  0
CIRCLE
  5
185
  8
1
  6
CONTINUOUS
 62
     7
 10
8867.8568696732
 20
-5377.2008487098
 30
0.0
 40
3.0
  0
LINE
  5
186
  8
1
  6
CONTINUOUS
 62
     7
 10
8845.1152122848
 20
-5342.2008487106
 30
0.0
 11
8835.403777608
 21
-5342.2008487106
 31
0.0
  0
ARC
  5
187
  8
1
  6
CONTINUOUS
 62
     7
 10
8867.8568696732
 20
-5312.2008487106
 30
0.0
 40
2.3430749028
 50
251.3314991701
 51
288.6685008299
  0
ARC
  5
188
  8
1
  6
CONTINUOUS
 62
     7
 10
8867.8568696732
 20
-5312.2008487106
 30
0.0
 40
2.8
 50
285.5367940682
 51
74.4632059319
  0
LINE
  5
189
  8
1
  6
CONTINUOUS
 62
     7
 10
8867.1068696732
 20
-5379.4206459978
 30
0.0
 11
8867.1068696732
 21
-5380.1055862194
 31
0.0
  0
CIRCLE
  5
18A
  8
1
  6
CONTINUOUS
 62
     7
 10
8886.8568696732
 20
-5344.7008487102
 30
0.0
 40
3.0
  0
ARC
  5
18B
  8
1
  6
CONTINUOUS
 62
     7
 10
8867.856869673
 20
-5325.7008487079
 30
0.0
 40
4.5
 50
123.7489885793
 51
236.2510114207
  0
ARC
  5
18C
  8
1
  6
CONTINUOUS
 62
     7
 10
8886.8568696755
 20
-5344.7008487099
 30
0.0
 40
4.5
 50
213.7489885998
 51
326.2510114002
  0
CIRCLE
  5
18D
  8
1
  6
CONTINUOUS
 62
     7
 10
8867.8568696732
 20
-5325.7008487102
 30
0.0
 40
3.0
  0
LINE
  5
18E
  8
1
  6
CONTINUOUS
 62
     7
 10
8854.5903705117
 20
-5342.2008487106
 30
0.0
 11
8852.598527058
 21
-5342.2008487106
 31
0.0
  0
LINE
  5
18F
  8
1
  6
CONTINUOUS
 62
     7
 10
8890.5985270621
 20
-5347.2008487102
 30
0.0
 11
8900.309961734
 21
-5347.2008487102
 31
0.0
  0
LINE
  5
190
  8
1
  6
CONTINUOUS
 62
     7
 10
8863.3568696743
 20
-5331.9729266482
 30
0.0
 11
8863.3568696743
 21
-5294.5630137024
 31
0.0
  0
ARC
  5
191
  8
1
  6
CONTINUOUS
 62
     7
 10
8867.8568696735
 20
-5363.7008487125
 30
0.0
 40
4.5
 50
123.7489885998
 51
236.2510114002
  0
LINE
  5
192
  8
1
  6
CONTINUOUS
 62
     7
 10
8868.6068696732
 20
-5374.2961112001
 30
0.0
 11
8868.6068696732
 21
-5374.9810514217
 31
0.0
  0
LINE
  5
193
  8
1
  6
CONTINUOUS
 62
     7
 10
8870.3568696724
 20
-5380.9425060979
 30
0.0
 11
8870.3568696724
 21
-5393.4816111684
 31
0.0
  0
ARC
  5
194
  8
1
  6
CONTINUOUS
 62
     7
 10
8886.8568696755
 20
-5344.7008487099
 30
0.0
 40
4.5
 50
33.7489885793
 51
146.2510114207
  0
ARC
  5
195
  8
1
  6
CONTINUOUS
 62
     7
 10
8867.8568696732
 20
-5377.2008487098
 30
0.0
 40
2.3430749028
 50
71.3314991701
 51
108.6685008299
  0
CIRCLE
  5
196
  8
1
  6
CONTINUOUS
 62
     7
 10
8867.8568696732
 20
-5363.7008487102
 30
0.0
 40
3.0
  0
LINE
  5
197
  8
1
  6
CONTINUOUS
 62
     7
 10
8868.6068696732
 20
-5315.1055862203
 30
0.0
 11
8868.6068696732
 21
-5314.4206459987
 31
0.0
  0
ARC
  5
198
  8
1
  6
CONTINUOUS
 62
     7
 10
8867.8568696732
 20
-5312.2008487106
 30
0.0
 40
2.8
 50
105.5367940681
 51
254.4632059318
  0
LINE
  5
199
  8
1
  6
CONTINUOUS
 62
     7
 10
8855.1289476116
 20
-5349.2008487095
 30
0.0
 11
8835.9396759948
 21
-5349.2008487095
 31
0.0
  0
ARC
  5
19A
  8
1
  6
CONTINUOUS
 62
     7
 10
8867.8568696732
 20
-5377.2008487106
 30
0.0
 40
4.5
 50
303.7489885832
 51
56.25101141679999
  0
LINE
  5
19B
  8
1
  6
CONTINUOUS
 62
     7
 10
8845.1152122839
 20
-5347.2008487098
 30
0.0
 11
8835.4037776095
 21
-5347.2008487098
 31
0.0
  0
LINE
  5
19C
  8
1
  6
CONTINUOUS
 62
     7
 10
8865.3568696732
 20
-5367.4425060991
 30
0.0
 11
8865.3568696732
 21
-5373.4591913238
 31
0.0
  0
ARC
  5
19D
  8
1
  6
CONTINUOUS
 62
     7
 10
8867.8568696732
 20
-5377.2008487098
 30
0.0
 40
2.8
 50
285.5367940681
 51
74.4632059319
  0
ARC
  5
19E
  8
1
  6
CONTINUOUS
 62
     7
 10
8848.8568696714
 20
-5344.7008487109
 30
0.0
 40
4.5
 50
33.7489885998
 51
146.2510114003
  0
LINE
  5
19F
  8
1
  6
CONTINUOUS
 62
     7
 10
8854.5903705117
 20
-5347.2008487098
 30
0.0
 11
8852.5985270589
 21
-5347.2008487098
 31
0.0
  0
LINE
  5
1A0
  8
1
  6
CONTINUOUS
 62
     7
 10
8880.5847917352
 20
-5349.2008487099
 30
0.0
 11
8899.7740633487
 21
-5349.2008487099
 31
0.0
  0
LINE
  5
1A1
  8
1
  6
CONTINUOUS
 62
     7
 10
8881.1233688351
 20
-5347.2008487102
 30
0.0
 11
8883.1152122889
 21
-5347.2008487102
 31
0.0
  0
LINE
  5
1A2
  8
1
  6
CONTINUOUS
 62
     7
 10
8881.1233688351
 20
-5342.200848711
 30
0.0
 11
8883.115212288
 21
-5342.200848711
 31
0.0
  0
LINE
  5
1A3
  8
1
  6
CONTINUOUS
 62
     7
 10
8867.1068696732
 20
-5374.9810514217
 30
0.0
 11
8867.1068696732
 21
-5374.2961112001
 31
0.0
  0
LINE
  5
1A4
  8
1
  6
CONTINUOUS
 62
     7
 10
8865.3568696741
 20
-5331.4343495483
 30
0.0
 11
8865.3568696741
 21
-5329.4425060954
 31
0.0
  0
LINE
  5
1A5
  8
1
  6
CONTINUOUS
 62
     7
 10
8872.3568696722
 20
-5357.4287707722
 30
0.0
 11
8872.3568696722
 21
-5394.838683718
 31
0.0
  0
LINE
  5
1A6
  8
1
  6
CONTINUOUS
 62
     7
 10
8867.1068696732
 20
-5309.9810514226
 30
0.0
 11
8867.1068696732
 21
-5309.296111201
 31
0.0
  0
ARC
  5
1A7
  8
1
  6
CONTINUOUS
 62
     7
 10
8867.8568696735
 20
-5363.7008487125
 30
0.0
 40
4.5
 50
303.7489885793
 51
56.25101142070003
  0
LINE
  5
1A8
  8
1
  6
CONTINUOUS
 62
     7
 10
8872.356869673
 20
-5331.9729266482
 30
0.0
 11
8872.356869673
 21
-5294.5630151551
 31
0.0
  0
LINE
  5
1A9
  8
1
  6
CONTINUOUS
 62
     7
 10
8870.3568696732
 20
-5321.9591913213
 30
0.0
 11
8870.3568696732
 21
-5315.9425060966
 31
0.0
  0
ARC
  5
1AA
  8
1
  6
CONTINUOUS
 62
     7
 10
8867.8568696732
 20
-5377.2008487098
 30
0.0
 40
2.8
 50
105.5367940681
 51
254.4632059318999
  0
CIRCLE
  5
1AB
  8
1
  6
CONTINUOUS
 62
     7
 10
8848.8568696732
 20
-5344.7008487102
 30
0.0
 40
3.0
  0
LINE
  5
1AC
  8
1
  6
CENTER
 62
     7
 10
8848.8568696732
 20
-5349.7008487102
 30
0.0
 11
8848.8568696732
 21
-5339.7008487102
 31
0.0
  0
LINE
  5
1AD
  8
1
  6
CONTINUOUS
 62
     7
 10
8867.1068696732
 20
-5314.4206459987
 30
0.0
 11
8867.1068696732
 21
-5315.1055862203
 31
0.0
  0
LINE
  5
1AE
  8
1
  6
CONTINUOUS
 62
     7
 10
8865.3568696732
 20
-5357.9673478721
 30
0.0
 11
8865.3568696732
 21
-5359.9591913259
 31
0.0
  0
CIRCLE
  5
1AF
  8
1
  6
CONTINUOUS
 62
     7
 10
8867.8568696732
 20
-5312.2008487106
 30
0.0
 40
3.0
  0
LINE
  5
1B0
  8
1
  6
CONTINUOUS
 62
     7
 10
8865.3568696741
 20
-5321.9591913204
 30
0.0
 11
8865.3568696741
 21
-5315.9425060971
 31
0.0
  0
LINE
  5
1B1
  8
1
  6
CONTINUOUS
 62
     7
 10
8868.6068696732
 20
-5380.1055862194
 30
0.0
 11
8868.6068696732
 21
-5379.4206459978
 31
0.0
  0
CIRCLE
  5
1B2
  8
1
  6
CONTINUOUS
 62
     7
 10
8867.8568696732
 20
-5344.7008487106
 30
0.0
 40
5.75
  0
LINE
  5
1B3
  8
1
  6
CONTINUOUS
 62
     7
 10
8868.6068696732
 20
-5309.296111201
 30
0.0
 11
8868.6068696732
 21
-5309.9810514226
 31
0.0
  0
LINE
  5
1B4
  8
1
  6
CONTINUOUS
 62
     7
 10
9017.3457308891
 20
-5390.7008276859
 30
0.0
 11
9065.3457308891
 21
-5390.7008276859
 31
0.0
  0
ARC
  5
1B5
  8
1
  6
CONTINUOUS
 62
     7
 10
9018.3457308891
 20
-5403.7008276859
 30
0.0
 40
1.0
 50
90.0
 51
180.0
  0
LINE
  5
1B6
  8
1
  6
CONTINUOUS
 62
     7
 10
8835.9396759933
 20
-5349.2008487104
 30
0.0
 11
8826.4133965509
 21
-5354.7008487108
 31
0.0
  0
LINE
  5
1B7
  8
1
  6
CONTINUOUS
 62
     7
 10
8906.6568697097
 20
-5336.227058606
 30
0.0
 11
8909.3003427918
 21
-5334.7008487104
 31
0.0
  0
LINE
  5
1B8
  8
1
  6
CONTINUOUS
 62
     7
 10
8918.0374663161
 20
-5349.7008487102
 30
0.0
 11
8907.3601230149
 21
-5349.7008487102
 31
0.0
  0
LINE
  5
1B9
  8
1
  6
CONTINUOUS
 62
     7
 10
8817.6762730303
 20
-5329.7008487102
 30
0.0
 11
8826.3568696382
 21
-5329.7008487102
 31
0.0
  0
LINE
  5
1BA
  8
1
  6
CONTINUOUS
 62
     7
 10
8900.3099617347
 20
-5347.2008487106
 30
0.0
 11
8907.7684177507
 21
-5351.5069902992
 31
0.0
  0
LINE
  5
1BB
  8
1
  6
CONTINUOUS
 62
     7
 10
8828.3536163309
 20
-5339.7008487102
 30
0.0
 11
8817.6762730303
 21
-5339.7008487102
 31
0.0
  0
ARC
  5
1BC
  8
1
  6
CONTINUOUS
 62
     7
 10
9062.3457308891
 20
-5399.7008276859
 30
0.0
 40
3.0
 50
270.0
 51
0.0
  0
LINE
  5
1BD
  8
1
  6
CONTINUOUS
 62
     7
 10
8826.3568696382
 20
-5327.4008486603
 30
0.0
 11
8817.6762730303
 21
-5327.4008486603
 31
0.0
  0
LINE
  5
1BE
  8
1
  6
CENTER
 62
     7
 10
8886.8568696732
 20
-5349.7008487102
 30
0.0
 11
8886.8568696732
 21
-5339.7008487102
 31
0.0
  0
CIRCLE
  5
1BF
  8
1
  6
DASHED
 62
     7
 10
8845.3568696732
 20
-5322.2008487148
 30
0.0
 40
13.55
  0
LINE
  5
1C1
  8
1
  6
CONTINUOUS
 62
     7
 10
8906.6568697097
 20
-5338.5364596828
 30
0.0
 11
8907.7684177507
 21
-5337.8947071221
 31
0.0
  0
LINE
  5
1C2
  8
1
  6
CONTINUOUS
 62
     7
 10
8899.7740633487
 20
-5349.2008487099
 30
0.0
 11
8900.3099617347
 21
-5347.2008487106
 31
0.0
  0
LINE
  5
1C3
  8
1
  6
CONTINUOUS
 62
     7
 10
8817.6762730303
 20
-5349.7008487102
 30
0.0
 11
8828.3536163316
 21
-5349.7008487102
 31
0.0
  0
LINE
  5
1C4
  8
1
  6
CONTINUOUS
 62
     7
 10
8899.7740633494
 20
-5340.2008487109
 30
0.0
 11
8902.6568697097
 21
-5338.5364596828
 31
0.0
  0
LINE
  5
1C5
  8
1
  6
CONTINUOUS
 62
     7
 10
8835.9396759933
 20
-5340.2008487109
 30
0.0
 11
8835.403777608
 21
-5342.2008487106
 31
0.0
  0
LINE
  5
1C6
  8
1
  6
CONTINUOUS
 62
     7
 10
8918.0374663161
 20
-5329.7008487102
 30
0.0
 11
8909.3568697083
 21
-5329.7008487102
 31
0.0
  0
CIRCLE
  5
1C7
  8
1
  6
DASHED
 62
     7
 10
8890.3568696733
 20
-5367.2008487109
 30
0.0
 40
13.55
  0
LINE
  5
1C8
  8
1
  6
CONTINUOUS
 62
     7
 10
9018.3457308891
 20
-5402.7008276859
 30
0.0
 11
9062.3457308891
 21
-5402.7008276859
 31
0.0
  0
LINE
  5
1C9
  8
1
  6
CONTINUOUS
 62
     7
 10
8835.9396759933
 20
-5340.2008487109
 30
0.0
 11
8833.0568696368
 21
-5338.5364596849
 31
0.0
  0
LINE
  5
1CA
  8
1
  6
CONTINUOUS
 62
     7
 10
8835.403777608
 20
-5347.2008487106
 30
0.0
 11
8835.9396759948
 21
-5349.2008487095
 31
0.0
  0
LINE
  5
1CB
  8
1
  6
CONTINUOUS
 62
     7
 10
8900.3099617347
 20
-5342.2008487106
 30
0.0
 11
8902.6568697097
 21
-5340.8458607595
 31
0.0
  0
LINE
  5
1CC
  8
1
  6
CONTINUOUS
 62
     7
 10
8900.3099617347
 20
-5342.2008487106
 30
0.0
 11
8899.7740633494
 21
-5340.2008487109
 31
0.0
  0
LINE
  5
1CD
  8
1
  6
CONTINUOUS
 62
     7
 10
8909.3568697081
 20
-5362.0008487601
 30
0.0
 11
8918.0374663161
 21
-5362.0008487601
 31
0.0
  0
CIRCLE
  5
1CE
  8
1
  6
DASHED
 62
     7
 10
8890.3568696733
 20
-5322.2008487107
 30
0.0
 40
13.55
  0
CIRCLE
  5
1CF
  8
1
  6
DASHED
 62
     7
 10
8845.3568696732
 20
-5367.2008487068
 30
0.0
 40
13.55
  0
LINE
  5
1D0
  8
1
  6
CONTINUOUS
 62
     7
 10
8829.0568696368
 20
-5336.2270586082
 30
0.0
 11
8826.4133965509
 21
-5334.7008487104
 31
0.0
  0
LINE
  5
1D1
  8
1
  6
CONTINUOUS
 62
     7
 10
8835.403777608
 20
-5342.2008487106
 30
0.0
 11
8833.0568696368
 21
-5340.8458607617
 31
0.0
  0
ARC
  5
1D2
  8
1
  6
CONTINUOUS
 62
     7
 10
9037.8957308891
 20
-5369.700827867
 30
0.0
 40
13.55
 50
2.1147155042
 51
87.88528449579997
  0
LINE
  5
1D3
  8
1
  6
CONTINUOUS
 62
     7
 10
8828.3568696368
 20
-5348.7008487101
 30
0.0
 11
8817.6762730303
 21
-5348.7008487101
 31
0.0
  0
LINE
  5
1D4
  8
1
  6
CONTINUOUS
 62
     7
 10
8909.3568697083
 20
-5327.4008486603
 30
0.0
 11
8918.0374663161
 21
-5327.4008486603
 31
0.0
  0
LINE
  5
1D5
  8
1
  6
CONTINUOUS
 62
     7
 10
8826.3568696383
 20
-5359.7008487102
 30
0.0
 11
8817.6762730303
 21
-5359.7008487102
 31
0.0
  0
ARC
  5
1D6
  8
1
  6
CONTINUOUS
 62
     7
 10
9037.8957308891
 20
-5369.700827867
 30
0.0
 40
13.55
 50
272.1147155041999
 51
357.8852844958001
  0
LINE
  5
1D7
  8
1
  6
CONTINUOUS
 62
     7
 10
8899.7740633494
 20
-5349.2008487104
 30
0.0
 11
8909.3003427918
 21
-5354.7008487108
 31
0.0
  0
LINE
  5
1D8
  8
1
  6
CONTINUOUS
 62
     7
 10
8918.0374663161
 20
-5340.7008487102
 30
0.0
 11
8907.3568697097
 21
-5340.7008487102
 31
0.0
  0
LINE
  5
1D9
  8
1
  6
CONTINUOUS
 62
     7
 10
8907.3568697097
 20
-5348.7008487101
 30
0.0
 11
8918.0374663161
 21
-5348.7008487101
 31
0.0
  0
LINE
  5
1DA
  8
1
  6
CONTINUOUS
 62
     7
 10
8909.3568697081
 20
-5359.7008487102
 30
0.0
 11
8918.0374663161
 21
-5359.7008487102
 31
0.0
  0
ARC
  5
1DB
  8
1
  6
CONTINUOUS
 62
     7
 10
9037.8957308891
 20
-5369.700827867
 30
0.0
 40
13.55
 50
92.1147155042
 51
267.8852844958001
  0
LINE
  5
1DC
  8
1
  6
CONTINUOUS
 62
     7
 10
8829.0568696368
 20
-5338.5364596849
 30
0.0
 11
8827.9453215921
 21
-5337.8947071221
 31
0.0
  0
LINE
  5
1DD
  8
1
  6
CONTINUOUS
 62
     7
 10
8817.6762730303
 20
-5340.7008487102
 30
0.0
 11
8828.3568696368
 21
-5340.7008487102
 31
0.0
  0
LINE
  5
1DE
  8
1
  6
CONTINUOUS
 62
     7
 10
8826.3568696383
 20
-5362.0008487601
 30
0.0
 11
8817.6762730303
 21
-5362.0008487601
 31
0.0
  0
LINE
  5
1DF
  8
1
  6
CONTINUOUS
 62
     7
 10
8907.3601230156
 20
-5339.7008487102
 30
0.0
 11
8918.0374663161
 21
-5339.7008487102
 31
0.0
  0
LINE
  5
1E0
  8
1
  6
CONTINUOUS
 62
     7
 10
8835.403777608
 20
-5347.2008487106
 30
0.0
 11
8827.9453215921
 21
-5351.5069902992
 31
0.0
  0
LINE
  5
1E1
  8
1
  6
CENTER
 62
     1
 10
8867.8568696732
 20
-5491.7008278755
 30
0.0
 11
8867.8568696732
 21
-5551.7008278755
 31
0.0
  0
ARC
  5
1E2
  8
1
  6
CONTINUOUS
 62
     7
 10
9037.8957308891
 20
-5319.700827867
 30
0.0
 40
13.55
 50
272.1147155041999
 51
357.8852844958001
  0
LINE
  5
1E3
  8
1
  6
CONTINUOUS
 62
     7
 10
8807.8568696732
 20
-5498.7008278755
 30
0.0
 11
8807.8568696732
 21
-5543.7008278755
 31
0.0
  0
LINE
  5
1E4
  8
1
  6
CONTINUOUS
 62
     7
 10
8786.8568696732
 20
-5400.7008280484
 30
0.0
 11
8948.8568696732
 21
-5400.7008280484
 31
0.0
  0
ARC
  5
1E5
  8
1
  6
CONTINUOUS
 62
     7
 10
8843.6568696732
 20
-5522.2008278755
 30
0.0
 40
13.55
 50
272.1147155041999
 51
357.8852844958001
  0
LINE
  5
1E6
  8
1
  6
CONTINUOUS
 62
     7
 10
8786.8568696732
 20
-5498.7008278755
 30
0.0
 11
8948.8568696732
 21
-5498.7008278755
 31
0.0
  0
LINE
  5
1E7
  8
1
  6
CONTINUOUS
 62
     7
 10
9065.3457308891
 20
-5289.7008280482
 30
0.0
 11
9065.3457308891
 21
-5399.7008276859
 31
0.0
  0
ARC
  5
1E8
  8
1
  6
CONTINUOUS
 62
     7
 10
8810.8568696732
 20
-5543.7008278755
 30
0.0
 40
3.0
 50
180.0
 51
270.0
  0
LINE
  5
1E9
  8
1
  6
CONTINUOUS
 62
     7
 10
8786.8568696732
 20
-5425.7008280484
 30
0.0
 11
8948.8568696732
 21
-5425.7008280484
 31
0.0
  0
LINE
  5
1EA
  8
1
  6
CONTINUOUS
 62
     7
 10
9017.3457308891
 20
-5298.7008280482
 30
0.0
 11
9065.3457308891
 21
-5298.7008280482
 31
0.0
  0
ARC
  5
1EB
  8
1
  6
CONTINUOUS
 62
     7
 10
8924.8568696732
 20
-5543.7008278755
 30
0.0
 40
3.0
 50
270.0
 51
0.0
  0
LINE
  5
1EC
  8
1
  6
CENTER
 62
     1
 10
9197.8568696732
 20
-5258.7008280484
 30
0.0
 11
9197.8568696732
 21
-5430.7008280484
 31
0.0
  0
LINE
  5
1ED
  8
1
  6
CONTINUOUS
 62
     7
 10
9116.8568696732
 20
-5400.7008280484
 30
0.0
 11
9137.8568696733
 21
-5400.7008280483
 31
0.0
  0
LINE
  5
1EE
  8
1
  6
CONTINUOUS
 62
     7
 10
9257.8568696731
 20
-5400.7008280502
 30
0.0
 11
9278.8568696732
 21
-5400.7008280484
 31
0.0
  0
LINE
  5
1EF
  8
1
  6
CONTINUOUS
 62
     7
 10
8923.8568696732
 20
-5400.7008280484
 30
0.0
 11
8923.8568696732
 21
-5288.7008280484
 31
0.0
  0
LINE
  5
1F0
  8
1
  6
CONTINUOUS
 62
     7
 10
9278.8568696733
 20
-5425.7008280484
 30
0.0
 11
9278.8568696732
 21
-5263.7008280484
 31
0.0
  0
LINE
  5
1F1
  8
1
  6
CONTINUOUS
 62
     7
 10
8948.8568696732
 20
-5263.7008280484
 30
0.0
 11
8786.8568696732
 21
-5263.7008280484
 31
0.0
  0
LINE
  5
1F2
  8
1
  6
CONTINUOUS
 62
     7
 10
9116.8568696732
 20
-5263.7008280484
 30
0.0
 11
9116.8568696732
 21
-5425.7008280484
 31
0.0
  0
LINE
  5
1F3
  8
1
  6
CONTINUOUS
 62
     7
 10
9139.8568696732
 20
-5286.7008280484
 30
0.0
 11
9139.8568696732
 21
-5402.7008276658
 31
0.0
  0
LINE
  5
1F4
  8
1
  6
CONTINUOUS
 62
     7
 10
9139.8568696732
 20
-5402.7008276658
 30
0.0
 11
9255.8568696732
 21
-5402.7008276658
 31
0.0
  0
LINE
  5
1F5
  8
1
  6
CONTINUOUS
 62
     7
 10
9017.3457308891
 20
-5425.7008276859
 30
0.0
 11
9017.3457308891
 21
-5263.7008280482
 31
0.0
  0
LINE
  5
1F6
  8
1
  6
CENTER
 62
     1
 10
8781.8568696732
 20
-5344.7008280484
 30
0.0
 11
8958.8568696732
 21
-5344.7008276319
 31
0.0
  0
ARC
  5
1F7
  8
1
  6
CONTINUOUS
 62
     7
 10
8888.0568696732
 20
-5523.1008278755
 30
0.0
 40
13.55
 50
182.1147155041999
 51
267.8852844958001
  0
ARC
  5
1F8
  8
1
  6
CONTINUOUS
 62
     7
 10
9018.3457308891
 20
-5285.7008280482
 30
0.0
 40
1.0
 50
180.0
 51
270.0
  0
LINE
  5
1F9
  8
1
  6
CONTINUOUS
 62
     7
 10
8948.8568696732
 20
-5425.7008280484
 30
0.0
 11
8948.8568696732
 21
-5263.7008280484
 31
0.0
  0
LINE
  5
1FA
  8
1
  6
CONTINUOUS
 62
     7
 10
8927.8568696732
 20
-5543.7008278755
 30
0.0
 11
8927.8568696732
 21
-5498.7008278755
 31
0.0
  0
LINE
  5
1FB
  8
1
  6
CONTINUOUS
 62
     7
 10
9116.8568696732
 20
-5425.7008280484
 30
0.0
 11
9278.8568696732
 21
-5425.7008280484
 31
0.0
  0
LINE
  5
1FC
  8
1
  6
CENTER
 62
     1
 10
9000.3457308892
 20
-5344.700827867
 30
0.0
 11
9070.3457308891
 21
-5344.700827867
 31
0.0
  0
LINE
  5
1FD
  8
1
  6
CONTINUOUS
 62
     7
 10
9278.8568696732
 20
-5263.7008280484
 30
0.0
 11
9116.8568696732
 21
-5263.7008280484
 31
0.0
  0
ARC
  5
1FE
  8
1
  6
CONTINUOUS
 62
     7
 10
8843.6568696732
 20
-5522.2008278755
 30
0.0
 40
13.55
 50
182.1147155041999
 51
267.8852844958001
  0
LINE
  5
1FF
  8
1
  6
CONTINUOUS
 62
     7
 10
9257.8568696731
 20
-5288.7008280502
 30
0.0
 11
9278.8568696732
 21
-5288.7008280484
 31
0.0
  0
LINE
  5
200
  8
1
  6
CONTINUOUS
 62
     7
 10
9255.8568696732
 20
-5402.7008276658
 30
0.0
 11
9255.8568696732
 21
-5286.7008280484
 31
0.0
  0
LINE
  5
201
  8
1
  6
CONTINUOUS
 62
     7
 10
9255.8568696732
 20
-5286.7008280484
 30
0.0
 11
9139.8568696732
 21
-5286.7008280484
 31
0.0
  0
ARC
  5
202
  8
1
  6
CONTINUOUS
 62
     7
 10
8843.6568696732
 20
-5522.2008278755
 30
0.0
 40
13.55
 50
2.1147155042
 51
177.8852844958
  0
LINE
  5
203
  8
1
  6
CONTINUOUS
 62
     7
 10
9257.8568696731
 20
-5288.7008283732
 30
0.0
 11
9257.8568696732
 21
-5298.7008280484
 31
0.0
  0
LINE
  5
204
  8
1
  6
CONTINUOUS
 62
     7
 10
9257.8568696732
 20
-5298.7008280484
 30
0.0
 11
9255.8568696732
 21
-5298.7008280484
 31
0.0
  0
LINE
  5
205
  8
1
  6
CONTINUOUS
 62
     7
 10
9137.8568696732
 20
-5288.7008280484
 30
0.0
 11
9137.8568696732
 21
-5298.7008280484
 31
0.0
  0
ARC
  5
206
  8
1
  6
CONTINUOUS
 62
     7
 10
8888.0568696732
 20
-5523.1008278755
 30
0.0
 40
13.55
 50
272.1147155041999
 51
357.8852844958001
  0
LINE
  5
207
  8
1
  6
CONTINUOUS
 62
     7
 10
8786.8568696732
 20
-5263.7008280484
 30
0.0
 11
8786.8568696732
 21
-5425.7008280484
 31
0.0
  0
LINE
  5
208
  8
1
  6
CONTINUOUS
 62
     7
 10
8811.8568696732
 20
-5288.7008280484
 30
0.0
 11
8811.8568696732
 21
-5400.7008280484
 31
0.0
  0
LINE
  5
209
  8
1
  6
CONTINUOUS
 62
     7
 10
9018.3457308891
 20
-5286.7008280482
 30
0.0
 11
9062.3457308891
 21
-5286.7008280482
 31
0.0
  0
LINE
  5
20A
  8
1
  6
CONTINUOUS
 62
     7
 10
8786.8568696732
 20
-5288.7008280484
 30
0.0
 11
8948.8568696732
 21
-5288.7008280484
 31
0.0
  0
LINE
  5
20B
  8
1
  6
CONTINUOUS
 62
     7
 10
8810.8568696732
 20
-5546.7008278755
 30
0.0
 11
8924.8568696732
 21
-5546.7008278755
 31
0.0
  0
ARC
  5
20C
  8
1
  6
CONTINUOUS
 62
     7
 10
8888.0568696732
 20
-5523.1008278755
 30
0.0
 40
13.55
 50
2.1147155042
 51
177.8852844958
  0
LINE
  5
20D
  8
1
  6
CENTER
 62
     1
 10
9111.8568696732
 20
-5344.7008280484
 30
0.0
 11
9283.8568696732
 21
-5344.7008280578
 31
0.0
  0
LINE
  5
20E
  8
1
  6
CONTINUOUS
 62
     7
 10
9137.8568696732
 20
-5298.7008280484
 30
0.0
 11
9139.8568696732
 21
-5298.7008280484
 31
0.0
  0
LINE
  5
20F
  8
1
  6
CONTINUOUS
 62
     7
 10
9257.8568696732
 20
-5400.7008277011
 30
0.0
 11
9257.8568696732
 21
-5390.7008277011
 31
0.0
  0
ARC
  5
210
  8
1
  6
CONTINUOUS
 62
     7
 10
9037.8957308891
 20
-5319.700827867
 30
0.0
 40
13.55
 50
92.1147155042
 51
267.8852844958001
  0
LINE
  5
211
  8
1
  6
CONTINUOUS
 62
     7
 10
9116.8568696732
 20
-5288.7008280484
 30
0.0
 11
9137.8568696733
 21
-5288.7008280483
 31
0.0
  0
ARC
  5
212
  8
1
  6
CONTINUOUS
 62
     7
 10
9037.8957308891
 20
-5319.700827867
 30
0.0
 40
13.55
 50
2.1147155042
 51
87.88528449579997
  0
ARC
  5
213
  8
1
  6
CONTINUOUS
 62
     7
 10
9062.3457308891
 20
-5289.7008280482
 30
0.0
 40
3.0
 50
0.0
 51
90.0
  0
LINE
  5
214
  8
1
  6
CONTINUOUS
 62
     7
 10
8813.8568696689
 20
-5390.7008475774
 30
0.0
 11
8813.8568696689
 21
-5386.9008487108
 31
0.0
  0
LINE
  5
215
  8
1
  6
CONTINUOUS
 62
     7
 10
8821.8568696671
 20
-5398.7008475774
 30
0.0
 11
8825.6568696733
 21
-5398.7008475774
 31
0.0
  0
ARC
  5
216
  8
1
  6
CONTINUOUS
 62
     7
 10
8821.8568696689
 20
-5390.7008475774
 30
0.0
 40
8.0
 50
180.0
 51
270.0
  0
LINE
  5
217
  8
1
  6
CONTINUOUS
 62
     7
 10
8843.3568696732
 20
-5303.7008487108
 30
0.0
 11
8843.3568696732
 21
-5294.7008487111
 31
0.0
  0
CIRCLE
  5
218
  8
1
  6
CONTINUOUS
 62
     7
 10
8837.8568696732
 20
-5300.2008487108
 30
0.0
 40
4.0
  0
LINE
  5
219
  8
1
  6
CONTINUOUS
 62
     7
 10
8867.8568696732
 20
-5365.9974243816
 30
0.0
 11
8867.8568696732
 21
-5367.0270277189
 31
0.0
  0
CIRCLE
  5
21A
  8
1
  6
CONTINUOUS
 62
     7
 10
8897.8568696732
 20
-5389.2008487108
 30
0.0
 40
4.0
  0
LINE
  5
21B
  8
1
  6
CONTINUOUS
 62
     7
 10
8919.8568696776
 20
-5398.7008475774
 30
0.0
 11
8910.0568696732
 21
-5398.7008475774
 31
0.0
  0
LINE
  5
21C
  8
1
  6
CENTER
 62
     1
 10
9194.8568696733
 20
-5312.2008278747
 30
0.0
 11
9189.8568696767
 21
-5312.2008278747
 31
0.0
  0
LINE
  5
21D
  8
1
  6
CONTINUOUS
 62
     7
 10
9197.8568696732
 20
-5360.7008278747
 30
0.0
 11
9197.8568696732
 21
-5366.7008278747
 31
0.0
  0
LINE
  5
21E
  8
1
  6
CONTINUOUS
 62
     7
 10
9257.8568696732
 20
-5390.7008277011
 30
0.0
 11
9255.8568696732
 21
-5390.7008277011
 31
0.0
  0
LINE
  5
21F
  8
1
  6
CENTER
 62
     1
 10
9205.8568696767
 20
-5377.2008278747
 30
0.0
 11
9197.8568696732
 21
-5377.2008278747
 31
0.0
  0
LINE
  5
220
  8
1
  6
CONTINUOUS
 62
     7
 10
8831.5568696368
 20
-5332.0936608238
 30
0.0
 11
8831.5568696368
 21
-5333.0936608238
 31
0.0
  0
LINE
  5
221
  8
1
  6
CONTINUOUS
 62
     7
 10
8815.8568696691
 20
-5290.7008487111
 30
0.0
 11
8825.6568696732
 21
-5290.7008487111
 31
0.0
  0
LINE
  5
222
  8
1
  6
CONTINUOUS
 62
     7
 10
9216.8568696732
 20
-5341.7008278747
 30
0.0
 11
9216.8568696732
 21
-5347.7008278747
 31
0.0
  0
ARC
  5
223
  8
1
  6
CONTINUOUS
 62
     7
 10
9139.8568696732
 20
-5400.7008276658
 30
0.0
 40
2.0
 50
180.0
 51
270.0
  0
ARC
  5
224
  8
1
  6
CONTINUOUS
 62
     7
 10
9255.8568696732
 20
-5288.7008280484
 30
0.0
 40
2.0
 50
0.0
 51
90.0
  0
LINE
  5
225
  8
1
  6
CONTINUOUS
 62
     7
 10
9194.8568696732
 20
-5325.7008278747
 30
0.0
 11
9197.8568696732
 21
-5325.7008278747
 31
0.0
  0
LINE
  5
226
  8
1
  6
CENTER
 62
     1
 10
9178.8568696732
 20
-5347.7008278747
 30
0.0
 11
9178.8568696732
 21
-5352.7008278713
 31
0.0
  0
LINE
  5
227
  8
1
  6
CONTINUOUS
 62
     7
 10
8865.8568696732
 20
-5308.7008487112
 30
0.0
 11
8867.8568696732
 21
-5308.7008487112
 31
0.0
  0
LINE
  5
228
  8
1
  6
CONTINUOUS
 62
     7
 10
8834.5568696368
 20
-5333.5936608238
 30
0.0
 11
8834.5568696368
 21
-5335.0936608238
 31
0.0
  0
LINE
  5
229
  8
1
  6
CONTINUOUS
 62
     7
 10
8833.0568696368
 20
-5332.0936608238
 30
0.0
 11
8831.5568696368
 21
-5332.0936608238
 31
0.0
  0
LINE
  5
22A
  8
1
  6
CONTINUOUS
 62
     7
 10
9197.8568696732
 20
-5380.2008278747
 30
0.0
 11
9197.8568696732
 21
-5374.2008278747
 31
0.0
  0
LINE
  5
22B
  8
1
  6
CONTINUOUS
 62
     7
 10
8813.8568696697
 20
-5379.5008487106
 30
0.0
 11
8813.8568696697
 21
-5309.9008487106
 31
0.0
  0
LINE
  5
22C
  8
1
  6
CONTINUOUS
 62
     7
 10
8830.5568696368
 20
-5333.0936608238
 30
0.0
 11
8830.5568696368
 21
-5332.0936608238
 31
0.0
  0
LINE
  5
22D
  8
1
  6
CONTINUOUS
 62
     7
 10
8832.3568696732
 20
-5303.7008487108
 30
0.0
 11
8832.3568696732
 21
-5294.7008487111
 31
0.0
  0
LINE
  5
22E
  8
1
  6
CONTINUOUS
 62
     7
 10
8892.3568696732
 20
-5385.7008487108
 30
0.0
 11
8892.3568696732
 21
-5394.7008475774
 31
0.0
  0
ARC
  5
22F
  8
1
  6
CONTINUOUS
 62
     7
 10
9255.8568696733
 20
-5400.7008277011
 30
0.0
 40
2.0
 50
270.0
 51
0.0
  0
LINE
  5
230
  8
1
  6
CONTINUOUS
 62
     7
 10
8833.0568696732
 20
-5398.7008474574
 30
0.0
 11
8902.6568696736
 21
-5398.7008474574
 31
0.0
  0
LINE
  5
231
  8
1
  6
CONTINUOUS
 62
     7
 10
9197.8568696732
 20
-5328.7008278747
 30
0.0
 11
9197.8568696732
 21
-5322.7008278747
 31
0.0
  0
LINE
  5
232
  8
1
  6
CONTINUOUS
 62
     7
 10
8831.5568696368
 20
-5333.0936608238
 30
0.0
 11
8830.5568696368
 21
-5333.0936608238
 31
0.0
  0
LINE
  5
233
  8
1
  6
CONTINUOUS
 62
     7
 10
8829.0568696368
 20
-5345.4149915537
 30
0.0
 11
8829.0568696368
 21
-5347.0936608238
 31
0.0
  0
LINE
  5
234
  8
1
  6
CONTINUOUS
 62
     7
 10
8833.0568696368
 20
-5345.4149915537
 30
0.0
 11
8833.0568696368
 21
-5347.0936608238
 31
0.0
  0
LINE
  5
235
  8
1
  6
CONTINUOUS
 62
     7
 10
9194.8568696733
 20
-5312.2008278747
 30
0.0
 11
9197.8568696732
 21
-5312.2008278747
 31
0.0
  0
LINE
  5
236
  8
1
  6
CENTER
 62
     1
 10
9194.8568696733
 20
-5377.2008278747
 30
0.0
 11
9189.8568696767
 21
-5377.2008278747
 31
0.0
  0
LINE
  5
237
  8
1
  6
CENTER
 62
     1
 10
9216.8568696732
 20
-5347.7008278747
 30
0.0
 11
9216.8568696732
 21
-5352.7008278713
 31
0.0
  0
LINE
  5
238
  8
1
  6
CONTINUOUS
 62
     7
 10
9219.8568696732
 20
-5344.7008278747
 30
0.0
 11
9213.8568696732
 21
-5344.7008278747
 31
0.0
  0
LINE
  5
239
  8
1
  6
CONTINUOUS
 62
     7
 10
8829.0568696368
 20
-5332.0936608238
 30
0.0
 11
8830.5568696368
 21
-5332.0936608238
 31
0.0
  0
ARC
  5
23A
  8
1
  6
CONTINUOUS
 62
     7
 10
9139.8568696733
 20
-5288.7008280484
 30
0.0
 40
2.0
 50
90.0
 51
180.0
  0
LINE
  5
23B
  8
1
  6
CENTER
 62
     1
 10
9197.8568696732
 20
-5363.7008278747
 30
0.0
 11
9205.8568696698
 21
-5363.7008278747
 31
0.0
  0
LINE
  5
23C
  8
1
  6
CENTER
 62
     1
 10
9216.8568696732
 20
-5336.7008278713
 30
0.0
 11
9216.8568696732
 21
-5341.7008278747
 31
0.0
  0
LINE
  5
23D
  8
1
  6
CENTER
 62
     1
 10
9205.8568696767
 20
-5312.2008278747
 30
0.0
 11
9197.8568696732
 21
-5312.2008278747
 31
0.0
  0
LINE
  5
23E
  8
1
  6
CONTINUOUS
 62
     7
 10
8827.5568696368
 20
-5333.5936608238
 30
0.0
 11
8827.5568696368
 21
-5335.0936608238
 31
0.0
  0
LINE
  5
23F
  8
1
  6
CONTINUOUS
 62
     7
 10
9137.8568696732
 20
-5400.7008276658
 30
0.0
 11
9137.8568696732
 21
-5390.7008277011
 31
0.0
  0
LINE
  5
240
  8
1
  6
CENTER
 62
     1
 10
9205.8568696766
 20
-5325.7008278747
 30
0.0
 11
9197.8568696732
 21
-5325.7008278747
 31
0.0
  0
LINE
  5
241
  8
1
  6
CONTINUOUS
 62
     7
 10
9197.8568696732
 20
-5309.2008278747
 30
0.0
 11
9197.8568696732
 21
-5315.2008278747
 31
0.0
  0
LINE
  5
242
  8
1
  6
CONTINUOUS
 62
     7
 10
9197.8568696732
 20
-5363.7008278747
 30
0.0
 11
9194.8568696732
 21
-5363.7008278747
 31
0.0
  0
LINE
  5
243
  8
1
  6
CONTINUOUS
 62
     7
 10
9175.8568696732
 20
-5344.7008278747
 30
0.0
 11
9181.8568696732
 21
-5344.7008278747
 31
0.0
  0
ARC
  5
244
  8
1
  6
CONTINUOUS
 62
     7
 10
8833.0568696368
 20
-5333.5936608238
 30
0.0
 40
1.5
 50
0.0
 51
90.0
  0
LINE
  5
245
  8
1
  6
CENTER
 62
     1
 10
9194.8568696732
 20
-5325.7008278747
 30
0.0
 11
9189.8568696766
 21
-5325.7008278747
 31
0.0
  0
LINE
  5
246
  8
1
  6
CONTINUOUS
 62
     7
 10
8867.8568696732
 20
-5308.7008487112
 30
0.0
 11
8867.8568696732
 21
-5310.7008487112
 31
0.0
  0
LINE
  5
247
  8
1
  6
CONTINUOUS
 62
     7
 10
8827.5568696368
 20
-5335.0936608238
 30
0.0
 11
8834.5568696368
 21
-5335.0936608238
 31
0.0
  0
LINE
  5
248
  8
1
  6
CENTER
 62
     1
 10
9189.8568696698
 20
-5363.7008278747
 30
0.0
 11
9194.8568696732
 21
-5363.7008278747
 31
0.0
  0
LINE
  5
249
  8
1
  6
CONTINUOUS
 62
     7
 10
8829.0568696368
 20
-5335.0936608238
 30
0.0
 11
8829.0568696368
 21
-5343.986705868
 31
0.0
  0
LINE
  5
24A
  8
1
  6
CONTINUOUS
 62
     7
 10
9197.8568696732
 20
-5377.2008278747
 30
0.0
 11
9194.8568696733
 21
-5377.2008278747
 31
0.0
  0
LINE
  5
24B
  8
1
  6
CONTINUOUS
 62
     7
 10
9137.8568696732
 20
-5390.7008277011
 30
0.0
 11
9139.8568696732
 21
-5390.7008277011
 31
0.0
  0
LINE
  5
24C
  8
1
  6
CONTINUOUS
 62
     7
 10
9178.8568696732
 20
-5341.7008278747
 30
0.0
 11
9178.8568696732
 21
-5347.7008278747
 31
0.0
  0
LINE
  5
24D
  8
1
  6
CONTINUOUS
 62
     7
 10
8833.0568696368
 20
-5335.0936608238
 30
0.0
 11
8833.0568696368
 21
-5343.986705868
 31
0.0
  0
LINE
  5
24E
  8
1
  6
CENTER
 62
     7
 10
8810.8568696759
 20
-5344.7008487108
 30
0.0
 11
8924.8568696705
 21
-5344.7008487108
 31
0.0
  0
LINE
  5
24F
  8
1
  6
CONTINUOUS
 62
     7
 10
8902.6568696732
 20
-5290.7008487111
 30
0.0
 11
8833.0568696732
 21
-5290.7008487111
 31
0.0
  0
LINE
  5
250
  8
1
  6
CONTINUOUS
 62
     7
 10
8813.8568696691
 20
-5292.7008487111
 30
0.0
 11
8813.8568696691
 21
-5302.5008487108
 31
0.0
  0
LINE
  5
251
  8
1
  6
CENTER
 62
     1
 10
9178.8568696732
 20
-5336.7008278713
 30
0.0
 11
9178.8568696732
 21
-5341.7008278747
 31
0.0
  0
ARC
  5
252
  8
1
  6
CONTINUOUS
 62
     7
 10
8829.0568696368
 20
-5333.5936608238
 30
0.0
 40
1.5
 50
90.0
 51
180.0
  0
LINE
  5
253
  8
1
  6
CONTINUOUS
 62
     7
 10
8913.8568696732
 20
-5290.7008487111
 30
0.0
 11
8910.0568696732
 21
-5290.7008487111
 31
0.0
  0
LINE
  5
254
  8
1
  6
CONTINUOUS
 62
     7
 10
8909.8568696732
 20
-5398.9008475774
 30
0.0
 11
8909.8568696732
 21
-5400.6930189962
 31
0.0
  0
LINE
  5
255
  8
1
  6
CONTINUOUS
 62
     7
 10
8811.8646993882
 20
-5309.7008487106
 30
0.0
 11
8813.6568696841
 21
-5309.7008487106
 31
0.0
  0
LINE
  5
256
  8
1
  6
CONTINUOUS
 62
     7
 10
8818.6631834823
 20
-5342.0508487108
 30
0.0
 11
8817.3743234046
 21
-5342.0508487108
 31
0.0
  0
LINE
  5
257
  8
1
  6
CONTINUOUS
 62
     7
 10
8832.8568696732
 20
-5288.7008487112
 30
0.0
 11
8832.8568696732
 21
-5290.5008487112
 31
0.0
  0
LINE
  5
258
  8
1
  6
CONTINUOUS
 62
     7
 10
8825.8568696732
 20
-5400.6930189962
 30
0.0
 11
8832.8568696732
 21
-5400.6930189962
 31
0.0
  0
LINE
  5
259
  8
1
  6
CONTINUOUS
 62
     7
 10
8813.6568696689
 20
-5386.7008487108
 30
0.0
 11
8811.8646993882
 21
-5386.7008487108
 31
0.0
  0
LINE
  5
25A
  8
1
  6
CONTINUOUS
 62
     7
 10
8819.1631834824
 20
-5343.5508487076
 30
0.0
 11
8817.3743234046
 21
-5343.5508487109
 31
0.0
  0
LINE
  5
25B
  8
1
  6
CONTINUOUS
 62
     7
 10
8825.8568696732
 20
-5290.5008487111
 30
0.0
 11
8825.8568696732
 21
-5288.7008487112
 31
0.0
  0
LINE
  5
25C
  8
1
  6
CONTINUOUS
 62
     7
 10
8903.3568696732
 20
-5385.7008487108
 30
0.0
 11
8903.3568696732
 21
-5394.7008475774
 31
0.0
  0
LINE
  5
25D
  8
1
  6
CONTINUOUS
 62
     7
 10
8825.8568696732
 20
-5398.9008475781
 30
0.0
 11
8825.8568696732
 21
-5400.6930189962
 31
0.0
  0
LINE
  5
25E
  8
1
  6
CONTINUOUS
 62
     7
 10
8813.6568696691
 20
-5302.7008487108
 30
0.0
 11
8811.8646993882
 21
-5302.7008487108
 31
0.0
  0
LINE
  5
25F
  8
1
  6
CONTINUOUS
 62
     7
 10
8811.8646993882
 20
-5379.7008487106
 30
0.0
 11
8813.6568696822
 21
-5379.7008487106
 31
0.0
  0
LINE
  5
260
  8
1
  6
CONTINUOUS
 62
     7
 10
8832.8568696732
 20
-5400.6930189962
 30
0.0
 11
8832.8568696732
 21
-5398.9008474574
 31
0.0
  0
LINE
  5
261
  8
1
  6
CONTINUOUS
 62
     7
 10
8909.8568696732
 20
-5400.6930189962
 30
0.0
 11
8902.8568696732
 21
-5400.6930189962
 31
0.0
  0
LINE
  5
262
  8
1
  6
CONTINUOUS
 62
     7
 10
8786.8568696732
 20
-5495.7008278755
 30
0.0
 11
8786.8568696732
 21
-5498.7008278755
 31
0.0
  0
LINE
  5
263
  8
1
  6
CENTER
 62
     1
 10
8867.8568696732
 20
-5258.7008280484
 30
0.0
 11
8867.8568696732
 21
-5432.7008280484
 31
0.0
  0
LINE
  5
264
  8
1
  6
CONTINUOUS
 62
     7
 10
9017.3457308891
 20
-5263.7008280482
 30
0.0
 11
9014.345730889101
 21
-5263.7008280482
 31
0.0
  0
LINE
  5
265
  8
1
  6
CONTINUOUS
 62
     7
 10
8948.8568696732
 20
-5498.7008278755
 30
0.0
 11
8948.8568696732
 21
-5495.7008278755
 31
0.0
  0
LINE
  5
266
  8
1
  6
CONTINUOUS
 62
     7
 10
9017.3457308891
 20
-5425.7008276859
 30
0.0
 11
9014.345730889101
 21
-5425.7008276859
 31
0.0
  0
LINE
  5
267
  8
0
  6
CONTINUOUS
 62
     7
 10
9197.8568696732
 20
-5312.2008278747
 30
0.0
 11
9200.8568696732
 21
-5312.2008278747
 31
0.0
  0
LINE
  5
268
  8
0
  6
CONTINUOUS
 62
     7
 10
9197.8568696732
 20
-5363.7008278747
 30
0.0
 11
9200.8568696732
 21
-5363.7008278747
 31
0.0
  0
LINE
  5
269
  8
0
  6
CONTINUOUS
 62
     7
 10
9197.8568696732
 20
-5377.2008278747
 30
0.0
 11
9200.8568696732
 21
-5377.2008278747
 31
0.0
  0
LINE
  5
26A
  8
0
  6
CONTINUOUS
 62
     7
 10
9197.8568696732
 20
-5325.7008278747
 30
0.0
 11
9200.8568696732
 21
-5325.7008278747
 31
0.0
  0
TEXT
  5
26B
  8
1
  6
CONTINUOUS
 62
     7
 10
9109.019359938276
 20
-5480.394368272728
 30
0.0
 40
5.0
  1
ＣＤＯ－４ＡＸ３４－１
 41
0.617063
 51
15.0
  0
ENDSEC
  0
EOF
