  0
SECTION
  2
HEADER
  9
$ACADVER
  1
AC1006
  9
$DWGCODEPAGE
  3
ansi_932
  9
$INSBASE
 10
0.0
 20
0.0
 30
0.0
  9
$EXTMIN
 10
-624.5696645933881
 20
87.3409090909091
  9
$EXTMAX
 10
-461.8242385553947
 20
351.4500014319252
  9
$LIMMIN
 10
0.0
 20
0.0
  9
$LIMMAX
 10
12.0
 20
9.0
  9
$ORTHOMODE
 70
     0
  9
$REGENMODE
 70
     1
  9
$FILLMODE
 70
     1
  9
$QTEXTMODE
 70
     0
  9
$MIRRTEXT
 70
     1
  9
$DRAGMODE
 70
     2
  9
$LTSCALE
 40
1.0
  9
$OSMODE
 70
    37
  9
$ATTMODE
 70
     1
  9
$TEXTSIZE
 40
0.2
  9
$TRACEWID
 40
0.05
  9
$TEXTSTYLE
  7
STANDARD
  9
$CLAYER
  8
0
  9
$CELTYPE
  6
BYLAYER
  9
$CECOLOR
 62
   256
  9
$DIMSCALE
 40
1.0
  9
$DIMASZ
 40
3.0
  9
$DIMEXO
 40
0.0625
  9
$DIMDLI
 40
0.38
  9
$DIMRND
 40
0.0
  9
$DIMDLE
 40
0.0
  9
$DIMEXE
 40
1.5
  9
$DIMTP
 40
0.0
  9
$DIMTM
 40
0.0
  9
$DIMTXT
 40
3.0
  9
$DIMCEN
 40
0.09
  9
$DIMTSZ
 40
0.0
  9
$DIMTOL
 70
     0
  9
$DIMLIM
 70
     0
  9
$DIMTIH
 70
     1
  9
$DIMTOH
 70
     1
  9
$DIMSE1
 70
     0
  9
$DIMSE2
 70
     0
  9
$DIMTAD
 70
     1
  9
$DIMZIN
 70
     0
  9
$DIMBLK
  1

  9
$DIMASO
 70
     1
  9
$DIMSHO
 70
     1
  9
$DIMPOST
  1

  9
$DIMAPOST
  1

  9
$DIMALT
 70
     0
  9
$DIMALTD
 70
     2
  9
$DIMALTF
 40
25.4
  9
$DIMLFAC
 40
1.0
  9
$DIMTOFL
 70
     0
  9
$DIMTVP
 40
0.0
  9
$DIMTIX
 70
     0
  9
$DIMSOXD
 70
     0
  9
$DIMSAH
 70
     0
  9
$DIMBLK1
  1

  9
$DIMBLK2
  1

  9
$LUNITS
 70
     2
  9
$LUPREC
 70
     4
  9
$SKETCHINC
 40
0.1
  9
$FILLETRAD
 40
0.5
  9
$AUNITS
 70
     0
  9
$AUPREC
 70
     0
  9
$MENU
  1
.
  9
$ELEVATION
 40
0.0
  9
$THICKNESS
 40
0.0
  9
$LIMCHECK
 70
     0
  9
$CHAMFERA
 40
0.0
  9
$CHAMFERB
 40
0.0
  9
$SKPOLY
 70
     0
  9
$TDCREATE
 40
2459395.600026389
  9
$TDUPDATE
 40
2459395.600026574
  9
$TDINDWG
 40
0.0000000116
  9
$TDUSRTIMER
 40
0.0000000116
  9
$USRTIMER
 70
     1
  9
$ANGBASE
 50
0.0
  9
$ANGDIR
 70
     0
  9
$PDMODE
 70
     0
  9
$PDSIZE
 40
0.0
  9
$PLINEWID
 40
0.0
  9
$COORDS
 70
     1
  9
$SPLFRAME
 70
     0
  9
$SPLINETYPE
 70
     6
  9
$SPLINESEGS
 70
     8
  9
$ATTDIA
 70
     0
  9
$ATTREQ
 70
     1
  9
$HANDLING
 70
     1
  9
$HANDSEED
  5
3C2
  9
$SURFTAB1
 70
     6
  9
$SURFTAB2
 70
     6
  9
$SURFTYPE
 70
     6
  9
$SURFU
 70
     6
  9
$SURFV
 70
     6
  9
$UCSNAME
  2

  9
$UCSORG
 10
0.0
 20
0.0
 30
0.0
  9
$UCSXDIR
 10
1.0
 20
0.0
 30
0.0
  9
$UCSYDIR
 10
0.0
 20
1.0
 30
0.0
  9
$USERI1
 70
     0
  9
$USERI2
 70
     0
  9
$USERI3
 70
     0
  9
$USERI4
 70
     0
  9
$USERI5
 70
     0
  9
$USERR1
 40
0.0
  9
$USERR2
 40
0.0
  9
$USERR3
 40
0.0
  9
$USERR4
 40
0.0
  9
$USERR5
 40
0.0
  9
$WORLDVIEW
 70
     1
  0
ENDSEC
  0
SECTION
  2
TABLES
  0
TABLE
  2
VPORT
 70
     1
  0
VPORT
  2
*ACTIVE
 70
     0
 10
0.0
 20
0.0
 11
1.0
 21
1.0
 12
-543.1969515743914
 22
219.3954552614171
 13
0.0
 23
0.0
 14
0.5
 24
0.5
 15
0.5
 25
0.5
 16
0.0
 26
0.0
 36
1.0
 17
0.0
 27
0.0
 37
0.0
 40
264.1090923410161
 41
1.6
 42
50.0
 43
0.0
 44
0.0
 50
0.0
 51
0.0
 71
     0
 72
   100
 73
     1
 74
     3
 75
     0
 76
     0
 77
     0
 78
     0
  0
ENDTAB
  0
TABLE
  2
LTYPE
 70
     2
  0
LTYPE
  2
CONTINUOUS
 70
     0
  3
Solid line
 72
    65
 73
     0
 40
0.0
  0
LTYPE
  2
DOT
 70
     0
  3

 72
    65
 73
     0
 40
0.0
  0
ENDTAB
  0
TABLE
  2
LAYER
 70
     1
  0
LAYER
  2
0
 70
     0
 62
     7
  6
CONTINUOUS
  0
ENDTAB
  0
TABLE
  2
STYLE
 70
     2
  0
STYLE
  2
STANDARD
 70
     0
 40
0.0
 41
1.0
 50
0.0
 71
     0
 42
0.2
  3
txt
  4

  0
STYLE
  2
ＭＳ_ゴシック
 70
     0
 40
0.0
 41
1.0
 50
0.0
 71
     0
 42
0.2
  3
ＭＳ ゴシック.shx
  4

  0
ENDTAB
  0
TABLE
  2
VIEW
 70
     0
  0
ENDTAB
  0
TABLE
  2
UCS
 70
     0
  0
ENDTAB
  0
ENDSEC
  0
SECTION
  2
BLOCKS
  0
BLOCK
  8
0
  2
D_FRAME_VIEW_7475
 70
     0
 10
0.0
 20
0.0
 30
0.0
  0
LINE
  5
70
  8
0
  6
CONTINUOUS
 62
     7
 10
-607.1421487223244
 20
153.1065137169951
 30
0.0
 11
-607.1793631909264
 21
153.1065137169951
 31
0.0
  0
LINE
  5
71
  8
0
  6
CONTINUOUS
 62
     7
 10
-613.8527822195026
 20
153.1877180160394
 30
0.0
 11
-613.8599659958497
 21
153.1065137169951
 31
0.0
  0
LINE
  5
72
  8
0
  6
CONTINUOUS
 62
     7
 10
-607.1793631909264
 20
153.1065137169951
 30
0.0
 11
-607.1865469672736
 21
153.1877180160394
 31
0.0
  0
LINE
  5
73
  8
0
  6
CONTINUOUS
 62
     7
 10
-613.8599659958496
 20
153.1065137169951
 30
0.0
 11
-613.8971804644517
 21
153.1065137169951
 31
0.0
  0
ARC
  5
74
  8
0
  6
CONTINUOUS
 62
     7
 10
-608.4791791323515
 20
153.0707850857809
 30
0.0
 40
1.297910329865998
 50
5.168970405221536
 51
67.09885075471166
  0
ARC
  5
75
  8
0
  6
CONTINUOUS
 62
     7
 10
-612.5600894404082
 20
153.0707408303053
 30
0.0
 40
1.297974685078674
 50
112.9028537878512
 51
174.8293250522157
  0
LINE
  5
76
  8
0
  6
CONTINUOUS
 62
     7
 10
-610.019664593388
 20
154.4228851903443
 30
0.0
 11
-611.019664593388
 21
154.4228851903443
 31
0.0
  0
LINE
  5
77
  8
0
  6
CONTINUOUS
 62
     7
 10
-610.019664593388
 20
154.7096379544279
 30
0.0
 11
-610.019664593388
 21
154.4228851903443
 31
0.0
  0
LINE
  5
78
  8
0
  6
CONTINUOUS
 62
     7
 10
-609.5196645933881
 20
154.7096379544279
 30
0.0
 11
-610.0196645933881
 21
154.7096379544279
 31
0.0
  0
ARC
  5
79
  8
0
  6
CONTINUOUS
 62
     7
 10
-610.5196645933881
 20
148.3065137169951
 30
0.0
 40
6.480740698407851
 50
66.87190898975544
 51
81.12360491902666
  0
ARC
  5
7A
  8
0
  6
CONTINUOUS
 62
     7
 10
-610.5196645933881
 20
148.3065137169951
 30
0.0
 40
6.480740698407859
 50
98.87639508097337
 51
113.1280910102446
  0
LINE
  5
7B
  8
0
  6
CONTINUOUS
 62
     7
 10
-611.019664593388
 20
154.7096379544279
 30
0.0
 11
-611.519664593388
 21
154.7096379544279
 31
0.0
  0
LINE
  5
7C
  8
0
  6
CONTINUOUS
 62
     7
 10
-611.019664593388
 20
154.4228851903443
 30
0.0
 11
-611.019664593388
 21
154.7096379544279
 31
0.0
  0
LINE
  5
7D
  8
0
  6
CONTINUOUS
 62
     7
 10
-589.0196645933881
 20
151.7065137169951
 30
0.0
 11
-589.0196645933881
 21
149.2065137169951
 31
0.0
  0
LINE
  5
7E
  8
0
  6
CONTINUOUS
 62
     7
 10
-587.519664593388
 20
151.7065137169951
 30
0.0
 11
-587.519664593388
 21
149.2065137169951
 31
0.0
  0
LINE
  5
7F
  8
0
  6
CONTINUOUS
 62
     7
 10
-624.2696645933881
 20
151.7065137169951
 30
0.0
 11
-624.2696645933881
 21
149.2065137169951
 31
0.0
  0
LINE
  5
80
  8
0
  6
CONTINUOUS
 62
     7
 10
-552.269664593388
 20
151.7065137169951
 30
0.0
 11
-552.269664593388
 21
149.2065137169951
 31
0.0
  0
LINE
  5
81
  8
0
  6
CONTINUOUS
 62
     7
 10
-590.0189476468255
 20
151.7065137169952
 30
0.0
 11
-590.0189476468255
 21
162.2065137169951
 31
0.0
  0
LINE
  5
82
  8
0
  6
CONTINUOUS
 62
     7
 10
-586.5203815399507
 20
151.7065137169952
 30
0.0
 11
-586.5203815399507
 21
162.2065137169951
 31
0.0
  0
LINE
  5
83
  8
0
  6
CONTINUOUS
 62
     7
 10
-560.2696645933883
 20
151.7065137169952
 30
0.0
 11
-560.2696645933883
 21
162.2065137169951
 31
0.0
  0
LINE
  5
84
  8
0
  6
CONTINUOUS
 62
     7
 10
-616.269664593388
 20
151.7065137169952
 30
0.0
 11
-616.269664593388
 21
162.2065137169951
 31
0.0
  0
ARC
  5
85
  8
0
  6
CONTINUOUS
 62
     7
 10
-559.2696645933881
 20
159.5092893547271
 30
0.0
 40
0.9999999999999982
 50
180.0
 51
213.6900675259797
  0
LINE
  5
86
  8
0
  6
CONTINUOUS
 62
     7
 10
-555.566531129238
 20
152.1518135207699
 30
0.0
 11
-560.101714887726
 21
158.9545891585018
 31
0.0
  0
ARC
  5
87
  8
0
  6
CONTINUOUS
 62
     7
 10
-554.7344808349002
 20
152.7065137169951
 30
0.0
 40
1.000000000000001
 50
213.6900675259794
 51
270.0
  0
ARC
  5
88
  8
0
  6
CONTINUOUS
 62
     7
 10
-617.269664593388
 20
159.5092893547271
 30
0.0
 40
1.000000000000001
 50
326.3099324740205
 51
0.0
  0
ARC
  5
89
  8
0
  6
CONTINUOUS
 62
     7
 10
-621.804848351876
 20
152.7065137169951
 30
0.0
 40
0.9999999999999982
 50
270.0
 51
326.3099324740203
  0
LINE
  5
8A
  8
0
  6
CONTINUOUS
 62
     7
 10
-616.4376142990502
 20
158.9545891585018
 30
0.0
 11
-620.9727980575382
 21
152.1518135207699
 31
0.0
  0
LINE
  5
8B
  8
0
  6
CONTINUOUS
 62
     7
 10
-624.5696645933881
 20
151.7065137169951
 30
0.0
 11
-624.5696645933881
 21
149.2065137169951
 31
0.0
  0
LINE
  5
8C
  8
0
  6
CONTINUOUS
 62
     7
 10
-551.9696645933881
 20
151.7065137169951
 30
0.0
 11
-551.9696645933881
 21
149.2065137169951
 31
0.0
  0
ARC
  5
8D
  8
0
  6
CONTINUOUS
 62
     7
 10
-619.1610466631212
 20
106.9619184587169
 30
0.0
 40
2.7567980861898
 50
220.3913220606649
 51
268.1782755244462
  0
LINE
  5
8E
  8
0
  6
CONTINUOUS
 62
     7
 10
-621.2607246043303
 20
105.1755007496635
 30
0.0
 11
-621.2905761049519
 21
105.2065137169951
 31
0.0
  0
ARC
  5
8F
  8
0
  6
CONTINUOUS
 62
     7
 10
-619.1381657155879
 20
107.4819032815409
 30
0.0
 40
3.132134759981807
 50
185.0441829050695
 51
226.5909428556417
  0
LINE
  5
90
  8
0
  6
CONTINUOUS
 62
     7
 10
-622.269664593388
 20
108.3065137169951
 30
0.0
 11
-622.2067244307128
 21
108.3065137169951
 31
0.0
  0
LINE
  5
91
  8
0
  6
CONTINUOUS
 62
     7
 10
-622.2067244307128
 20
108.3065137169951
 30
0.0
 11
-622.2067244307128
 21
110.5065137169951
 31
0.0
  0
LINE
  5
92
  8
0
  6
CONTINUOUS
 62
     7
 10
-622.269664593388
 20
110.5065137169952
 30
0.0
 11
-622.2067244307128
 21
110.5065137169952
 31
0.0
  0
CIRCLE
  5
93
  8
0
  6
CONTINUOUS
 62
     7
 10
-593.769664593388
 20
128.7065137169951
 30
0.0
 40
13.54999999999999
  0
LINE
  5
94
  8
0
  6
CONTINUOUS
 62
     9
 10
-554.2811588650338
 20
105.2065137169951
 30
0.0
 11
-554.2811588650338
 21
107.2065137169951
 31
0.0
  0
LINE
  5
95
  8
0
  6
CONTINUOUS
 62
     7
 10
-554.2696645933881
 20
149.2065137169951
 30
0.0
 11
-554.2696645933881
 21
105.2065137169951
 31
0.0
  0
LINE
  5
96
  8
0
  6
CONTINUOUS
 62
     9
 10
-554.2696645933881
 20
105.2065137169951
 30
0.0
 11
-554.2811588650338
 21
105.2065137169951
 31
0.0
  0
ARC
  5
97
  8
0
  6
CONTINUOUS
 62
     7
 10
-611.3196645933881
 20
100.624101126196
 30
0.0
 40
3.878618306912383
 50
67.46283727193372
 51
112.5371627280663
  0
ARC
  5
98
  8
0
  6
CONTINUOUS
 62
     7
 10
-567.769664593388
 20
104.7065137169951
 30
0.0
 40
0.5000000000000004
 50
180.0
 51
270.0
  0
ARC
  5
99
  8
0
  6
CONTINUOUS
 62
     7
 10
-576.769664593388
 20
104.7065137169951
 30
0.0
 40
0.4999999999999935
 50
270.0
 51
0.0000000000000568
  0
LINE
  5
9A
  8
0
  6
CONTINUOUS
 62
     7
 10
-555.2487530818277
 20
105.2065137169916
 30
0.0
 11
-555.2786045824565
 21
105.1755007496525
 31
0.0
  0
ARC
  5
9B
  8
0
  6
CONTINUOUS
 62
     7
 10
-557.3865952376549
 20
106.9791792816706
 30
0.0
 40
2.774325296223664
 50
271.9819811401624
 51
319.4484212744544
  0
ARC
  5
9C
  8
0
  6
CONTINUOUS
 62
     7
 10
-557.4271928447056
 20
107.4944962171815
 30
0.0
 40
3.159187193197476
 50
313.5950547958817
 51
354.7698194433282
  0
POLYLINE
  5
9D
  8
0
  6
CONTINUOUS
 62
     9
 66
     1
 10
0.0
 20
0.0
 30
0.0
  0
VERTEX
  5
216
  8
0
  6
CONTINUOUS
 62
     9
 10
-555.2786045824458
 20
104.2065137169951
 30
0.0
  0
VERTEX
  5
217
  8
0
  6
CONTINUOUS
 62
     9
 10
-555.0840125762423
 20
104.2257284365919
 30
0.0
  0
VERTEX
  5
218
  8
0
  6
CONTINUOUS
 62
     9
 10
-554.8968986317087
 20
104.2826341844838
 30
0.0
  0
VERTEX
  5
219
  8
0
  6
CONTINUOUS
 62
     9
 10
-554.7244534327988
 20
104.3750441046926
 30
0.0
  0
VERTEX
  5
21A
  8
0
  6
CONTINUOUS
 62
     9
 10
-554.5733039517983
 20
104.4994069358086
 30
0.0
  0
VERTEX
  5
21B
  8
0
  6
CONTINUOUS
 62
     9
 10
-554.4492587784964
 20
104.6509434839755
 30
0.0
  0
VERTEX
  5
21C
  8
0
  6
CONTINUOUS
 62
     9
 10
-554.3570848993378
 20
104.82383028463
 30
0.0
  0
VERTEX
  5
21D
  8
0
  6
CONTINUOUS
 62
     9
 10
-554.3003245048069
 20
105.011423394979
 30
0.0
  0
VERTEX
  5
21E
  8
0
  6
CONTINUOUS
 62
     9
 10
-554.2811588650337
 20
105.2065137169951
 30
0.0
  0
SEQEND
  5
3B3
  8
0
  6
CONTINUOUS
 62
     9
  0
ARC
  5
9E
  8
0
  6
CONTINUOUS
 62
     7
 10
-555.2696645933881
 20
105.2065137169951
 30
0.0
 40
1.000000000000001
 50
270.0
 51
0.0
  0
ARC
  5
9F
  8
0
  6
CONTINUOUS
 62
     7
 10
-621.269664593388
 20
105.2065137169951
 30
0.0
 40
1.000000000000001
 50
180.0
 51
270.0
  0
LINE
  5
A0
  8
0
  6
CONTINUOUS
 62
     7
 10
-622.269664593388
 20
115.8065137169951
 30
0.0
 11
-624.269664593388
 21
115.8065137169951
 31
0.0
  0
LINE
  5
A1
  8
0
  6
CONTINUOUS
 62
     7
 10
-622.269664593388
 20
140.2065137169951
 30
0.0
 11
-624.269664593388
 21
140.2065137169951
 31
0.0
  0
LINE
  5
A2
  8
0
  6
CONTINUOUS
 62
     7
 10
-554.2696645933881
 20
115.8065137169951
 30
0.0
 11
-552.2696645933881
 21
115.8065137169951
 31
0.0
  0
LINE
  5
A3
  8
0
  6
CONTINUOUS
 62
     7
 10
-622.269664593388
 20
125.8065137169951
 30
0.0
 11
-624.269664593388
 21
125.8065137169951
 31
0.0
  0
LINE
  5
A4
  8
0
  6
CONTINUOUS
 62
     7
 10
-622.269664593388
 20
143.2065137169952
 30
0.0
 11
-624.269664593388
 21
143.2065137169952
 31
0.0
  0
LINE
  5
A5
  8
0
  6
CONTINUOUS
 62
     7
 10
-554.2696645933881
 20
125.8065137169951
 30
0.0
 11
-552.269664593388
 21
125.8065137169951
 31
0.0
  0
LINE
  5
A6
  8
0
  6
CONTINUOUS
 62
     7
 10
-554.2696645933881
 20
143.2065137169952
 30
0.0
 11
-552.269664593388
 21
143.2065137169952
 31
0.0
  0
LINE
  5
A7
  8
0
  6
CONTINUOUS
 62
     7
 10
-622.269664593388
 20
129.2065137169951
 30
0.0
 11
-624.269664593388
 21
129.2065137169951
 31
0.0
  0
LINE
  5
A8
  8
0
  6
CONTINUOUS
 62
     7
 10
-554.2696645933881
 20
129.2065137169951
 30
0.0
 11
-552.2696645933881
 21
129.2065137169951
 31
0.0
  0
LINE
  5
A9
  8
0
  6
CONTINUOUS
 62
     7
 10
-607.019664593388
 20
151.7065137169951
 30
0.0
 11
-607.1421487223242
 21
153.1065137169951
 31
0.0
  0
LINE
  5
AA
  8
0
  6
CONTINUOUS
 62
     7
 10
-613.8971804644518
 20
153.1065137169951
 30
0.0
 11
-614.0196645933881
 21
151.7065137169951
 31
0.0
  0
ENDBLK
  8
0
  0
BLOCK
  8
0
  2
D_FRAME_VIEW_7281
 70
     0
 10
0.0
 20
0.0
 30
0.0
  0
LINE
  5
B0
  8
0
  6
CONTINUOUS
 62
     7
 10
-510.7242385553946
 20
209.750001431714
 30
0.0
 11
-510.7242385553946
 21
208.750001431714
 31
0.0
  0
LINE
  5
B1
  8
0
  6
CONTINUOUS
 62
     7
 10
-512.0406100287438
 20
207.1075729031512
 30
0.0
 11
-512.0406100287438
 21
207.050001431714
 31
0.0
  0
ARC
  5
B2
  8
0
  6
CONTINUOUS
 62
     7
 10
-505.9242385553946
 20
209.250001431714
 30
0.0
 40
6.480740698407859
 50
188.8763950809733
 51
199.3042196067915
  0
LINE
  5
B3
  8
0
  6
CONTINUOUS
 62
     7
 10
-512.3273627928274
 20
208.750001431714
 30
0.0
 11
-512.3273627928274
 21
208.250001431714
 31
0.0
  0
LINE
  5
B4
  8
0
  6
CONTINUOUS
 62
     7
 10
-512.0406100287438
 20
211.450001431714
 30
0.0
 11
-512.0406100287438
 21
211.3924299602768
 31
0.0
  0
LINE
  5
B5
  8
0
  6
CONTINUOUS
 62
     7
 10
-512.3273627928274
 20
210.250001431714
 30
0.0
 11
-512.3273627928274
 21
209.750001431714
 31
0.0
  0
ARC
  5
B6
  8
0
  6
CONTINUOUS
 62
     7
 10
-505.9242385553946
 20
209.250001431714
 30
0.0
 40
6.480740698407849
 50
160.6957803932083
 51
171.1236049190266
  0
LINE
  5
B7
  8
0
  6
CONTINUOUS
 62
     7
 10
-510.7242385553946
 20
314.750001431714
 30
0.0
 11
-510.7242385553946
 21
313.750001431714
 31
0.0
  0
LINE
  5
B8
  8
0
  6
CONTINUOUS
 62
     7
 10
-512.0406100287438
 20
316.450001431714
 30
0.0
 11
-512.0406100287438
 21
316.3924299602768
 31
0.0
  0
LINE
  5
B9
  8
0
  6
CONTINUOUS
 62
     7
 10
-512.3273627928274
 20
315.250001431714
 30
0.0
 11
-512.3273627928274
 21
314.750001431714
 31
0.0
  0
ARC
  5
BA
  8
0
  6
CONTINUOUS
 62
     7
 10
-505.9242385553946
 20
314.250001431714
 30
0.0
 40
6.480740698407854
 50
160.6957803932083
 51
171.1236049190266
  0
LINE
  5
BB
  8
0
  6
CONTINUOUS
 62
     7
 10
-512.0406100287438
 20
312.1075729031512
 30
0.0
 11
-512.0406100287438
 21
312.050001431714
 31
0.0
  0
ARC
  5
BC
  8
0
  6
CONTINUOUS
 62
     7
 10
-505.9242385553946
 20
314.250001431714
 30
0.0
 40
6.480740698407859
 50
188.8763950809733
 51
199.3042196067915
  0
LINE
  5
BD
  8
0
  6
CONTINUOUS
 62
     7
 10
-512.3273627928274
 20
313.750001431714
 30
0.0
 11
-512.3273627928274
 21
313.250001431714
 31
0.0
  0
POLYLINE
  5
BE
  8
0
  6
CONTINUOUS
 62
     7
 66
     1
 10
0.0
 20
0.0
 30
0.0
  0
VERTEX
  5
21F
  8
0
  6
CONTINUOUS
 62
     7
 10
-486.731645962802
 20
350.2000014319869
 30
0.0
  0
VERTEX
  5
220
  8
0
  6
CONTINUOUS
 62
     7
 10
-486.7156759242687
 20
350.1997251496197
 30
0.0
  0
VERTEX
  5
221
  8
0
  6
CONTINUOUS
 62
     7
 10
-486.6998220133374
 20
350.1989011311649
 30
0.0
  0
VERTEX
  5
222
  8
0
  6
CONTINUOUS
 62
     7
 10
-486.6841340800094
 20
350.1975366195938
 30
0.0
  0
VERTEX
  5
223
  8
0
  6
CONTINUOUS
 62
     7
 10
-486.6686619742864
 20
350.1956388578776
 30
0.0
  0
VERTEX
  5
224
  8
0
  6
CONTINUOUS
 62
     7
 10
-486.652885748341
 20
350.1931175306248
 30
0.0
  0
VERTEX
  5
225
  8
0
  6
CONTINUOUS
 62
     7
 10
-486.637369562237
 20
350.1900449012871
 30
0.0
  0
VERTEX
  5
226
  8
0
  6
CONTINUOUS
 62
     7
 10
-486.6221553977983
 20
350.1864418996004
 30
0.0
  0
VERTEX
  5
227
  8
0
  6
CONTINUOUS
 62
     7
 10
-486.6072852368485
 20
350.1823294553007
 30
0.0
  0
VERTEX
  5
228
  8
0
  6
CONTINUOUS
 62
     7
 10
-486.5884998421456
 20
350.1762457353377
 30
0.0
  0
VERTEX
  5
229
  8
0
  6
CONTINUOUS
 62
     7
 10
-486.5703021237489
 20
350.1693558370919
 30
0.0
  0
VERTEX
  5
22A
  8
0
  6
CONTINUOUS
 62
     7
 10
-486.5527326642984
 20
350.1617180361322
 30
0.0
  0
VERTEX
  5
22B
  8
0
  6
CONTINUOUS
 62
     7
 10
-486.5358320464341
 20
350.1533906080278
 30
0.0
  0
VERTEX
  5
22C
  8
0
  6
CONTINUOUS
 62
     7
 10
-486.5196408527956
 20
350.1444318283473
 30
0.0
  0
VERTEX
  5
22D
  8
0
  6
CONTINUOUS
 62
     7
 10
-486.5041996660229
 20
350.1348999726599
 30
0.0
  0
VERTEX
  5
22E
  8
0
  6
CONTINUOUS
 62
     7
 10
-486.4886225497604
 20
350.1242024124236
 30
0.0
  0
VERTEX
  5
22F
  8
0
  6
CONTINUOUS
 62
     7
 10
-486.4738187724862
 20
350.112928828586
 30
0.0
  0
VERTEX
  5
230
  8
0
  6
CONTINUOUS
 62
     7
 10
-486.4597946793674
 20
350.1011357110733
 30
0.0
  0
VERTEX
  5
231
  8
0
  6
CONTINUOUS
 62
     7
 10
-486.4465566155709
 20
350.0888795498111
 30
0.0
  0
VERTEX
  5
232
  8
0
  6
CONTINUOUS
 62
     7
 10
-486.4296466269478
 20
350.071381456929
 30
0.0
  0
VERTEX
  5
233
  8
0
  6
CONTINUOUS
 62
     7
 10
-486.4141235703528
 20
350.0531510427655
 30
0.0
  0
VERTEX
  5
234
  8
0
  6
CONTINUOUS
 62
     7
 10
-486.3999708623247
 20
350.034295866816
 30
0.0
  0
VERTEX
  5
235
  8
0
  6
CONTINUOUS
 62
     7
 10
-486.3868771471134
 20
350.0144509079341
 30
0.0
  0
VERTEX
  5
236
  8
0
  6
CONTINUOUS
 62
     7
 10
-486.3751164367799
 20
349.9940727431848
 30
0.0
  0
VERTEX
  5
237
  8
0
  6
CONTINUOUS
 62
     7
 10
-486.3646621469588
 20
349.9732402975433
 30
0.0
  0
VERTEX
  5
238
  8
0
  6
CONTINUOUS
 62
     7
 10
-486.3554876932848
 20
349.9520324959853
 30
0.0
  0
VERTEX
  5
239
  8
0
  6
CONTINUOUS
 62
     7
 10
-486.3449152613579
 20
349.9224150598914
 30
0.0
  0
VERTEX
  5
23A
  8
0
  6
CONTINUOUS
 62
     7
 10
-486.3365835570507
 20
349.8922435512334
 30
0.0
  0
VERTEX
  5
23B
  8
0
  6
CONTINUOUS
 62
     7
 10
-486.3304356731647
 20
349.8616570171611
 30
0.0
  0
VERTEX
  5
23C
  8
0
  6
CONTINUOUS
 62
     7
 10
-486.3269787278038
 20
349.8363153501003
 30
0.0
  0
VERTEX
  5
23D
  8
0
  6
CONTINUOUS
 62
     7
 10
-486.3249200729579
 20
349.8107769067752
 30
0.0
  0
VERTEX
  5
23E
  8
0
  6
CONTINUOUS
 62
     7
 10
-486.3242385553946
 20
349.7851014943826
 30
0.0
  0
SEQEND
  5
3B4
  8
0
  6
CONTINUOUS
 62
     7
  0
LINE
  5
BF
  8
0
  6
CONTINUOUS
 62
     7
 10
-486.7316459628019
 20
350.2000014310133
 30
0.0
 11
-482.370534851691
 21
350.2000014310133
 31
0.0
  0
POLYLINE
  5
C0
  8
0
  6
CONTINUOUS
 62
     7
 66
     1
 10
0.0
 20
0.0
 30
0.0
  0
VERTEX
  5
23F
  8
0
  6
CONTINUOUS
 62
     7
 10
-482.8242385553947
 20
349.7386277280489
 30
0.0
  0
VERTEX
  5
240
  8
0
  6
CONTINUOUS
 62
     7
 10
-482.8234597195573
 20
349.7664236929997
 30
0.0
  0
VERTEX
  5
241
  8
0
  6
CONTINUOUS
 62
     7
 10
-482.8211127629201
 20
349.7941490820052
 30
0.0
  0
VERTEX
  5
242
  8
0
  6
CONTINUOUS
 62
     7
 10
-482.8171820117946
 20
349.8217333480507
 30
0.0
  0
VERTEX
  5
243
  8
0
  6
CONTINUOUS
 62
     7
 10
-482.8116517924927
 20
349.8491059441142
 30
0.0
  0
VERTEX
  5
244
  8
0
  6
CONTINUOUS
 62
     7
 10
-482.8042569609034
 20
349.8770353422505
 30
0.0
  0
VERTEX
  5
245
  8
0
  6
CONTINUOUS
 62
     7
 10
-482.7950913332183
 20
349.904674106692
 30
0.0
  0
VERTEX
  5
246
  8
0
  6
CONTINUOUS
 62
     7
 10
-482.7841216790854
 20
349.9319187900815
 30
0.0
  0
VERTEX
  5
247
  8
0
  6
CONTINUOUS
 62
     7
 10
-482.7713147681529
 20
349.9586659450615
 30
0.0
  0
VERTEX
  5
248
  8
0
  6
CONTINUOUS
 62
     7
 10
-482.7585469375449
 20
349.9816207725398
 30
0.0
  0
VERTEX
  5
249
  8
0
  6
CONTINUOUS
 62
     7
 10
-482.7442412659196
 20
350.0041452629148
 30
0.0
  0
VERTEX
  5
24A
  8
0
  6
CONTINUOUS
 62
     7
 10
-482.7283773953474
 20
350.0261171807164
 30
0.0
  0
VERTEX
  5
24B
  8
0
  6
CONTINUOUS
 62
     7
 10
-482.7109349678987
 20
350.0474142904746
 30
0.0
  0
VERTEX
  5
24C
  8
0
  6
CONTINUOUS
 62
     7
 10
-482.6918936256441
 20
350.0679143567195
 30
0.0
  0
VERTEX
  5
24D
  8
0
  6
CONTINUOUS
 62
     7
 10
-482.6712330106542
 20
350.0874951439809
 30
0.0
  0
VERTEX
  5
24E
  8
0
  6
CONTINUOUS
 62
     7
 10
-482.6547696136285
 20
350.1014164773582
 30
0.0
  0
VERTEX
  5
24F
  8
0
  6
CONTINUOUS
 62
     7
 10
-482.6373476414049
 20
350.1147342335211
 30
0.0
  0
VERTEX
  5
250
  8
0
  6
CONTINUOUS
 62
     7
 10
-482.618980635133
 20
350.1273683173265
 30
0.0
  0
VERTEX
  5
251
  8
0
  6
CONTINUOUS
 62
     7
 10
-482.6042126560786
 20
350.1365742126727
 30
0.0
  0
VERTEX
  5
252
  8
0
  6
CONTINUOUS
 62
     7
 10
-482.588867275733
 20
350.1453142110457
 30
0.0
  0
VERTEX
  5
253
  8
0
  6
CONTINUOUS
 62
     7
 10
-482.5729671929131
 20
350.1535441580536
 30
0.0
  0
VERTEX
  5
254
  8
0
  6
CONTINUOUS
 62
     7
 10
-482.5565351064358
 20
350.1612198993045
 30
0.0
  0
VERTEX
  5
255
  8
0
  6
CONTINUOUS
 62
     7
 10
-482.5387786865316
 20
350.1686197273627
 30
0.0
  0
VERTEX
  5
256
  8
0
  6
CONTINUOUS
 62
     7
 10
-482.5204515949027
 20
350.1753417572812
 30
0.0
  0
VERTEX
  5
257
  8
0
  6
CONTINUOUS
 62
     7
 10
-482.5016081255249
 20
350.1813335152056
 30
0.0
  0
VERTEX
  5
258
  8
0
  6
CONTINUOUS
 62
     7
 10
-482.4867529212726
 20
350.1854248732498
 30
0.0
  0
VERTEX
  5
259
  8
0
  6
CONTINUOUS
 62
     7
 10
-482.4716110146172
 20
350.1890452369668
 30
0.0
  0
VERTEX
  5
25A
  8
0
  6
CONTINUOUS
 62
     7
 10
-482.4562214423111
 20
350.1921750999719
 30
0.0
  0
VERTEX
  5
25B
  8
0
  6
CONTINUOUS
 62
     7
 10
-482.4406232411071
 20
350.1947949558808
 30
0.0
  0
VERTEX
  5
25C
  8
0
  6
CONTINUOUS
 62
     7
 10
-482.423357355237
 20
350.1970573646755
 30
0.0
  0
VERTEX
  5
25D
  8
0
  6
CONTINUOUS
 62
     7
 10
-482.4058764321757
 20
350.198686102297
 30
0.0
  0
VERTEX
  5
25E
  8
0
  6
CONTINUOUS
 62
     7
 10
-482.3882468162259
 20
350.1996708857402
 30
0.0
  0
VERTEX
  5
25F
  8
0
  6
CONTINUOUS
 62
     7
 10
-482.3705348516909
 20
350.2000014319998
 30
0.0
  0
SEQEND
  5
3B5
  8
0
  6
CONTINUOUS
 62
     7
  0
LINE
  5
C1
  8
0
  6
CONTINUOUS
 62
     7
 10
-498.274238555394
 20
351.4500014310132
 30
0.0
 11
-469.3742385553954
 21
351.4500014310132
 31
0.0
  0
LINE
  5
C2
  8
0
  6
CONTINUOUS
 62
     7
 10
-509.3242385553946
 20
261.000001431714
 30
0.0
 11
-506.8242385553947
 21
261.000001431714
 31
0.0
  0
LINE
  5
C3
  8
0
  6
CONTINUOUS
 62
     7
 10
-509.3242385553946
 20
262.5000014317141
 30
0.0
 11
-506.8242385553947
 21
262.5000014317141
 31
0.0
  0
LINE
  5
C4
  8
0
  6
CONTINUOUS
 62
     7
 10
-509.3242385553946
 20
202.250001431714
 30
0.0
 11
-506.8242385553947
 21
202.250001431714
 31
0.0
  0
LINE
  5
C5
  8
0
  6
CONTINUOUS
 62
     7
 10
-509.3242385553946
 20
321.250001431714
 30
0.0
 11
-506.8242385553947
 21
321.250001431714
 31
0.0
  0
LINE
  5
C6
  8
0
  6
CONTINUOUS
 62
     9
 10
-517.1270141931266
 20
233.7500014317139
 30
0.0
 11
-517.1270141931273
 21
235.7500014317139
 31
0.0
  0
LINE
  5
C7
  8
0
  6
CONTINUOUS
 62
     9
 10
-517.1270141931266
 20
260.7500014317139
 30
0.0
 11
-517.1270141931273
 21
262.7500014317139
 31
0.0
  0
LINE
  5
C8
  8
0
  6
CONTINUOUS
 62
     9
 10
-517.1270141931266
 20
287.7500014317139
 30
0.0
 11
-517.1270141931273
 21
289.7500014317139
 31
0.0
  0
LINE
  5
C9
  8
0
  6
CONTINUOUS
 62
     7
 10
-509.3242385553947
 20
214.785597458204
 30
0.0
 11
-519.8242385553946
 21
214.785597458204
 31
0.0
  0
LINE
  5
CA
  8
0
  6
CONTINUOUS
 62
     7
 10
-509.3242385553947
 20
308.714405405224
 30
0.0
 11
-519.8242385553946
 21
308.714405405224
 31
0.0
  0
LINE
  5
CB
  8
0
  6
CONTINUOUS
 62
     7
 10
-509.3242385553946
 20
321.550001431714
 30
0.0
 11
-506.8242385553947
 21
321.550001431714
 31
0.0
  0
LINE
  5
CC
  8
0
  6
CONTINUOUS
 62
     7
 10
-509.3242385553946
 20
201.950001431714
 30
0.0
 11
-506.8242385553947
 21
201.950001431714
 31
0.0
  0
ARC
  5
CD
  8
0
  6
CONTINUOUS
 62
     7
 10
-473.9242385553947
 20
311.250001431714
 30
0.0
 40
0.5000000000000004
 50
269.9999999999998
 51
0.0000000000015916
  0
LINE
  5
CE
  8
0
  6
CONTINUOUS
 62
     7
 10
-482.9242385553947
 20
310.7500014317141
 30
0.0
 11
-473.9242385553947
 21
310.7500014317141
 31
0.0
  0
ARC
  5
CF
  8
0
  6
CONTINUOUS
 62
     7
 10
-482.9242385553947
 20
311.2500014317141
 30
0.0
 40
0.5000000000000004
 50
180.0000000000016
 51
270.0
  0
LINE
  5
D0
  8
0
  6
CONTINUOUS
 62
     7
 10
-483.4242385553946
 20
311.7500014317141
 30
0.0
 11
-483.4242385553946
 21
311.250001431714
 31
0.0
  0
ARC
  5
D1
  8
0
  6
CONTINUOUS
 62
     7
 10
-482.9242385553947
 20
311.7500014317141
 30
0.0
 40
0.5000000000000004
 50
89.99999999999962
 51
179.9999999999984
  0
LINE
  5
D2
  8
0
  6
CONTINUOUS
 62
     7
 10
-473.9242385553947
 20
312.250001431714
 30
0.0
 11
-482.9242385553947
 21
312.250001431714
 31
0.0
  0
ARC
  5
D3
  8
0
  6
CONTINUOUS
 62
     7
 10
-473.9242385553947
 20
311.7500014317141
 30
0.0
 40
0.5000000000000004
 50
359.9999999999985
 51
90.00000000000021
  0
LINE
  5
D4
  8
0
  6
CONTINUOUS
 62
     7
 10
-473.4242385553946
 20
311.2500014317141
 30
0.0
 11
-473.4242385553946
 21
311.7500014317141
 31
0.0
  0
LINE
  5
D5
  8
0
  6
CONTINUOUS
 62
     7
 10
-473.9242385553947
 20
211.250001431714
 30
0.0
 11
-482.9242385553947
 21
211.250001431714
 31
0.0
  0
ARC
  5
D6
  8
0
  6
CONTINUOUS
 62
     7
 10
-482.9242385553947
 20
212.250001431714
 30
0.0
 40
0.5000000000000004
 50
90.0
 51
179.9999999999984
  0
LINE
  5
D7
  8
0
  6
CONTINUOUS
 62
     7
 10
-482.9242385553947
 20
212.750001431714
 30
0.0
 11
-473.9242385553947
 21
212.750001431714
 31
0.0
  0
ARC
  5
D8
  8
0
  6
CONTINUOUS
 62
     7
 10
-473.9242385553947
 20
212.250001431714
 30
0.0
 40
0.5000000000000004
 50
359.9999999999985
 51
90.00000000000021
  0
LINE
  5
D9
  8
0
  6
CONTINUOUS
 62
     7
 10
-473.4242385553946
 20
212.250001431714
 30
0.0
 11
-473.4242385553946
 21
211.750001431714
 31
0.0
  0
ARC
  5
DA
  8
0
  6
CONTINUOUS
 62
     7
 10
-473.9242385553947
 20
211.750001431714
 30
0.0
 40
0.5000000000000004
 50
269.9999999999998
 51
0.0000000000015916
  0
ARC
  5
DB
  8
0
  6
CONTINUOUS
 62
     7
 10
-482.9242385553947
 20
211.750001431714
 30
0.0
 40
0.5000000000000004
 50
180.0000000000016
 51
270.0000000000005
  0
LINE
  5
DC
  8
0
  6
CONTINUOUS
 62
     7
 10
-483.4242385553946
 20
211.750001431714
 30
0.0
 11
-483.4242385553946
 21
212.250001431714
 31
0.0
  0
LINE
  5
DD
  8
0
  6
CONTINUOUS
 62
     7
 10
-486.8242385553947
 20
261.5000014317141
 30
0.0
 11
-486.8242385553947
 21
262.0000014317141
 31
0.0
  0
LINE
  5
DE
  8
0
  6
CONTINUOUS
 62
     7
 10
-500.8242385553947
 20
262.000001431714
 30
0.0
 11
-500.8242385553947
 21
261.500001431714
 31
0.0
  0
ARC
  5
DF
  8
0
  6
CONTINUOUS
 62
     7
 10
-500.3242385553947
 20
262.000001431714
 30
0.0
 40
0.5000000000000004
 50
89.9999999999992
 51
180.0
  0
LINE
  5
E0
  8
0
  6
CONTINUOUS
 62
     7
 10
-487.3242385553946
 20
262.5000014317141
 30
0.0
 11
-500.3242385553946
 21
262.5000014317141
 31
0.0
  0
ARC
  5
E1
  8
0
  6
CONTINUOUS
 62
     7
 10
-500.3242385553946
 20
261.5000014317141
 30
0.0
 40
0.5000000000000004
 50
180.0
 51
269.9999999999984
  0
ARC
  5
E2
  8
0
  6
CONTINUOUS
 62
     7
 10
-487.3242385553946
 20
262.000001431714
 30
0.0
 40
0.5000000000000004
 50
359.9999999999998
 51
89.9999999999992
  0
ARC
  5
E3
  8
0
  6
CONTINUOUS
 62
     7
 10
-487.3242385553946
 20
261.5000014317141
 30
0.0
 40
0.5000000000000004
 50
269.9999999999996
 51
0.0
  0
LINE
  5
E4
  8
0
  6
CONTINUOUS
 62
     7
 10
-500.3242385553947
 20
261.000001431714
 30
0.0
 11
-487.3242385553947
 21
261.000001431714
 31
0.0
  0
LINE
  5
E5
  8
0
  6
CONTINUOUS
 62
     7
 10
-462.5881705778949
 20
213.9717379752273
 30
0.0
 11
-462.8242385553947
 21
213.9717379752273
 31
0.0
  0
ARC
  5
E6
  8
0
  6
CONTINUOUS
 62
     7
 10
-459.7058950153336
 20
205.0096143489663
 30
0.0
 40
9.489137280397252
 50
109.1851851214084
 51
122.6421072515794
  0
ARC
  5
E7
  8
0
  6
CONTINUOUS
 62
     7
 10
-459.680300407153
 20
318.5430665954733
 30
0.0
 40
9.547303121898542
 50
237.3990728610389
 51
250.7736347659734
  0
LINE
  5
E8
  8
0
  6
CONTINUOUS
 62
     7
 10
-462.8242385553947
 20
309.5282648882007
 30
0.0
 11
-462.5881705778949
 21
309.5282648882007
 31
0.0
  0
LINE
  5
E9
  8
0
  6
CONTINUOUS
 62
     7
 10
-506.8242385553947
 20
320.250001431714
 30
0.0
 11
-464.8242385553947
 21
320.250001431714
 31
0.0
  0
LINE
  5
EA
  8
0
  6
CONTINUOUS
 62
     7
 10
-465.9242385553947
 20
316.500001431714
 30
0.0
 11
-468.1242385553946
 21
316.500001431714
 31
0.0
  0
LINE
  5
EB
  8
0
  6
CONTINUOUS
 62
     7
 10
-468.1242385553946
 20
310.000001431714
 30
0.0
 11
-465.9242385553947
 21
310.000001431714
 31
0.0
  0
ARC
  5
EC
  8
0
  6
CONTINUOUS
 62
     7
 10
-467.0242385553946
 20
313.250001431714
 30
0.0
 40
2.250000000000019
 50
299.2675775975314
 51
60.73242240246918
  0
ARC
  5
ED
  8
0
  6
CONTINUOUS
 62
     7
 10
-467.0242385553946
 20
313.250001431714
 30
0.0
 40
2.249999999999981
 50
119.2675775975309
 51
240.7324224024692
  0
CIRCLE
  5
EE
  8
0
  6
CONTINUOUS
 62
     7
 10
-467.0242385553946
 20
210.250001431714
 30
0.0
 40
2.250000000000002
  0
CIRCLE
  5
EF
  8
0
  6
CONTINUOUS
 62
     7
 10
-483.4242385553946
 20
234.250001431714
 30
0.0
 40
13.54999999999999
  0
CIRCLE
  5
F0
  8
0
  6
CONTINUOUS
 62
     7
 10
-483.4242385553946
 20
289.250001431714
 30
0.0
 40
13.55000000000001
  0
ARC
  5
F1
  8
0
  6
CONTINUOUS
 62
     7
 10
-462.8242385553947
 20
310.500001431714
 30
0.0
 40
0.9999999999999977
 50
283.6545847459752
 51
0.0
  0
ARC
  5
F2
  8
0
  6
CONTINUOUS
 62
     7
 10
-462.8242385553947
 20
213.000001431714
 30
0.0
 40
0.9999999999999977
 50
0.0
 51
76.34541525402487
  0
LINE
  5
F3
  8
0
  6
CONTINUOUS
 62
     7
 10
-464.8242385553947
 20
203.250001431714
 30
0.0
 11
-506.8242385553947
 21
203.250001431714
 31
0.0
  0
LINE
  5
F4
  8
0
  6
CONTINUOUS
 62
     7
 10
-462.8242385553911
 20
206.500447087063
 30
0.0
 11
-462.793225588052
 21
206.5004824494748
 31
0.0
  0
ARC
  5
F5
  8
0
  6
CONTINUOUS
 62
     7
 10
-464.8242385553947
 20
206.250001431714
 30
0.0
 40
3.000000000000003
 50
269.9999999999999
 51
0.0
  0
ARC
  5
F6
  8
0
  6
CONTINUOUS
 62
     7
 10
-461.7898176865849
 20
211.3484435471338
 30
0.0
 40
4.957125801377451
 50
232.2560984495134
 51
257.9553717974034
  0
ARC
  5
F7
  8
0
  6
CONTINUOUS
 62
     7
 10
-461.9118756839952
 20
312.4145796976552
 30
0.0
 40
4.67487022830043
 50
101.2542604121132
 51
128.5342693410431
  0
ARC
  5
F8
  8
0
  6
CONTINUOUS
 62
     7
 10
-464.8242385553947
 20
317.250001431714
 30
0.0
 40
3.000000000000003
 50
0.0
 51
90.00000000000006
  0
LINE
  5
F9
  8
0
  6
CONTINUOUS
 62
     7
 10
-462.793225588063
 20
316.9995204139536
 30
0.0
 11
-462.8242385553947
 21
316.999555776365
 31
0.0
  0
ARC
  5
FA
  8
0
  6
CONTINUOUS
 62
     7
 10
-462.8242385553947
 20
207.500001431714
 30
0.0
 40
0.9999999999999941
 50
271.777197102507
 51
0.0
  0
ARC
  5
FB
  8
0
  6
CONTINUOUS
 62
     7
 10
-462.8242385553947
 20
316.000001431714
 30
0.0
 40
0.9999999999999991
 50
0.0
 51
88.22280289812471
  0
LINE
  5
FC
  8
0
  6
CONTINUOUS
 62
     9
 10
-485.1060491891685
 20
322.3964480411208
 30
0.0
 11
-482.5424279216209
 21
322.3964480411208
 31
0.0
  0
POLYLINE
  5
FD
  8
0
  6
CONTINUOUS
 62
     9
 66
     1
 10
0.0
 20
0.0
 30
0.0
  0
VERTEX
  5
260
  8
0
  6
CONTINUOUS
 62
     9
 10
-482.5424279216209
 20
322.3964480411208
 30
0.0
  0
VERTEX
  5
261
  8
0
  6
CONTINUOUS
 62
     9
 10
-482.4367167981773
 20
322.4145088471848
 30
0.0
  0
VERTEX
  5
262
  8
0
  6
CONTINUOUS
 62
     9
 10
-482.3455107392804
 20
322.4705905107804
 30
0.0
  0
VERTEX
  5
263
  8
0
  6
CONTINUOUS
 62
     9
 10
-482.2740591851051
 20
322.5477187448263
 30
0.0
  0
VERTEX
  5
264
  8
0
  6
CONTINUOUS
 62
     9
 10
-482.2110861323976
 20
322.6499098181031
 30
0.0
  0
SEQEND
  5
3B6
  8
0
  6
CONTINUOUS
 62
     9
  0
ARC
  5
FE
  8
0
  6
CONTINUOUS
 62
     9
 10
-483.5947367354998
 20
323.2826443933407
 30
0.0
 40
1.521460493790736
 50
335.4256847680145
 51
2.037926490877055
  0
ARC
  5
FF
  8
0
  6
CONTINUOUS
 62
     9
 10
-483.8585368626569
 20
323.3073141513876
 30
0.0
 40
1.715954170197359
 50
179.0171179155328
 51
198.6071472945592
  0
POLYLINE
  5
100
  8
0
  6
CONTINUOUS
 62
     9
 66
     1
 10
0.0
 20
0.0
 30
0.0
  0
VERTEX
  5
265
  8
0
  6
CONTINUOUS
 62
     9
 10
-485.4847957308069
 20
322.759791724467
 30
0.0
  0
VERTEX
  5
266
  8
0
  6
CONTINUOUS
 62
     9
 10
-485.4300580064341
 20
322.6358585355024
 30
0.0
  0
VERTEX
  5
267
  8
0
  6
CONTINUOUS
 62
     9
 10
-485.3664400982182
 20
322.5373394690345
 30
0.0
  0
VERTEX
  5
268
  8
0
  6
CONTINUOUS
 62
     9
 10
-485.2896600027414
 20
322.4597401550153
 30
0.0
  0
VERTEX
  5
269
  8
0
  6
CONTINUOUS
 62
     9
 10
-485.196704099917
 20
322.4090548421691
 30
0.0
  0
VERTEX
  5
26A
  8
0
  6
CONTINUOUS
 62
     9
 10
-485.1060491891685
 20
322.3964480411208
 30
0.0
  0
SEQEND
  5
3B7
  8
0
  6
CONTINUOUS
 62
     9
  0
LINE
  5
101
  8
0
  6
CONTINUOUS
 62
     7
 10
-509.3242385553946
 20
212.750001431714
 30
0.0
 11
-510.805442854439
 21
212.6204128471818
 31
0.0
  0
LINE
  5
102
  8
0
  6
CONTINUOUS
 62
     7
 10
-510.805442854439
 20
205.8795900162462
 30
0.0
 11
-509.3242385553946
 21
205.750001431714
 31
0.0
  0
ARC
  5
103
  8
0
  6
CONTINUOUS
 62
     7
 10
-510.692140388867
 20
211.3253597396625
 30
0.0
 40
1.299999999999993
 50
95.0000000000001
 51
156.4776124730936
  0
ARC
  5
104
  8
0
  6
CONTINUOUS
 62
     7
 10
-510.692140388867
 20
207.1746431237655
 30
0.0
 40
1.299999999999997
 50
203.5223875269064
 51
264.9999999999999
  0
ARC
  5
105
  8
0
  6
CONTINUOUS
 62
     7
 10
-505.9242385553946
 20
209.250001431714
 30
0.0
 40
6.49999999999999
 50
199.7831703726617
 51
203.5223875269062
  0
ARC
  5
106
  8
0
  6
CONTINUOUS
 62
     7
 10
-505.9242385553946
 20
209.250001431714
 30
0.0
 40
6.500000000000004
 50
156.4776124730938
 51
160.2168296273383
  0
LINE
  5
107
  8
0
  6
CONTINUOUS
 62
     7
 10
-509.3242385553946
 20
317.750001431714
 30
0.0
 11
-510.805442854439
 21
317.6204128471818
 31
0.0
  0
LINE
  5
108
  8
0
  6
CONTINUOUS
 62
     7
 10
-510.805442854439
 20
310.8795900162463
 30
0.0
 11
-509.3242385553946
 21
310.750001431714
 31
0.0
  0
ARC
  5
109
  8
0
  6
CONTINUOUS
 62
     7
 10
-510.692140388867
 20
316.3253597396625
 30
0.0
 40
1.299999999999993
 50
95.0000000000001
 51
156.4776124730936
  0
ARC
  5
10A
  8
0
  6
CONTINUOUS
 62
     7
 10
-510.692140388867
 20
312.1746431237655
 30
0.0
 40
1.299999999999997
 50
203.5223875269064
 51
264.9999999999999
  0
ARC
  5
10B
  8
0
  6
CONTINUOUS
 62
     7
 10
-505.9242385553946
 20
314.250001431714
 30
0.0
 40
6.50000000000001
 50
156.4776124730938
 51
160.2168296273383
  0
ARC
  5
10C
  8
0
  6
CONTINUOUS
 62
     7
 10
-505.9242385553946
 20
314.250001431714
 30
0.0
 40
6.499999999999985
 50
199.7831703726617
 51
203.5223875269062
  0
ARC
  5
10D
  8
0
  6
CONTINUOUS
 62
     7
 10
-469.374238555395
 20
333.7000014310136
 30
0.0
 40
1.250000000000001
 50
270.0000000000168
 51
359.9999999999993
  0
ARC
  5
10E
  8
0
  6
CONTINUOUS
 62
     7
 10
-498.2742385553943
 20
350.2000014310133
 30
0.0
 40
1.250000000000001
 50
90.00000000001684
 51
180.0
  0
ARC
  5
10F
  8
0
  6
CONTINUOUS
 62
     7
 10
-469.374238555395
 20
350.2000014310133
 30
0.0
 40
1.249999999999973
 50
0.0
 51
89.99999999998323
  0
LINE
  5
110
  8
0
  6
CONTINUOUS
 62
     7
 10
-468.1242385553946
 20
333.7000014310136
 30
0.0
 11
-468.1242385553946
 21
350.2000014310133
 31
0.0
  0
ARC
  5
111
  8
0
  6
CONTINUOUS
 62
     7
 10
-498.2742385553943
 20
333.7000014310136
 30
0.0
 40
1.250000000000001
 50
180.0000000000006
 51
269.9999999999831
  0
LINE
  5
112
  8
0
  6
CONTINUOUS
 62
     7
 10
-499.5242385553947
 20
350.2000014310133
 30
0.0
 11
-499.5242385553947
 21
333.7000014310136
 31
0.0
  0
LINE
  5
113
  8
0
  6
CONTINUOUS
 62
     7
 10
-519.8242385553949
 20
214.500001431714
 30
0.0
 11
-509.3242385553951
 21
214.500001431714
 31
0.0
  0
LINE
  5
114
  8
0
  6
CONTINUOUS
 62
     7
 10
-509.3242385553951
 20
309.000001431714
 30
0.0
 11
-519.824238555395
 21
309.000001431714
 31
0.0
  0
LINE
  5
115
  8
0
  6
CONTINUOUS
 62
     7
 10
-497.9242385553947
 20
332.4500014312131
 30
0.0
 11
-497.9242385553947
 21
320.250001431714
 31
0.0
  0
LINE
  5
116
  8
0
  6
CONTINUOUS
 62
     7
 10
-469.7242385553947
 20
320.250001431714
 30
0.0
 11
-469.7242385553947
 21
332.4500014312131
 31
0.0
  0
ENDBLK
  8
0
  0
BLOCK
  8
0
  2
D_FRAME_VIEW_6502
 70
     0
 10
0.0
 20
0.0
 30
0.0
  0
CIRCLE
  5
11C
  8
0
  6
CONTINUOUS
 62
     9
 10
-588.2696645933881
 20
303.500001431714
 30
0.0
 40
2.000000000000002
  0
CIRCLE
  5
11D
  8
0
  6
CONTINUOUS
 62
    15
 10
-588.2696645933881
 20
261.750001431714
 30
0.0
 40
4.762500000000003
  0
CIRCLE
  5
11E
  8
0
  6
CONTINUOUS
 62
     7
 10
-588.2696645933881
 20
220.000001431714
 30
0.0
 40
1.649999999999999
  0
CIRCLE
  5
11F
  8
0
  6
CONTINUOUS
 62
     7
 10
-588.2696645933881
 20
303.500001431714
 30
0.0
 40
1.649999999999999
  0
ARC
  5
120
  8
0
  6
CONTINUOUS
 62
     7
 10
-610.5196645933881
 20
209.250001431714
 30
0.0
 40
2.199999999999993
 50
256.8634412130551
 51
283.1365587869449
  0
LINE
  5
121
  8
0
  6
CONTINUOUS
 62
     7
 10
-610.019664593388
 20
208.250001431714
 30
0.0
 11
-610.019664593388
 21
207.1075729031512
 31
0.0
  0
POLYLINE
  5
122
  8
0
  6
CONTINUOUS
 62
     7
 66
     1
 10
0.0
 20
0.0
 30
0.0
  0
VERTEX
  5
26D
  8
0
  6
CONTINUOUS
 62
     7
 10
-611.019664593388
 20
208.250001431714
 30
0.0
  0
VERTEX
  5
26E
  8
0
  6
CONTINUOUS
 62
     7
 10
-611.0200839679243
 20
208.2704365686734
 30
0.0
  0
VERTEX
  5
26F
  8
0
  6
CONTINUOUS
 62
     7
 10
-611.0213408814169
 20
208.2908747521412
 30
0.0
  0
VERTEX
  5
270
  8
0
  6
CONTINUOUS
 62
     7
 10
-611.0234335186921
 20
208.311264142274
 30
0.0
  0
VERTEX
  5
271
  8
0
  6
CONTINUOUS
 62
     7
 10
-611.0263600645757
 20
208.3315528992286
 30
0.0
  0
VERTEX
  5
272
  8
0
  6
CONTINUOUS
 62
     7
 10
-611.0302430586534
 20
208.3522984720587
 30
0.0
  0
VERTEX
  5
273
  8
0
  6
CONTINUOUS
 62
     7
 10
-611.0350072809938
 20
208.372899577198
 30
0.0
  0
VERTEX
  5
274
  8
0
  6
CONTINUOUS
 62
     7
 10
-611.0406408117677
 20
208.393299522746
 30
0.0
  0
VERTEX
  5
275
  8
0
  6
CONTINUOUS
 62
     7
 10
-611.0471317311464
 20
208.4134416168019
 30
0.0
  0
VERTEX
  5
276
  8
0
  6
CONTINUOUS
 62
     7
 10
-611.054264291371
 20
208.4327603391574
 30
0.0
  0
VERTEX
  5
277
  8
0
  6
CONTINUOUS
 62
     7
 10
-611.0621993279907
 20
208.4517994422092
 30
0.0
  0
VERTEX
  5
278
  8
0
  6
CONTINUOUS
 62
     7
 10
-611.0709164408078
 20
208.4705084769865
 30
0.0
  0
VERTEX
  5
279
  8
0
  6
CONTINUOUS
 62
     7
 10
-611.0803952296255
 20
208.4888369945183
 30
0.0
  0
VERTEX
  5
27A
  8
0
  6
CONTINUOUS
 62
     7
 10
-611.0909475982244
 20
208.5072945142324
 30
0.0
  0
VERTEX
  5
27B
  8
0
  6
CONTINUOUS
 62
     7
 10
-611.1022914673856
 20
208.5253123541398
 30
0.0
  0
VERTEX
  5
27C
  8
0
  6
CONTINUOUS
 62
     7
 10
-611.1143945404208
 20
208.5428395744457
 30
0.0
  0
VERTEX
  5
27D
  8
0
  6
CONTINUOUS
 62
     7
 10
-611.1272245206417
 20
208.5598252353554
 30
0.0
  0
VERTEX
  5
27E
  8
0
  6
CONTINUOUS
 62
     7
 10
-611.1401986091965
 20
208.5755837599508
 30
0.0
  0
VERTEX
  5
27F
  8
0
  6
CONTINUOUS
 62
     7
 10
-611.1538190684377
 20
208.5908151682277
 30
0.0
  0
VERTEX
  5
280
  8
0
  6
CONTINUOUS
 62
     7
 10
-611.168049564312
 20
208.6054802034473
 30
0.0
  0
VERTEX
  5
281
  8
0
  6
CONTINUOUS
 62
     7
 10
-611.1828537627666
 20
208.6195396088705
 30
0.0
  0
VERTEX
  5
282
  8
0
  6
CONTINUOUS
 62
     7
 10
-611.198680474106
 20
208.6333645483612
 30
0.0
  0
VERTEX
  5
283
  8
0
  6
CONTINUOUS
 62
     7
 10
-611.2150863283493
 20
208.6465221399133
 30
0.0
  0
VERTEX
  5
284
  8
0
  6
CONTINUOUS
 62
     7
 10
-611.232024757911
 20
208.6589774801739
 30
0.0
  0
VERTEX
  5
285
  8
0
  6
CONTINUOUS
 62
     7
 10
-611.2494491952059
 20
208.6706956657906
 30
0.0
  0
VERTEX
  5
286
  8
0
  6
CONTINUOUS
 62
     7
 10
-611.266730217728
 20
208.6813047644405
 30
0.0
  0
VERTEX
  5
287
  8
0
  6
CONTINUOUS
 62
     7
 10
-611.2844337985915
 20
208.6912083681198
 30
0.0
  0
VERTEX
  5
288
  8
0
  6
CONTINUOUS
 62
     7
 10
-611.3025135344985
 20
208.7003832466836
 30
0.0
  0
VERTEX
  5
289
  8
0
  6
CONTINUOUS
 62
     7
 10
-611.3209230221505
 20
208.7088061699873
 30
0.0
  0
VERTEX
  5
28A
  8
0
  6
CONTINUOUS
 62
     7
 10
-611.340185691874
 20
208.716676425404
 30
0.0
  0
VERTEX
  5
28B
  8
0
  6
CONTINUOUS
 62
     7
 10
-611.359761927491
 20
208.7237397346663
 30
0.0
  0
VERTEX
  5
28C
  8
0
  6
CONTINUOUS
 62
     7
 10
-611.3795985885805
 20
208.7299803245156
 30
0.0
  0
VERTEX
  5
28D
  8
0
  6
CONTINUOUS
 62
     7
 10
-611.399642534721
 20
208.7353824216933
 30
0.0
  0
VERTEX
  5
28E
  8
0
  6
CONTINUOUS
 62
     7
 10
-611.4233317312313
 20
208.740627938549
 30
0.0
  0
VERTEX
  5
28F
  8
0
  6
CONTINUOUS
 62
     7
 10
-611.4472644481549
 20
208.7447190955108
 30
0.0
  0
VERTEX
  5
290
  8
0
  6
CONTINUOUS
 62
     7
 10
-611.47135477269
 20
208.7476493950469
 30
0.0
  0
VERTEX
  5
291
  8
0
  6
CONTINUOUS
 62
     7
 10
-611.4955167920349
 20
208.7494123396252
 30
0.0
  0
VERTEX
  5
292
  8
0
  6
CONTINUOUS
 62
     7
 10
-611.5196645933881
 20
208.750001431714
 30
0.0
  0
SEQEND
  5
3B8
  8
0
  6
CONTINUOUS
 62
     7
  0
LINE
  5
123
  8
0
  6
CONTINUOUS
 62
     7
 10
-611.019664593388
 20
207.1075729031512
 30
0.0
 11
-611.019664593388
 21
208.250001431714
 31
0.0
  0
POLYLINE
  5
124
  8
0
  6
CONTINUOUS
 62
     7
 66
     1
 10
0.0
 20
0.0
 30
0.0
  0
VERTEX
  5
293
  8
0
  6
CONTINUOUS
 62
     7
 10
-609.5196645933881
 20
208.750001431714
 30
0.0
  0
VERTEX
  5
294
  8
0
  6
CONTINUOUS
 62
     7
 10
-609.5400997303475
 20
208.7495820571778
 30
0.0
  0
VERTEX
  5
295
  8
0
  6
CONTINUOUS
 62
     7
 10
-609.5605379138153
 20
208.7483251436852
 30
0.0
  0
VERTEX
  5
296
  8
0
  6
CONTINUOUS
 62
     7
 10
-609.5809273039482
 20
208.7462325064101
 30
0.0
  0
VERTEX
  5
297
  8
0
  6
CONTINUOUS
 62
     7
 10
-609.6012160609026
 20
208.7433059605265
 30
0.0
  0
VERTEX
  5
298
  8
0
  6
CONTINUOUS
 62
     7
 10
-609.6219616337327
 20
208.7394229664487
 30
0.0
  0
VERTEX
  5
299
  8
0
  6
CONTINUOUS
 62
     7
 10
-609.6425627388721
 20
208.7346587441083
 30
0.0
  0
VERTEX
  5
29A
  8
0
  6
CONTINUOUS
 62
     7
 10
-609.6629626844201
 20
208.7290252133343
 30
0.0
  0
VERTEX
  5
29B
  8
0
  6
CONTINUOUS
 62
     7
 10
-609.6831047784759
 20
208.7225342939558
 30
0.0
  0
VERTEX
  5
29C
  8
0
  6
CONTINUOUS
 62
     7
 10
-609.7024235008315
 20
208.715401733731
 30
0.0
  0
VERTEX
  5
29D
  8
0
  6
CONTINUOUS
 62
     7
 10
-609.7214626038833
 20
208.7074666971114
 30
0.0
  0
VERTEX
  5
29E
  8
0
  6
CONTINUOUS
 62
     7
 10
-609.7401716386605
 20
208.6987495842942
 30
0.0
  0
VERTEX
  5
29F
  8
0
  6
CONTINUOUS
 62
     7
 10
-609.7585001561923
 20
208.6892707954765
 30
0.0
  0
VERTEX
  5
2A0
  8
0
  6
CONTINUOUS
 62
     7
 10
-609.7769576759066
 20
208.6787184268777
 30
0.0
  0
VERTEX
  5
2A1
  8
0
  6
CONTINUOUS
 62
     7
 10
-609.7949755158138
 20
208.6673745577165
 30
0.0
  0
VERTEX
  5
2A2
  8
0
  6
CONTINUOUS
 62
     7
 10
-609.8125027361199
 20
208.6552714846813
 30
0.0
  0
VERTEX
  5
2A3
  8
0
  6
CONTINUOUS
 62
     7
 10
-609.8294883970294
 20
208.6424415044604
 30
0.0
  0
VERTEX
  5
2A4
  8
0
  6
CONTINUOUS
 62
     7
 10
-609.8452469216248
 20
208.6294674159055
 30
0.0
  0
VERTEX
  5
2A5
  8
0
  6
CONTINUOUS
 62
     7
 10
-609.8604783299019
 20
208.6158469566644
 30
0.0
  0
VERTEX
  5
2A6
  8
0
  6
CONTINUOUS
 62
     7
 10
-609.8751433651214
 20
208.6016164607901
 30
0.0
  0
VERTEX
  5
2A7
  8
0
  6
CONTINUOUS
 62
     7
 10
-609.8892027705446
 20
208.5868122623355
 30
0.0
  0
VERTEX
  5
2A8
  8
0
  6
CONTINUOUS
 62
     7
 10
-609.9030277100353
 20
208.5709855509961
 30
0.0
  0
VERTEX
  5
2A9
  8
0
  6
CONTINUOUS
 62
     7
 10
-609.9161853015875
 20
208.5545796967528
 30
0.0
  0
VERTEX
  5
2AA
  8
0
  6
CONTINUOUS
 62
     7
 10
-609.928640641848
 20
208.5376412671911
 30
0.0
  0
VERTEX
  5
2AB
  8
0
  6
CONTINUOUS
 62
     7
 10
-609.9403588274647
 20
208.5202168298962
 30
0.0
  0
VERTEX
  5
2AC
  8
0
  6
CONTINUOUS
 62
     7
 10
-609.9509679261146
 20
208.5029358073742
 30
0.0
  0
VERTEX
  5
2AD
  8
0
  6
CONTINUOUS
 62
     7
 10
-609.9608715297938
 20
208.4852322265106
 30
0.0
  0
VERTEX
  5
2AE
  8
0
  6
CONTINUOUS
 62
     7
 10
-609.9700464083577
 20
208.4671524906036
 30
0.0
  0
VERTEX
  5
2AF
  8
0
  6
CONTINUOUS
 62
     7
 10
-609.9784693316615
 20
208.4487430029515
 30
0.0
  0
VERTEX
  5
2B0
  8
0
  6
CONTINUOUS
 62
     7
 10
-609.9863395870782
 20
208.4294803332281
 30
0.0
  0
VERTEX
  5
2B1
  8
0
  6
CONTINUOUS
 62
     7
 10
-609.9934028963404
 20
208.409904097611
 30
0.0
  0
VERTEX
  5
2B2
  8
0
  6
CONTINUOUS
 62
     7
 10
-609.9996434861897
 20
208.3900674365216
 30
0.0
  0
VERTEX
  5
2B3
  8
0
  6
CONTINUOUS
 62
     7
 10
-610.0050455833674
 20
208.3700234903811
 30
0.0
  0
VERTEX
  5
2B4
  8
0
  6
CONTINUOUS
 62
     7
 10
-610.0102911002231
 20
208.3463342938707
 30
0.0
  0
VERTEX
  5
2B5
  8
0
  6
CONTINUOUS
 62
     7
 10
-610.0143822571849
 20
208.3224015769472
 30
0.0
  0
VERTEX
  5
2B6
  8
0
  6
CONTINUOUS
 62
     7
 10
-610.017312556721
 20
208.298311252412
 30
0.0
  0
VERTEX
  5
2B7
  8
0
  6
CONTINUOUS
 62
     7
 10
-610.0190755012993
 20
208.2741492330671
 30
0.0
  0
VERTEX
  5
2B8
  8
0
  6
CONTINUOUS
 62
     7
 10
-610.019664593388
 20
208.250001431714
 30
0.0
  0
SEQEND
  5
3B9
  8
0
  6
CONTINUOUS
 62
     7
  0
ARC
  5
125
  8
0
  6
CONTINUOUS
 62
     7
 10
-610.5196645933881
 20
209.250001431714
 30
0.0
 40
2.199999999999993
 50
76.86344121305513
 51
103.1365587869449
  0
LINE
  5
126
  8
0
  6
CONTINUOUS
 62
     7
 10
-611.019664593388
 20
210.250001431714
 30
0.0
 11
-611.019664593388
 21
211.3924299602768
 31
0.0
  0
POLYLINE
  5
127
  8
0
  6
CONTINUOUS
 62
     7
 66
     1
 10
0.0
 20
0.0
 30
0.0
  0
VERTEX
  5
2B9
  8
0
  6
CONTINUOUS
 62
     7
 10
-611.5196645933881
 20
209.750001431714
 30
0.0
  0
VERTEX
  5
2BA
  8
0
  6
CONTINUOUS
 62
     7
 10
-611.4992899891909
 20
209.750416902667
 30
0.0
  0
VERTEX
  5
2BB
  8
0
  6
CONTINUOUS
 62
     7
 10
-611.478929362445
 20
209.7516635534025
 30
0.0
  0
VERTEX
  5
2BC
  8
0
  6
CONTINUOUS
 62
     7
 10
-611.4584792806761
 20
209.7537593791264
 30
0.0
  0
VERTEX
  5
2BD
  8
0
  6
CONTINUOUS
 62
     7
 10
-611.4381131258734
 20
209.7566969029016
 30
0.0
  0
VERTEX
  5
2BE
  8
0
  6
CONTINUOUS
 62
     7
 10
-611.417433536515
 20
209.7605644004449
 30
0.0
  0
VERTEX
  5
2BF
  8
0
  6
CONTINUOUS
 62
     7
 10
-611.3969159437925
 20
209.7653027943913
 30
0.0
  0
VERTEX
  5
2C0
  8
0
  6
CONTINUOUS
 62
     7
 10
-611.3764496889655
 20
209.7709510406152
 30
0.0
  0
VERTEX
  5
2C1
  8
0
  6
CONTINUOUS
 62
     7
 10
-611.3562244083001
 20
209.7774685694722
 30
0.0
  0
VERTEX
  5
2C2
  8
0
  6
CONTINUOUS
 62
     7
 10
-611.3369643742054
 20
209.7845764209878
 30
0.0
  0
VERTEX
  5
2C3
  8
0
  6
CONTINUOUS
 62
     7
 10
-611.3179986067748
 20
209.7924745692859
 30
0.0
  0
VERTEX
  5
2C4
  8
0
  6
CONTINUOUS
 62
     7
 10
-611.2992304692749
 20
209.8012157377408
 30
0.0
  0
VERTEX
  5
2C5
  8
0
  6
CONTINUOUS
 62
     7
 10
-611.2808290305837
 20
209.8107320679514
 30
0.0
  0
VERTEX
  5
2C6
  8
0
  6
CONTINUOUS
 62
     7
 10
-611.2624311215102
 20
209.8212465809311
 30
0.0
  0
VERTEX
  5
2C7
  8
0
  6
CONTINUOUS
 62
     7
 10
-611.2444865191685
 20
209.8325364302243
 30
0.0
  0
VERTEX
  5
2C8
  8
0
  6
CONTINUOUS
 62
     7
 10
-611.2268990870441
 20
209.8446767093903
 30
0.0
  0
VERTEX
  5
2C9
  8
0
  6
CONTINUOUS
 62
     7
 10
-611.2098407897467
 20
209.8575613589676
 30
0.0
  0
VERTEX
  5
2CA
  8
0
  6
CONTINUOUS
 62
     7
 10
-611.1941287843019
 20
209.8704935278206
 30
0.0
  0
VERTEX
  5
2CB
  8
0
  6
CONTINUOUS
 62
     7
 10
-611.1789535395066
 20
209.8840561109857
 30
0.0
  0
VERTEX
  5
2CC
  8
0
  6
CONTINUOUS
 62
     7
 10
-611.1642413906375
 20
209.8983280699088
 30
0.0
  0
VERTEX
  5
2CD
  8
0
  6
CONTINUOUS
 62
     7
 10
-611.1501264162316
 20
209.9131906010925
 30
0.0
  0
VERTEX
  5
2CE
  8
0
  6
CONTINUOUS
 62
     7
 10
-611.1363439098501
 20
209.9289639839463
 30
0.0
  0
VERTEX
  5
2CF
  8
0
  6
CONTINUOUS
 62
     7
 10
-611.1232360796574
 20
209.9452975861502
 30
0.0
  0
VERTEX
  5
2D0
  8
0
  6
CONTINUOUS
 62
     7
 10
-611.1107375611339
 20
209.9622889596568
 30
0.0
  0
VERTEX
  5
2D1
  8
0
  6
CONTINUOUS
 62
     7
 10
-611.0989703593116
 20
209.9797860335318
 30
0.0
  0
VERTEX
  5
2D2
  8
0
  6
CONTINUOUS
 62
     7
 10
-611.0883907329343
 20
209.997013929155
 30
0.0
  0
VERTEX
  5
2D3
  8
0
  6
CONTINUOUS
 62
     7
 10
-611.0785204096354
 20
210.0146467862506
 30
0.0
  0
VERTEX
  5
2D4
  8
0
  6
CONTINUOUS
 62
     7
 10
-611.0692262564253
 20
210.0329677978849
 30
0.0
  0
VERTEX
  5
2D5
  8
0
  6
CONTINUOUS
 62
     7
 10
-611.060690112922
 20
210.0516598334928
 30
0.0
  0
VERTEX
  5
2D6
  8
0
  6
CONTINUOUS
 62
     7
 10
-611.0529316985463
 20
210.0706729721452
 30
0.0
  0
VERTEX
  5
2D7
  8
0
  6
CONTINUOUS
 62
     7
 10
-611.0459707327193
 20
210.0899572929127
 30
0.0
  0
VERTEX
  5
2D8
  8
0
  6
CONTINUOUS
 62
     7
 10
-611.0397075422111
 20
210.1098549706941
 30
0.0
  0
VERTEX
  5
2D9
  8
0
  6
CONTINUOUS
 62
     7
 10
-611.0342836034088
 20
210.1299793730469
 30
0.0
  0
VERTEX
  5
2DA
  8
0
  6
CONTINUOUS
 62
     7
 10
-611.0298540840719
 20
210.1495773576453
 30
0.0
  0
VERTEX
  5
2DB
  8
0
  6
CONTINUOUS
 62
     7
 10
-611.026216404285
 20
210.1693279305838
 30
0.0
  0
VERTEX
  5
2DC
  8
0
  6
CONTINUOUS
 62
     7
 10
-611.0233773574015
 20
210.1891821962961
 30
0.0
  0
VERTEX
  5
2DD
  8
0
  6
CONTINUOUS
 62
     7
 10
-611.0213151687283
 20
210.2094161796157
 30
0.0
  0
VERTEX
  5
2DE
  8
0
  6
CONTINUOUS
 62
     7
 10
-611.0200773517233
 20
210.2297061353279
 30
0.0
  0
VERTEX
  5
2DF
  8
0
  6
CONTINUOUS
 62
     7
 10
-611.019664593388
 20
210.250001431714
 30
0.0
  0
SEQEND
  5
3BA
  8
0
  6
CONTINUOUS
 62
     7
  0
POLYLINE
  5
128
  8
0
  6
CONTINUOUS
 62
     7
 66
     1
 10
0.0
 20
0.0
 30
0.0
  0
VERTEX
  5
2E0
  8
0
  6
CONTINUOUS
 62
     7
 10
-610.019664593388
 20
210.250001431714
 30
0.0
  0
VERTEX
  5
2E1
  8
0
  6
CONTINUOUS
 62
     7
 10
-610.0192491224351
 20
210.2296268275168
 30
0.0
  0
VERTEX
  5
2E2
  8
0
  6
CONTINUOUS
 62
     7
 10
-610.0180024716996
 20
210.2092662007709
 30
0.0
  0
VERTEX
  5
2E3
  8
0
  6
CONTINUOUS
 62
     7
 10
-610.0159066459756
 20
210.188816119002
 30
0.0
  0
VERTEX
  5
2E4
  8
0
  6
CONTINUOUS
 62
     7
 10
-610.0129691222006
 20
210.1684499641994
 30
0.0
  0
VERTEX
  5
2E5
  8
0
  6
CONTINUOUS
 62
     7
 10
-610.0091016246572
 20
210.1477703748409
 30
0.0
  0
VERTEX
  5
2E6
  8
0
  6
CONTINUOUS
 62
     7
 10
-610.0043632307109
 20
210.1272527821184
 30
0.0
  0
VERTEX
  5
2E7
  8
0
  6
CONTINUOUS
 62
     7
 10
-609.9987149844868
 20
210.1067865272915
 30
0.0
  0
VERTEX
  5
2E8
  8
0
  6
CONTINUOUS
 62
     7
 10
-609.9921974556299
 20
210.0865612466261
 30
0.0
  0
VERTEX
  5
2E9
  8
0
  6
CONTINUOUS
 62
     7
 10
-609.9850896041144
 20
210.0673012125314
 30
0.0
  0
VERTEX
  5
2EA
  8
0
  6
CONTINUOUS
 62
     7
 10
-609.9771914558162
 20
210.0483354451007
 30
0.0
  0
VERTEX
  5
2EB
  8
0
  6
CONTINUOUS
 62
     7
 10
-609.9684502873612
 20
210.0295673076008
 30
0.0
  0
VERTEX
  5
2EC
  8
0
  6
CONTINUOUS
 62
     7
 10
-609.9589339571506
 20
210.0111658689097
 30
0.0
  0
VERTEX
  5
2ED
  8
0
  6
CONTINUOUS
 62
     7
 10
-609.948419444171
 20
209.9927679598361
 30
0.0
  0
VERTEX
  5
2EE
  8
0
  6
CONTINUOUS
 62
     7
 10
-609.9371295948779
 20
209.9748233574944
 30
0.0
  0
VERTEX
  5
2EF
  8
0
  6
CONTINUOUS
 62
     7
 10
-609.9249893157119
 20
209.95723592537
 30
0.0
  0
VERTEX
  5
2F0
  8
0
  6
CONTINUOUS
 62
     7
 10
-609.9121046661344
 20
209.9401776280726
 30
0.0
  0
VERTEX
  5
2F1
  8
0
  6
CONTINUOUS
 62
     7
 10
-609.8991724972814
 20
209.9244656226278
 30
0.0
  0
VERTEX
  5
2F2
  8
0
  6
CONTINUOUS
 62
     7
 10
-609.8856099141163
 20
209.9092903778324
 30
0.0
  0
VERTEX
  5
2F3
  8
0
  6
CONTINUOUS
 62
     7
 10
-609.8713379551933
 20
209.8945782289635
 30
0.0
  0
VERTEX
  5
2F4
  8
0
  6
CONTINUOUS
 62
     7
 10
-609.8564754240097
 20
209.8804632545575
 30
0.0
  0
VERTEX
  5
2F5
  8
0
  6
CONTINUOUS
 62
     7
 10
-609.8407020411559
 20
209.866680748176
 30
0.0
  0
VERTEX
  5
2F6
  8
0
  6
CONTINUOUS
 62
     7
 10
-609.8243684389519
 20
209.8535729179834
 30
0.0
  0
VERTEX
  5
2F7
  8
0
  6
CONTINUOUS
 62
     7
 10
-609.8073770654453
 20
209.8410743994597
 30
0.0
  0
VERTEX
  5
2F8
  8
0
  6
CONTINUOUS
 62
     7
 10
-609.7898799915703
 20
209.8293071976375
 30
0.0
  0
VERTEX
  5
2F9
  8
0
  6
CONTINUOUS
 62
     7
 10
-609.7726520959471
 20
209.8187275712602
 30
0.0
  0
VERTEX
  5
2FA
  8
0
  6
CONTINUOUS
 62
     7
 10
-609.7550192388514
 20
209.8088572479613
 30
0.0
  0
VERTEX
  5
2FB
  8
0
  6
CONTINUOUS
 62
     7
 10
-609.7366982272172
 20
209.7995630947512
 30
0.0
  0
VERTEX
  5
2FC
  8
0
  6
CONTINUOUS
 62
     7
 10
-609.7180061916093
 20
209.7910269512479
 30
0.0
  0
VERTEX
  5
2FD
  8
0
  6
CONTINUOUS
 62
     7
 10
-609.6989930529569
 20
209.7832685368723
 30
0.0
  0
VERTEX
  5
2FE
  8
0
  6
CONTINUOUS
 62
     7
 10
-609.6797087321893
 20
209.7763075710452
 30
0.0
  0
VERTEX
  5
2FF
  8
0
  6
CONTINUOUS
 62
     7
 10
-609.659811054408
 20
209.7700443805371
 30
0.0
  0
VERTEX
  5
300
  8
0
  6
CONTINUOUS
 62
     7
 10
-609.6396866520553
 20
209.7646204417347
 30
0.0
  0
VERTEX
  5
301
  8
0
  6
CONTINUOUS
 62
     7
 10
-609.6200886674569
 20
209.7601909223978
 30
0.0
  0
VERTEX
  5
302
  8
0
  6
CONTINUOUS
 62
     7
 10
-609.6003380945183
 20
209.7565532426109
 30
0.0
  0
VERTEX
  5
303
  8
0
  6
CONTINUOUS
 62
     7
 10
-609.5804838288059
 20
209.7537141957274
 30
0.0
  0
VERTEX
  5
304
  8
0
  6
CONTINUOUS
 62
     7
 10
-609.5602498454864
 20
209.7516520070542
 30
0.0
  0
VERTEX
  5
305
  8
0
  6
CONTINUOUS
 62
     7
 10
-609.5399598897742
 20
209.7504141900492
 30
0.0
  0
VERTEX
  5
306
  8
0
  6
CONTINUOUS
 62
     7
 10
-609.5196645933881
 20
209.750001431714
 30
0.0
  0
SEQEND
  5
3BB
  8
0
  6
CONTINUOUS
 62
     7
  0
LINE
  5
129
  8
0
  6
CONTINUOUS
 62
     7
 10
-610.019664593388
 20
211.3924299602768
 30
0.0
 11
-610.019664593388
 21
210.250001431714
 31
0.0
  0
ARC
  5
12A
  8
0
  6
CONTINUOUS
 62
     7
 10
-610.5196645933881
 20
209.250001431714
 30
0.0
 40
3.377515871063713
 50
351.4867690477394
 51
8.513230952260756
  0
ARC
  5
12B
  8
0
  6
CONTINUOUS
 62
     7
 10
-610.5196645933881
 20
209.250001431714
 30
0.0
 40
3.3775158710637
 50
171.4867690477392
 51
188.5132309522607
  0
ARC
  5
12C
  8
0
  6
CONTINUOUS
 62
     7
 10
-566.0196645933881
 20
314.250001431714
 30
0.0
 40
2.200000000000006
 50
76.86344121305513
 51
103.1365587869449
  0
LINE
  5
12D
  8
0
  6
CONTINUOUS
 62
     7
 10
-566.519664593388
 20
315.250001431714
 30
0.0
 11
-566.519664593388
 21
316.3924299602768
 31
0.0
  0
LINE
  5
12E
  8
0
  6
CONTINUOUS
 62
     7
 10
-565.519664593388
 20
316.3924299602768
 30
0.0
 11
-565.519664593388
 21
315.250001431714
 31
0.0
  0
POLYLINE
  5
12F
  8
0
  6
CONTINUOUS
 62
     7
 66
     1
 10
0.0
 20
0.0
 30
0.0
  0
VERTEX
  5
307
  8
0
  6
CONTINUOUS
 62
     7
 10
-567.0196645933881
 20
314.750001431714
 30
0.0
  0
VERTEX
  5
308
  8
0
  6
CONTINUOUS
 62
     7
 10
-566.9992294564287
 20
314.7504208062502
 30
0.0
  0
VERTEX
  5
309
  8
0
  6
CONTINUOUS
 62
     7
 10
-566.9787912729608
 20
314.7516777197429
 30
0.0
  0
VERTEX
  5
30A
  8
0
  6
CONTINUOUS
 62
     7
 10
-566.9584018828281
 20
314.753770357018
 30
0.0
  0
VERTEX
  5
30B
  8
0
  6
CONTINUOUS
 62
     7
 10
-566.9381131258735
 20
314.7566969029015
 30
0.0
  0
VERTEX
  5
30C
  8
0
  6
CONTINUOUS
 62
     7
 10
-566.9173675530434
 20
314.7605798969793
 30
0.0
  0
VERTEX
  5
30D
  8
0
  6
CONTINUOUS
 62
     7
 10
-566.896766447904
 20
314.7653441193197
 30
0.0
  0
VERTEX
  5
30E
  8
0
  6
CONTINUOUS
 62
     7
 10
-566.8763665023561
 20
314.7709776500937
 30
0.0
  0
VERTEX
  5
30F
  8
0
  6
CONTINUOUS
 62
     7
 10
-566.8562244083001
 20
314.7774685694722
 30
0.0
  0
VERTEX
  5
310
  8
0
  6
CONTINUOUS
 62
     7
 10
-566.8369056859447
 20
314.784601129697
 30
0.0
  0
VERTEX
  5
311
  8
0
  6
CONTINUOUS
 62
     7
 10
-566.8178665828929
 20
314.7925361663165
 30
0.0
  0
VERTEX
  5
312
  8
0
  6
CONTINUOUS
 62
     7
 10
-566.7991575481155
 20
314.8012532791338
 30
0.0
  0
VERTEX
  5
313
  8
0
  6
CONTINUOUS
 62
     7
 10
-566.7808290305837
 20
314.8107320679514
 30
0.0
  0
VERTEX
  5
314
  8
0
  6
CONTINUOUS
 62
     7
 10
-566.7623715108697
 20
314.8212844365503
 30
0.0
  0
VERTEX
  5
315
  8
0
  6
CONTINUOUS
 62
     7
 10
-566.7443536709623
 20
314.8326283057115
 30
0.0
  0
VERTEX
  5
316
  8
0
  6
CONTINUOUS
 62
     7
 10
-566.7268264506564
 20
314.8447313787468
 30
0.0
  0
VERTEX
  5
317
  8
0
  6
CONTINUOUS
 62
     7
 10
-566.7098407897467
 20
314.8575613589676
 30
0.0
  0
VERTEX
  5
318
  8
0
  6
CONTINUOUS
 62
     7
 10
-566.6940822651512
 20
314.8705354475225
 30
0.0
  0
VERTEX
  5
319
  8
0
  6
CONTINUOUS
 62
     7
 10
-566.6788508568744
 20
314.8841559067636
 30
0.0
  0
VERTEX
  5
31A
  8
0
  6
CONTINUOUS
 62
     7
 10
-566.6641858216548
 20
314.8983864026379
 30
0.0
  0
VERTEX
  5
31B
  8
0
  6
CONTINUOUS
 62
     7
 10
-566.6501264162316
 20
314.9131906010925
 30
0.0
  0
VERTEX
  5
31C
  8
0
  6
CONTINUOUS
 62
     7
 10
-566.6363014767408
 20
314.9290173124319
 30
0.0
  0
VERTEX
  5
31D
  8
0
  6
CONTINUOUS
 62
     7
 10
-566.6231438851888
 20
314.9454231666751
 30
0.0
  0
VERTEX
  5
31E
  8
0
  6
CONTINUOUS
 62
     7
 10
-566.6106885449282
 20
314.9623615962369
 30
0.0
  0
VERTEX
  5
31F
  8
0
  6
CONTINUOUS
 62
     7
 10
-566.5989703593115
 20
314.9797860335318
 30
0.0
  0
VERTEX
  5
320
  8
0
  6
CONTINUOUS
 62
     7
 10
-566.5883612606617
 20
314.9970670560538
 30
0.0
  0
VERTEX
  5
321
  8
0
  6
CONTINUOUS
 62
     7
 10
-566.5784576569823
 20
315.0147706369174
 30
0.0
  0
VERTEX
  5
322
  8
0
  6
CONTINUOUS
 62
     7
 10
-566.5692827784185
 20
315.0328503728243
 30
0.0
  0
VERTEX
  5
323
  8
0
  6
CONTINUOUS
 62
     7
 10
-566.5608598551148
 20
315.0512598604764
 30
0.0
  0
VERTEX
  5
324
  8
0
  6
CONTINUOUS
 62
     7
 10
-566.5529895996981
 20
315.0705225301999
 30
0.0
  0
VERTEX
  5
325
  8
0
  6
CONTINUOUS
 62
     7
 10
-566.5459262904358
 20
315.0900987658169
 30
0.0
  0
VERTEX
  5
326
  8
0
  6
CONTINUOUS
 62
     7
 10
-566.5396857005866
 20
315.1099354269064
 30
0.0
  0
VERTEX
  5
327
  8
0
  6
CONTINUOUS
 62
     7
 10
-566.5342836034088
 20
315.1299793730469
 30
0.0
  0
VERTEX
  5
328
  8
0
  6
CONTINUOUS
 62
     7
 10
-566.5290380865531
 20
315.1536685695573
 30
0.0
  0
VERTEX
  5
329
  8
0
  6
CONTINUOUS
 62
     7
 10
-566.5249469295914
 20
315.1776012864809
 30
0.0
  0
VERTEX
  5
32A
  8
0
  6
CONTINUOUS
 62
     7
 10
-566.5220166300552
 20
315.201691611016
 30
0.0
  0
VERTEX
  5
32B
  8
0
  6
CONTINUOUS
 62
     7
 10
-566.5202536854769
 20
315.2258536303609
 30
0.0
  0
VERTEX
  5
32C
  8
0
  6
CONTINUOUS
 62
     7
 10
-566.519664593388
 20
315.250001431714
 30
0.0
  0
SEQEND
  5
3BC
  8
0
  6
CONTINUOUS
 62
     7
  0
POLYLINE
  5
130
  8
0
  6
CONTINUOUS
 62
     7
 66
     1
 10
0.0
 20
0.0
 30
0.0
  0
VERTEX
  5
32D
  8
0
  6
CONTINUOUS
 62
     7
 10
-565.519664593388
 20
315.250001431714
 30
0.0
  0
VERTEX
  5
32E
  8
0
  6
CONTINUOUS
 62
     7
 10
-565.5192491224351
 20
315.2296268275168
 30
0.0
  0
VERTEX
  5
32F
  8
0
  6
CONTINUOUS
 62
     7
 10
-565.5180024716996
 20
315.2092662007709
 30
0.0
  0
VERTEX
  5
330
  8
0
  6
CONTINUOUS
 62
     7
 10
-565.5159066459756
 20
315.1888161190021
 30
0.0
  0
VERTEX
  5
331
  8
0
  6
CONTINUOUS
 62
     7
 10
-565.5129691222006
 20
315.1684499641994
 30
0.0
  0
VERTEX
  5
332
  8
0
  6
CONTINUOUS
 62
     7
 10
-565.5091016246572
 20
315.1477703748409
 30
0.0
  0
VERTEX
  5
333
  8
0
  6
CONTINUOUS
 62
     7
 10
-565.5043632307109
 20
315.1272527821184
 30
0.0
  0
VERTEX
  5
334
  8
0
  6
CONTINUOUS
 62
     7
 10
-565.4987149844869
 20
315.1067865272915
 30
0.0
  0
VERTEX
  5
335
  8
0
  6
CONTINUOUS
 62
     7
 10
-565.4921974556299
 20
315.0865612466261
 30
0.0
  0
VERTEX
  5
336
  8
0
  6
CONTINUOUS
 62
     7
 10
-565.4850896041144
 20
315.0673012125313
 30
0.0
  0
VERTEX
  5
337
  8
0
  6
CONTINUOUS
 62
     7
 10
-565.4771914558162
 20
315.0483354451007
 30
0.0
  0
VERTEX
  5
338
  8
0
  6
CONTINUOUS
 62
     7
 10
-565.4684502873613
 20
315.0295673076008
 30
0.0
  0
VERTEX
  5
339
  8
0
  6
CONTINUOUS
 62
     7
 10
-565.4589339571506
 20
315.0111658689098
 30
0.0
  0
VERTEX
  5
33A
  8
0
  6
CONTINUOUS
 62
     7
 10
-565.448419444171
 20
314.9927679598361
 30
0.0
  0
VERTEX
  5
33B
  8
0
  6
CONTINUOUS
 62
     7
 10
-565.4371295948778
 20
314.9748233574945
 30
0.0
  0
VERTEX
  5
33C
  8
0
  6
CONTINUOUS
 62
     7
 10
-565.4249893157119
 20
314.95723592537
 30
0.0
  0
VERTEX
  5
33D
  8
0
  6
CONTINUOUS
 62
     7
 10
-565.4121046661345
 20
314.9401776280726
 30
0.0
  0
VERTEX
  5
33E
  8
0
  6
CONTINUOUS
 62
     7
 10
-565.3991724972815
 20
314.9244656226277
 30
0.0
  0
VERTEX
  5
33F
  8
0
  6
CONTINUOUS
 62
     7
 10
-565.3856099141163
 20
314.9092903778324
 30
0.0
  0
VERTEX
  5
340
  8
0
  6
CONTINUOUS
 62
     7
 10
-565.3713379551933
 20
314.8945782289635
 30
0.0
  0
VERTEX
  5
341
  8
0
  6
CONTINUOUS
 62
     7
 10
-565.3564754240097
 20
314.8804632545575
 30
0.0
  0
VERTEX
  5
342
  8
0
  6
CONTINUOUS
 62
     7
 10
-565.3407020411559
 20
314.866680748176
 30
0.0
  0
VERTEX
  5
343
  8
0
  6
CONTINUOUS
 62
     7
 10
-565.3243684389519
 20
314.8535729179835
 30
0.0
  0
VERTEX
  5
344
  8
0
  6
CONTINUOUS
 62
     7
 10
-565.3073770654453
 20
314.8410743994597
 30
0.0
  0
VERTEX
  5
345
  8
0
  6
CONTINUOUS
 62
     7
 10
-565.2898799915703
 20
314.8293071976374
 30
0.0
  0
VERTEX
  5
346
  8
0
  6
CONTINUOUS
 62
     7
 10
-565.2726520959471
 20
314.8187275712602
 30
0.0
  0
VERTEX
  5
347
  8
0
  6
CONTINUOUS
 62
     7
 10
-565.2550192388514
 20
314.8088572479614
 30
0.0
  0
VERTEX
  5
348
  8
0
  6
CONTINUOUS
 62
     7
 10
-565.2366982272172
 20
314.7995630947512
 30
0.0
  0
VERTEX
  5
349
  8
0
  6
CONTINUOUS
 62
     7
 10
-565.2180061916093
 20
314.7910269512479
 30
0.0
  0
VERTEX
  5
34A
  8
0
  6
CONTINUOUS
 62
     7
 10
-565.1989930529569
 20
314.7832685368722
 30
0.0
  0
VERTEX
  5
34B
  8
0
  6
CONTINUOUS
 62
     7
 10
-565.1797087321894
 20
314.7763075710452
 30
0.0
  0
VERTEX
  5
34C
  8
0
  6
CONTINUOUS
 62
     7
 10
-565.1598110544079
 20
314.7700443805371
 30
0.0
  0
VERTEX
  5
34D
  8
0
  6
CONTINUOUS
 62
     7
 10
-565.1396866520553
 20
314.7646204417347
 30
0.0
  0
VERTEX
  5
34E
  8
0
  6
CONTINUOUS
 62
     7
 10
-565.1200886674568
 20
314.7601909223978
 30
0.0
  0
VERTEX
  5
34F
  8
0
  6
CONTINUOUS
 62
     7
 10
-565.1003380945183
 20
314.7565532426109
 30
0.0
  0
VERTEX
  5
350
  8
0
  6
CONTINUOUS
 62
     7
 10
-565.0804838288059
 20
314.7537141957275
 30
0.0
  0
VERTEX
  5
351
  8
0
  6
CONTINUOUS
 62
     7
 10
-565.0602498454864
 20
314.7516520070542
 30
0.0
  0
VERTEX
  5
352
  8
0
  6
CONTINUOUS
 62
     7
 10
-565.0399598897742
 20
314.7504141900493
 30
0.0
  0
VERTEX
  5
353
  8
0
  6
CONTINUOUS
 62
     7
 10
-565.0196645933881
 20
314.750001431714
 30
0.0
  0
SEQEND
  5
3BD
  8
0
  6
CONTINUOUS
 62
     7
  0
ARC
  5
131
  8
0
  6
CONTINUOUS
 62
     7
 10
-566.0196645933881
 20
314.250001431714
 30
0.0
 40
2.19999999999998
 50
256.8634412130551
 51
283.1365587869449
  0
LINE
  5
132
  8
0
  6
CONTINUOUS
 62
     7
 10
-565.519664593388
 20
313.250001431714
 30
0.0
 11
-565.519664593388
 21
312.1075729031512
 31
0.0
  0
POLYLINE
  5
133
  8
0
  6
CONTINUOUS
 62
     7
 66
     1
 10
0.0
 20
0.0
 30
0.0
  0
VERTEX
  5
354
  8
0
  6
CONTINUOUS
 62
     7
 10
-565.0196645933881
 20
313.750001431714
 30
0.0
  0
VERTEX
  5
355
  8
0
  6
CONTINUOUS
 62
     7
 10
-565.0400997303475
 20
313.7495820571779
 30
0.0
  0
VERTEX
  5
356
  8
0
  6
CONTINUOUS
 62
     7
 10
-565.0605379138153
 20
313.7483251436852
 30
0.0
  0
VERTEX
  5
357
  8
0
  6
CONTINUOUS
 62
     7
 10
-565.0809273039481
 20
313.7462325064101
 30
0.0
  0
VERTEX
  5
358
  8
0
  6
CONTINUOUS
 62
     7
 10
-565.1012160609026
 20
313.7433059605265
 30
0.0
  0
VERTEX
  5
359
  8
0
  6
CONTINUOUS
 62
     7
 10
-565.1219616337328
 20
313.7394229664487
 30
0.0
  0
VERTEX
  5
35A
  8
0
  6
CONTINUOUS
 62
     7
 10
-565.1425627388721
 20
313.7346587441083
 30
0.0
  0
VERTEX
  5
35B
  8
0
  6
CONTINUOUS
 62
     7
 10
-565.1629626844201
 20
313.7290252133343
 30
0.0
  0
VERTEX
  5
35C
  8
0
  6
CONTINUOUS
 62
     7
 10
-565.183104778476
 20
313.7225342939558
 30
0.0
  0
VERTEX
  5
35D
  8
0
  6
CONTINUOUS
 62
     7
 10
-565.2024235008315
 20
313.715401733731
 30
0.0
  0
VERTEX
  5
35E
  8
0
  6
CONTINUOUS
 62
     7
 10
-565.2214626038833
 20
313.7074666971114
 30
0.0
  0
VERTEX
  5
35F
  8
0
  6
CONTINUOUS
 62
     7
 10
-565.2401716386606
 20
313.6987495842943
 30
0.0
  0
VERTEX
  5
360
  8
0
  6
CONTINUOUS
 62
     7
 10
-565.2585001561923
 20
313.6892707954766
 30
0.0
  0
VERTEX
  5
361
  8
0
  6
CONTINUOUS
 62
     7
 10
-565.2769576759065
 20
313.6787184268778
 30
0.0
  0
VERTEX
  5
362
  8
0
  6
CONTINUOUS
 62
     7
 10
-565.2949755158138
 20
313.6673745577165
 30
0.0
  0
VERTEX
  5
363
  8
0
  6
CONTINUOUS
 62
     7
 10
-565.3125027361199
 20
313.6552714846813
 30
0.0
  0
VERTEX
  5
364
  8
0
  6
CONTINUOUS
 62
     7
 10
-565.3294883970294
 20
313.6424415044604
 30
0.0
  0
VERTEX
  5
365
  8
0
  6
CONTINUOUS
 62
     7
 10
-565.345246921625
 20
313.6294674159056
 30
0.0
  0
VERTEX
  5
366
  8
0
  6
CONTINUOUS
 62
     7
 10
-565.3604783299018
 20
313.6158469566644
 30
0.0
  0
VERTEX
  5
367
  8
0
  6
CONTINUOUS
 62
     7
 10
-565.3751433651214
 20
313.6016164607901
 30
0.0
  0
VERTEX
  5
368
  8
0
  6
CONTINUOUS
 62
     7
 10
-565.3892027705446
 20
313.5868122623355
 30
0.0
  0
VERTEX
  5
369
  8
0
  6
CONTINUOUS
 62
     7
 10
-565.4030277100353
 20
313.5709855509961
 30
0.0
  0
VERTEX
  5
36A
  8
0
  6
CONTINUOUS
 62
     7
 10
-565.4161853015873
 20
313.5545796967528
 30
0.0
  0
VERTEX
  5
36B
  8
0
  6
CONTINUOUS
 62
     7
 10
-565.428640641848
 20
313.5376412671911
 30
0.0
  0
VERTEX
  5
36C
  8
0
  6
CONTINUOUS
 62
     7
 10
-565.4403588274647
 20
313.5202168298962
 30
0.0
  0
VERTEX
  5
36D
  8
0
  6
CONTINUOUS
 62
     7
 10
-565.4509679261146
 20
313.5029358073742
 30
0.0
  0
VERTEX
  5
36E
  8
0
  6
CONTINUOUS
 62
     7
 10
-565.4608715297938
 20
313.4852322265106
 30
0.0
  0
VERTEX
  5
36F
  8
0
  6
CONTINUOUS
 62
     7
 10
-565.4700464083577
 20
313.4671524906036
 30
0.0
  0
VERTEX
  5
370
  8
0
  6
CONTINUOUS
 62
     7
 10
-565.4784693316615
 20
313.4487430029516
 30
0.0
  0
VERTEX
  5
371
  8
0
  6
CONTINUOUS
 62
     7
 10
-565.4863395870782
 20
313.4294803332281
 30
0.0
  0
VERTEX
  5
372
  8
0
  6
CONTINUOUS
 62
     7
 10
-565.4934028963404
 20
313.409904097611
 30
0.0
  0
VERTEX
  5
373
  8
0
  6
CONTINUOUS
 62
     7
 10
-565.4996434861896
 20
313.3900674365216
 30
0.0
  0
VERTEX
  5
374
  8
0
  6
CONTINUOUS
 62
     7
 10
-565.5050455833674
 20
313.3700234903811
 30
0.0
  0
VERTEX
  5
375
  8
0
  6
CONTINUOUS
 62
     7
 10
-565.5102911002231
 20
313.3463342938708
 30
0.0
  0
VERTEX
  5
376
  8
0
  6
CONTINUOUS
 62
     7
 10
-565.5143822571848
 20
313.3224015769472
 30
0.0
  0
VERTEX
  5
377
  8
0
  6
CONTINUOUS
 62
     7
 10
-565.517312556721
 20
313.2983112524121
 30
0.0
  0
VERTEX
  5
378
  8
0
  6
CONTINUOUS
 62
     7
 10
-565.5190755012993
 20
313.2741492330671
 30
0.0
  0
VERTEX
  5
379
  8
0
  6
CONTINUOUS
 62
     7
 10
-565.519664593388
 20
313.250001431714
 30
0.0
  0
SEQEND
  5
3BE
  8
0
  6
CONTINUOUS
 62
     7
  0
LINE
  5
134
  8
0
  6
CONTINUOUS
 62
     7
 10
-566.519664593388
 20
312.1075729031512
 30
0.0
 11
-566.519664593388
 21
313.250001431714
 31
0.0
  0
POLYLINE
  5
135
  8
0
  6
CONTINUOUS
 62
     7
 66
     1
 10
0.0
 20
0.0
 30
0.0
  0
VERTEX
  5
37A
  8
0
  6
CONTINUOUS
 62
     7
 10
-566.519664593388
 20
313.250001431714
 30
0.0
  0
VERTEX
  5
37B
  8
0
  6
CONTINUOUS
 62
     7
 10
-566.5200839679243
 20
313.2704365686735
 30
0.0
  0
VERTEX
  5
37C
  8
0
  6
CONTINUOUS
 62
     7
 10
-566.5213408814169
 20
313.2908747521412
 30
0.0
  0
VERTEX
  5
37D
  8
0
  6
CONTINUOUS
 62
     7
 10
-566.5234335186921
 20
313.3112641422741
 30
0.0
  0
VERTEX
  5
37E
  8
0
  6
CONTINUOUS
 62
     7
 10
-566.5263600645756
 20
313.3315528992287
 30
0.0
  0
VERTEX
  5
37F
  8
0
  6
CONTINUOUS
 62
     7
 10
-566.5302430586534
 20
313.3522984720587
 30
0.0
  0
VERTEX
  5
380
  8
0
  6
CONTINUOUS
 62
     7
 10
-566.5350072809938
 20
313.372899577198
 30
0.0
  0
VERTEX
  5
381
  8
0
  6
CONTINUOUS
 62
     7
 10
-566.5406408117678
 20
313.393299522746
 30
0.0
  0
VERTEX
  5
382
  8
0
  6
CONTINUOUS
 62
     7
 10
-566.5471317311464
 20
313.4134416168019
 30
0.0
  0
VERTEX
  5
383
  8
0
  6
CONTINUOUS
 62
     7
 10
-566.554264291371
 20
313.4327603391574
 30
0.0
  0
VERTEX
  5
384
  8
0
  6
CONTINUOUS
 62
     7
 10
-566.5621993279907
 20
313.4517994422092
 30
0.0
  0
VERTEX
  5
385
  8
0
  6
CONTINUOUS
 62
     7
 10
-566.5709164408078
 20
313.4705084769865
 30
0.0
  0
VERTEX
  5
386
  8
0
  6
CONTINUOUS
 62
     7
 10
-566.5803952296255
 20
313.4888369945183
 30
0.0
  0
VERTEX
  5
387
  8
0
  6
CONTINUOUS
 62
     7
 10
-566.5909475982244
 20
313.5072945142324
 30
0.0
  0
VERTEX
  5
388
  8
0
  6
CONTINUOUS
 62
     7
 10
-566.6022914673856
 20
313.5253123541398
 30
0.0
  0
VERTEX
  5
389
  8
0
  6
CONTINUOUS
 62
     7
 10
-566.6143945404208
 20
313.5428395744457
 30
0.0
  0
VERTEX
  5
38A
  8
0
  6
CONTINUOUS
 62
     7
 10
-566.6272245206417
 20
313.5598252353554
 30
0.0
  0
VERTEX
  5
38B
  8
0
  6
CONTINUOUS
 62
     7
 10
-566.6401986091965
 20
313.5755837599507
 30
0.0
  0
VERTEX
  5
38C
  8
0
  6
CONTINUOUS
 62
     7
 10
-566.6538190684377
 20
313.5908151682277
 30
0.0
  0
VERTEX
  5
38D
  8
0
  6
CONTINUOUS
 62
     7
 10
-566.668049564312
 20
313.6054802034473
 30
0.0
  0
VERTEX
  5
38E
  8
0
  6
CONTINUOUS
 62
     7
 10
-566.6828537627666
 20
313.6195396088705
 30
0.0
  0
VERTEX
  5
38F
  8
0
  6
CONTINUOUS
 62
     7
 10
-566.6986804741061
 20
313.6333645483612
 30
0.0
  0
VERTEX
  5
390
  8
0
  6
CONTINUOUS
 62
     7
 10
-566.7150863283492
 20
313.6465221399133
 30
0.0
  0
VERTEX
  5
391
  8
0
  6
CONTINUOUS
 62
     7
 10
-566.732024757911
 20
313.658977480174
 30
0.0
  0
VERTEX
  5
392
  8
0
  6
CONTINUOUS
 62
     7
 10
-566.7494491952059
 20
313.6706956657905
 30
0.0
  0
VERTEX
  5
393
  8
0
  6
CONTINUOUS
 62
     7
 10
-566.766730217728
 20
313.6813047644404
 30
0.0
  0
VERTEX
  5
394
  8
0
  6
CONTINUOUS
 62
     7
 10
-566.7844337985915
 20
313.6912083681198
 30
0.0
  0
VERTEX
  5
395
  8
0
  6
CONTINUOUS
 62
     7
 10
-566.8025135344985
 20
313.7003832466837
 30
0.0
  0
VERTEX
  5
396
  8
0
  6
CONTINUOUS
 62
     7
 10
-566.8209230221506
 20
313.7088061699873
 30
0.0
  0
VERTEX
  5
397
  8
0
  6
CONTINUOUS
 62
     7
 10
-566.840185691874
 20
313.716676425404
 30
0.0
  0
VERTEX
  5
398
  8
0
  6
CONTINUOUS
 62
     7
 10
-566.859761927491
 20
313.7237397346663
 30
0.0
  0
VERTEX
  5
399
  8
0
  6
CONTINUOUS
 62
     7
 10
-566.8795985885805
 20
313.7299803245156
 30
0.0
  0
VERTEX
  5
39A
  8
0
  6
CONTINUOUS
 62
     7
 10
-566.899642534721
 20
313.7353824216933
 30
0.0
  0
VERTEX
  5
39B
  8
0
  6
CONTINUOUS
 62
     7
 10
-566.9233317312313
 20
313.740627938549
 30
0.0
  0
VERTEX
  5
39C
  8
0
  6
CONTINUOUS
 62
     7
 10
-566.9472644481549
 20
313.7447190955108
 30
0.0
  0
VERTEX
  5
39D
  8
0
  6
CONTINUOUS
 62
     7
 10
-566.97135477269
 20
313.7476493950468
 30
0.0
  0
VERTEX
  5
39E
  8
0
  6
CONTINUOUS
 62
     7
 10
-566.995516792035
 20
313.7494123396253
 30
0.0
  0
VERTEX
  5
39F
  8
0
  6
CONTINUOUS
 62
     7
 10
-567.0196645933881
 20
313.750001431714
 30
0.0
  0
SEQEND
  5
3BF
  8
0
  6
CONTINUOUS
 62
     7
  0
ARC
  5
136
  8
0
  6
CONTINUOUS
 62
     7
 10
-566.0196645933881
 20
314.250001431714
 30
0.0
 40
3.377515871063713
 50
351.4867690477394
 51
8.513230952260756
  0
ARC
  5
137
  8
0
  6
CONTINUOUS
 62
     7
 10
-566.0196645933881
 20
314.250001431714
 30
0.0
 40
3.3775158710637
 50
171.4867690477392
 51
188.5132309522607
  0
ARC
  5
138
  8
0
  6
CONTINUOUS
 62
     9
 10
-574.1293535269701
 20
333.7649357312892
 30
0.0
 40
1.314944423058309
 50
269.7751704940524
 51
314.8892231872231
  0
POLYLINE
  5
139
  8
0
  6
CONTINUOUS
 62
     9
 66
     1
 10
0.0
 20
0.0
 30
0.0
  0
VERTEX
  5
3A0
  8
0
  6
CONTINUOUS
 62
     9
 10
-573.201346851137
 20
332.8333336459859
 30
0.0
  0
VERTEX
  5
3A1
  8
0
  6
CONTINUOUS
 62
     9
 10
-573.106842138584
 20
332.9398906341826
 30
0.0
  0
VERTEX
  5
3A2
  8
0
  6
CONTINUOUS
 62
     9
 10
-573.0462164353971
 20
333.0234856190898
 30
0.0
  0
VERTEX
  5
3A3
  8
0
  6
CONTINUOUS
 62
     9
 10
-572.9759570602737
 20
333.1434133287311
 30
0.0
  0
VERTEX
  5
3A4
  8
0
  6
CONTINUOUS
 62
     9
 10
-572.9196739311461
 20
333.2703806787353
 30
0.0
  0
VERTEX
  5
3A5
  8
0
  6
CONTINUOUS
 62
     9
 10
-572.8845431859583
 20
333.3784865207583
 30
0.0
  0
VERTEX
  5
3A6
  8
0
  6
CONTINUOUS
 62
     9
 10
-572.8566617324836
 20
333.5069787122702
 30
0.0
  0
VERTEX
  5
3A7
  8
0
  6
CONTINUOUS
 62
     9
 10
-572.8429503303347
 20
333.6351706984536
 30
0.0
  0
VERTEX
  5
3A8
  8
0
  6
CONTINUOUS
 62
     9
 10
-572.8412174222777
 20
333.7000014319873
 30
0.0
  0
SEQEND
  5
3C0
  8
0
  6
CONTINUOUS
 62
     9
  0
POLYLINE
  5
13A
  8
0
  6
CONTINUOUS
 62
     9
 66
     1
 10
0.0
 20
0.0
 30
0.0
  0
VERTEX
  5
3A9
  8
0
  6
CONTINUOUS
 62
     9
 10
-603.9022186264999
 20
333.7000014300256
 30
0.0
  0
VERTEX
  5
3AA
  8
0
  6
CONTINUOUS
 62
     9
 10
-603.8973526741079
 20
333.5902192678878
 30
0.0
  0
VERTEX
  5
3AB
  8
0
  6
CONTINUOUS
 62
     9
 10
-603.8749777517344
 20
333.4414086364173
 30
0.0
  0
VERTEX
  5
3AC
  8
0
  6
CONTINUOUS
 62
     9
 10
-603.8483913063
 20
333.3384474731035
 30
0.0
  0
VERTEX
  5
3AD
  8
0
  6
CONTINUOUS
 62
     9
 10
-603.8135028778688
 20
333.2391395700857
 30
0.0
  0
VERTEX
  5
3AE
  8
0
  6
CONTINUOUS
 62
     9
 10
-603.7527029338744
 20
333.1092542214825
 30
0.0
  0
VERTEX
  5
3AF
  8
0
  6
CONTINUOUS
 62
     9
 10
-603.6876650634044
 20
333.0021359918725
 30
0.0
  0
VERTEX
  5
3B0
  8
0
  6
CONTINUOUS
 62
     9
 10
-603.5949820470497
 20
332.881890846117
 30
0.0
  0
VERTEX
  5
3B1
  8
0
  6
CONTINUOUS
 62
     9
 10
-603.4943513878934
 20
332.7791081984519
 30
0.0
  0
VERTEX
  5
3B2
  8
0
  6
CONTINUOUS
 62
     9
 10
-603.3973082871819
 20
332.6992487485416
 30
0.0
  0
SEQEND
  5
3C1
  8
0
  6
CONTINUOUS
 62
     9
  0
ARC
  5
13B
  8
0
  6
CONTINUOUS
 62
     9
 10
-602.6429479838861
 20
333.7167138346325
 30
0.0
 40
1.266607543243956
 50
233.4463375509948
 51
263.5889010671474
  0
LINE
  5
13C
  8
0
  6
CONTINUOUS
 62
     9
 10
-572.8412174222777
 20
333.7000014319873
 30
0.0
 11
-572.8412174233191
 21
350.2000014319869
 31
0.0
  0
LINE
  5
13D
  8
0
  6
CONTINUOUS
 62
     9
 10
-603.9022186275413
 20
350.2000014300266
 30
0.0
 11
-603.9022186264999
 21
333.700001430027
 31
0.0
  0
LINE
  5
13E
  8
0
  6
CONTINUOUS
 62
     9
 10
-602.7843792007599
 20
332.4580272654279
 30
0.0
 11
-602.6415990508469
 21
332.4500014301067
 31
0.0
  0
ARC
  5
13F
  8
0
  6
CONTINUOUS
 62
     7
 10
-602.4433924716759
 20
347.4569632189186
 30
0.0
 40
2.997177776249164
 50
134.9352651298232
 51
179.9924007039227
  0
CIRCLE
  5
140
  8
0
  6
CONTINUOUS
 62
     7
 10
-588.2696645933881
 20
303.500001431714
 30
0.0
 40
2.250000000000002
  0
CIRCLE
  5
141
  8
0
  6
CONTINUOUS
 62
     7
 10
-588.2696645933881
 20
303.500001431714
 30
0.0
 40
4.000000000000004
  0
CIRCLE
  5
142
  8
0
  6
CONTINUOUS
 62
     7
 10
-588.2696645933881
 20
220.000001431714
 30
0.0
 40
4.000000000000004
  0
ARC
  5
143
  8
0
  6
CONTINUOUS
 62
     7
 10
-568.2696645933883
 20
294.4728146644042
 30
0.0
 40
8.000000000000021
 50
359.9999999999998
 51
55.15009542095351
  0
LINE
  5
144
  8
0
  6
CONTINUOUS
 62
     7
 10
-560.2696645933883
 20
229.0271881990238
 30
0.0
 11
-560.2696645933883
 21
294.4728146644042
 31
0.0
  0
ARC
  5
145
  8
0
  6
CONTINUOUS
 62
     7
 10
-568.2696645933883
 20
229.0271881990238
 30
0.0
 40
8.000000000000021
 50
304.8499045790465
 51
0.0000000000001137
  0
ARC
  5
146
  8
0
  6
CONTINUOUS
 62
     7
 10
-588.2696645933883
 20
257.750001431714
 30
0.0
 40
43.00000000000009
 50
272.3314930610618
 51
304.8499045790466
  0
ARC
  5
147
  8
0
  6
CONTINUOUS
 62
     7
 10
-588.269664593388
 20
220.000001431714
 30
0.0
 40
5.50000000000001
 50
251.4548734429633
 51
288.5451265570346
  0
ARC
  5
148
  8
0
  6
CONTINUOUS
 62
     7
 10
-588.269664593388
 20
257.750001431714
 30
0.0
 40
43.00000000000009
 50
235.1500954209535
 51
267.6685069389382
  0
ARC
  5
149
  8
0
  6
CONTINUOUS
 62
     7
 10
-608.269664593388
 20
229.0271881990238
 30
0.0
 40
8.000000000000021
 50
179.9999999999999
 51
235.1500954209536
  0
LINE
  5
14A
  8
0
  6
CONTINUOUS
 62
     7
 10
-616.269664593388
 20
229.0271881990238
 30
0.0
 11
-616.269664593388
 21
294.4728146644042
 31
0.0
  0
ARC
  5
14B
  8
0
  6
CONTINUOUS
 62
     7
 10
-608.269664593388
 20
294.4728146644042
 30
0.0
 40
8.000000000000021
 50
124.8499045790464
 51
180.0000000000001
  0
ARC
  5
14C
  8
0
  6
CONTINUOUS
 62
     7
 10
-588.269664593388
 20
265.750001431714
 30
0.0
 40
43.00000000000009
 50
92.33149306106185
 51
124.8499045790465
  0
ARC
  5
14D
  8
0
  6
CONTINUOUS
 62
     7
 10
-588.269664593388
 20
303.500001431714
 30
0.0
 40
5.500000000000036
 50
71.45487344296545
 51
108.5451265570367
  0
ARC
  5
14E
  8
0
  6
CONTINUOUS
 62
     7
 10
-588.2696645933883
 20
265.750001431714
 30
0.0
 40
43.00000000000009
 50
55.15009542095351
 51
87.66850693893815
  0
ARC
  5
14F
  8
0
  6
CONTINUOUS
 62
     7
 10
-588.269664593388
 20
303.500001431714
 30
0.0
 40
5.499999999999998
 50
203.0440075950247
 51
252.6585571972405
  0
ARC
  5
150
  8
0
  6
CONTINUOUS
 62
     7
 10
-597.931811530474
 20
299.3899020939656
 30
0.0
 40
5.000000000000012
 50
23.04400759502462
 51
106.0252731407752
  0
ARC
  5
151
  8
0
  6
CONTINUOUS
 62
     7
 10
-588.269664593388
 20
265.750001431714
 30
0.0
 40
40.00000000000008
 50
106.0252731407751
 51
124.8499045790465
  0
ARC
  5
152
  8
0
  6
CONTINUOUS
 62
     7
 10
-608.269664593388
 20
294.4728146644042
 30
0.0
 40
5.000000000000016
 50
124.8499045790464
 51
180.0000000000002
  0
LINE
  5
153
  8
0
  6
CONTINUOUS
 62
     7
 10
-613.269664593388
 20
294.4728146644042
 30
0.0
 11
-613.269664593388
 21
229.0271881990238
 31
0.0
  0
ARC
  5
154
  8
0
  6
CONTINUOUS
 62
     7
 10
-608.269664593388
 20
229.0271881990238
 30
0.0
 40
5.000000000000016
 50
179.9999999999998
 51
235.1500954209536
  0
ARC
  5
155
  8
0
  6
CONTINUOUS
 62
     7
 10
-588.269664593388
 20
257.750001431714
 30
0.0
 40
40.00000000000009
 50
235.1500954209534
 51
253.9747268592248
  0
ARC
  5
156
  8
0
  6
CONTINUOUS
 62
     7
 10
-597.931811530474
 20
224.1101007694623
 30
0.0
 40
5.000000000000012
 50
253.9747268592248
 51
336.9559924049754
  0
ARC
  5
157
  8
0
  6
CONTINUOUS
 62
     7
 10
-588.269664593388
 20
220.000001431714
 30
0.0
 40
5.500000000000011
 50
107.3414428027595
 51
156.9559924049754
  0
LINE
  5
158
  8
0
  6
CONTINUOUS
 62
     7
 10
-586.6303049623127
 20
225.250001431714
 30
0.0
 11
-589.9090242244635
 21
225.250001431714
 31
0.0
  0
ARC
  5
159
  8
0
  6
CONTINUOUS
 62
     7
 10
-588.2696645933883
 20
220.000001431714
 30
0.0
 40
5.500000000000011
 50
23.04400759502471
 51
72.6585571972405
  0
ARC
  5
15A
  8
0
  6
CONTINUOUS
 62
     7
 10
-578.6075176563021
 20
224.1101007694623
 30
0.0
 40
5.000000000000012
 50
203.0440075950246
 51
286.0252731407752
  0
ARC
  5
15B
  8
0
  6
CONTINUOUS
 62
     7
 10
-588.2696645933883
 20
257.750001431714
 30
0.0
 40
40.00000000000009
 50
286.0252731407751
 51
304.8499045790465
  0
ARC
  5
15C
  8
0
  6
CONTINUOUS
 62
     7
 10
-568.2696645933883
 20
229.0271881990238
 30
0.0
 40
5.000000000000016
 50
304.8499045790464
 51
0.0000000000001705
  0
LINE
  5
15D
  8
0
  6
CONTINUOUS
 62
     7
 10
-563.2696645933881
 20
294.4728146644042
 30
0.0
 11
-563.2696645933881
 21
229.0271881990238
 31
0.0
  0
ARC
  5
15E
  8
0
  6
CONTINUOUS
 62
     7
 10
-568.2696645933883
 20
294.4728146644042
 30
0.0
 40
5.000000000000016
 50
359.9999999999998
 51
55.15009542095362
  0
ARC
  5
15F
  8
0
  6
CONTINUOUS
 62
     7
 10
-588.2696645933883
 20
265.750001431714
 30
0.0
 40
40.00000000000008
 50
55.15009542095351
 51
73.97472685922486
  0
ARC
  5
160
  8
0
  6
CONTINUOUS
 62
     7
 10
-578.6075176563021
 20
299.3899020939656
 30
0.0
 40
5.000000000000012
 50
73.9747268592248
 51
156.9559924049754
  0
ARC
  5
161
  8
0
  6
CONTINUOUS
 62
     7
 10
-588.2696645933883
 20
303.500001431714
 30
0.0
 40
5.499999999999998
 50
287.3414428027595
 51
336.9559924049753
  0
LINE
  5
162
  8
0
  6
CONTINUOUS
 62
     7
 10
-586.6303049623127
 20
298.250001431714
 30
0.0
 11
-589.9090242244635
 21
298.250001431714
 31
0.0
  0
CIRCLE
  5
163
  8
0
  6
CONTINUOUS
 62
     7
 10
-588.2696645933881
 20
220.000001431714
 30
0.0
 40
2.250000000000002
  0
LINE
  5
164
  8
0
  6
CONTINUOUS
 62
     7
 10
-563.2696645933881
 20
258.650001431714
 30
0.0
 11
-564.7696645933881
 21
258.650001431714
 31
0.0
  0
LINE
  5
165
  8
0
  6
CONTINUOUS
 62
     7
 10
-564.769664593388
 20
258.650001431714
 30
0.0
 11
-564.769664593388
 21
260.150001431714
 31
0.0
  0
LINE
  5
166
  8
0
  6
CONTINUOUS
 62
     7
 10
-564.769664593388
 20
260.150001431714
 30
0.0
 11
-563.2696645933881
 21
260.150001431714
 31
0.0
  0
LINE
  5
167
  8
0
  6
CONTINUOUS
 62
     7
 10
-564.769664593388
 20
264.850001431714
 30
0.0
 11
-564.769664593388
 21
263.350001431714
 31
0.0
  0
LINE
  5
168
  8
0
  6
CONTINUOUS
 62
     7
 10
-563.2696645933881
 20
264.850001431714
 30
0.0
 11
-564.7696645933881
 21
264.850001431714
 31
0.0
  0
LINE
  5
169
  8
0
  6
CONTINUOUS
 62
     7
 10
-564.769664593388
 20
263.350001431714
 30
0.0
 11
-563.2696645933881
 21
263.350001431714
 31
0.0
  0
LINE
  5
16A
  8
0
  6
CONTINUOUS
 62
     7
 10
-611.7696645933881
 20
258.650001431714
 30
0.0
 11
-611.7696645933881
 21
260.150001431714
 31
0.0
  0
LINE
  5
16B
  8
0
  6
CONTINUOUS
 62
     7
 10
-613.269664593388
 20
258.650001431714
 30
0.0
 11
-611.7696645933881
 21
258.650001431714
 31
0.0
  0
LINE
  5
16C
  8
0
  6
CONTINUOUS
 62
     7
 10
-611.7696645933881
 20
260.150001431714
 30
0.0
 11
-613.2696645933881
 21
260.150001431714
 31
0.0
  0
LINE
  5
16D
  8
0
  6
CONTINUOUS
 62
     7
 10
-611.7696645933881
 20
264.850001431714
 30
0.0
 11
-611.7696645933881
 21
263.350001431714
 31
0.0
  0
LINE
  5
16E
  8
0
  6
CONTINUOUS
 62
     7
 10
-611.7696645933881
 20
263.350001431714
 30
0.0
 11
-613.2696645933881
 21
263.350001431714
 31
0.0
  0
LINE
  5
16F
  8
0
  6
CONTINUOUS
 62
     7
 10
-613.269664593388
 20
264.850001431714
 30
0.0
 11
-611.7696645933881
 21
264.850001431714
 31
0.0
  0
LINE
  5
170
  8
0
  6
CONTINUOUS
 62
     9
 10
-621.804848351876
 20
260.7500014317139
 30
0.0
 11
-621.804848351876
 21
262.7500014317139
 31
0.0
  0
LINE
  5
171
  8
0
  6
CONTINUOUS
 62
     9
 10
-554.7344808349002
 20
235.7500014317139
 30
0.0
 11
-554.7344808349002
 21
233.7500014317139
 31
0.0
  0
LINE
  5
172
  8
0
  6
CONTINUOUS
 62
     9
 10
-621.804848351876
 20
287.7500014317139
 30
0.0
 11
-621.804848351876
 21
289.7500014317139
 31
0.0
  0
LINE
  5
173
  8
0
  6
CONTINUOUS
 62
     9
 10
-554.7344808349002
 20
289.7500014317139
 30
0.0
 11
-554.7344808349002
 21
287.7500014317139
 31
0.0
  0
LINE
  5
174
  8
0
  6
CONTINUOUS
 62
     9
 10
-554.7344808349002
 20
262.7500014317139
 30
0.0
 11
-554.7344808349002
 21
260.7500014317139
 31
0.0
  0
LINE
  5
175
  8
0
  6
CONTINUOUS
 62
     9
 10
-621.804848351876
 20
233.7500014317139
 30
0.0
 11
-621.804848351876
 21
235.7500014317139
 31
0.0
  0
ARC
  5
176
  8
0
  6
CONTINUOUS
 62
     7
 10
-612.2043744550339
 20
213.5446867623737
 30
0.0
 40
1.000000000000001
 50
186.8260681728336
 51
243.5948662149995
  0
ARC
  5
177
  8
0
  6
CONTINUOUS
 62
     7
 10
-617.6653878944365
 20
212.8909802420895
 30
0.0
 40
4.499999999999997
 50
6.826068172832948
 51
295.6058180370452
  0
ARC
  5
178
  8
0
  6
CONTINUOUS
 62
     7
 10
-615.2884126225113
 20
207.9311426886352
 30
0.0
 40
1.000000000000011
 50
63.34191961450465
 51
115.605818037045
  0
ARC
  5
179
  8
0
  6
CONTINUOUS
 62
     7
 10
-588.269664593388
 20
261.7500014317141
 30
0.0
 40
59.22028147948762
 50
249.6858423345054
 51
250.0481938173507
  0
ARC
  5
17A
  8
0
  6
CONTINUOUS
 62
     7
 10
-588.269664593388
 20
261.7500014317141
 30
0.0
 40
59.2202814794876
 50
243.3419196145067
 51
244.3480653775616
  0
ARC
  5
17B
  8
0
  6
CONTINUOUS
 62
     7
 10
-607.7266729266654
 20
208.1520786480952
 30
0.0
 40
2.200000000000011
 50
250.0481938173514
 51
70.04819381735041
  0
ARC
  5
17C
  8
0
  6
CONTINUOUS
 62
     7
 10
-588.269664593388
 20
261.7500014317141
 30
0.0
 40
54.82028147948759
 50
243.5948662149992
 51
244.2826172025855
  0
ARC
  5
17D
  8
0
  6
CONTINUOUS
 62
     7
 10
-588.269664593388
 20
261.7500014317141
 30
0.0
 40
54.8202814794876
 50
249.8222110719622
 51
250.0481938173507
  0
ARC
  5
17E
  8
0
  6
CONTINUOUS
 62
     7
 10
-564.3349547317423
 20
309.9553161010543
 30
0.0
 40
1.000000000000001
 50
6.826068172833567
 51
63.59486621499947
  0
ARC
  5
17F
  8
0
  6
CONTINUOUS
 62
     7
 10
-558.8739412923396
 20
310.6090226213386
 30
0.0
 40
4.499999999999984
 50
186.826068172833
 51
115.6058180370453
  0
ARC
  5
180
  8
0
  6
CONTINUOUS
 62
     7
 10
-561.2509165642649
 20
315.5688601747929
 30
0.0
 40
1.000000000000014
 50
243.3419196145046
 51
295.605818037045
  0
ARC
  5
181
  8
0
  6
CONTINUOUS
 62
     7
 10
-588.2696645933881
 20
261.7500014317139
 30
0.0
 40
59.22028147948761
 50
69.68584233450554
 51
70.0481938173507
  0
ARC
  5
182
  8
0
  6
CONTINUOUS
 62
     7
 10
-588.2696645933881
 20
261.7500014317139
 30
0.0
 40
59.2202814794876
 50
63.34191961450671
 51
64.34806537756128
  0
ARC
  5
183
  8
0
  6
CONTINUOUS
 62
     7
 10
-568.8126562601108
 20
315.3479242153329
 30
0.0
 40
2.200000000000016
 50
70.04819381735138
 51
250.0481938173504
  0
ARC
  5
184
  8
0
  6
CONTINUOUS
 62
     7
 10
-588.2696645933881
 20
261.7500014317139
 30
0.0
 40
54.82028147948759
 50
63.59486621499917
 51
64.28261720258551
  0
ARC
  5
185
  8
0
  6
CONTINUOUS
 62
     7
 10
-588.2696645933881
 20
261.7500014317139
 30
0.0
 40
54.82028147948759
 50
69.82221107196256
 51
70.04819381735068
  0
LINE
  5
186
  8
0
  6
CONTINUOUS
 62
     7
 10
-556.269664593388
 20
321.250001431714
 30
0.0
 11
-587.519664593388
 21
321.250001431714
 31
0.0
  0
ARC
  5
187
  8
0
  6
CONTINUOUS
 62
     7
 10
-556.2696645933881
 20
317.250001431714
 30
0.0
 40
3.99999999999999
 50
0.0000000000001988
 51
89.99999999999982
  0
LINE
  5
188
  8
0
  6
CONTINUOUS
 62
     7
 10
-552.269664593388
 20
262.5000014317141
 30
0.0
 11
-552.269664593388
 21
317.250001431714
 31
0.0
  0
LINE
  5
189
  8
0
  6
CONTINUOUS
 62
     7
 10
-551.9696645933881
 20
262.5000014317141
 30
0.0
 11
-552.269664593388
 21
262.5000014317141
 31
0.0
  0
LINE
  5
18A
  8
0
  6
CONTINUOUS
 62
     7
 10
-551.9696645933881
 20
261.000001431714
 30
0.0
 11
-551.9696645933881
 21
262.500001431714
 31
0.0
  0
LINE
  5
18B
  8
0
  6
CONTINUOUS
 62
     7
 10
-551.9696645933881
 20
261.000001431714
 30
0.0
 11
-552.269664593388
 21
261.000001431714
 31
0.0
  0
LINE
  5
18C
  8
0
  6
CONTINUOUS
 62
     7
 10
-552.269664593388
 20
261.000001431714
 30
0.0
 11
-552.269664593388
 21
206.2500014317139
 31
0.0
  0
ARC
  5
18D
  8
0
  6
CONTINUOUS
 62
     7
 10
-556.2696645933881
 20
206.250001431714
 30
0.0
 40
3.99999999999999
 50
270.0000000000002
 51
359.9999999999998
  0
LINE
  5
18E
  8
0
  6
CONTINUOUS
 62
     7
 10
-556.269664593388
 20
202.250001431714
 30
0.0
 11
-587.519664593388
 21
202.250001431714
 31
0.0
  0
LINE
  5
18F
  8
0
  6
CONTINUOUS
 62
     7
 10
-587.519664593388
 20
202.250001431714
 30
0.0
 11
-587.519664593388
 21
201.950001431714
 31
0.0
  0
LINE
  5
190
  8
0
  6
CONTINUOUS
 62
     7
 10
-589.0196645933881
 20
201.950001431714
 30
0.0
 11
-587.519664593388
 21
201.950001431714
 31
0.0
  0
LINE
  5
191
  8
0
  6
CONTINUOUS
 62
     7
 10
-589.0196645933881
 20
202.250001431714
 30
0.0
 11
-589.0196645933881
 21
201.950001431714
 31
0.0
  0
LINE
  5
192
  8
0
  6
CONTINUOUS
 62
     7
 10
-620.2696645933881
 20
202.250001431714
 30
0.0
 11
-589.0196645933881
 21
202.250001431714
 31
0.0
  0
ARC
  5
193
  8
0
  6
CONTINUOUS
 62
     7
 10
-620.2696645933881
 20
206.250001431714
 30
0.0
 40
3.999999999999996
 50
180.0000000000002
 51
269.9999999999998
  0
LINE
  5
194
  8
0
  6
CONTINUOUS
 62
     7
 10
-624.2696645933881
 20
261.000001431714
 30
0.0
 11
-624.2696645933881
 21
206.2500014317139
 31
0.0
  0
LINE
  5
195
  8
0
  6
CONTINUOUS
 62
     7
 10
-624.5696645933881
 20
261.000001431714
 30
0.0
 11
-624.2696645933881
 21
261.000001431714
 31
0.0
  0
LINE
  5
196
  8
0
  6
CONTINUOUS
 62
     7
 10
-624.5696645933881
 20
261.000001431714
 30
0.0
 11
-624.5696645933881
 21
262.500001431714
 31
0.0
  0
LINE
  5
197
  8
0
  6
CONTINUOUS
 62
     7
 10
-624.5696645933881
 20
262.5000014317141
 30
0.0
 11
-624.2696645933881
 21
262.5000014317141
 31
0.0
  0
LINE
  5
198
  8
0
  6
CONTINUOUS
 62
     7
 10
-624.2696645933881
 20
262.5000014317141
 30
0.0
 11
-624.2696645933881
 21
317.250001431714
 31
0.0
  0
ARC
  5
199
  8
0
  6
CONTINUOUS
 62
     7
 10
-620.2696645933881
 20
317.250001431714
 30
0.0
 40
3.999999999999996
 50
90.00000000000021
 51
179.9999999999998
  0
LINE
  5
19A
  8
0
  6
CONTINUOUS
 62
     7
 10
-620.2696645933881
 20
321.250001431714
 30
0.0
 11
-589.0196645933881
 21
321.250001431714
 31
0.0
  0
LINE
  5
19B
  8
0
  6
CONTINUOUS
 62
     7
 10
-589.0196645933881
 20
321.250001431714
 30
0.0
 11
-589.0196645933881
 21
321.550001431714
 31
0.0
  0
LINE
  5
19C
  8
0
  6
CONTINUOUS
 62
     7
 10
-589.0196645933881
 20
321.550001431714
 30
0.0
 11
-587.519664593388
 21
321.550001431714
 31
0.0
  0
LINE
  5
19D
  8
0
  6
CONTINUOUS
 62
     7
 10
-587.519664593388
 20
321.250001431714
 30
0.0
 11
-587.519664593388
 21
321.550001431714
 31
0.0
  0
CIRCLE
  5
19E
  8
0
  6
CONTINUOUS
 62
     7
 10
-588.2696645933881
 20
261.750001431714
 30
0.0
 40
4.762500000000003
  0
LINE
  5
19F
  8
0
  6
CONTINUOUS
 62
     9
 10
-574.1696645933881
 20
322.0428946505275
 30
0.0
 11
-574.2268526538018
 21
322.0428946505275
 31
0.0
  0
LINE
  5
1A0
  8
0
  6
CONTINUOUS
 62
     9
 10
-574.2268526538018
 20
322.0428946505275
 30
0.0
 11
-574.338106563721
 21
323.3367490924365
 31
0.0
  0
LINE
  5
1A1
  8
0
  6
CONTINUOUS
 62
     9
 10
-574.338106563721
 20
323.3367490924365
 30
0.0
 11
-574.338106563721
 21
332.150001431714
 31
0.0
  0
LINE
  5
1A2
  8
0
  6
CONTINUOUS
 62
     9
 10
-602.3124765329745
 20
322.0428946505275
 30
0.0
 11
-602.3696645933882
 21
322.0428946505275
 31
0.0
  0
LINE
  5
1A3
  8
0
  6
CONTINUOUS
 62
     9
 10
-602.2012226230553
 20
323.3367490924251
 30
0.0
 11
-602.3124765329745
 21
322.0428946505275
 31
0.0
  0
LINE
  5
1A4
  8
0
  6
CONTINUOUS
 62
     9
 10
-602.2012226230553
 20
332.150001431714
 30
0.0
 11
-602.2012226230553
 21
323.3367490924252
 31
0.0
  0
CIRCLE
  5
1A5
  8
0
  6
CONTINUOUS
 62
     7
 10
-588.2696645933881
 20
261.750001431714
 30
0.0
 40
13.5
  0
CIRCLE
  5
1A6
  8
0
  6
CONTINUOUS
 62
     7
 10
-596.7696743341648
 20
261.7502418421299
 30
0.0
 40
1.499990278489094
  0
CIRCLE
  5
1A7
  8
0
  6
CONTINUOUS
 62
     7
 10
-579.7696719331359
 20
261.7502489062282
 30
0.0
 40
1.499992680666809
  0
CIRCLE
  5
1A8
  8
0
  6
CONTINUOUS
 62
     7
 10
-588.2696645933881
 20
261.750001431714
 30
0.0
 40
5.750000000000005
  0
CIRCLE
  5
1A9
  8
0
  6
CONTINUOUS
 62
     7
 10
-584.0197143590716
 20
254.3889890040209
 30
0.0
 40
1.500006008427565
  0
CIRCLE
  5
1AA
  8
0
  6
CONTINUOUS
 62
     7
 10
-584.0196308310908
 20
269.1113907163767
 30
0.0
 40
1.499986583772228
  0
CIRCLE
  5
1AB
  8
0
  6
CONTINUOUS
 62
     7
 10
-592.5196471533513
 20
269.1115694031518
 30
0.0
 40
1.499979439372286
  0
CIRCLE
  5
1AC
  8
0
  6
CONTINUOUS
 62
     7
 10
-588.2696645933881
 20
261.750001431714
 30
0.0
 40
11.0
  0
CIRCLE
  5
1AD
  8
0
  6
CONTINUOUS
 62
     7
 10
-592.5196981728553
 20
254.3889190547702
 30
0.0
 40
1.499981015975339
  0
CIRCLE
  5
1AE
  8
0
  6
CONTINUOUS
 62
     7
 10
-569.2696645933881
 20
261.750001431714
 30
0.0
 40
4.000000000000004
  0
CIRCLE
  5
1AF
  8
0
  6
CONTINUOUS
 62
     7
 10
-569.2696645933881
 20
261.750001431714
 30
0.0
 40
3.000000000000003
  0
ARC
  5
1B0
  8
0
  6
CONTINUOUS
 62
     7
 10
-569.2696645933881
 20
261.750001431714
 30
0.0
 40
5.000000000000004
 50
341.3370751150575
 51
18.66292488494253
  0
ARC
  5
1B1
  8
0
  6
CONTINUOUS
 62
     7
 10
-607.269664593388
 20
261.750001431714
 30
0.0
 40
5.000000000000002
 50
205.8419327631669
 51
154.1580672368332
  0
CIRCLE
  5
1B2
  8
0
  6
CONTINUOUS
 62
     7
 10
-607.269664593388
 20
261.750001431714
 30
0.0
 40
4.000000000000004
  0
CIRCLE
  5
1B3
  8
0
  6
CONTINUOUS
 62
     7
 10
-607.269664593388
 20
261.750001431714
 30
0.0
 40
2.999999999999989
  0
CIRCLE
  5
1B4
  8
0
  6
CONTINUOUS
 62
     7
 10
-588.2696645933881
 20
280.750001431714
 30
0.0
 40
3.000000000000003
  0
CIRCLE
  5
1B5
  8
0
  6
CONTINUOUS
 62
     7
 10
-588.2696645933881
 20
242.750001431714
 30
0.0
 40
2.999999999999989
  0
ARC
  5
1B6
  8
0
  6
CONTINUOUS
 62
     7
 10
-602.7196645962309
 20
350.2000014301013
 30
0.0
 40
1.249999999999973
 50
90.0000000036163
 51
180.0000000036157
  0
ARC
  5
1B7
  8
0
  6
CONTINUOUS
 62
     7
 10
-573.8196645962316
 20
350.2000014319252
 30
0.0
 40
1.249999999999987
 50
0.0000000036156546
 51
90.00000000361565
  0
LINE
  5
1B8
  8
0
  6
CONTINUOUS
 62
     7
 10
-571.9483442526329
 20
349.5786810884837
 30
0.0
 11
-572.5696645962317
 21
350.2000014320041
 31
0.0
  0
LINE
  5
1B9
  8
0
  6
CONTINUOUS
 62
     7
 10
-571.0696645951115
 20
332.4500014320992
 30
0.0
 11
-571.0696645960586
 21
347.4573607449795
 31
0.0
  0
ARC
  5
1BA
  8
0
  6
CONTINUOUS
 62
     7
 10
-574.0696645960586
 20
347.4573607447902
 30
0.0
 40
2.999999999999989
 50
0.0000000036160256
 51
45.00000000361598
  0
LINE
  5
1BB
  8
0
  6
CONTINUOUS
 62
     7
 10
-602.715551121455
 20
332.4500508911414
 30
0.0
 11
-602.7818088085373
 21
332.4577399609925
 31
0.0
  0
LINE
  5
1BC
  8
0
  6
CONTINUOUS
 62
     7
 10
-603.9696645962309
 20
350.2000014300224
 30
0.0
 11
-604.5909849397513
 21
349.5786810864236
 31
0.0
  0
ARC
  5
1BD
  8
0
  6
CONTINUOUS
 62
     7
 10
-602.4696645960578
 20
347.4573607429978
 30
0.0
 40
3.000000000000009
 50
135.0000000036159
 51
180.0000000036163
  0
LINE
  5
1BE
  8
0
  6
CONTINUOUS
 62
     7
 10
-605.4696645960578
 20
347.4573607428085
 30
0.0
 11
-605.4696645951107
 21
332.4500014299282
 31
0.0
  0
LINE
  5
1BF
  8
0
  6
CONTINUOUS
 62
     7
 10
-602.3696645933882
 20
322.0428946505275
 30
0.0
 11
-602.3696645933882
 21
321.250001431714
 31
0.0
  0
LINE
  5
1C0
  8
0
  6
CONTINUOUS
 62
     7
 10
-602.3696645933882
 20
332.4500014301238
 30
0.0
 11
-602.3696645933882
 21
332.150001431714
 31
0.0
  0
LINE
  5
1C1
  8
0
  6
CONTINUOUS
 62
     7
 10
-574.1696645933881
 20
332.150001431714
 30
0.0
 11
-574.1696645933881
 21
332.4500014319036
 31
0.0
  0
LINE
  5
1C2
  8
0
  6
CONTINUOUS
 62
     7
 10
-574.1696645933881
 20
321.250001431714
 30
0.0
 11
-574.1696645933881
 21
322.0428946505275
 31
0.0
  0
ARC
  5
1C3
  8
0
  6
CONTINUOUS
 62
     7
 10
-574.069664593388
 20
326.5926421188333
 30
0.0
 40
2.999999999999989
 50
315.0000000000002
 51
0.0
  0
ARC
  5
1C4
  8
0
  6
CONTINUOUS
 62
     7
 10
-602.4696645933881
 20
326.5926421188333
 30
0.0
 40
2.999999999999989
 50
180.0
 51
224.9999999999998
  0
LINE
  5
1C5
  8
0
  6
CONTINUOUS
 62
     7
 10
-605.4696645933881
 20
332.150001431714
 30
0.0
 11
-605.4696645933881
 21
326.5926421188333
 31
0.0
  0
LINE
  5
1C6
  8
0
  6
CONTINUOUS
 62
     7
 10
-571.0696645933881
 20
326.5926421188333
 30
0.0
 11
-571.0696645933881
 21
332.150001431714
 31
0.0
  0
ARC
  5
1C7
  8
0
  6
CONTINUOUS
 62
     7
 10
-602.869664593388
 20
322.0428946505275
 30
0.0
 40
0.5000000000000178
 50
0.0
 51
44.99999999999989
  0
LINE
  5
1C8
  8
0
  6
CONTINUOUS
 62
     7
 10
-604.5909849369477
 20
324.4713217752737
 30
0.0
 11
-602.5161112027948
 21
322.3964480411208
 31
0.0
  0
ARC
  5
1C9
  8
0
  6
CONTINUOUS
 62
     7
 10
-573.6696645933881
 20
322.0428946505275
 30
0.0
 40
0.5000000000000004
 50
135.0000000000003
 51
180.0
  0
LINE
  5
1CA
  8
0
  6
CONTINUOUS
 62
     7
 10
-574.0232179839813
 20
322.3964480411208
 30
0.0
 11
-571.9483442498284
 21
324.4713217752737
 31
0.0
  0
ENDBLK
  8
0
  0
ENDSEC
  0
SECTION
  2
ENTITIES
  0
INSERT
  5
AB
  8
0
  6
DOT
 62
     7
  2
D_FRAME_VIEW_7475
 10
0.0
 20
0.0
 30
0.0
  0
INSERT
  5
117
  8
0
  6
DOT
 62
     7
  2
D_FRAME_VIEW_7281
 10
0.0
 20
0.0
 30
0.0
  0
LINE
  5
118
  8
0
  6
CONTINUOUS
 62
     7
 10
-568.2696645933881
 20
113.0065137169951
 30
0.0
 11
-576.2696645933881
 21
113.0065137169951
 31
0.0
  0
INSERT
  5
1CB
  8
0
  6
DOT
 62
     7
  2
D_FRAME_VIEW_6502
 10
0.0
 20
0.0
 30
0.0
  0
TEXT
  5
1CC
  8
0
  6
CONTINUOUS
 62
     7
 10
-565.5652057021384
 20
86.65684006502438
 30
0.0
 40
6.0
  1
CDO-M16SG
  0
CIRCLE
  5
1CD
  8
0
  6
CONTINUOUS
 62
     7
 10
-610.5196645933881
 20
209.250001431714
 30
0.0
 40
3.5
  0
LINE
  5
1CE
  8
0
  6
CONTINUOUS
 62
     7
 10
-498.274238555394
 20
332.4500014310137
 30
0.0
 11
-469.3742385553958
 21
332.4500014310137
 31
0.0
  0
LINE
  5
1CF
  8
0
  6
CONTINUOUS
 62
     7
 10
-552.2696645933881
 20
115.8065137169951
 30
0.0
 11
-552.2696645933881
 21
125.8065137169951
 31
0.0
  0
LINE
  5
1D0
  8
0
  6
CONTINUOUS
 62
     7
 10
-510.7242385553946
 20
208.750001431714
 30
0.0
 11
-512.3273627928274
 21
208.750001431714
 31
0.0
  0
LINE
  5
1D1
  8
0
  6
CONTINUOUS
 62
     7
 10
-624.269664593388
 20
115.8065137169951
 30
0.0
 11
-624.269664593388
 21
125.8065137169951
 31
0.0
  0
LINE
  5
1D2
  8
0
  6
CONTINUOUS
 62
     7
 10
-624.5696645933881
 20
151.7065137169951
 30
0.0
 11
-551.9696645933881
 21
151.7065137169951
 31
0.0
  0
LINE
  5
1D3
  8
0
  6
CONTINUOUS
 62
     7
 10
-512.3273627928276
 20
209.750001431714
 30
0.0
 11
-510.7242385553946
 21
209.750001431714
 31
0.0
  0
LINE
  5
1D4
  8
0
  6
CONTINUOUS
 62
     7
 10
-622.269664593388
 20
149.2065137169952
 30
0.0
 11
-622.269664593388
 21
105.2065137169951
 31
0.0
  0
LINE
  5
1D5
  8
0
  6
CONTINUOUS
 62
     7
 10
-510.7242385553946
 20
313.750001431714
 30
0.0
 11
-512.3273627928274
 21
313.750001431714
 31
0.0
  0
LINE
  5
1D6
  8
0
  6
CONTINUOUS
 62
     7
 10
-482.0742385553946
 20
332.150001431714
 30
0.0
 11
-485.5742385553947
 21
332.150001431714
 31
0.0
  0
LINE
  5
1D7
  8
0
  6
CONTINUOUS
 62
     7
 10
-624.269664593388
 20
143.2065137169952
 30
0.0
 11
-624.269664593388
 21
129.2065137169951
 31
0.0
  0
LINE
  5
1D8
  8
0
  6
CONTINUOUS
 62
     7
 10
-602.7150816510707
 20
332.4500014301021
 30
0.0
 11
-605.4696645951102
 21
332.4500014299282
 31
0.0
  0
LINE
  5
1D9
  8
0
  6
CONTINUOUS
 62
     7
 10
-512.3273627928276
 20
314.750001431714
 30
0.0
 11
-510.7242385553946
 21
314.750001431714
 31
0.0
  0
LINE
  5
1DA
  8
0
  6
CONTINUOUS
 62
     7
 10
-552.2696645933881
 20
143.2065137169952
 30
0.0
 11
-552.2696645933881
 21
129.2065137169951
 31
0.0
  0
LINE
  5
1DB
  8
0
  6
CONTINUOUS
 62
     7
 10
-621.2696645933881
 20
104.2065137169951
 30
0.0
 11
-555.2696645933881
 21
104.2065137169951
 31
0.0
  0
LINE
  5
1DC
  8
0
  6
CONTINUOUS
 62
     7
 10
-571.0696645933881
 20
332.150001431714
 30
0.0
 11
-574.3381065637209
 21
332.150001431714
 31
0.0
  0
LINE
  5
1DD
  8
0
  6
CONTINUOUS
 62
     7
 10
-568.2696645933881
 20
104.7065137169951
 30
0.0
 11
-568.2696645933881
 21
113.0065137169951
 31
0.0
  0
LINE
  5
1DE
  8
0
  6
CONTINUOUS
 62
     7
 10
-576.2696645933881
 20
113.0065137169951
 30
0.0
 11
-576.2696645933881
 21
104.7065137169951
 31
0.0
  0
LINE
  5
1DF
  8
0
  6
CONTINUOUS
 62
     7
 10
-509.3242385553946
 20
321.550001431714
 30
0.0
 11
-509.3242385553946
 21
201.950001431714
 31
0.0
  0
LINE
  5
1E0
  8
0
  6
CONTINUOUS
 62
     7
 10
-485.5742385553947
 20
323.3367490924365
 30
0.0
 11
-485.5742385553947
 21
332.150001431714
 31
0.0
  0
LINE
  5
1E1
  8
0
  6
CONTINUOUS
 62
     7
 10
-468.1242385553946
 20
311.32908000528
 30
0.0
 11
-468.1242385553946
 21
310.000001431714
 31
0.0
  0
LINE
  5
1E2
  8
0
  6
CONTINUOUS
 62
     7
 10
-482.0742385553946
 20
332.150001431714
 30
0.0
 11
-482.0742385553946
 21
323.3367490924251
 31
0.0
  0
LINE
  5
1E3
  8
0
  6
CONTINUOUS
 62
     7
 10
-468.1242385553946
 20
316.500001431714
 30
0.0
 11
-468.1242385553946
 21
315.1709228581479
 31
0.0
  0
LINE
  5
1E4
  8
0
  6
CONTINUOUS
 62
     7
 10
-506.8242385553946
 20
321.550001431714
 30
0.0
 11
-506.8242385553946
 21
201.950001431714
 31
0.0
  0
LINE
  5
1E5
  8
0
  6
CONTINUOUS
 62
     7
 10
-560.2696645933881
 20
162.2065137169951
 30
0.0
 11
-616.269664593388
 21
162.2065137169951
 31
0.0
  0
LINE
  5
1E6
  8
0
  6
CONTINUOUS
 62
     7
 10
-465.9242385553947
 20
316.500001431714
 30
0.0
 11
-465.9242385553947
 21
315.1709228581487
 31
0.0
  0
LINE
  5
1E7
  8
0
  6
CONTINUOUS
 62
     7
 10
-465.9242385553947
 20
311.32908000528
 30
0.0
 11
-465.9242385553947
 21
310.000001431714
 31
0.0
  0
LINE
  5
1E8
  8
0
  6
CONTINUOUS
 62
     7
 10
-461.8242385553947
 20
206.250001431714
 30
0.0
 11
-461.8242385553947
 21
317.250001431714
 31
0.0
  0
LINE
  5
1E9
  8
0
  6
CONTINUOUS
 62
     7
 10
-624.5696645933881
 20
149.2065137169951
 30
0.0
 11
-551.9696645933881
 21
149.2065137169951
 31
0.0
  0
LINE
  5
1EA
  8
0
  6
CONTINUOUS
 62
     7
 10
-611.5196645933881
 20
208.750001431714
 30
0.0
 11
-613.8527822195025
 21
208.750001431714
 31
0.0
  0
LINE
  5
1EB
  8
0
  6
CONTINUOUS
 62
     7
 10
-597.2696645933881
 20
263.1642149940871
 30
0.0
 11
-597.2696645933881
 21
260.3357878693409
 31
0.0
  0
LINE
  5
1EC
  8
0
  6
CONTINUOUS
 62
     7
 10
-621.804848351876
 20
233.7500014317139
 30
0.0
 11
-616.269664593388
 21
233.7500014317139
 31
0.0
  0
LINE
  5
1ED
  8
0
  6
CONTINUOUS
 62
     7
 10
-579.2696645933881
 20
260.3357878693409
 30
0.0
 11
-579.2696645933881
 21
263.1642149940871
 31
0.0
  0
LINE
  5
1EE
  8
0
  6
CONTINUOUS
 62
     7
 10
-560.2696645933881
 20
287.7500014317139
 30
0.0
 11
-554.7344808349002
 21
287.7500014317139
 31
0.0
  0
LINE
  5
1EF
  8
0
  6
CONTINUOUS
 62
     7
 10
-554.7344808349002
 20
262.7500014317139
 30
0.0
 11
-560.2696645933881
 21
262.7500014317139
 31
0.0
  0
LINE
  5
1F0
  8
0
  6
CONTINUOUS
 62
     7
 10
-616.269664593388
 20
235.7500014317139
 30
0.0
 11
-621.804848351876
 21
235.7500014317139
 31
0.0
  0
LINE
  5
1F1
  8
0
  6
CONTINUOUS
 62
     7
 10
-616.269664593388
 20
289.7500014317139
 30
0.0
 11
-621.804848351876
 21
289.7500014317139
 31
0.0
  0
LINE
  5
1F2
  8
0
  6
CONTINUOUS
 62
     7
 10
-517.1270141931266
 20
233.7500014317139
 30
0.0
 11
-509.3242385553946
 21
233.7500014317139
 31
0.0
  0
LINE
  5
1F3
  8
0
  6
CONTINUOUS
 62
     7
 10
-517.1270141931266
 20
287.7500014317139
 30
0.0
 11
-509.3242385553946
 21
287.7500014317139
 31
0.0
  0
LINE
  5
1F4
  8
0
  6
CONTINUOUS
 62
     7
 10
-621.804848351876
 20
260.7500014317139
 30
0.0
 11
-616.269664593388
 21
260.7500014317139
 31
0.0
  0
LINE
  5
1F5
  8
0
  6
CONTINUOUS
 62
     7
 10
-517.1270141931266
 20
260.7500014317139
 30
0.0
 11
-509.3242385553946
 21
260.7500014317139
 31
0.0
  0
LINE
  5
1F6
  8
0
  6
CONTINUOUS
 62
     7
 10
-482.8242385553947
 20
332.4500014320973
 30
0.0
 11
-482.8242385553947
 21
349.7386277280489
 31
0.0
  0
LINE
  5
1F7
  8
0
  6
CONTINUOUS
 62
     7
 10
-616.269664593388
 20
262.7500014317139
 30
0.0
 11
-621.804848351876
 21
262.7500014317139
 31
0.0
  0
LINE
  5
1F8
  8
0
  6
CONTINUOUS
 62
     7
 10
-621.804848351876
 20
287.7500014317139
 30
0.0
 11
-616.269664593388
 21
287.7500014317139
 31
0.0
  0
LINE
  5
1F9
  8
0
  6
CONTINUOUS
 62
     7
 10
-560.2696645933881
 20
233.7500014317139
 30
0.0
 11
-554.7344808349002
 21
233.7500014317139
 31
0.0
  0
LINE
  5
1FA
  8
0
  6
CONTINUOUS
 62
     7
 10
-602.7196645963094
 20
351.4500014301012
 30
0.0
 11
-573.8196645963112
 21
351.4500014319252
 31
0.0
  0
LINE
  5
1FB
  8
0
  6
CONTINUOUS
 62
     7
 10
-562.6865469672736
 20
313.750001431714
 30
0.0
 11
-565.0196645933881
 21
313.750001431714
 31
0.0
  0
LINE
  5
1FC
  8
0
  6
CONTINUOUS
 62
     7
 10
-567.0196645933881
 20
313.750001431714
 30
0.0
 11
-569.3527822195026
 21
313.750001431714
 31
0.0
  0
LINE
  5
1FD
  8
0
  6
CONTINUOUS
 62
     7
 10
-565.0196645933881
 20
314.750001431714
 30
0.0
 11
-562.6865469672736
 21
314.750001431714
 31
0.0
  0
LINE
  5
1FE
  8
0
  6
CONTINUOUS
 62
     7
 10
-569.3527822195026
 20
314.750001431714
 30
0.0
 11
-567.019664593388
 21
314.750001431714
 31
0.0
  0
LINE
  5
1FF
  8
0
  6
CONTINUOUS
 62
     7
 10
-509.3242385553946
 20
289.7500014317139
 30
0.0
 11
-517.1270141931274
 21
289.7500014317139
 31
0.0
  0
LINE
  5
200
  8
0
  6
CONTINUOUS
 62
     7
 10
-509.3242385553946
 20
262.7500014317139
 30
0.0
 11
-517.1270141931274
 21
262.7500014317139
 31
0.0
  0
LINE
  5
201
  8
0
  6
CONTINUOUS
 62
     7
 10
-554.7344808349002
 20
289.7500014317139
 30
0.0
 11
-560.2696645933881
 21
289.7500014317139
 31
0.0
  0
LINE
  5
202
  8
0
  6
CONTINUOUS
 62
     7
 10
-607.1865469672736
 20
208.750001431714
 30
0.0
 11
-609.5196645933881
 21
208.750001431714
 31
0.0
  0
LINE
  5
203
  8
0
  6
CONTINUOUS
 62
     7
 10
-554.7344808349002
 20
235.7500014317139
 30
0.0
 11
-560.2696645933881
 21
235.7500014317139
 31
0.0
  0
LINE
  5
204
  8
0
  6
CONTINUOUS
 62
     7
 10
-609.5196645933881
 20
209.750001431714
 30
0.0
 11
-607.1865469672736
 21
209.750001431714
 31
0.0
  0
LINE
  5
205
  8
0
  6
CONTINUOUS
 62
     7
 10
-486.3242385553946
 20
349.7851014943826
 30
0.0
 11
-486.3242385553946
 21
332.4500014320877
 31
0.0
  0
LINE
  5
206
  8
0
  6
CONTINUOUS
 62
     7
 10
-519.8242385553946
 20
309.000001431714
 30
0.0
 11
-519.8242385553946
 21
214.5000014317139
 31
0.0
  0
LINE
  5
207
  8
0
  6
CONTINUOUS
 62
     7
 10
-560.2696645933881
 20
260.7500014317139
 30
0.0
 11
-554.7344808349002
 21
260.7500014317139
 31
0.0
  0
LINE
  5
208
  8
0
  6
CONTINUOUS
 62
     7
 10
-509.3242385553946
 20
235.7500014317139
 30
0.0
 11
-517.1270141931273
 21
235.7500014317139
 31
0.0
  0
LINE
  5
209
  8
0
  6
CONTINUOUS
 62
     7
 10
-571.0696645951119
 20
332.4500014320992
 30
0.0
 11
-602.6415990508474
 21
332.450001430107
 31
0.0
  0
LINE
  5
20A
  8
0
  6
CONTINUOUS
 62
     7
 10
-605.4696645933881
 20
332.150001431714
 30
0.0
 11
-602.2012226230553
 21
332.150001431714
 31
0.0
  0
LINE
  5
20B
  8
0
  6
CONTINUOUS
 62
     7
 10
-613.8527822195026
 20
209.750001431714
 30
0.0
 11
-611.519664593388
 21
209.750001431714
 31
0.0
  0
ARC
  5
20C
  8
0
  6
CONTINUOUS
 62
     7
 10
-607.269664593388
 20
261.750001431714
 30
0.0
 40
4.999999999999998
 50
161.3370751150576
 51
198.6629248849424
  0
ARC
  5
20D
  8
0
  6
CONTINUOUS
 62
     7
 10
-569.2696645933881
 20
261.750001431714
 30
0.0
 40
5.000000000000008
 50
25.84193276316688
 51
334.1580672368331
  0
CIRCLE
  5
20E
  8
0
  6
CONTINUOUS
 62
     7
 10
-566.0196645933881
 20
314.250001431714
 30
0.0
 40
3.499999999999998
  0
ENDSEC
  0
EOF
