  0
SECTION
  2
HEADER
  9
$ACADVER
  1
AC1006
  9
$DWGCODEPAGE
  3
ansi_932
  9
$INSBASE
 10
0.0
 20
0.0
 30
0.0
  9
$EXTMIN
 10
-721.0000000000001
 20
62.34090909090909
  9
$EXTMAX
 10
-562.5000000000002
 20
301.5575963766192
  9
$LIMMIN
 10
0.0
 20
0.0
  9
$LIMMAX
 10
12.0
 20
9.0
  9
$ORTHOMODE
 70
     0
  9
$REGENMODE
 70
     1
  9
$FILLMODE
 70
     1
  9
$QTEXTMODE
 70
     0
  9
$MIRRTEXT
 70
     1
  9
$DRAGMODE
 70
     2
  9
$LTSCALE
 40
1.0
  9
$OSMODE
 70
    37
  9
$ATTMODE
 70
     1
  9
$TEXTSIZE
 40
0.2
  9
$TRACEWID
 40
0.05
  9
$TEXTSTYLE
  7
STANDARD
  9
$CLAYER
  8
0
  9
$CELTYPE
  6
BYLAYER
  9
$CECOLOR
 62
   256
  9
$DIMSCALE
 40
1.0
  9
$DIMASZ
 40
3.0
  9
$DIMEXO
 40
0.0625
  9
$DIMDLI
 40
0.38
  9
$DIMRND
 40
0.0
  9
$DIMDLE
 40
0.0
  9
$DIMEXE
 40
1.5
  9
$DIMTP
 40
0.0
  9
$DIMTM
 40
0.0
  9
$DIMTXT
 40
3.0
  9
$DIMCEN
 40
0.09
  9
$DIMTSZ
 40
0.0
  9
$DIMTOL
 70
     0
  9
$DIMLIM
 70
     0
  9
$DIMTIH
 70
     1
  9
$DIMTOH
 70
     1
  9
$DIMSE1
 70
     0
  9
$DIMSE2
 70
     0
  9
$DIMTAD
 70
     1
  9
$DIMZIN
 70
     0
  9
$DIMBLK
  1

  9
$DIMASO
 70
     1
  9
$DIMSHO
 70
     1
  9
$DIMPOST
  1

  9
$DIMAPOST
  1

  9
$DIMALT
 70
     0
  9
$DIMALTD
 70
     2
  9
$DIMALTF
 40
25.4
  9
$DIMLFAC
 40
1.0
  9
$DIMTOFL
 70
     0
  9
$DIMTVP
 40
0.0
  9
$DIMTIX
 70
     0
  9
$DIMSOXD
 70
     0
  9
$DIMSAH
 70
     0
  9
$DIMBLK1
  1

  9
$DIMBLK2
  1

  9
$LUNITS
 70
     2
  9
$LUPREC
 70
     4
  9
$SKETCHINC
 40
0.1
  9
$FILLETRAD
 40
0.5
  9
$AUNITS
 70
     0
  9
$AUPREC
 70
     0
  9
$MENU
  1
.
  9
$ELEVATION
 40
0.0
  9
$THICKNESS
 40
0.0
  9
$LIMCHECK
 70
     0
  9
$CHAMFERA
 40
0.0
  9
$CHAMFERB
 40
0.0
  9
$SKPOLY
 70
     0
  9
$TDCREATE
 40
2459395.604202396
  9
$TDUPDATE
 40
2459395.604202581
  9
$TDINDWG
 40
0.0000000116
  9
$TDUSRTIMER
 40
0.0000000116
  9
$USRTIMER
 70
     1
  9
$ANGBASE
 50
0.0
  9
$ANGDIR
 70
     0
  9
$PDMODE
 70
     0
  9
$PDSIZE
 40
0.0
  9
$PLINEWID
 40
0.0
  9
$COORDS
 70
     1
  9
$SPLFRAME
 70
     0
  9
$SPLINETYPE
 70
     6
  9
$SPLINESEGS
 70
     8
  9
$ATTDIA
 70
     0
  9
$ATTREQ
 70
     1
  9
$HANDLING
 70
     1
  9
$HANDSEED
  5
273
  9
$SURFTAB1
 70
     6
  9
$SURFTAB2
 70
     6
  9
$SURFTYPE
 70
     6
  9
$SURFU
 70
     6
  9
$SURFV
 70
     6
  9
$UCSNAME
  2

  9
$UCSORG
 10
0.0
 20
0.0
 30
0.0
  9
$UCSXDIR
 10
1.0
 20
0.0
 30
0.0
  9
$UCSYDIR
 10
0.0
 20
1.0
 30
0.0
  9
$USERI1
 70
     0
  9
$USERI2
 70
     0
  9
$USERI3
 70
     0
  9
$USERI4
 70
     0
  9
$USERI5
 70
     0
  9
$USERR1
 40
0.0
  9
$USERR2
 40
0.0
  9
$USERR3
 40
0.0
  9
$USERR4
 40
0.0
  9
$USERR5
 40
0.0
  9
$WORLDVIEW
 70
     1
  0
ENDSEC
  0
SECTION
  2
TABLES
  0
TABLE
  2
VPORT
 70
     1
  0
VPORT
  2
*ACTIVE
 70
     0
 10
0.0
 20
0.0
 11
1.0
 21
1.0
 12
-641.7500000000002
 22
181.9492527337641
 13
0.0
 23
0.0
 14
0.5
 24
0.5
 15
0.5
 25
0.5
 16
0.0
 26
0.0
 36
1.0
 17
0.0
 27
0.0
 37
0.0
 40
239.2166872857101
 41
1.6
 42
50.0
 43
0.0
 44
0.0
 50
0.0
 51
0.0
 71
     0
 72
   100
 73
     1
 74
     3
 75
     0
 76
     0
 77
     0
 78
     0
  0
ENDTAB
  0
TABLE
  2
LTYPE
 70
     2
  0
LTYPE
  2
CONTINUOUS
 70
     0
  3
Solid line
 72
    65
 73
     0
 40
0.0
  0
LTYPE
  2
DOT
 70
     0
  3

 72
    65
 73
     0
 40
0.0
  0
ENDTAB
  0
TABLE
  2
LAYER
 70
     1
  0
LAYER
  2
0
 70
     0
 62
     7
  6
CONTINUOUS
  0
ENDTAB
  0
TABLE
  2
STYLE
 70
     2
  0
STYLE
  2
STANDARD
 70
     0
 40
0.0
 41
1.0
 50
0.0
 71
     0
 42
0.2
  3
txt
  4

  0
STYLE
  2
ＭＳ_ゴシック
 70
     0
 40
0.0
 41
1.0
 50
0.0
 71
     0
 42
0.2
  3
ＭＳ ゴシック.shx
  4

  0
ENDTAB
  0
TABLE
  2
VIEW
 70
     0
  0
ENDTAB
  0
TABLE
  2
UCS
 70
     0
  0
ENDTAB
  0
ENDSEC
  0
SECTION
  2
BLOCKS
  0
BLOCK
  8
0
  2
D_FRAME_VIEW_4660
 70
     0
 10
0.0
 20
0.0
 30
0.0
  0
CIRCLE
  5
99
  8
0
  6
CONTINUOUS
 62
     9
 10
-685.0
 20
170.1075963764081
 30
0.0
 40
2.000000000000002
  0
CIRCLE
  5
9A
  8
0
  6
CONTINUOUS
 62
     7
 10
-685.0
 20
170.1075963764081
 30
0.0
 40
1.649999999999999
  0
CIRCLE
  5
9B
  8
0
  6
CONTINUOUS
 62
     7
 10
-685.0
 20
253.6075963764081
 30
0.0
 40
1.649999999999999
  0
LINE
  5
9C
  8
0
  6
CONTINUOUS
 62
     7
 10
-710.0000000000001
 20
158.8575963764081
 30
0.0
 11
-708.5500000000001
 21
158.8575963764081
 31
0.0
  0
ARC
  5
9D
  8
0
  6
CONTINUOUS
 62
     7
 10
-708.5500000000001
 20
158.0575963764081
 30
0.0
 40
0.800000000000009
 50
0.0
 51
89.99999999999949
  0
LINE
  5
9E
  8
0
  6
CONTINUOUS
 62
     7
 10
-707.7500000000001
 20
158.0575963764081
 30
0.0
 11
-707.7500000000001
 21
157.16385527956
 31
0.0
  0
ARC
  5
9F
  8
0
  6
CONTINUOUS
 62
     7
 10
-707.2500000000001
 20
159.3575963764081
 30
0.0
 40
2.249999999999998
 50
257.1604115930959
 51
282.8395884069041
  0
LINE
  5
A0
  8
0
  6
CONTINUOUS
 62
     7
 10
-706.7500000000001
 20
157.16385527956
 30
0.0
 11
-706.7500000000001
 21
158.0575963764081
 31
0.0
  0
ARC
  5
A1
  8
0
  6
CONTINUOUS
 62
     7
 10
-705.95
 20
158.0575963764081
 30
0.0
 40
0.800000000000002
 50
90.0
 51
179.9999999999995
  0
LINE
  5
A2
  8
0
  6
CONTINUOUS
 62
     7
 10
-705.95
 20
158.8575963764081
 30
0.0
 11
-704.5000000000001
 21
158.8575963764081
 31
0.0
  0
LINE
  5
A3
  8
0
  6
CONTINUOUS
 62
     7
 10
-704.5000000000001
 20
158.8575963764081
 30
0.0
 11
-704.5000000000001
 21
159.8575963764081
 31
0.0
  0
LINE
  5
A4
  8
0
  6
CONTINUOUS
 62
     7
 10
-704.5000000000001
 20
159.8575963764081
 30
0.0
 11
-705.95
 21
159.8575963764081
 31
0.0
  0
ARC
  5
A5
  8
0
  6
CONTINUOUS
 62
     7
 10
-705.95
 20
160.6575963764081
 30
0.0
 40
0.7999999999999952
 50
180.0
 51
269.9999999999995
  0
LINE
  5
A6
  8
0
  6
CONTINUOUS
 62
     7
 10
-706.7500000000001
 20
160.6575963764081
 30
0.0
 11
-706.7500000000001
 21
161.5513374732561
 31
0.0
  0
ARC
  5
A7
  8
0
  6
CONTINUOUS
 62
     7
 10
-707.2500000000001
 20
159.3575963764081
 30
0.0
 40
2.250000000000012
 50
77.16041159309587
 51
102.8395884069042
  0
LINE
  5
A8
  8
0
  6
CONTINUOUS
 62
     7
 10
-707.7500000000001
 20
161.5513374732561
 30
0.0
 11
-707.7500000000001
 21
160.6575963764081
 31
0.0
  0
ARC
  5
A9
  8
0
  6
CONTINUOUS
 62
     7
 10
-708.5500000000001
 20
160.6575963764081
 30
0.0
 40
0.800000000000002
 50
270.0
 51
0.0
  0
LINE
  5
AA
  8
0
  6
CONTINUOUS
 62
     7
 10
-708.5500000000001
 20
159.8575963764081
 30
0.0
 11
-710.0000000000002
 21
159.8575963764081
 31
0.0
  0
LINE
  5
AB
  8
0
  6
CONTINUOUS
 62
     7
 10
-710.0000000000001
 20
159.8575963764081
 30
0.0
 11
-710.0000000000001
 21
158.8575963764081
 31
0.0
  0
LINE
  5
AC
  8
0
  6
CONTINUOUS
 62
     7
 10
-665.5000000000001
 20
263.857596376408
 30
0.0
 11
-664.0500000000001
 21
263.857596376408
 31
0.0
  0
ARC
  5
AD
  8
0
  6
CONTINUOUS
 62
     7
 10
-664.0500000000002
 20
263.057596376408
 30
0.0
 40
0.7999999999999952
 50
0.0
 51
89.99999999999949
  0
LINE
  5
AE
  8
0
  6
CONTINUOUS
 62
     7
 10
-663.2500000000001
 20
263.057596376408
 30
0.0
 11
-663.2500000000001
 21
262.16385527956
 31
0.0
  0
ARC
  5
AF
  8
0
  6
CONTINUOUS
 62
     7
 10
-662.7500000000001
 20
264.357596376408
 30
0.0
 40
2.250000000000025
 50
257.1604115930959
 51
282.8395884069041
  0
LINE
  5
B0
  8
0
  6
CONTINUOUS
 62
     7
 10
-662.2500000000001
 20
262.16385527956
 30
0.0
 11
-662.2500000000001
 21
263.057596376408
 31
0.0
  0
ARC
  5
B1
  8
0
  6
CONTINUOUS
 62
     7
 10
-661.45
 20
263.057596376408
 30
0.0
 40
0.7999999999999952
 50
90.0
 51
179.9999999999995
  0
LINE
  5
B2
  8
0
  6
CONTINUOUS
 62
     7
 10
-661.45
 20
263.857596376408
 30
0.0
 11
-660.0000000000001
 21
263.857596376408
 31
0.0
  0
LINE
  5
B3
  8
0
  6
CONTINUOUS
 62
     7
 10
-660.0000000000001
 20
263.857596376408
 30
0.0
 11
-660.0000000000001
 21
264.857596376408
 31
0.0
  0
LINE
  5
B4
  8
0
  6
CONTINUOUS
 62
     7
 10
-660.0000000000001
 20
264.857596376408
 30
0.0
 11
-661.45
 21
264.857596376408
 31
0.0
  0
ARC
  5
B5
  8
0
  6
CONTINUOUS
 62
     7
 10
-661.45
 20
265.657596376408
 30
0.0
 40
0.7999999999999952
 50
180.0
 51
269.9999999999995
  0
LINE
  5
B6
  8
0
  6
CONTINUOUS
 62
     7
 10
-662.2500000000001
 20
265.657596376408
 30
0.0
 11
-662.2500000000001
 21
266.5513374732561
 31
0.0
  0
ARC
  5
B7
  8
0
  6
CONTINUOUS
 62
     7
 10
-662.7500000000001
 20
264.357596376408
 30
0.0
 40
2.249999999999998
 50
77.16041159309587
 51
102.8395884069042
  0
LINE
  5
B8
  8
0
  6
CONTINUOUS
 62
     7
 10
-663.2500000000001
 20
266.5513374732561
 30
0.0
 11
-663.2500000000001
 21
265.657596376408
 31
0.0
  0
ARC
  5
B9
  8
0
  6
CONTINUOUS
 62
     7
 10
-664.0500000000002
 20
265.657596376408
 30
0.0
 40
0.7999999999999952
 50
270.0
 51
0.0
  0
LINE
  5
BA
  8
0
  6
CONTINUOUS
 62
     7
 10
-664.0500000000002
 20
264.857596376408
 30
0.0
 11
-665.5000000000002
 21
264.857596376408
 31
0.0
  0
LINE
  5
BB
  8
0
  6
CONTINUOUS
 62
     7
 10
-665.5000000000001
 20
264.857596376408
 30
0.0
 11
-665.5000000000001
 21
263.857596376408
 31
0.0
  0
ARC
  5
BC
  8
0
  6
CONTINUOUS
 62
     9
 10
-670.8596889335821
 20
283.8725306759832
 30
0.0
 40
1.314944423058309
 50
269.7751704940524
 51
314.8892231872231
  0
POLYLINE
  5
BD
  8
0
  6
CONTINUOUS
 62
     9
 66
     1
 10
0.0
 20
0.0
 30
0.0
  0
VERTEX
  5
1F8
  8
0
  6
CONTINUOUS
 62
     9
 10
-669.931682257749
 20
282.94092859068
 30
0.0
  0
VERTEX
  5
1F9
  8
0
  6
CONTINUOUS
 62
     9
 10
-669.8371775451961
 20
283.0474855788767
 30
0.0
  0
VERTEX
  5
1FA
  8
0
  6
CONTINUOUS
 62
     9
 10
-669.776551842009
 20
283.1310805637838
 30
0.0
  0
VERTEX
  5
1FB
  8
0
  6
CONTINUOUS
 62
     9
 10
-669.7062924668858
 20
283.2510082734252
 30
0.0
  0
VERTEX
  5
1FC
  8
0
  6
CONTINUOUS
 62
     9
 10
-669.6500093377582
 20
283.3779756234293
 30
0.0
  0
VERTEX
  5
1FD
  8
0
  6
CONTINUOUS
 62
     9
 10
-669.6148785925703
 20
283.4860814654523
 30
0.0
  0
VERTEX
  5
1FE
  8
0
  6
CONTINUOUS
 62
     9
 10
-669.5869971390956
 20
283.6145736569642
 30
0.0
  0
VERTEX
  5
1FF
  8
0
  6
CONTINUOUS
 62
     9
 10
-669.5732857369468
 20
283.7427656431477
 30
0.0
  0
VERTEX
  5
200
  8
0
  6
CONTINUOUS
 62
     9
 10
-669.5715528288897
 20
283.8075963766814
 30
0.0
  0
SEQEND
  5
26B
  8
0
  6
CONTINUOUS
 62
     9
  0
POLYLINE
  5
BE
  8
0
  6
CONTINUOUS
 62
     9
 66
     1
 10
0.0
 20
0.0
 30
0.0
  0
VERTEX
  5
201
  8
0
  6
CONTINUOUS
 62
     9
 10
-700.632554033112
 20
283.8075963747197
 30
0.0
  0
VERTEX
  5
202
  8
0
  6
CONTINUOUS
 62
     9
 10
-700.62768808072
 20
283.6978142125819
 30
0.0
  0
VERTEX
  5
203
  8
0
  6
CONTINUOUS
 62
     9
 10
-700.6053131583463
 20
283.5490035811113
 30
0.0
  0
VERTEX
  5
204
  8
0
  6
CONTINUOUS
 62
     9
 10
-700.5787267129119
 20
283.4460424177976
 30
0.0
  0
VERTEX
  5
205
  8
0
  6
CONTINUOUS
 62
     9
 10
-700.5438382844808
 20
283.3467345147797
 30
0.0
  0
VERTEX
  5
206
  8
0
  6
CONTINUOUS
 62
     9
 10
-700.4830383404864
 20
283.2168491661766
 30
0.0
  0
VERTEX
  5
207
  8
0
  6
CONTINUOUS
 62
     9
 10
-700.4180004700164
 20
283.1097309365666
 30
0.0
  0
VERTEX
  5
208
  8
0
  6
CONTINUOUS
 62
     9
 10
-700.3253174536618
 20
282.989485790811
 30
0.0
  0
VERTEX
  5
209
  8
0
  6
CONTINUOUS
 62
     9
 10
-700.2246867945055
 20
282.886703143146
 30
0.0
  0
VERTEX
  5
20A
  8
0
  6
CONTINUOUS
 62
     9
 10
-700.1276436937937
 20
282.8068436932356
 30
0.0
  0
SEQEND
  5
26C
  8
0
  6
CONTINUOUS
 62
     9
  0
ARC
  5
BF
  8
0
  6
CONTINUOUS
 62
     9
 10
-699.373283390498
 20
283.8243087793265
 30
0.0
 40
1.266607543243952
 50
233.446337550995
 51
263.588901067148
  0
LINE
  5
C0
  8
0
  6
CONTINUOUS
 62
     9
 10
-669.5715528288897
 20
283.8075963766814
 30
0.0
 11
-669.5715528299311
 21
300.307596376681
 31
0.0
  0
LINE
  5
C1
  8
0
  6
CONTINUOUS
 62
     9
 10
-700.6325540341533
 20
300.3075963747207
 30
0.0
 11
-700.6325540331119
 21
283.8075963747211
 31
0.0
  0
LINE
  5
C2
  8
0
  6
CONTINUOUS
 62
     9
 10
-699.5147146073718
 20
282.565622210122
 30
0.0
 11
-699.3719344574589
 21
282.5575963748007
 31
0.0
  0
LINE
  5
C3
  8
0
  6
CONTINUOUS
 62
     9
 10
-702.2000000026693
 20
297.5649556875025
 30
0.0
 11
-702.1709056281744
 21
297.5649556875043
 31
0.0
  0
ARC
  5
C4
  8
0
  6
CONTINUOUS
 62
     7
 10
-699.1737278782879
 20
297.5645581636126
 30
0.0
 40
2.997177776249247
 50
134.935265129824
 51
179.9924007039222
  0
CIRCLE
  5
C5
  8
0
  6
CONTINUOUS
 62
     7
 10
-662.75
 20
159.3575963764081
 30
0.0
 40
1.999999999999988
  0
CIRCLE
  5
C6
  8
0
  6
CONTINUOUS
 62
     7
 10
-685.0
 20
170.1075963764081
 30
0.0
 40
4.000000000000004
  0
LINE
  5
C7
  8
0
  6
CONTINUOUS
 62
     7
 10
-656.0000000000001
 20
267.107596376408
 30
0.0
 11
-659.1880482878064
 21
267.107596376408
 31
0.0
  0
ARC
  5
C8
  8
0
  6
CONTINUOUS
 62
     7
 10
-656.0000000000001
 20
265.357596376408
 30
0.0
 40
1.750000000000002
 50
359.9999999999998
 51
90.0
  0
LINE
  5
C9
  8
0
  6
CONTINUOUS
 62
     7
 10
-654.2500000000001
 20
158.3575963764081
 30
0.0
 11
-654.2500000000001
 21
265.357596376408
 31
0.0
  0
ARC
  5
CA
  8
0
  6
CONTINUOUS
 62
     7
 10
-656.0000000000001
 20
158.3575963764081
 30
0.0
 40
1.750000000000002
 50
270.0
 51
0.0000000000002274
  0
LINE
  5
CB
  8
0
  6
CONTINUOUS
 62
     7
 10
-656.0000000000001
 20
156.6075963764081
 30
0.0
 11
-659.1880482878064
 21
156.6075963764081
 31
0.0
  0
ARC
  5
CC
  8
0
  6
CONTINUOUS
 62
     7
 10
-662.75
 20
159.3575963764081
 30
0.0
 40
4.499999999999992
 50
217.6698869643297
 51
322.3301130356701
  0
LINE
  5
CD
  8
0
  6
CONTINUOUS
 62
     7
 10
-703.6880482878064
 20
156.6075963764081
 30
0.0
 11
-666.3119517121938
 21
156.6075963764081
 31
0.0
  0
ARC
  5
CE
  8
0
  6
CONTINUOUS
 62
     7
 10
-707.2500000000001
 20
159.3575963764081
 30
0.0
 40
4.499999999999997
 50
217.6698869643299
 51
322.3301130356703
  0
LINE
  5
CF
  8
0
  6
CONTINUOUS
 62
     7
 10
-714.0000000000002
 20
156.6075963764081
 30
0.0
 11
-710.811951712194
 21
156.6075963764081
 31
0.0
  0
ARC
  5
D0
  8
0
  6
CONTINUOUS
 62
     7
 10
-714.0000000000002
 20
158.3575963764081
 30
0.0
 40
1.750000000000002
 50
179.9999999999998
 51
270.0
  0
LINE
  5
D1
  8
0
  6
CONTINUOUS
 62
     7
 10
-715.7500000000001
 20
158.3575963764081
 30
0.0
 11
-715.7500000000001
 21
265.357596376408
 31
0.0
  0
ARC
  5
D2
  8
0
  6
CONTINUOUS
 62
     7
 10
-714.0000000000002
 20
265.357596376408
 30
0.0
 40
1.750000000000002
 50
90.0
 51
180.0000000000002
  0
LINE
  5
D3
  8
0
  6
CONTINUOUS
 62
     7
 10
-714.0000000000002
 20
267.107596376408
 30
0.0
 11
-710.811951712194
 21
267.107596376408
 31
0.0
  0
ARC
  5
D4
  8
0
  6
CONTINUOUS
 62
     7
 10
-707.2500000000001
 20
264.357596376408
 30
0.0
 40
4.499999999999988
 50
37.66988696432974
 51
142.3301130356701
  0
LINE
  5
D5
  8
0
  6
CONTINUOUS
 62
     7
 10
-703.6880482878064
 20
267.107596376408
 30
0.0
 11
-666.3119517121938
 21
267.107596376408
 31
0.0
  0
ARC
  5
D6
  8
0
  6
CONTINUOUS
 62
     7
 10
-662.75
 20
264.357596376408
 30
0.0
 40
4.499999999999983
 50
37.66988696432986
 51
142.3301130356703
  0
CIRCLE
  5
D7
  8
0
  6
CONTINUOUS
 62
     7
 10
-685.0
 20
253.6075963764081
 30
0.0
 40
4.000000000000004
  0
ARC
  5
D8
  8
0
  6
CONTINUOUS
 62
     7
 10
-693.6564955077873
 20
250.8013380982623
 30
0.0
 40
4.000000000000001
 50
17.96163070225044
 51
103.9135857707628
  0
ARC
  5
D9
  8
0
  6
CONTINUOUS
 62
     7
 10
-685.0000000000001
 20
215.8575963764081
 30
0.0
 40
39.99999999999995
 50
103.9135857707628
 51
124.8499045790465
  0
ARC
  5
DA
  8
0
  6
CONTINUOUS
 62
     7
 10
-705.0000000000001
 20
244.5804096090982
 30
0.0
 40
5.000000000000016
 50
124.8499045790466
 51
180.0000000000002
  0
LINE
  5
DB
  8
0
  6
CONTINUOUS
 62
     7
 10
-710.0000000000002
 20
244.5804096090982
 30
0.0
 11
-710.0000000000002
 21
179.134783143718
 31
0.0
  0
ARC
  5
DC
  8
0
  6
CONTINUOUS
 62
     7
 10
-705.0000000000001
 20
179.1347831437179
 30
0.0
 40
5.000000000000004
 50
179.9999999999999
 51
235.1500954209534
  0
ARC
  5
DD
  8
0
  6
CONTINUOUS
 62
     7
 10
-685.0000000000001
 20
207.8575963764081
 30
0.0
 40
39.99999999999995
 50
235.1500954209534
 51
256.0864142292371
  0
ARC
  5
DE
  8
0
  6
CONTINUOUS
 62
     7
 10
-693.6564955077873
 20
172.9138546545537
 30
0.0
 40
4.000000000000001
 50
256.0864142292372
 51
342.0383692977496
  0
ARC
  5
DF
  8
0
  6
CONTINUOUS
 62
     7
 10
-685.0000000000001
 20
170.1075963764081
 30
0.0
 40
5.100000000000003
 50
17.96163070225003
 51
162.0383692977496
  0
ARC
  5
E0
  8
0
  6
CONTINUOUS
 62
     7
 10
-676.3435044922129
 20
172.9138546545537
 30
0.0
 40
4.000000000000008
 50
197.9616307022505
 51
283.9135857707628
  0
ARC
  5
E1
  8
0
  6
CONTINUOUS
 62
     7
 10
-685.0
 20
207.8575963764081
 30
0.0
 40
39.99999999999995
 50
283.9135857707628
 51
304.8499045790465
  0
ARC
  5
E2
  8
0
  6
CONTINUOUS
 62
     7
 10
-665.0
 20
179.1347831437179
 30
0.0
 40
5.000000000000004
 50
304.8499045790466
 51
0.0000000000001705
  0
LINE
  5
E3
  8
0
  6
CONTINUOUS
 62
     7
 10
-660.0
 20
244.5804096090982
 30
0.0
 11
-660.0
 21
179.134783143718
 31
0.0
  0
ARC
  5
E4
  8
0
  6
CONTINUOUS
 62
     7
 10
-665.0
 20
244.5804096090982
 30
0.0
 40
5.000000000000016
 50
359.9999999999998
 51
55.15009542095333
  0
ARC
  5
E5
  8
0
  6
CONTINUOUS
 62
     7
 10
-685.0
 20
215.8575963764081
 30
0.0
 40
39.99999999999995
 50
55.15009542095351
 51
76.08641422923716
  0
ARC
  5
E6
  8
0
  6
CONTINUOUS
 62
     7
 10
-676.3435044922129
 20
250.8013380982623
 30
0.0
 40
4.000000000000008
 50
76.08641422923722
 51
162.0383692977496
  0
ARC
  5
E7
  8
0
  6
CONTINUOUS
 62
     7
 10
-685.0000000000001
 20
253.6075963764081
 30
0.0
 40
5.100000000000003
 50
197.9616307022505
 51
342.03836929775
  0
CIRCLE
  5
E8
  8
0
  6
CONTINUOUS
 62
     7
 10
-707.2500000000001
 20
264.357596376408
 30
0.0
 40
2.000000000000002
  0
ARC
  5
E9
  8
0
  6
CONTINUOUS
 62
     7
 10
-712.0500000000001
 20
263.157596376408
 30
0.0
 40
0.6000000000000033
 50
180.0
 51
270.0000000000003
  0
LINE
  5
EA
  8
0
  6
CONTINUOUS
 62
     7
 10
-712.0500000000001
 20
262.5575963764081
 30
0.0
 11
-711.85
 21
262.5575963764081
 31
0.0
  0
ARC
  5
EB
  8
0
  6
CONTINUOUS
 62
     7
 10
-711.85
 20
263.157596376408
 30
0.0
 40
0.6000000000000172
 50
270.0000000000007
 51
359.9999999999987
  0
LINE
  5
EC
  8
0
  6
CONTINUOUS
 62
     7
 10
-711.2500000000001
 20
263.157596376408
 30
0.0
 11
-711.2500000000001
 21
265.557596376408
 31
0.0
  0
ARC
  5
ED
  8
0
  6
CONTINUOUS
 62
     7
 10
-711.85
 20
265.5575963764081
 30
0.0
 40
0.6000000000000033
 50
0.0000000000006626
 51
90.00000000000034
  0
LINE
  5
EE
  8
0
  6
CONTINUOUS
 62
     7
 10
-711.85
 20
266.157596376408
 30
0.0
 11
-712.0500000000001
 21
266.157596376408
 31
0.0
  0
ARC
  5
EF
  8
0
  6
CONTINUOUS
 62
     7
 10
-657.9500000000002
 20
160.557596376408
 30
0.0
 40
0.6000000000000033
 50
0.0000000000013252
 51
90.0
  0
LINE
  5
F0
  8
0
  6
CONTINUOUS
 62
     7
 10
-657.9500000000002
 20
161.1575963764081
 30
0.0
 11
-658.1500000000001
 21
161.1575963764081
 31
0.0
  0
ARC
  5
F1
  8
0
  6
CONTINUOUS
 62
     7
 10
-658.1500000000001
 20
160.557596376408
 30
0.0
 40
0.6000000000000033
 50
90.00000000000068
 51
179.9999999999994
  0
LINE
  5
F2
  8
0
  6
CONTINUOUS
 62
     7
 10
-658.7500000000001
 20
160.5575963764081
 30
0.0
 11
-658.7500000000001
 21
158.1575963764081
 31
0.0
  0
ARC
  5
F3
  8
0
  6
CONTINUOUS
 62
     7
 10
-658.1500000000001
 20
158.1575963764081
 30
0.0
 40
0.5999999999999894
 50
180.0
 51
270.0000000000003
  0
LINE
  5
F4
  8
0
  6
CONTINUOUS
 62
     7
 10
-658.1500000000001
 20
157.5575963764081
 30
0.0
 11
-657.9500000000002
 21
157.5575963764081
 31
0.0
  0
ARC
  5
F5
  8
0
  6
CONTINUOUS
 62
     7
 10
-702.6500000000001
 20
263.157596376408
 30
0.0
 40
0.6000000000000033
 50
180.0
 51
269.999999999999
  0
LINE
  5
F6
  8
0
  6
CONTINUOUS
 62
     7
 10
-702.6500000000001
 20
262.5575963764081
 30
0.0
 11
-702.45
 21
262.5575963764081
 31
0.0
  0
ARC
  5
F7
  8
0
  6
CONTINUOUS
 62
     7
 10
-702.4500000000002
 20
263.157596376408
 30
0.0
 40
0.5999999999999894
 50
270.0000000000013
 51
359.9999999999986
  0
LINE
  5
F8
  8
0
  6
CONTINUOUS
 62
     7
 10
-701.85
 20
263.157596376408
 30
0.0
 11
-701.85
 21
265.557596376408
 31
0.0
  0
ARC
  5
F9
  8
0
  6
CONTINUOUS
 62
     7
 10
-702.4500000000002
 20
265.5575963764081
 30
0.0
 40
0.6000000000000033
 50
0.0
 51
89.999999999999
  0
LINE
  5
FA
  8
0
  6
CONTINUOUS
 62
     7
 10
-702.4500000000002
 20
266.157596376408
 30
0.0
 11
-702.6500000000001
 21
266.157596376408
 31
0.0
  0
ARC
  5
FB
  8
0
  6
CONTINUOUS
 62
     7
 10
-658.1500000000001
 20
263.157596376408
 30
0.0
 40
0.6000000000000033
 50
180.0000000000014
 51
269.9999999999993
  0
LINE
  5
FC
  8
0
  6
CONTINUOUS
 62
     7
 10
-658.1500000000001
 20
262.5575963764081
 30
0.0
 11
-657.9500000000002
 21
262.5575963764081
 31
0.0
  0
ARC
  5
FD
  8
0
  6
CONTINUOUS
 62
     7
 10
-657.9500000000002
 20
263.157596376408
 30
0.0
 40
0.6000000000000172
 50
270.0
 51
359.9999999999987
  0
LINE
  5
FE
  8
0
  6
CONTINUOUS
 62
     7
 10
-657.3500000000001
 20
263.157596376408
 30
0.0
 11
-657.3500000000001
 21
265.557596376408
 31
0.0
  0
ARC
  5
FF
  8
0
  6
CONTINUOUS
 62
     7
 10
-658.1500000000001
 20
265.5575963764081
 30
0.0
 40
0.6000000000000172
 50
89.99999999999969
 51
180.0
  0
ARC
  5
100
  8
0
  6
CONTINUOUS
 62
     7
 10
-667.5500000000001
 20
265.5575963764081
 30
0.0
 40
0.6000000000000172
 50
90.00000000000068
 51
180.0
  0
LINE
  5
101
  8
0
  6
CONTINUOUS
 62
     7
 10
-668.1500000000001
 20
265.5575963764081
 30
0.0
 11
-668.1500000000001
 21
263.157596376408
 31
0.0
  0
ARC
  5
102
  8
0
  6
CONTINUOUS
 62
     7
 10
-667.5500000000001
 20
263.157596376408
 30
0.0
 40
0.5999999999999894
 50
180.0000000000014
 51
269.9999999999987
  0
LINE
  5
103
  8
0
  6
CONTINUOUS
 62
     7
 10
-667.5500000000001
 20
262.5575963764081
 30
0.0
 11
-667.35
 21
262.5575963764081
 31
0.0
  0
ARC
  5
104
  8
0
  6
CONTINUOUS
 62
     7
 10
-667.3500000000001
 20
263.157596376408
 30
0.0
 40
0.6000000000000172
 50
270.0000000000013
 51
359.9999999999986
  0
ARC
  5
105
  8
0
  6
CONTINUOUS
 62
     7
 10
-711.85
 20
160.557596376408
 30
0.0
 40
0.6000000000000033
 50
0.0000000000006626
 51
89.99999999999935
  0
LINE
  5
106
  8
0
  6
CONTINUOUS
 62
     7
 10
-711.85
 20
161.1575963764081
 30
0.0
 11
-712.0500000000001
 21
161.1575963764081
 31
0.0
  0
ARC
  5
107
  8
0
  6
CONTINUOUS
 62
     7
 10
-712.0500000000001
 20
160.557596376408
 30
0.0
 40
0.6000000000000033
 50
89.99999999999969
 51
179.9999999999994
  0
LINE
  5
108
  8
0
  6
CONTINUOUS
 62
     7
 10
-712.6500000000001
 20
160.5575963764081
 30
0.0
 11
-712.6500000000001
 21
158.1575963764081
 31
0.0
  0
ARC
  5
109
  8
0
  6
CONTINUOUS
 62
     7
 10
-711.85
 20
158.1575963764081
 30
0.0
 40
0.6000000000000033
 50
269.9999999999997
 51
359.9999999999993
  0
ARC
  5
10A
  8
0
  6
CONTINUOUS
 62
     7
 10
-702.4500000000002
 20
158.1575963764081
 30
0.0
 40
0.6000000000000172
 50
270.000000000001
 51
0.0
  0
LINE
  5
10B
  8
0
  6
CONTINUOUS
 62
     7
 10
-701.85
 20
158.1575963764081
 30
0.0
 11
-701.85
 21
160.5575963764081
 31
0.0
  0
ARC
  5
10C
  8
0
  6
CONTINUOUS
 62
     7
 10
-702.4500000000002
 20
160.557596376408
 30
0.0
 40
0.5999999999999963
 50
0.0000000000013252
 51
89.99999999999868
  0
LINE
  5
10D
  8
0
  6
CONTINUOUS
 62
     7
 10
-702.4500000000002
 20
161.157596376408
 30
0.0
 11
-702.6500000000002
 21
161.157596376408
 31
0.0
  0
ARC
  5
10E
  8
0
  6
CONTINUOUS
 62
     7
 10
-702.6500000000001
 20
160.557596376408
 30
0.0
 40
0.6000000000000033
 50
90.000000000001
 51
180.0
  0
ARC
  5
10F
  8
0
  6
CONTINUOUS
 62
     7
 10
-667.3500000000001
 20
160.557596376408
 30
0.0
 40
0.6000000000000033
 50
0.0000000000013252
 51
89.99999999999868
  0
LINE
  5
110
  8
0
  6
CONTINUOUS
 62
     7
 10
-667.3500000000001
 20
161.1575963764081
 30
0.0
 11
-667.5500000000002
 21
161.157596376408
 31
0.0
  0
ARC
  5
111
  8
0
  6
CONTINUOUS
 62
     7
 10
-667.5500000000001
 20
160.557596376408
 30
0.0
 40
0.6000000000000033
 50
90.00000000000132
 51
179.9999999999987
  0
LINE
  5
112
  8
0
  6
CONTINUOUS
 62
     7
 10
-668.1500000000001
 20
160.5575963764081
 30
0.0
 11
-668.1500000000001
 21
158.1575963764081
 31
0.0
  0
ARC
  5
113
  8
0
  6
CONTINUOUS
 62
     7
 10
-667.5500000000001
 20
158.1575963764081
 30
0.0
 40
0.6000000000000033
 50
180.0
 51
269.9999999999993
  0
LINE
  5
114
  8
0
  6
CONTINUOUS
 62
     7
 10
-667.5500000000001
 20
157.5575963764081
 30
0.0
 11
-667.3500000000001
 21
157.5575963764081
 31
0.0
  0
ARC
  5
115
  8
0
  6
CONTINUOUS
 62
     7
 10
-657.9500000000002
 20
265.557596376408
 30
0.0
 40
0.6000000000000033
 50
0.0000000000013252
 51
90.000000000001
  0
ARC
  5
116
  8
0
  6
CONTINUOUS
 62
     7
 10
-667.3500000000001
 20
265.557596376408
 30
0.0
 40
0.5999999999999894
 50
0.0000000000013252
 51
90.00000000000064
  0
ARC
  5
117
  8
0
  6
CONTINUOUS
 62
     7
 10
-657.9500000000002
 20
158.1575963764081
 30
0.0
 40
0.6000000000000033
 50
269.999999999999
 51
359.9999999999986
  0
LINE
  5
118
  8
0
  6
CONTINUOUS
 62
     7
 10
-657.3500000000001
 20
158.1575963764081
 30
0.0
 11
-657.3500000000001
 21
160.5575963764081
 31
0.0
  0
ARC
  5
119
  8
0
  6
CONTINUOUS
 62
     7
 10
-702.6500000000001
 20
265.557596376408
 30
0.0
 40
0.6000000000000172
 50
89.99999999999935
 51
179.9999999999987
  0
LINE
  5
11A
  8
0
  6
CONTINUOUS
 62
     7
 10
-712.0500000000001
 20
157.557596376408
 30
0.0
 11
-711.85
 21
157.557596376408
 31
0.0
  0
LINE
  5
11B
  8
0
  6
CONTINUOUS
 62
     7
 10
-666.7500000000001
 20
158.1575963764081
 30
0.0
 11
-666.7500000000001
 21
160.5575963764081
 31
0.0
  0
ARC
  5
11C
  8
0
  6
CONTINUOUS
 62
     7
 10
-702.6500000000001
 20
158.1575963764081
 30
0.0
 40
0.5999999999999963
 50
180.0
 51
270.0000000000007
  0
LINE
  5
11D
  8
0
  6
CONTINUOUS
 62
     7
 10
-657.9500000000002
 20
266.157596376408
 30
0.0
 11
-658.1500000000001
 21
266.157596376408
 31
0.0
  0
LINE
  5
11E
  8
0
  6
CONTINUOUS
 62
     7
 10
-667.3500000000001
 20
266.157596376408
 30
0.0
 11
-667.5500000000001
 21
266.157596376408
 31
0.0
  0
LINE
  5
11F
  8
0
  6
CONTINUOUS
 62
     7
 10
-702.6500000000001
 20
157.557596376408
 30
0.0
 11
-702.4500000000002
 21
157.557596376408
 31
0.0
  0
ARC
  5
120
  8
0
  6
CONTINUOUS
 62
     7
 10
-667.3500000000001
 20
158.1575963764081
 30
0.0
 40
0.6000000000000033
 50
269.9999999999993
 51
359.9999999999986
  0
LINE
  5
121
  8
0
  6
CONTINUOUS
 62
     7
 10
-712.6500000000001
 20
265.5575963764081
 30
0.0
 11
-712.6500000000001
 21
263.1575963764081
 31
0.0
  0
ARC
  5
122
  8
0
  6
CONTINUOUS
 62
     7
 10
-712.0500000000001
 20
158.1575963764081
 30
0.0
 40
0.6000000000000033
 50
180.0
 51
270.000000000001
  0
LINE
  5
123
  8
0
  6
CONTINUOUS
 62
     7
 10
-703.2500000000001
 20
265.5575963764081
 30
0.0
 11
-703.2500000000001
 21
263.1575963764081
 31
0.0
  0
ARC
  5
124
  8
0
  6
CONTINUOUS
 62
     7
 10
-712.0500000000001
 20
265.557596376408
 30
0.0
 40
0.6000000000000172
 50
89.999999999999
 51
179.9999999999987
  0
CIRCLE
  5
125
  8
0
  6
CONTINUOUS
 62
     7
 10
-685.0
 20
170.1075963764081
 30
0.0
 40
2.100000000000005
  0
CIRCLE
  5
126
  8
0
  6
CONTINUOUS
 62
     7
 10
-685.0
 20
253.6075963764081
 30
0.0
 40
2.100000000000005
  0
CIRCLE
  5
127
  8
0
  6
CONTINUOUS
 62
     7
 10
-707.25
 20
264.357596376408
 30
0.0
 40
1.250000000000001
  0
CIRCLE
  5
128
  8
0
  6
CONTINUOUS
 62
     7
 10
-662.7500000000001
 20
159.3575963764081
 30
0.0
 40
1.250000000000001
  0
CIRCLE
  5
129
  8
0
  6
CONTINUOUS
 62
     7
 10
-707.25
 20
264.357596376408
 30
0.0
 40
1.750000000000002
  0
CIRCLE
  5
12A
  8
0
  6
CONTINUOUS
 62
     7
 10
-662.7500000000001
 20
159.3575963764081
 30
0.0
 40
1.750000000000002
  0
LINE
  5
12B
  8
0
  6
CONTINUOUS
 62
     7
 10
-716.0000000000001
 20
157.8575963764081
 30
0.0
 11
-716.0000000000001
 21
265.857596376408
 31
0.0
  0
LINE
  5
12C
  8
0
  6
CONTINUOUS
 62
     7
 10
-703.0500000000002
 20
158.257596376408
 30
0.0
 11
-703.0500000000002
 21
160.457596376408
 31
0.0
  0
ARC
  5
12D
  8
0
  6
CONTINUOUS
 62
     7
 10
-702.5500000000001
 20
158.257596376408
 30
0.0
 40
0.5000000000000004
 50
180.0
 51
0.0
  0
LINE
  5
12E
  8
0
  6
CONTINUOUS
 62
     7
 10
-702.0500000000001
 20
160.457596376408
 30
0.0
 11
-702.0500000000001
 21
158.257596376408
 31
0.0
  0
ARC
  5
12F
  8
0
  6
CONTINUOUS
 62
     7
 10
-702.5500000000001
 20
160.457596376408
 30
0.0
 40
0.5000000000000004
 50
0.0
 51
180.0
  0
ARC
  5
130
  8
0
  6
CONTINUOUS
 62
     7
 10
-655.5000000000001
 20
265.857596376408
 30
0.0
 40
1.500000000000001
 50
0.0000000000002274
 51
90.00000000000011
  0
ARC
  5
131
  8
0
  6
CONTINUOUS
 62
     7
 10
-711.95
 20
158.257596376408
 30
0.0
 40
0.5000000000000004
 50
180.0
 51
0.0
  0
LINE
  5
132
  8
0
  6
CONTINUOUS
 62
     7
 10
-711.4500000000002
 20
160.457596376408
 30
0.0
 11
-711.4500000000002
 21
158.257596376408
 31
0.0
  0
ARC
  5
133
  8
0
  6
CONTINUOUS
 62
     7
 10
-711.95
 20
160.457596376408
 30
0.0
 40
0.5000000000000004
 50
0.0
 51
180.0
  0
LINE
  5
134
  8
0
  6
CONTINUOUS
 62
     7
 10
-712.4500000000002
 20
158.257596376408
 30
0.0
 11
-712.4500000000002
 21
160.457596376408
 31
0.0
  0
ARC
  5
135
  8
0
  6
CONTINUOUS
 62
     7
 10
-714.5000000000001
 20
265.857596376408
 30
0.0
 40
1.500000000000001
 50
90.0
 51
180.0
  0
LINE
  5
136
  8
0
  6
CONTINUOUS
 62
     7
 10
-667.95
 20
263.2575963764081
 30
0.0
 11
-667.95
 21
265.457596376408
 31
0.0
  0
ARC
  5
137
  8
0
  6
CONTINUOUS
 62
     7
 10
-667.45
 20
265.4575963764081
 30
0.0
 40
0.5000000000000004
 50
0.0
 51
180.0
  0
ARC
  5
138
  8
0
  6
CONTINUOUS
 62
     7
 10
-667.45
 20
263.2575963764081
 30
0.0
 40
0.5000000000000004
 50
180.0
 51
0.0
  0
LINE
  5
139
  8
0
  6
CONTINUOUS
 62
     7
 10
-666.9500000000002
 20
265.4575963764081
 30
0.0
 11
-666.9500000000002
 21
263.2575963764081
 31
0.0
  0
LINE
  5
13A
  8
0
  6
CONTINUOUS
 62
     7
 10
-654.0000000000001
 20
265.857596376408
 30
0.0
 11
-654.0000000000001
 21
157.8575963764081
 31
0.0
  0
LINE
  5
13B
  8
0
  6
CONTINUOUS
 62
     7
 10
-658.5500000000001
 20
263.2575963764081
 30
0.0
 11
-658.5500000000001
 21
265.457596376408
 31
0.0
  0
ARC
  5
13C
  8
0
  6
CONTINUOUS
 62
     7
 10
-658.0500000000001
 20
263.2575963764081
 30
0.0
 40
0.5000000000000004
 50
180.0
 51
0.0
  0
LINE
  5
13D
  8
0
  6
CONTINUOUS
 62
     7
 10
-657.5500000000001
 20
265.4575963764081
 30
0.0
 11
-657.5500000000001
 21
263.2575963764081
 31
0.0
  0
ARC
  5
13E
  8
0
  6
CONTINUOUS
 62
     7
 10
-658.0500000000001
 20
265.4575963764081
 30
0.0
 40
0.5000000000000004
 50
0.0
 51
180.0
  0
LINE
  5
13F
  8
0
  6
CONTINUOUS
 62
     7
 10
-659.131989496975
 20
267.357596376408
 30
0.0
 11
-655.5000000000002
 21
267.357596376408
 31
0.0
  0
LINE
  5
140
  8
0
  6
CONTINUOUS
 62
     7
 10
-714.5000000000001
 20
267.357596376408
 30
0.0
 11
-710.8680105030253
 21
267.357596376408
 31
0.0
  0
LINE
  5
141
  8
0
  6
CONTINUOUS
 62
     7
 10
-703.631989496975
 20
267.357596376408
 30
0.0
 11
-666.3680105030253
 21
267.357596376408
 31
0.0
  0
ARC
  5
142
  8
0
  6
CONTINUOUS
 62
     7
 10
-655.5000000000001
 20
157.8575963764081
 30
0.0
 40
1.500000000000001
 50
270.0000000000001
 51
0.0
  0
ARC
  5
143
  8
0
  6
CONTINUOUS
 62
     7
 10
-714.5000000000001
 20
157.8575963764081
 30
0.0
 40
1.500000000000001
 50
180.0
 51
270.0
  0
LINE
  5
144
  8
0
  6
CONTINUOUS
 62
     7
 10
-655.5000000000001
 20
153.3575963764081
 30
0.0
 11
-714.5000000000001
 21
153.3575963764081
 31
0.0
  0
LINE
  5
145
  8
0
  6
CONTINUOUS
 62
     7
 10
-710.8680105030252
 20
156.3575963764081
 30
0.0
 11
-714.5000000000001
 21
156.3575963764081
 31
0.0
  0
LINE
  5
146
  8
0
  6
CONTINUOUS
 62
     7
 10
-666.3680105030252
 20
156.3575963764081
 30
0.0
 11
-703.6319894969749
 21
156.3575963764081
 31
0.0
  0
LINE
  5
147
  8
0
  6
CONTINUOUS
 62
     7
 10
-655.5000000000001
 20
156.3575963764081
 30
0.0
 11
-659.1319894969749
 21
156.3575963764081
 31
0.0
  0
ARC
  5
148
  8
0
  6
CONTINUOUS
 62
     7
 10
-655.5000000000001
 20
265.857596376408
 30
0.0
 40
4.500000000000004
 50
0.0
 51
90.0
  0
ARC
  5
149
  8
0
  6
CONTINUOUS
 62
     7
 10
-714.5000000000001
 20
265.857596376408
 30
0.0
 40
4.499999999999976
 50
90.0
 51
180.0
  0
ARC
  5
14A
  8
0
  6
CONTINUOUS
 62
     7
 10
-714.5000000000001
 20
157.8575963764081
 30
0.0
 40
4.499999999999997
 50
180.0
 51
270.0
  0
ARC
  5
14B
  8
0
  6
CONTINUOUS
 62
     7
 10
-707.2500000000001
 20
264.357596376408
 30
0.0
 40
4.699999999999999
 50
39.6650129075932
 51
140.3349870924068
  0
LINE
  5
14C
  8
0
  6
CONTINUOUS
 62
     7
 10
-651.0000000000001
 20
265.857596376408
 30
0.0
 11
-651.0000000000001
 21
157.8575963764081
 31
0.0
  0
ARC
  5
14D
  8
0
  6
CONTINUOUS
 62
     7
 10
-655.5000000000001
 20
157.8575963764081
 30
0.0
 40
4.500000000000004
 50
270.0
 51
0.0
  0
ARC
  5
14E
  8
0
  6
CONTINUOUS
 62
     7
 10
-662.7500000000001
 20
264.357596376408
 30
0.0
 40
4.699999999999994
 50
39.6650129075932
 51
140.3349870924068
  0
LINE
  5
14F
  8
0
  6
CONTINUOUS
 62
     7
 10
-714.5000000000001
 20
270.357596376408
 30
0.0
 11
-655.5000000000002
 21
270.357596376408
 31
0.0
  0
LINE
  5
150
  8
0
  6
CONTINUOUS
 62
     7
 10
-719.0000000000001
 20
157.8575963764081
 30
0.0
 11
-719.0000000000001
 21
265.857596376408
 31
0.0
  0
ARC
  5
151
  8
0
  6
CONTINUOUS
 62
     7
 10
-662.7500000000001
 20
159.3575963764081
 30
0.0
 40
4.699999999999994
 50
219.6650129075932
 51
320.3349870924068
  0
LINE
  5
152
  8
0
  6
CONTINUOUS
 62
     7
 10
-651.0000000000001
 20
212.6075963764081
 30
0.0
 11
-649.0
 21
212.6075963764081
 31
0.0
  0
LINE
  5
153
  8
0
  6
CONTINUOUS
 62
     7
 10
-719.0000000000001
 20
212.6075963764081
 30
0.0
 11
-721.0000000000001
 21
212.6075963764081
 31
0.0
  0
LINE
  5
154
  8
0
  6
CONTINUOUS
 62
     7
 10
-719.0000000000001
 20
161.357596376408
 30
0.0
 11
-721.0000000000001
 21
161.357596376408
 31
0.0
  0
LINE
  5
155
  8
0
  6
CONTINUOUS
 62
     7
 10
-719.0000000000001
 20
262.3575963764081
 30
0.0
 11
-721.0000000000001
 21
262.3575963764081
 31
0.0
  0
LINE
  5
156
  8
0
  6
CONTINUOUS
 62
     7
 10
-719.0000000000001
 20
260.8575963764081
 30
0.0
 11
-721.0000000000001
 21
260.8575963764081
 31
0.0
  0
LINE
  5
157
  8
0
  6
CONTINUOUS
 62
     7
 10
-719.0000000000001
 20
162.857596376408
 30
0.0
 11
-721.0000000000001
 21
162.857596376408
 31
0.0
  0
LINE
  5
158
  8
0
  6
CONTINUOUS
 62
     7
 10
-651.0000000000001
 20
211.1075963764081
 30
0.0
 11
-649.0
 21
211.1075963764081
 31
0.0
  0
LINE
  5
159
  8
0
  6
CONTINUOUS
 62
     7
 10
-719.0000000000001
 20
211.1075963764081
 30
0.0
 11
-721.0000000000001
 21
211.1075963764081
 31
0.0
  0
LINE
  5
15A
  8
0
  6
CONTINUOUS
 62
     9
 10
-670.9571880604138
 20
272.1504895952215
 30
0.0
 11
-671.068441970333
 21
273.4443440371306
 31
0.0
  0
LINE
  5
15B
  8
0
  6
CONTINUOUS
 62
     9
 10
-671.068441970333
 20
273.4443440371306
 30
0.0
 11
-671.068441970333
 21
282.257596376408
 31
0.0
  0
LINE
  5
15C
  8
0
  6
CONTINUOUS
 62
     9
 10
-698.9315580296674
 20
273.4443440371193
 30
0.0
 11
-699.0428119395866
 21
272.1504895952216
 31
0.0
  0
LINE
  5
15D
  8
0
  6
CONTINUOUS
 62
     9
 10
-698.9315580296674
 20
282.257596376408
 30
0.0
 11
-698.9315580296674
 21
273.4443440371192
 31
0.0
  0
LINE
  5
15E
  8
0
  6
CONTINUOUS
 62
     7
 10
-651.0000000000001
 20
161.357596376408
 30
0.0
 11
-649.0
 21
161.357596376408
 31
0.0
  0
LINE
  5
15F
  8
0
  6
CONTINUOUS
 62
     7
 10
-651.0000000000001
 20
260.8575963764081
 30
0.0
 11
-649.0
 21
260.8575963764081
 31
0.0
  0
LINE
  5
160
  8
0
  6
CONTINUOUS
 62
     7
 10
-651.0000000000001
 20
262.3575963764081
 30
0.0
 11
-649.0
 21
262.3575963764081
 31
0.0
  0
LINE
  5
161
  8
0
  6
CONTINUOUS
 62
     7
 10
-651.0000000000001
 20
162.857596376408
 30
0.0
 11
-649.0
 21
162.857596376408
 31
0.0
  0
CIRCLE
  5
162
  8
0
  6
CONTINUOUS
 62
     7
 10
-685.0
 20
211.8575963764081
 30
0.0
 40
11.0
  0
CIRCLE
  5
163
  8
0
  6
CONTINUOUS
 62
     7
 10
-693.5000011067237
 20
211.8576236912606
 30
0.0
 40
1.4999988935251
  0
CIRCLE
  5
164
  8
0
  6
CONTINUOUS
 62
     7
 10
-676.5000003144141
 20
211.8576247614423
 30
0.0
 40
1.499999685854549
  0
CIRCLE
  5
165
  8
0
  6
CONTINUOUS
 62
     7
 10
-685.0
 20
211.8575963764081
 30
0.0
 40
5.750000000000005
  0
CIRCLE
  5
166
  8
0
  6
CONTINUOUS
 62
     7
 10
-680.7500072626274
 20
204.4964101429613
 30
0.0
 40
1.5000008750266
  0
CIRCLE
  5
167
  8
0
  6
CONTINUOUS
 62
     7
 10
-680.7499955949945
 20
219.2188315260962
 30
0.0
 40
1.499999150152053
  0
CIRCLE
  5
168
  8
0
  6
CONTINUOUS
 62
     7
 10
-689.2499971800389
 20
219.2188667521066
 30
0.0
 40
1.49999693697686
  0
CIRCLE
  5
169
  8
0
  6
CONTINUOUS
 62
     7
 10
-689.2500050018951
 20
204.4963948531911
 30
0.0
 40
1.499996580209476
  0
CIRCLE
  5
16A
  8
0
  6
CONTINUOUS
 62
     7
 10
-685.0
 20
211.8575963764081
 30
0.0
 40
13.5
  0
CIRCLE
  5
16B
  8
0
  6
CONTINUOUS
 62
     7
 10
-666.0000000000001
 20
211.8575963764081
 30
0.0
 40
4.000000000000004
  0
CIRCLE
  5
16C
  8
0
  6
CONTINUOUS
 62
     7
 10
-666.0000000000001
 20
211.8575963764081
 30
0.0
 40
3.000000000000003
  0
CIRCLE
  5
16D
  8
0
  6
CONTINUOUS
 62
     7
 10
-666.0000000000001
 20
211.8575963764081
 30
0.0
 40
5.000000000000004
  0
CIRCLE
  5
16E
  8
0
  6
CONTINUOUS
 62
     7
 10
-704.0
 20
211.8575963764081
 30
0.0
 40
5.000000000000004
  0
CIRCLE
  5
16F
  8
0
  6
CONTINUOUS
 62
     7
 10
-704.0
 20
211.8575963764081
 30
0.0
 40
4.000000000000004
  0
CIRCLE
  5
170
  8
0
  6
CONTINUOUS
 62
     7
 10
-704.0
 20
211.8575963764081
 30
0.0
 40
2.999999999999996
  0
CIRCLE
  5
171
  8
0
  6
CONTINUOUS
 62
     7
 10
-685.0
 20
230.857596376408
 30
0.0
 40
3.000000000000003
  0
CIRCLE
  5
172
  8
0
  6
CONTINUOUS
 62
     7
 10
-685.0
 20
192.8575963764081
 30
0.0
 40
2.999999999999989
  0
ARC
  5
173
  8
0
  6
CONTINUOUS
 62
     7
 10
-699.4500000028428
 20
300.3075963747953
 30
0.0
 40
1.249999999999973
 50
90.0000000036163
 51
180.0000000036157
  0
ARC
  5
174
  8
0
  6
CONTINUOUS
 62
     7
 10
-670.5500000028436
 20
300.3075963766192
 30
0.0
 40
1.249999999999987
 50
0.0000000036156546
 51
90.00000000361565
  0
LINE
  5
175
  8
0
  6
CONTINUOUS
 62
     7
 10
-668.6786796592447
 20
299.6862760331777
 30
0.0
 11
-669.3000000028436
 21
300.3075963766981
 31
0.0
  0
LINE
  5
176
  8
0
  6
CONTINUOUS
 62
     7
 10
-667.8000000017234
 20
282.5575963767932
 30
0.0
 11
-667.8000000026706
 21
297.5649556896736
 31
0.0
  0
ARC
  5
177
  8
0
  6
CONTINUOUS
 62
     7
 10
-670.8000000026706
 20
297.5649556894842
 30
0.0
 40
3.000000000000003
 50
0.0000000036160256
 51
45.00000000361598
  0
LINE
  5
178
  8
0
  6
CONTINUOUS
 62
     7
 10
-699.4458865280669
 20
282.5576458358355
 30
0.0
 11
-699.5121442151494
 21
282.5653349056866
 31
0.0
  0
LINE
  5
179
  8
0
  6
CONTINUOUS
 62
     7
 10
-700.7000000028428
 20
300.3075963747164
 30
0.0
 11
-701.3213203463633
 21
299.6862760311176
 31
0.0
  0
LINE
  5
17A
  8
0
  6
CONTINUOUS
 62
     7
 10
-702.2000000026698
 20
297.5649556875025
 30
0.0
 11
-702.2000000017226
 21
282.5575963746222
 31
0.0
  0
ARC
  5
17B
  8
0
  6
CONTINUOUS
 62
     7
 10
-699.2000000026698
 20
297.5649556876919
 30
0.0
 40
3.000000000000004
 50
135.0000000036159
 51
180.0000000036163
  0
LINE
  5
17C
  8
0
  6
CONTINUOUS
 62
     7
 10
-699.1000000000001
 20
272.1504895952215
 30
0.0
 11
-699.1000000000001
 21
270.357596376408
 31
0.0
  0
LINE
  5
17D
  8
0
  6
CONTINUOUS
 62
     7
 10
-699.1000000000001
 20
282.5575963748179
 30
0.0
 11
-699.1000000000001
 21
282.257596376408
 31
0.0
  0
LINE
  5
17E
  8
0
  6
CONTINUOUS
 62
     7
 10
-670.9000000000002
 20
282.257596376408
 30
0.0
 11
-670.9000000000002
 21
282.5575963765976
 31
0.0
  0
LINE
  5
17F
  8
0
  6
CONTINUOUS
 62
     7
 10
-670.9000000000002
 20
270.357596376408
 30
0.0
 11
-670.9000000000002
 21
272.1504895952215
 31
0.0
  0
ARC
  5
180
  8
0
  6
CONTINUOUS
 62
     7
 10
-670.8000000000001
 20
276.7002370635274
 30
0.0
 40
3.000000000000009
 50
315.0000000000002
 51
0.0
  0
ARC
  5
181
  8
0
  6
CONTINUOUS
 62
     7
 10
-699.2000000000002
 20
276.7002370635274
 30
0.0
 40
2.999999999999996
 50
180.0
 51
224.9999999999998
  0
LINE
  5
182
  8
0
  6
CONTINUOUS
 62
     7
 10
-667.8000000000002
 20
276.7002370635274
 30
0.0
 11
-667.8000000000002
 21
282.257596376408
 31
0.0
  0
LINE
  5
183
  8
0
  6
CONTINUOUS
 62
     7
 10
-702.2000000000002
 20
282.257596376408
 30
0.0
 11
-702.2000000000002
 21
276.7002370635273
 31
0.0
  0
ARC
  5
184
  8
0
  6
CONTINUOUS
 62
     7
 10
-699.6000000000001
 20
272.1504895952215
 30
0.0
 40
0.500000000000008
 50
0.0
 51
44.99999999999989
  0
LINE
  5
185
  8
0
  6
CONTINUOUS
 62
     7
 10
-701.3213203435597
 20
274.5789167199677
 30
0.0
 11
-699.2464466094068
 21
272.5040429858147
 31
0.0
  0
ARC
  5
186
  8
0
  6
CONTINUOUS
 62
     7
 10
-670.4000000000001
 20
272.1504895952215
 30
0.0
 40
0.5000000000000004
 50
135.0000000000003
 51
180.0
  0
LINE
  5
187
  8
0
  6
CONTINUOUS
 62
     7
 10
-670.7535533905934
 20
272.5040429858147
 30
0.0
 11
-668.6786796564404
 21
274.5789167199677
 31
0.0
  0
ENDBLK
  8
0
  0
BLOCK
  8
0
  2
D_FRAME_VIEW_5387
 70
     0
 10
0.0
 20
0.0
 30
0.0
  0
POLYLINE
  5
18E
  8
0
  6
CONTINUOUS
 62
     7
 66
     1
 10
0.0
 20
0.0
 30
0.0
  0
VERTEX
  5
20B
  8
0
  6
CONTINUOUS
 62
     7
 10
-587.4074074074076
 20
300.307596376681
 30
0.0
  0
VERTEX
  5
20C
  8
0
  6
CONTINUOUS
 62
     7
 10
-587.3914373688742
 20
300.3073200943137
 30
0.0
  0
VERTEX
  5
20D
  8
0
  6
CONTINUOUS
 62
     7
 10
-587.375583457943
 20
300.3064960758589
 30
0.0
  0
VERTEX
  5
20E
  8
0
  6
CONTINUOUS
 62
     7
 10
-587.359895524615
 20
300.3051315642878
 30
0.0
  0
VERTEX
  5
20F
  8
0
  6
CONTINUOUS
 62
     7
 10
-587.3444234188919
 20
300.3032338025717
 30
0.0
  0
VERTEX
  5
210
  8
0
  6
CONTINUOUS
 62
     7
 10
-587.3286471929465
 20
300.3007124753188
 30
0.0
  0
VERTEX
  5
211
  8
0
  6
CONTINUOUS
 62
     7
 10
-587.3131310068426
 20
300.2976398459811
 30
0.0
  0
VERTEX
  5
212
  8
0
  6
CONTINUOUS
 62
     7
 10
-587.2979168424038
 20
300.2940368442945
 30
0.0
  0
VERTEX
  5
213
  8
0
  6
CONTINUOUS
 62
     7
 10
-587.283046681454
 20
300.2899243999947
 30
0.0
  0
VERTEX
  5
214
  8
0
  6
CONTINUOUS
 62
     7
 10
-587.2642612867511
 20
300.2838406800317
 30
0.0
  0
VERTEX
  5
215
  8
0
  6
CONTINUOUS
 62
     7
 10
-587.2460635683544
 20
300.276950781786
 30
0.0
  0
VERTEX
  5
216
  8
0
  6
CONTINUOUS
 62
     7
 10
-587.228494108904
 20
300.2693129808264
 30
0.0
  0
VERTEX
  5
217
  8
0
  6
CONTINUOUS
 62
     7
 10
-587.2115934910396
 20
300.2609855527218
 30
0.0
  0
VERTEX
  5
218
  8
0
  6
CONTINUOUS
 62
     7
 10
-587.1954022974011
 20
300.2520267730414
 30
0.0
  0
VERTEX
  5
219
  8
0
  6
CONTINUOUS
 62
     7
 10
-587.1799611106284
 20
300.2424949173539
 30
0.0
  0
VERTEX
  5
21A
  8
0
  6
CONTINUOUS
 62
     7
 10
-587.164383994366
 20
300.2317973571176
 30
0.0
  0
VERTEX
  5
21B
  8
0
  6
CONTINUOUS
 62
     7
 10
-587.1495802170917
 20
300.2205237732801
 30
0.0
  0
VERTEX
  5
21C
  8
0
  6
CONTINUOUS
 62
     7
 10
-587.1355561239728
 20
300.2087306557672
 30
0.0
  0
VERTEX
  5
21D
  8
0
  6
CONTINUOUS
 62
     7
 10
-587.1223180601764
 20
300.1964744945051
 30
0.0
  0
VERTEX
  5
21E
  8
0
  6
CONTINUOUS
 62
     7
 10
-587.1054080715531
 20
300.1789764016231
 30
0.0
  0
VERTEX
  5
21F
  8
0
  6
CONTINUOUS
 62
     7
 10
-587.0898850149584
 20
300.1607459874596
 30
0.0
  0
VERTEX
  5
220
  8
0
  6
CONTINUOUS
 62
     7
 10
-587.0757323069303
 20
300.1418908115101
 30
0.0
  0
VERTEX
  5
221
  8
0
  6
CONTINUOUS
 62
     7
 10
-587.062638591719
 20
300.1220458526282
 30
0.0
  0
VERTEX
  5
222
  8
0
  6
CONTINUOUS
 62
     7
 10
-587.0508778813854
 20
300.1016676878788
 30
0.0
  0
VERTEX
  5
223
  8
0
  6
CONTINUOUS
 62
     7
 10
-587.0404235915644
 20
300.0808352422374
 30
0.0
  0
VERTEX
  5
224
  8
0
  6
CONTINUOUS
 62
     7
 10
-587.0312491378904
 20
300.0596274406793
 30
0.0
  0
VERTEX
  5
225
  8
0
  6
CONTINUOUS
 62
     7
 10
-587.0206767059634
 20
300.0300100045854
 30
0.0
  0
VERTEX
  5
226
  8
0
  6
CONTINUOUS
 62
     7
 10
-587.0123450016562
 20
299.9998384959274
 30
0.0
  0
VERTEX
  5
227
  8
0
  6
CONTINUOUS
 62
     7
 10
-587.0061971177703
 20
299.9692519618552
 30
0.0
  0
VERTEX
  5
228
  8
0
  6
CONTINUOUS
 62
     7
 10
-587.0027401724094
 20
299.9439102947943
 30
0.0
  0
VERTEX
  5
229
  8
0
  6
CONTINUOUS
 62
     7
 10
-587.0006815175634
 20
299.9183718514693
 30
0.0
  0
VERTEX
  5
22A
  8
0
  6
CONTINUOUS
 62
     7
 10
-587.0000000000002
 20
299.8926964390766
 30
0.0
  0
SEQEND
  5
26D
  8
0
  6
CONTINUOUS
 62
     7
  0
LINE
  5
18F
  8
0
  6
CONTINUOUS
 62
     7
 10
-587.4074074074075
 20
300.3075963757072
 30
0.0
 11
-583.0462962962965
 21
300.3075963757072
 31
0.0
  0
POLYLINE
  5
190
  8
0
  6
CONTINUOUS
 62
     7
 66
     1
 10
0.0
 20
0.0
 30
0.0
  0
VERTEX
  5
22B
  8
0
  6
CONTINUOUS
 62
     7
 10
-583.5000000000002
 20
299.846222672743
 30
0.0
  0
VERTEX
  5
22C
  8
0
  6
CONTINUOUS
 62
     7
 10
-583.4992255794343
 20
299.8739390243911
 30
0.0
  0
VERTEX
  5
22D
  8
0
  6
CONTINUOUS
 62
     7
 10
-583.4968945115687
 20
299.9015628862305
 30
0.0
  0
VERTEX
  5
22E
  8
0
  6
CONTINUOUS
 62
     7
 10
-583.4929607130874
 20
299.9292270375977
 30
0.0
  0
VERTEX
  5
22F
  8
0
  6
CONTINUOUS
 62
     7
 10
-583.4874132370983
 20
299.9567008888082
 30
0.0
  0
VERTEX
  5
230
  8
0
  6
CONTINUOUS
 62
     7
 10
-583.4800490386098
 20
299.9845266754195
 30
0.0
  0
VERTEX
  5
231
  8
0
  6
CONTINUOUS
 62
     7
 10
-583.4709376734324
 20
300.0120352824445
 30
0.0
  0
VERTEX
  5
232
  8
0
  6
CONTINUOUS
 62
     7
 10
-583.459939511251
 20
300.0393843100834
 30
0.0
  0
VERTEX
  5
233
  8
0
  6
CONTINUOUS
 62
     7
 10
-583.4470762127585
 20
300.0662608897556
 30
0.0
  0
VERTEX
  5
234
  8
0
  6
CONTINUOUS
 62
     7
 10
-583.4344408184432
 20
300.0889970152826
 30
0.0
  0
VERTEX
  5
235
  8
0
  6
CONTINUOUS
 62
     7
 10
-583.4203327079663
 20
300.1112603489843
 30
0.0
  0
VERTEX
  5
236
  8
0
  6
CONTINUOUS
 62
     7
 10
-583.4047268927052
 20
300.1329527723735
 30
0.0
  0
VERTEX
  5
237
  8
0
  6
CONTINUOUS
 62
     7
 10
-583.3917110904647
 20
300.1491600181197
 30
0.0
  0
VERTEX
  5
238
  8
0
  6
CONTINUOUS
 62
     7
 10
-583.3777539127664
 20
300.1649607905615
 30
0.0
  0
VERTEX
  5
239
  8
0
  6
CONTINUOUS
 62
     7
 10
-583.362850115676
 20
300.1802918829846
 30
0.0
  0
VERTEX
  5
23A
  8
0
  6
CONTINUOUS
 62
     7
 10
-583.3469944552596
 20
300.1950900886749
 30
0.0
  0
VERTEX
  5
23B
  8
0
  6
CONTINUOUS
 62
     7
 10
-583.3347666227656
 20
300.2055609080618
 30
0.0
  0
VERTEX
  5
23C
  8
0
  6
CONTINUOUS
 62
     7
 10
-583.3220087311319
 20
300.2156984818623
 30
0.0
  0
VERTEX
  5
23D
  8
0
  6
CONTINUOUS
 62
     7
 10
-583.3086461299971
 20
300.2255265992299
 30
0.0
  0
VERTEX
  5
23E
  8
0
  6
CONTINUOUS
 62
     7
 10
-583.2947420797385
 20
300.2349632620206
 30
0.0
  0
VERTEX
  5
23F
  8
0
  6
CONTINUOUS
 62
     7
 10
-583.2800247995439
 20
300.244140274013
 30
0.0
  0
VERTEX
  5
240
  8
0
  6
CONTINUOUS
 62
     7
 10
-583.2647484836123
 20
300.2528466087906
 30
0.0
  0
VERTEX
  5
241
  8
0
  6
CONTINUOUS
 62
     7
 10
-583.2487982036441
 20
300.2611060605764
 30
0.0
  0
VERTEX
  5
242
  8
0
  6
CONTINUOUS
 62
     7
 10
-583.2322965510414
 20
300.2688148439985
 30
0.0
  0
VERTEX
  5
243
  8
0
  6
CONTINUOUS
 62
     7
 10
-583.2190709008819
 20
300.2744125402958
 30
0.0
  0
VERTEX
  5
244
  8
0
  6
CONTINUOUS
 62
     7
 10
-583.2055285987324
 20
300.2796345918045
 30
0.0
  0
VERTEX
  5
245
  8
0
  6
CONTINUOUS
 62
     7
 10
-583.1915966873885
 20
300.2844900801273
 30
0.0
  0
VERTEX
  5
246
  8
0
  6
CONTINUOUS
 62
     7
 10
-583.1773695701304
 20
300.2889284598996
 30
0.0
  0
VERTEX
  5
247
  8
0
  6
CONTINUOUS
 62
     7
 10
-583.1625656115725
 20
300.2930080982289
 30
0.0
  0
VERTEX
  5
248
  8
0
  6
CONTINUOUS
 62
     7
 10
-583.1474913214963
 20
300.2966167473823
 30
0.0
  0
VERTEX
  5
249
  8
0
  6
CONTINUOUS
 62
     7
 10
-583.1320506527744
 20
300.2997588713138
 30
0.0
  0
VERTEX
  5
24A
  8
0
  6
CONTINUOUS
 62
     7
 10
-583.1163846857127
 20
300.3023899005748
 30
0.0
  0
VERTEX
  5
24B
  8
0
  6
CONTINUOUS
 62
     7
 10
-583.0991979754718
 20
300.3046460022994
 30
0.0
  0
VERTEX
  5
24C
  8
0
  6
CONTINUOUS
 62
     7
 10
-583.0818202554242
 20
300.3062725330882
 30
0.0
  0
VERTEX
  5
24D
  8
0
  6
CONTINUOUS
 62
     7
 10
-583.0641114345447
 20
300.3072645160351
 30
0.0
  0
VERTEX
  5
24E
  8
0
  6
CONTINUOUS
 62
     7
 10
-583.0462962962964
 20
300.3075963766939
 30
0.0
  0
SEQEND
  5
26E
  8
0
  6
CONTINUOUS
 62
     7
  0
LINE
  5
191
  8
0
  6
CONTINUOUS
 62
     7
 10
-598.9499999999994
 20
301.5575963757072
 30
0.0
 11
-570.0500000000009
 21
301.5575963757072
 31
0.0
  0
LINE
  5
192
  8
0
  6
CONTINUOUS
 62
     7
 10
-587.5000000000002
 20
211.6075963764081
 30
0.0
 11
-587.5000000000002
 21
212.1075963764081
 31
0.0
  0
ARC
  5
193
  8
0
  6
CONTINUOUS
 62
     7
 10
-588.0000000000002
 20
211.6075963764081
 30
0.0
 40
0.5000000000000004
 50
269.9999999999996
 51
0.0
  0
LINE
  5
194
  8
0
  6
CONTINUOUS
 62
     7
 10
-601.0000000000002
 20
211.1075963764081
 30
0.0
 11
-588.0000000000002
 21
211.1075963764081
 31
0.0
  0
ARC
  5
195
  8
0
  6
CONTINUOUS
 62
     7
 10
-601.0000000000002
 20
211.6075963764081
 30
0.0
 40
0.5000000000000004
 50
180.0
 51
269.9999999999984
  0
LINE
  5
196
  8
0
  6
CONTINUOUS
 62
     7
 10
-601.5000000000002
 20
212.1075963764081
 30
0.0
 11
-601.5000000000002
 21
211.6075963764081
 31
0.0
  0
ARC
  5
197
  8
0
  6
CONTINUOUS
 62
     7
 10
-601.0000000000002
 20
212.1075963764081
 30
0.0
 40
0.5000000000000004
 50
89.9999999999992
 51
180.0
  0
LINE
  5
198
  8
0
  6
CONTINUOUS
 62
     7
 10
-588.0000000000002
 20
212.6075963764081
 30
0.0
 11
-601.0000000000002
 21
212.6075963764081
 31
0.0
  0
ARC
  5
199
  8
0
  6
CONTINUOUS
 62
     7
 10
-588.0000000000002
 20
212.1075963764081
 30
0.0
 40
0.5000000000000004
 50
359.9999999999998
 51
89.9999999999992
  0
LINE
  5
19A
  8
0
  6
CONTINUOUS
 62
     7
 10
-574.1000000000001
 20
261.3575963764081
 30
0.0
 11
-574.1000000000001
 21
261.857596376408
 31
0.0
  0
ARC
  5
19B
  8
0
  6
CONTINUOUS
 62
     7
 10
-574.6000000000003
 20
261.3575963764081
 30
0.0
 40
0.5000000000000004
 50
269.9999999999998
 51
0.0000000000015916
  0
LINE
  5
19C
  8
0
  6
CONTINUOUS
 62
     7
 10
-583.6000000000003
 20
260.8575963764081
 30
0.0
 11
-574.6000000000003
 21
260.857596376408
 31
0.0
  0
ARC
  5
19D
  8
0
  6
CONTINUOUS
 62
     7
 10
-583.6000000000003
 20
261.3575963764081
 30
0.0
 40
0.5000000000000004
 50
180.0000000000016
 51
270.0
  0
LINE
  5
19E
  8
0
  6
CONTINUOUS
 62
     7
 10
-584.1000000000001
 20
261.8575963764081
 30
0.0
 11
-584.1000000000001
 21
261.3575963764081
 31
0.0
  0
ARC
  5
19F
  8
0
  6
CONTINUOUS
 62
     7
 10
-583.6000000000003
 20
261.857596376408
 30
0.0
 40
0.5000000000000004
 50
89.99999999999962
 51
179.9999999999984
  0
LINE
  5
1A0
  8
0
  6
CONTINUOUS
 62
     7
 10
-574.6000000000003
 20
262.3575963764081
 30
0.0
 11
-583.6000000000003
 21
262.3575963764081
 31
0.0
  0
ARC
  5
1A1
  8
0
  6
CONTINUOUS
 62
     7
 10
-574.6000000000003
 20
261.8575963764081
 30
0.0
 40
0.5000000000000004
 50
359.9999999999985
 51
90.00000000000021
  0
ARC
  5
1A2
  8
0
  6
CONTINUOUS
 62
     7
 10
-574.6000000000003
 20
161.857596376408
 30
0.0
 40
0.5000000000000004
 50
269.9999999999998
 51
0.0000000000015916
  0
LINE
  5
1A3
  8
0
  6
CONTINUOUS
 62
     7
 10
-574.1000000000001
 20
162.357596376408
 30
0.0
 11
-574.1000000000001
 21
161.857596376408
 31
0.0
  0
ARC
  5
1A4
  8
0
  6
CONTINUOUS
 62
     7
 10
-574.6000000000003
 20
162.357596376408
 30
0.0
 40
0.5000000000000004
 50
359.9999999999985
 51
90.00000000000021
  0
LINE
  5
1A5
  8
0
  6
CONTINUOUS
 62
     7
 10
-583.6000000000003
 20
162.857596376408
 30
0.0
 11
-574.6000000000003
 21
162.857596376408
 31
0.0
  0
ARC
  5
1A6
  8
0
  6
CONTINUOUS
 62
     7
 10
-583.6000000000003
 20
162.357596376408
 30
0.0
 40
0.5000000000000004
 50
90.0
 51
179.9999999999984
  0
LINE
  5
1A7
  8
0
  6
CONTINUOUS
 62
     7
 10
-584.1000000000001
 20
161.857596376408
 30
0.0
 11
-584.1000000000001
 21
162.357596376408
 31
0.0
  0
ARC
  5
1A8
  8
0
  6
CONTINUOUS
 62
     7
 10
-583.6000000000003
 20
161.857596376408
 30
0.0
 40
0.5000000000000004
 50
180.0000000000016
 51
270.0000000000005
  0
LINE
  5
1A9
  8
0
  6
CONTINUOUS
 62
     7
 10
-574.6000000000003
 20
161.357596376408
 30
0.0
 11
-583.6000000000003
 21
161.357596376408
 31
0.0
  0
ARC
  5
1AA
  8
0
  6
CONTINUOUS
 62
     7
 10
-560.3560618517586
 20
268.6506615401673
 30
0.0
 40
9.547303121898542
 50
237.3990728610389
 51
250.7736347659734
  0
LINE
  5
1AB
  8
0
  6
CONTINUOUS
 62
     7
 10
-563.2639320225005
 20
164.0793329199213
 30
0.0
 11
-563.5000000000002
 21
164.0793329199213
 31
0.0
  0
ARC
  5
1AC
  8
0
  6
CONTINUOUS
 62
     7
 10
-560.3816564599392
 20
155.1172092936604
 30
0.0
 40
9.489137280397252
 50
109.1851851214084
 51
122.6421072515794
  0
LINE
  5
1AD
  8
0
  6
CONTINUOUS
 62
     7
 10
-563.5000000000002
 20
259.6358598328948
 30
0.0
 11
-563.2639320225005
 21
259.6358598328948
 31
0.0
  0
LINE
  5
1AE
  8
0
  6
CONTINUOUS
 62
     7
 10
-568.8000000000002
 20
260.107596376408
 30
0.0
 11
-566.6000000000003
 21
260.107596376408
 31
0.0
  0
ARC
  5
1AF
  8
0
  6
CONTINUOUS
 62
     7
 10
-567.7000000000002
 20
263.357596376408
 30
0.0
 40
2.250000000000019
 50
299.2675775975314
 51
60.73242240246918
  0
ARC
  5
1B0
  8
0
  6
CONTINUOUS
 62
     7
 10
-567.7000000000002
 20
263.357596376408
 30
0.0
 40
2.249999999999981
 50
119.2675775975309
 51
240.7324224024692
  0
CIRCLE
  5
1B1
  8
0
  6
CONTINUOUS
 62
     7
 10
-567.7000000000002
 20
160.357596376408
 30
0.0
 40
2.250000000000002
  0
CIRCLE
  5
1B2
  8
0
  6
CONTINUOUS
 62
     7
 10
-584.1000000000001
 20
184.357596376408
 30
0.0
 40
13.54999999999999
  0
CIRCLE
  5
1B3
  8
0
  6
CONTINUOUS
 62
     7
 10
-584.1000000000001
 20
239.357596376408
 30
0.0
 40
13.55000000000001
  0
LINE
  5
1B4
  8
0
  6
CONTINUOUS
 62
     7
 10
-607.5000000000001
 20
270.357596376408
 30
0.0
 11
-565.5000000000001
 21
270.357596376408
 31
0.0
  0
LINE
  5
1B5
  8
0
  6
CONTINUOUS
 62
     7
 10
-566.6000000000003
 20
266.6075963764081
 30
0.0
 11
-568.8000000000002
 21
266.6075963764081
 31
0.0
  0
ARC
  5
1B6
  8
0
  6
CONTINUOUS
 62
     7
 10
-563.5000000000002
 20
163.107596376408
 30
0.0
 40
0.9999999999999977
 50
0.0
 51
76.34541525402487
  0
LINE
  5
1B7
  8
0
  6
CONTINUOUS
 62
     7
 10
-565.5000000000002
 20
153.3575963764081
 30
0.0
 11
-607.5000000000002
 21
153.3575963764081
 31
0.0
  0
ARC
  5
1B8
  8
0
  6
CONTINUOUS
 62
     7
 10
-563.5000000000002
 20
260.6075963764081
 30
0.0
 40
0.9999999999999977
 50
283.6545847459752
 51
0.0
  0
ARC
  5
1B9
  8
0
  6
CONTINUOUS
 62
     7
 10
-565.5000000000002
 20
267.357596376408
 30
0.0
 40
3.000000000000003
 50
0.0
 51
90.00000000000006
  0
LINE
  5
1BA
  8
0
  6
CONTINUOUS
 62
     7
 10
-563.4689870326686
 20
267.1071153586477
 30
0.0
 11
-563.5000000000002
 21
267.107150721059
 31
0.0
  0
ARC
  5
1BB
  8
0
  6
CONTINUOUS
 62
     7
 10
-562.3850650798565
 20
262.0856561130967
 30
0.0
 40
5.143781485828356
 50
102.5184476680357
 51
127.2700820851205
  0
ARC
  5
1BC
  8
0
  6
CONTINUOUS
 62
     7
 10
-562.3697410646747
 20
161.6625580590694
 30
0.0
 40
5.179345280171379
 50
232.8162285042975
 51
257.3952417426194
  0
LINE
  5
1BD
  8
0
  6
CONTINUOUS
 62
     7
 10
-563.4999999999967
 20
156.608042031757
 30
0.0
 11
-563.4689870326575
 21
156.6080773941688
 31
0.0
  0
ARC
  5
1BE
  8
0
  6
CONTINUOUS
 62
     7
 10
-565.5000000000002
 20
156.3575963764081
 30
0.0
 40
3.000000000000003
 50
269.9999999999999
 51
0.0
  0
ARC
  5
1BF
  8
0
  6
CONTINUOUS
 62
     7
 10
-563.5000000000002
 20
266.1075963764081
 30
0.0
 40
0.9999999999999991
 50
0.0
 51
88.22280289812471
  0
ARC
  5
1C0
  8
0
  6
CONTINUOUS
 62
     7
 10
-563.5000000000002
 20
157.607596376408
 30
0.0
 40
0.9999999999999941
 50
271.777197102507
 51
0.0
  0
LINE
  5
1C1
  8
0
  6
CONTINUOUS
 62
     9
 10
-585.781810633774
 20
272.5040429858147
 30
0.0
 11
-583.2181893662265
 21
272.5040429858147
 31
0.0
  0
ARC
  5
1C2
  8
0
  6
CONTINUOUS
 62
     9
 10
-584.5342983072625
 20
273.4149090960817
 30
0.0
 40
1.715954170197359
 50
179.0171179155328
 51
198.6071472945592
  0
POLYLINE
  5
1C3
  8
0
  6
CONTINUOUS
 62
     9
 66
     1
 10
0.0
 20
0.0
 30
0.0
  0
VERTEX
  5
24F
  8
0
  6
CONTINUOUS
 62
     9
 10
-586.1605571754125
 20
272.867386669161
 30
0.0
  0
VERTEX
  5
250
  8
0
  6
CONTINUOUS
 62
     9
 10
-586.1058194510396
 20
272.7434534801965
 30
0.0
  0
VERTEX
  5
251
  8
0
  6
CONTINUOUS
 62
     9
 10
-586.0422015428237
 20
272.6449344137285
 30
0.0
  0
VERTEX
  5
252
  8
0
  6
CONTINUOUS
 62
     9
 10
-585.965421447347
 20
272.5673350997094
 30
0.0
  0
VERTEX
  5
253
  8
0
  6
CONTINUOUS
 62
     9
 10
-585.8724655445226
 20
272.5166497868631
 30
0.0
  0
VERTEX
  5
254
  8
0
  6
CONTINUOUS
 62
     9
 10
-585.781810633774
 20
272.5040429858147
 30
0.0
  0
SEQEND
  5
26F
  8
0
  6
CONTINUOUS
 62
     9
  0
POLYLINE
  5
1C4
  8
0
  6
CONTINUOUS
 62
     9
 66
     1
 10
0.0
 20
0.0
 30
0.0
  0
VERTEX
  5
255
  8
0
  6
CONTINUOUS
 62
     9
 10
-583.2181893662264
 20
272.5040429858147
 30
0.0
  0
VERTEX
  5
256
  8
0
  6
CONTINUOUS
 62
     9
 10
-583.1124782427829
 20
272.5221037918789
 30
0.0
  0
VERTEX
  5
257
  8
0
  6
CONTINUOUS
 62
     9
 10
-583.021272183886
 20
272.5781854554744
 30
0.0
  0
VERTEX
  5
258
  8
0
  6
CONTINUOUS
 62
     9
 10
-582.9498206297106
 20
272.6553136895204
 30
0.0
  0
VERTEX
  5
259
  8
0
  6
CONTINUOUS
 62
     9
 10
-582.8868475770031
 20
272.7575047627971
 30
0.0
  0
SEQEND
  5
270
  8
0
  6
CONTINUOUS
 62
     9
  0
ARC
  5
1C5
  8
0
  6
CONTINUOUS
 62
     9
 10
-584.2704981801053
 20
273.3902393380347
 30
0.0
 40
1.521460493790736
 50
335.4256847680145
 51
2.037926490877055
  0
POLYLINE
  5
1C6
  8
0
  6
CONTINUOUS
 62
     9
 66
     1
 10
0.0
 20
0.0
 30
0.0
  0
VERTEX
  5
25A
  8
0
  6
CONTINUOUS
 62
     9
 10
-585.7686342378372
 20
272.1504895952215
 30
0.0
  0
VERTEX
  5
25B
  8
0
  6
CONTINUOUS
 62
     9
 10
-585.8935362585577
 20
272.1619378421663
 30
0.0
  0
VERTEX
  5
25C
  8
0
  6
CONTINUOUS
 62
     9
 10
-586.0183378231212
 20
272.1973099300133
 30
0.0
  0
VERTEX
  5
25D
  8
0
  6
CONTINUOUS
 62
     9
 10
-586.1318676013474
 20
272.2526714423434
 30
0.0
  0
VERTEX
  5
25E
  8
0
  6
CONTINUOUS
 62
     9
 10
-586.2377667051369
 20
272.3278240944978
 30
0.0
  0
VERTEX
  5
25F
  8
0
  6
CONTINUOUS
 62
     9
 10
-586.327296445581
 20
272.4133628757403
 30
0.0
  0
SEQEND
  5
271
  8
0
  6
CONTINUOUS
 62
     9
  0
ARC
  5
1C7
  8
0
  6
CONTINUOUS
 62
     9
 10
-585.1446982983981
 20
273.3832750629469
 30
0.0
 40
1.529466583032165
 50
177.7116696051212
 51
219.3570162285124
  0
ARC
  5
1C8
  8
0
  6
CONTINUOUS
 62
     9
 10
-584.0822942309604
 20
273.4241234038309
 30
0.0
 40
1.755355905007304
 50
334.9062031919391
 51
0.66002715885071
  0
POLYLINE
  5
1C9
  8
0
  6
CONTINUOUS
 62
     9
 66
     1
 10
0.0
 20
0.0
 30
0.0
  0
VERTEX
  5
260
  8
0
  6
CONTINUOUS
 62
     9
 10
-582.4926180843174
 20
272.6796745459247
 30
0.0
  0
VERTEX
  5
261
  8
0
  6
CONTINUOUS
 62
     9
 10
-582.5622851694277
 20
272.5568684387265
 30
0.0
  0
VERTEX
  5
262
  8
0
  6
CONTINUOUS
 62
     9
 10
-582.6240931864705
 20
272.4704290745344
 30
0.0
  0
VERTEX
  5
263
  8
0
  6
CONTINUOUS
 62
     9
 10
-582.7144856233424
 20
272.370592722486
 30
0.0
  0
VERTEX
  5
264
  8
0
  6
CONTINUOUS
 62
     9
 10
-582.8015303188528
 20
272.296984711637
 30
0.0
  0
VERTEX
  5
265
  8
0
  6
CONTINUOUS
 62
     9
 10
-582.9125099657681
 20
272.228190329912
 30
0.0
  0
VERTEX
  5
266
  8
0
  6
CONTINUOUS
 62
     9
 10
-583.031615569593
 20
272.180142120066
 30
0.0
  0
VERTEX
  5
267
  8
0
  6
CONTINUOUS
 62
     9
 10
-583.1436810110146
 20
272.1561079106455
 30
0.0
  0
VERTEX
  5
268
  8
0
  6
CONTINUOUS
 62
     9
 10
-583.2313657621652
 20
272.1504895952215
 30
0.0
  0
SEQEND
  5
272
  8
0
  6
CONTINUOUS
 62
     9
  0
ARC
  5
1CA
  8
0
  6
CONTINUOUS
 62
     7
 10
-570.0500000000005
 20
283.8075963757078
 30
0.0
 40
1.250000000000001
 50
270.0000000000168
 51
359.9999999999993
  0
ARC
  5
1CB
  8
0
  6
CONTINUOUS
 62
     7
 10
-598.9499999999997
 20
300.3075963757072
 30
0.0
 40
1.250000000000001
 50
90.00000000001684
 51
180.0
  0
ARC
  5
1CC
  8
0
  6
CONTINUOUS
 62
     7
 10
-570.0500000000005
 20
300.3075963757072
 30
0.0
 40
1.249999999999973
 50
0.0
 51
89.99999999998323
  0
LINE
  5
1CD
  8
0
  6
CONTINUOUS
 62
     7
 10
-568.8000000000001
 20
283.8075963757077
 30
0.0
 11
-568.8000000000001
 21
300.3075963757072
 31
0.0
  0
ARC
  5
1CE
  8
0
  6
CONTINUOUS
 62
     7
 10
-598.9499999999998
 20
283.8075963757078
 30
0.0
 40
1.250000000000001
 50
180.0000000000006
 51
269.9999999999831
  0
LINE
  5
1CF
  8
0
  6
CONTINUOUS
 62
     7
 10
-600.2000000000002
 20
300.3075963757072
 30
0.0
 11
-600.2000000000002
 21
283.8075963757076
 31
0.0
  0
LINE
  5
1D0
  8
0
  6
CONTINUOUS
 62
     7
 10
-598.6000000000001
 20
282.5575963759073
 30
0.0
 11
-598.6000000000001
 21
270.3575963764081
 31
0.0
  0
LINE
  5
1D1
  8
0
  6
CONTINUOUS
 62
     7
 10
-570.4000000000001
 20
270.357596376408
 30
0.0
 11
-570.4000000000001
 21
282.5575963759073
 31
0.0
  0
ENDBLK
  8
0
  0
BLOCK
  8
0
  2
D_FRAME_VIEW_5528
 70
     0
 10
0.0
 20
0.0
 30
0.0
  0
LINE
  5
1D6
  8
0
  6
CONTINUOUS
 62
     7
 10
-719.0000000000001
 20
81.60000000000001
 30
0.0
 11
-718.9370598373248
 21
81.60000000000001
 31
0.0
  0
LINE
  5
1D7
  8
0
  6
CONTINUOUS
 62
     7
 10
-718.9370598373248
 20
81.60000000000001
 30
0.0
 11
-718.9370598373248
 21
83.8
 31
0.0
  0
LINE
  5
1D8
  8
0
  6
CONTINUOUS
 62
     7
 10
-719.0000000000001
 20
83.80000000000001
 30
0.0
 11
-718.9370598373248
 21
83.80000000000001
 31
0.0
  0
ARC
  5
1D9
  8
0
  6
CONTINUOUS
 62
     7
 10
-715.8913820697333
 20
80.25540474172176
 30
0.0
 40
2.7567980861898
 50
220.3913220606649
 51
268.1782755244462
  0
LINE
  5
1DA
  8
0
  6
CONTINUOUS
 62
     7
 10
-717.9910600109423
 20
78.46898703266838
 30
0.0
 11
-718.020911511564
 21
78.50000000000001
 31
0.0
  0
ARC
  5
1DB
  8
0
  6
CONTINUOUS
 62
     7
 10
-715.8312671159382
 20
80.79340326910908
 30
0.0
 40
3.170842338252647
 50
185.3092678181365
 51
226.3258579425748
  0
ARC
  5
1DC
  8
0
  6
CONTINUOUS
 62
     7
 10
-708.0500000000001
 20
73.91758740920093
 30
0.0
 40
3.878618306912383
 50
67.46283727193372
 51
112.5371627280663
  0
ARC
  5
1DD
  8
0
  6
CONTINUOUS
 62
     7
 10
-673.5000000000001
 20
78.00000000000001
 30
0.0
 40
0.4999999999999935
 50
270.0
 51
0.0000000000000568
  0
LINE
  5
1DE
  8
0
  6
CONTINUOUS
 62
     7
 10
-651.0000000000001
 20
122.5
 30
0.0
 11
-651.0000000000001
 21
78.50000000000001
 31
0.0
  0
LINE
  5
1DF
  8
0
  6
CONTINUOUS
 62
     7
 10
-651.9790884884395
 20
78.49999999999646
 30
0.0
 11
-652.0089399890685
 21
78.46898703265735
 31
0.0
  0
ARC
  5
1E0
  8
0
  6
CONTINUOUS
 62
     7
 10
-654.1169306442667
 20
80.27266556467544
 30
0.0
 40
2.774325296223591
 50
271.9819811401613
 51
319.4484212744549
  0
ARC
  5
1E1
  8
0
  6
CONTINUOUS
 62
     7
 10
-654.136126013862
 20
80.77762815959215
 30
0.0
 40
3.136941331849221
 50
313.4423556113583
 51
354.9225186278522
  0
CIRCLE
  5
1E2
  8
0
  6
CONTINUOUS
 62
     7
 10
-690.5000000000001
 20
102.0
 30
0.0
 40
13.54999999999999
  0
ARC
  5
1E3
  8
0
  6
CONTINUOUS
 62
     7
 10
-664.5000000000001
 20
78.00000000000001
 30
0.0
 40
0.5000000000000004
 50
180.0
 51
270.0
  0
ARC
  5
1E4
  8
0
  6
CONTINUOUS
 62
     7
 10
-718.0000000000001
 20
78.50000000000001
 30
0.0
 40
1.000000000000001
 50
180.0
 51
270.0
  0
ARC
  5
1E5
  8
0
  6
CONTINUOUS
 62
     7
 10
-652.0000000000001
 20
78.50000000000001
 30
0.0
 40
1.000000000000001
 50
270.0
 51
0.0
  0
LINE
  5
1E6
  8
0
  6
CONTINUOUS
 62
     7
 10
-651.0000000000001
 20
89.10000000000001
 30
0.0
 11
-649.0000000000001
 21
89.10000000000001
 31
0.0
  0
LINE
  5
1E7
  8
0
  6
CONTINUOUS
 62
     7
 10
-719.0000000000001
 20
89.10000000000001
 30
0.0
 11
-721.0000000000001
 21
89.10000000000001
 31
0.0
  0
LINE
  5
1E8
  8
0
  6
CONTINUOUS
 62
     7
 10
-719.0000000000001
 20
113.5
 30
0.0
 11
-721.0000000000001
 21
113.5
 31
0.0
  0
LINE
  5
1E9
  8
0
  6
CONTINUOUS
 62
     7
 10
-719.0000000000001
 20
116.5
 30
0.0
 11
-721.0000000000001
 21
116.5
 31
0.0
  0
LINE
  5
1EA
  8
0
  6
CONTINUOUS
 62
     7
 10
-719.0000000000001
 20
99.10000000000002
 30
0.0
 11
-721.0000000000001
 21
99.10000000000002
 31
0.0
  0
LINE
  5
1EB
  8
0
  6
CONTINUOUS
 62
     7
 10
-651.0000000000001
 20
99.10000000000002
 30
0.0
 11
-649.0
 21
99.10000000000002
 31
0.0
  0
LINE
  5
1EC
  8
0
  6
CONTINUOUS
 62
     7
 10
-651.0000000000001
 20
116.5
 30
0.0
 11
-649.0
 21
116.5
 31
0.0
  0
LINE
  5
1ED
  8
0
  6
CONTINUOUS
 62
     7
 10
-651.0000000000001
 20
102.5
 30
0.0
 11
-649.0000000000001
 21
102.5
 31
0.0
  0
LINE
  5
1EE
  8
0
  6
CONTINUOUS
 62
     7
 10
-719.0000000000001
 20
102.5
 30
0.0
 11
-721.0000000000001
 21
102.5
 31
0.0
  0
ENDBLK
  8
0
  0
ENDSEC
  0
SECTION
  2
ENTITIES
  0
LINE
  5
6F
  8
0
  6
CONTINUOUS
 62
     7
 10
-719.0000000000001
 20
122.5
 30
0.0
 11
-719.0000000000001
 21
78.50000000000001
 31
0.0
  0
LINE
  5
70
  8
0
  6
CONTINUOUS
 62
     7
 10
-719.0000000000001
 20
122.5
 30
0.0
 11
-651.0
 21
122.5
 31
0.0
  0
LINE
  5
71
  8
0
  6
CONTINUOUS
 62
     7
 10
-667.8000000000002
 20
282.257596376408
 30
0.0
 11
-671.0684419703329
 21
282.257596376408
 31
0.0
  0
LINE
  5
72
  8
0
  6
CONTINUOUS
 62
     7
 10
-582.7500000000001
 20
282.257596376408
 30
0.0
 11
-586.2500000000001
 21
282.257596376408
 31
0.0
  0
LINE
  5
73
  8
0
  6
CONTINUOUS
 62
     7
 10
-582.7500000000002
 20
282.257596376408
 30
0.0
 11
-582.7500000000002
 21
273.4443440371192
 31
0.0
  0
LINE
  5
74
  8
0
  6
CONTINUOUS
 62
     7
 10
-721.0000000000001
 20
89.10000000000001
 30
0.0
 11
-721.0000000000001
 21
99.10000000000002
 31
0.0
  0
LINE
  5
75
  8
0
  6
CONTINUOUS
 62
     7
 10
-718.0000000000002
 20
77.50000000000001
 30
0.0
 11
-652.0000000000001
 21
77.50000000000001
 31
0.0
  0
LINE
  5
76
  8
0
  6
CONTINUOUS
 62
     7
 10
-673.0000000000001
 20
86.30000000000001
 30
0.0
 11
-673.0000000000001
 21
78.00000000000001
 31
0.0
  0
LINE
  5
77
  8
0
  6
CONTINUOUS
 62
     7
 10
-562.5000000000002
 20
156.3575963764081
 30
0.0
 11
-562.5000000000002
 21
267.357596376408
 31
0.0
  0
LINE
  5
78
  8
0
  6
CONTINUOUS
 62
     7
 10
-649.0000000000001
 20
116.5
 30
0.0
 11
-649.0000000000001
 21
102.5
 31
0.0
  0
LINE
  5
79
  8
0
  6
CONTINUOUS
 62
     7
 10
-649.0000000000001
 20
89.10000000000001
 30
0.0
 11
-649.0000000000001
 21
99.10000000000002
 31
0.0
  0
LINE
  5
7A
  8
0
  6
CONTINUOUS
 62
     7
 10
-665.0000000000001
 20
78.00000000000001
 30
0.0
 11
-665.0000000000001
 21
86.30000000000001
 31
0.0
  0
LINE
  5
7B
  8
0
  6
CONTINUOUS
 62
     7
 10
-568.8000000000002
 20
266.6075963764081
 30
0.0
 11
-568.8000000000002
 21
265.278517802842
 31
0.0
  0
LINE
  5
7C
  8
0
  6
CONTINUOUS
 62
     7
 10
-566.6000000000003
 20
261.4366749499741
 30
0.0
 11
-566.6000000000003
 21
260.107596376408
 31
0.0
  0
LINE
  5
7D
  8
0
  6
CONTINUOUS
 62
     7
 10
-566.6000000000003
 20
266.6075963764081
 30
0.0
 11
-566.6000000000003
 21
265.2785178028428
 31
0.0
  0
LINE
  5
7E
  8
0
  6
CONTINUOUS
 62
     7
 10
-568.8000000000002
 20
261.4366749499741
 30
0.0
 11
-568.8000000000002
 21
260.107596376408
 31
0.0
  0
LINE
  5
7F
  8
0
  6
CONTINUOUS
 62
     7
 10
-699.4454170576827
 20
282.557596374796
 30
0.0
 11
-702.2000000017222
 21
282.5575963746222
 31
0.0
  0
LINE
  5
80
  8
0
  6
CONTINUOUS
 62
     7
 10
-586.2500000000001
 20
273.4443440371306
 30
0.0
 11
-586.2500000000001
 21
282.257596376408
 31
0.0
  0
LINE
  5
81
  8
0
  6
CONTINUOUS
 62
     7
 10
-721.0000000000001
 20
116.5
 30
0.0
 11
-721.0000000000001
 21
102.5
 31
0.0
  0
LINE
  5
82
  8
0
  6
CONTINUOUS
 62
     7
 10
-598.9499999999995
 20
282.5575963757078
 30
0.0
 11
-570.0500000000013
 21
282.5575963757078
 31
0.0
  0
LINE
  5
83
  8
0
  6
CONTINUOUS
 62
     7
 10
-721.0000000000001
 20
161.357596376408
 30
0.0
 11
-721.0000000000001
 21
162.857596376408
 31
0.0
  0
LINE
  5
84
  8
0
  6
CONTINUOUS
 62
     7
 10
-649.0000000000001
 20
212.6075963764081
 30
0.0
 11
-649.0000000000001
 21
211.1075963764081
 31
0.0
  0
LINE
  5
85
  8
0
  6
CONTINUOUS
 62
     7
 10
-703.2500000000001
 20
160.557596376408
 30
0.0
 11
-703.2500000000001
 21
158.1575963764081
 31
0.0
  0
LINE
  5
86
  8
0
  6
CONTINUOUS
 62
     7
 10
-711.25
 20
158.1575963764081
 30
0.0
 11
-711.25
 21
160.5575963764081
 31
0.0
  0
LINE
  5
87
  8
0
  6
CONTINUOUS
 62
     7
 10
-666.75
 20
263.157596376408
 30
0.0
 11
-666.7500000000001
 21
265.5575963764081
 31
0.0
  0
ARC
  5
88
  8
0
  6
CONTINUOUS
 62
     7
 10
-707.2500000000001
 20
159.3575963764081
 30
0.0
 40
4.699999999999999
 50
219.665012907593
 51
320.679632195065
  0
LINE
  5
89
  8
0
  6
CONTINUOUS
 62
     7
 10
-676.0000000000001
 20
210.4433828140349
 30
0.0
 11
-676.0000000000001
 21
213.2718099387811
 31
0.0
  0
LINE
  5
8A
  8
0
  6
CONTINUOUS
 62
     7
 10
-658.7500000000001
 20
265.5575963764081
 30
0.0
 11
-658.7500000000001
 21
263.157596376408
 31
0.0
  0
CIRCLE
  5
8B
  8
0
  6
CONTINUOUS
 62
     7
 10
-662.7500000000001
 20
264.357596376408
 30
0.0
 40
4.000000000000004
  0
LINE
  5
8C
  8
0
  6
CONTINUOUS
 62
     7
 10
-721.0000000000001
 20
262.3575963764081
 30
0.0
 11
-721.0000000000001
 21
260.8575963764081
 31
0.0
  0
LINE
  5
8D
  8
0
  6
CONTINUOUS
 62
     7
 10
-649.0000000000001
 20
161.357596376408
 30
0.0
 11
-649.0000000000001
 21
162.857596376408
 31
0.0
  0
CIRCLE
  5
8E
  8
0
  6
CONTINUOUS
 62
     7
 10
-707.2500000000001
 20
159.3575963764081
 30
0.0
 40
4.000000000000004
  0
LINE
  5
8F
  8
0
  6
CONTINUOUS
 62
     7
 10
-667.800000001724
 20
282.5575963767932
 30
0.0
 11
-699.3719344574592
 21
282.5575963748009
 31
0.0
  0
LINE
  5
90
  8
0
  6
CONTINUOUS
 62
     7
 10
-699.4500000029215
 20
301.5575963747953
 30
0.0
 11
-670.5500000029232
 21
301.5575963766191
 31
0.0
  0
LINE
  5
91
  8
0
  6
CONTINUOUS
 62
     7
 10
-694.0
 20
213.2718099387811
 30
0.0
 11
-694.0
 21
210.4433828140349
 31
0.0
  0
LINE
  5
92
  8
0
  6
CONTINUOUS
 62
     7
 10
-587.0000000000002
 20
299.8926964390766
 30
0.0
 11
-587.0000000000002
 21
282.5575963767817
 31
0.0
  0
LINE
  5
93
  8
0
  6
CONTINUOUS
 62
     7
 10
-649.0000000000001
 20
262.3575963764081
 30
0.0
 11
-649.0000000000001
 21
260.8575963764081
 31
0.0
  0
LINE
  5
94
  8
0
  6
CONTINUOUS
 62
     7
 10
-583.5000000000002
 20
282.5575963767914
 30
0.0
 11
-583.5000000000002
 21
299.846222672743
 31
0.0
  0
LINE
  5
95
  8
0
  6
CONTINUOUS
 62
     7
 10
-702.2000000000002
 20
282.257596376408
 30
0.0
 11
-698.9315580296674
 21
282.257596376408
 31
0.0
  0
LINE
  5
96
  8
0
  6
CONTINUOUS
 62
     7
 10
-721.0000000000001
 20
212.6075963764081
 30
0.0
 11
-721.0000000000001
 21
211.1075963764081
 31
0.0
  0
LINE
  5
97
  8
0
  6
CONTINUOUS
 62
     7
 10
-607.5000000000001
 20
153.3575963764081
 30
0.0
 11
-607.5000000000001
 21
270.357596376408
 31
0.0
  0
INSERT
  5
188
  8
0
  6
DOT
 62
     7
  2
D_FRAME_VIEW_4660
 10
0.0
 20
0.0
 30
0.0
  0
LINE
  5
18A
  8
0
  6
CONTINUOUS
 62
     7
 10
-673.0000000000001
 20
86.30000000000001
 30
0.0
 11
-665.0000000000001
 21
86.30000000000001
 31
0.0
  0
INSERT
  5
1D2
  8
0
  6
DOT
 62
     7
  2
D_FRAME_VIEW_5387
 10
0.0
 20
0.0
 30
0.0
  0
INSERT
  5
1EF
  8
0
  6
DOT
 62
     7
  2
D_FRAME_VIEW_5528
 10
0.0
 20
0.0
 30
0.0
  0
TEXT
  5
1F0
  8
0
  6
CONTINUOUS
 62
     7
 10
-674.8515693385019
 20
61.6568400650244
 30
0.0
 40
6.0
  1
CDO-M16SGF
  0
ENDSEC
  0
EOF
