  0
SECTION
  2
HEADER
  9
$ACADVER
  1
AC1006
  9
$DWGCODEPAGE
  3
ansi_932
  9
$INSBASE
 10
0.0
 20
0.0
 30
0.0
  9
$EXTMIN
 10
-354.2353727132396
 20
-40.50995405626412
  9
$EXTMAX
 10
-146.8199705955303
 20
246.0930412797899
  9
$LIMMIN
 10
0.0
 20
0.0
  9
$LIMMAX
 10
12.0
 20
9.0
  9
$ORTHOMODE
 70
     0
  9
$REGENMODE
 70
     1
  9
$FILLMODE
 70
     1
  9
$QTEXTMODE
 70
     0
  9
$MIRRTEXT
 70
     1
  9
$DRAGMODE
 70
     2
  9
$LTSCALE
 40
1.0
  9
$OSMODE
 70
    37
  9
$ATTMODE
 70
     1
  9
$TEXTSIZE
 40
0.2
  9
$TRACEWID
 40
0.05
  9
$TEXTSTYLE
  7
STANDARD
  9
$CLAYER
  8
0
  9
$CELTYPE
  6
BYLAYER
  9
$CECOLOR
 62
   256
  9
$DIMSCALE
 40
1.0
  9
$DIMASZ
 40
3.0
  9
$DIMEXO
 40
0.0625
  9
$DIMDLI
 40
0.38
  9
$DIMRND
 40
0.0
  9
$DIMDLE
 40
0.0
  9
$DIMEXE
 40
1.5
  9
$DIMTP
 40
0.0
  9
$DIMTM
 40
0.0
  9
$DIMTXT
 40
3.0
  9
$DIMCEN
 40
0.09
  9
$DIMTSZ
 40
0.0
  9
$DIMTOL
 70
     0
  9
$DIMLIM
 70
     0
  9
$DIMTIH
 70
     1
  9
$DIMTOH
 70
     1
  9
$DIMSE1
 70
     0
  9
$DIMSE2
 70
     0
  9
$DIMTAD
 70
     1
  9
$DIMZIN
 70
     0
  9
$DIMBLK
  1

  9
$DIMASO
 70
     1
  9
$DIMSHO
 70
     1
  9
$DIMPOST
  1

  9
$DIMAPOST
  1

  9
$DIMALT
 70
     0
  9
$DIMALTD
 70
     2
  9
$DIMALTF
 40
25.4
  9
$DIMLFAC
 40
1.0
  9
$DIMTOFL
 70
     0
  9
$DIMTVP
 40
0.0
  9
$DIMTIX
 70
     0
  9
$DIMSOXD
 70
     0
  9
$DIMSAH
 70
     0
  9
$DIMBLK1
  1

  9
$DIMBLK2
  1

  9
$LUNITS
 70
     2
  9
$LUPREC
 70
     4
  9
$SKETCHINC
 40
0.1
  9
$FILLETRAD
 40
0.5
  9
$AUNITS
 70
     0
  9
$AUPREC
 70
     0
  9
$MENU
  1
.
  9
$ELEVATION
 40
0.0
  9
$THICKNESS
 40
0.0
  9
$LIMCHECK
 70
     0
  9
$CHAMFERA
 40
0.0
  9
$CHAMFERB
 40
0.0
  9
$SKPOLY
 70
     0
  9
$TDCREATE
 40
2459395.62108228
  9
$TDUPDATE
 40
2459395.621082454
  9
$TDINDWG
 40
0.0000000116
  9
$TDUSRTIMER
 40
0.0000000116
  9
$USRTIMER
 70
     1
  9
$ANGBASE
 50
0.0
  9
$ANGDIR
 70
     0
  9
$PDMODE
 70
     0
  9
$PDSIZE
 40
0.0
  9
$PLINEWID
 40
0.0
  9
$COORDS
 70
     1
  9
$SPLFRAME
 70
     0
  9
$SPLINETYPE
 70
     6
  9
$SPLINESEGS
 70
     8
  9
$ATTDIA
 70
     0
  9
$ATTREQ
 70
     1
  9
$HANDLING
 70
     1
  9
$HANDSEED
  5
3E4
  9
$SURFTAB1
 70
     6
  9
$SURFTAB2
 70
     6
  9
$SURFTYPE
 70
     6
  9
$SURFU
 70
     6
  9
$SURFV
 70
     6
  9
$UCSNAME
  2

  9
$UCSORG
 10
0.0
 20
0.0
 30
0.0
  9
$UCSXDIR
 10
1.0
 20
0.0
 30
0.0
  9
$UCSYDIR
 10
0.0
 20
1.0
 30
0.0
  9
$USERI1
 70
     0
  9
$USERI2
 70
     0
  9
$USERI3
 70
     0
  9
$USERI4
 70
     0
  9
$USERI5
 70
     0
  9
$USERR1
 40
0.0
  9
$USERR2
 40
0.0
  9
$USERR3
 40
0.0
  9
$USERR4
 40
0.0
  9
$USERR5
 40
0.0
  9
$WORLDVIEW
 70
     1
  0
ENDSEC
  0
SECTION
  2
TABLES
  0
TABLE
  2
VPORT
 70
     1
  0
VPORT
  2
*ACTIVE
 70
     0
 10
0.0
 20
0.0
 11
1.0
 21
1.0
 12
-250.527671654385
 22
102.7915436117629
 13
0.0
 23
0.0
 14
0.5
 24
0.5
 15
0.5
 25
0.5
 16
0.0
 26
0.0
 36
1.0
 17
0.0
 27
0.0
 37
0.0
 40
286.6029953360541
 41
1.6
 42
50.0
 43
0.0
 44
0.0
 50
0.0
 51
0.0
 71
     0
 72
   100
 73
     1
 74
     3
 75
     0
 76
     0
 77
     0
 78
     0
  0
ENDTAB
  0
TABLE
  2
LTYPE
 70
     1
  0
LTYPE
  2
CONTINUOUS
 70
     0
  3
Solid line
 72
    65
 73
     0
 40
0.0
  0
ENDTAB
  0
TABLE
  2
LAYER
 70
     1
  0
LAYER
  2
0
 70
     0
 62
     7
  6
CONTINUOUS
  0
ENDTAB
  0
TABLE
  2
STYLE
 70
     2
  0
STYLE
  2
STANDARD
 70
     0
 40
0.0
 41
1.0
 50
0.0
 71
     0
 42
0.2
  3
txt
  4

  0
STYLE
  2
ＭＳ_ゴシック
 70
     0
 40
0.0
 41
1.0
 50
0.0
 71
     0
 42
0.2
  3
ＭＳ ゴシック.shx
  4

  0
ENDTAB
  0
TABLE
  2
VIEW
 70
     0
  0
ENDTAB
  0
TABLE
  2
UCS
 70
     0
  0
ENDTAB
  0
ENDSEC
  0
SECTION
  2
BLOCKS
  0
BLOCK
  8
0
  2
D_FRAME_VIEW_2945
 70
     0
 10
0.0
 20
0.0
 30
0.0
  0
CIRCLE
  5
B2
  8
0
  6
CONTINUOUS
 62
    15
 10
-317.9353727132396
 20
156.6930412788571
 30
0.0
 40
4.762500000000003
  0
CIRCLE
  5
B3
  8
0
  6
CONTINUOUS
 62
     7
 10
-317.9353727132396
 20
114.9430412788571
 30
0.0
 40
1.649999999999999
  0
CIRCLE
  5
B4
  8
0
  6
CONTINUOUS
 62
     7
 10
-317.9353727132396
 20
198.4430412788572
 30
0.0
 40
1.649999999999999
  0
ARC
  5
B5
  8
0
  6
CONTINUOUS
 62
     7
 10
-340.1853727132395
 20
104.1930412788571
 30
0.0
 40
2.200000000000001
 50
256.8634412130551
 51
283.1365587869568
  0
LINE
  5
B6
  8
0
  6
CONTINUOUS
 62
     7
 10
-339.6853727132396
 20
103.1930412788571
 30
0.0
 11
-339.6853727132396
 21
102.0506127502944
 31
0.0
  0
POLYLINE
  5
B7
  8
0
  6
CONTINUOUS
 62
     7
 66
     1
 10
0.0
 20
0.0
 30
0.0
  0
VERTEX
  5
21F
  8
0
  6
CONTINUOUS
 62
     7
 10
-340.6853727132396
 20
103.1930412788571
 30
0.0
  0
VERTEX
  5
220
  8
0
  6
CONTINUOUS
 62
     7
 10
-340.6857920877758
 20
103.2134764158166
 30
0.0
  0
VERTEX
  5
221
  8
0
  6
CONTINUOUS
 62
     7
 10
-340.6870490012685
 20
103.2339145992843
 30
0.0
  0
VERTEX
  5
222
  8
0
  6
CONTINUOUS
 62
     7
 10
-340.6891416385435
 20
103.2543039894172
 30
0.0
  0
VERTEX
  5
223
  8
0
  6
CONTINUOUS
 62
     7
 10
-340.6920681844271
 20
103.2745927463717
 30
0.0
  0
VERTEX
  5
224
  8
0
  6
CONTINUOUS
 62
     7
 10
-340.6959511785049
 20
103.2953383192018
 30
0.0
  0
VERTEX
  5
225
  8
0
  6
CONTINUOUS
 62
     7
 10
-340.7007154008453
 20
103.3159394243412
 30
0.0
  0
VERTEX
  5
226
  8
0
  6
CONTINUOUS
 62
     7
 10
-340.7063489316193
 20
103.3363393698891
 30
0.0
  0
VERTEX
  5
227
  8
0
  6
CONTINUOUS
 62
     7
 10
-340.7128398509977
 20
103.356481463945
 30
0.0
  0
VERTEX
  5
228
  8
0
  6
CONTINUOUS
 62
     7
 10
-340.7199724112226
 20
103.3758001863006
 30
0.0
  0
VERTEX
  5
229
  8
0
  6
CONTINUOUS
 62
     7
 10
-340.7279074478421
 20
103.3948392893523
 30
0.0
  0
VERTEX
  5
22A
  8
0
  6
CONTINUOUS
 62
     7
 10
-340.7366245606593
 20
103.4135483241296
 30
0.0
  0
VERTEX
  5
22B
  8
0
  6
CONTINUOUS
 62
     7
 10
-340.746103349477
 20
103.4318768416614
 30
0.0
  0
VERTEX
  5
22C
  8
0
  6
CONTINUOUS
 62
     7
 10
-340.7566557180758
 20
103.4503343613755
 30
0.0
  0
VERTEX
  5
22D
  8
0
  6
CONTINUOUS
 62
     7
 10
-340.767999587237
 20
103.4683522012829
 30
0.0
  0
VERTEX
  5
22E
  8
0
  6
CONTINUOUS
 62
     7
 10
-340.7801026602723
 20
103.4858794215888
 30
0.0
  0
VERTEX
  5
22F
  8
0
  6
CONTINUOUS
 62
     7
 10
-340.7929326404932
 20
103.5028650824985
 30
0.0
  0
VERTEX
  5
230
  8
0
  6
CONTINUOUS
 62
     7
 10
-340.805906729048
 20
103.5186236070939
 30
0.0
  0
VERTEX
  5
231
  8
0
  6
CONTINUOUS
 62
     7
 10
-340.8195271882891
 20
103.5338550153708
 30
0.0
  0
VERTEX
  5
232
  8
0
  6
CONTINUOUS
 62
     7
 10
-340.8337576841635
 20
103.5485200505904
 30
0.0
  0
VERTEX
  5
233
  8
0
  6
CONTINUOUS
 62
     7
 10
-340.8485618826181
 20
103.5625794560136
 30
0.0
  0
VERTEX
  5
234
  8
0
  6
CONTINUOUS
 62
     7
 10
-340.8643885939575
 20
103.5764043955044
 30
0.0
  0
VERTEX
  5
235
  8
0
  6
CONTINUOUS
 62
     7
 10
-340.8807944482007
 20
103.5895619870564
 30
0.0
  0
VERTEX
  5
236
  8
0
  6
CONTINUOUS
 62
     7
 10
-340.8977328777625
 20
103.6020173273171
 30
0.0
  0
VERTEX
  5
237
  8
0
  6
CONTINUOUS
 62
     7
 10
-340.9151573150574
 20
103.6137355129337
 30
0.0
  0
VERTEX
  5
238
  8
0
  6
CONTINUOUS
 62
     7
 10
-340.9324383375794
 20
103.6243446115836
 30
0.0
  0
VERTEX
  5
239
  8
0
  6
CONTINUOUS
 62
     7
 10
-340.950141918443
 20
103.6342482152629
 30
0.0
  0
VERTEX
  5
23A
  8
0
  6
CONTINUOUS
 62
     7
 10
-340.96822165435
 20
103.6434230938268
 30
0.0
  0
VERTEX
  5
23B
  8
0
  6
CONTINUOUS
 62
     7
 10
-340.9866311420021
 20
103.6518460171304
 30
0.0
  0
VERTEX
  5
23C
  8
0
  6
CONTINUOUS
 62
     7
 10
-341.0058938117255
 20
103.6597162725471
 30
0.0
  0
VERTEX
  5
23D
  8
0
  6
CONTINUOUS
 62
     7
 10
-341.0254700473425
 20
103.6667795818094
 30
0.0
  0
VERTEX
  5
23E
  8
0
  6
CONTINUOUS
 62
     7
 10
-341.045306708432
 20
103.6730201716587
 30
0.0
  0
VERTEX
  5
23F
  8
0
  6
CONTINUOUS
 62
     7
 10
-341.0653506545725
 20
103.6784222688364
 30
0.0
  0
VERTEX
  5
240
  8
0
  6
CONTINUOUS
 62
     7
 10
-341.0890398510829
 20
103.6836677856921
 30
0.0
  0
VERTEX
  5
241
  8
0
  6
CONTINUOUS
 62
     7
 10
-341.1129725680065
 20
103.687758942654
 30
0.0
  0
VERTEX
  5
242
  8
0
  6
CONTINUOUS
 62
     7
 10
-341.1370628925415
 20
103.69068924219
 30
0.0
  0
VERTEX
  5
243
  8
0
  6
CONTINUOUS
 62
     7
 10
-341.1612249118865
 20
103.6924521867684
 30
0.0
  0
VERTEX
  5
244
  8
0
  6
CONTINUOUS
 62
     7
 10
-341.1853727132395
 20
103.6930412788571
 30
0.0
  0
SEQEND
  5
3D2
  8
0
  6
CONTINUOUS
 62
     7
  0
LINE
  5
B8
  8
0
  6
CONTINUOUS
 62
     7
 10
-340.6853727132396
 20
102.0506127502943
 30
0.0
 11
-340.6853727132396
 21
103.1930412788571
 31
0.0
  0
POLYLINE
  5
B9
  8
0
  6
CONTINUOUS
 62
     7
 66
     1
 10
0.0
 20
0.0
 30
0.0
  0
VERTEX
  5
245
  8
0
  6
CONTINUOUS
 62
     7
 10
-339.1853727132395
 20
103.6930412788571
 30
0.0
  0
VERTEX
  5
246
  8
0
  6
CONTINUOUS
 62
     7
 10
-339.2058078501991
 20
103.6926219043209
 30
0.0
  0
VERTEX
  5
247
  8
0
  6
CONTINUOUS
 62
     7
 10
-339.2262460336668
 20
103.6913649908283
 30
0.0
  0
VERTEX
  5
248
  8
0
  6
CONTINUOUS
 62
     7
 10
-339.2466354237996
 20
103.6892723535532
 30
0.0
  0
VERTEX
  5
249
  8
0
  6
CONTINUOUS
 62
     7
 10
-339.2669241807542
 20
103.6863458076696
 30
0.0
  0
VERTEX
  5
24A
  8
0
  6
CONTINUOUS
 62
     7
 10
-339.2876697535843
 20
103.6824628135918
 30
0.0
  0
VERTEX
  5
24B
  8
0
  6
CONTINUOUS
 62
     7
 10
-339.3082708587236
 20
103.6776985912514
 30
0.0
  0
VERTEX
  5
24C
  8
0
  6
CONTINUOUS
 62
     7
 10
-339.3286708042716
 20
103.6720650604774
 30
0.0
  0
VERTEX
  5
24D
  8
0
  6
CONTINUOUS
 62
     7
 10
-339.3488128983275
 20
103.6655741410989
 30
0.0
  0
VERTEX
  5
24E
  8
0
  6
CONTINUOUS
 62
     7
 10
-339.368131620683
 20
103.6584415808741
 30
0.0
  0
VERTEX
  5
24F
  8
0
  6
CONTINUOUS
 62
     7
 10
-339.3871707237348
 20
103.6505065442546
 30
0.0
  0
VERTEX
  5
250
  8
0
  6
CONTINUOUS
 62
     7
 10
-339.4058797585121
 20
103.6417894314374
 30
0.0
  0
VERTEX
  5
251
  8
0
  6
CONTINUOUS
 62
     7
 10
-339.4242082760438
 20
103.6323106426197
 30
0.0
  0
VERTEX
  5
252
  8
0
  6
CONTINUOUS
 62
     7
 10
-339.442665795758
 20
103.6217582740209
 30
0.0
  0
VERTEX
  5
253
  8
0
  6
CONTINUOUS
 62
     7
 10
-339.4606836356654
 20
103.6104144048597
 30
0.0
  0
VERTEX
  5
254
  8
0
  6
CONTINUOUS
 62
     7
 10
-339.4782108559713
 20
103.5983113318244
 30
0.0
  0
VERTEX
  5
255
  8
0
  6
CONTINUOUS
 62
     7
 10
-339.495196516881
 20
103.5854813516035
 30
0.0
  0
VERTEX
  5
256
  8
0
  6
CONTINUOUS
 62
     7
 10
-339.5109550414764
 20
103.5725072630487
 30
0.0
  0
VERTEX
  5
257
  8
0
  6
CONTINUOUS
 62
     7
 10
-339.5261864497533
 20
103.5588868038076
 30
0.0
  0
VERTEX
  5
258
  8
0
  6
CONTINUOUS
 62
     7
 10
-339.5408514849728
 20
103.5446563079332
 30
0.0
  0
VERTEX
  5
259
  8
0
  6
CONTINUOUS
 62
     7
 10
-339.5549108903961
 20
103.5298521094787
 30
0.0
  0
VERTEX
  5
25A
  8
0
  6
CONTINUOUS
 62
     7
 10
-339.5687358298868
 20
103.5140253981392
 30
0.0
  0
VERTEX
  5
25B
  8
0
  6
CONTINUOUS
 62
     7
 10
-339.5818934214388
 20
103.497619543896
 30
0.0
  0
VERTEX
  5
25C
  8
0
  6
CONTINUOUS
 62
     7
 10
-339.5943487616995
 20
103.4806811143343
 30
0.0
  0
VERTEX
  5
25D
  8
0
  6
CONTINUOUS
 62
     7
 10
-339.6060669473161
 20
103.4632566770393
 30
0.0
  0
VERTEX
  5
25E
  8
0
  6
CONTINUOUS
 62
     7
 10
-339.6166760459661
 20
103.4459756545173
 30
0.0
  0
VERTEX
  5
25F
  8
0
  6
CONTINUOUS
 62
     7
 10
-339.6265796496453
 20
103.4282720736537
 30
0.0
  0
VERTEX
  5
260
  8
0
  6
CONTINUOUS
 62
     7
 10
-339.6357545282092
 20
103.4101923377468
 30
0.0
  0
VERTEX
  5
261
  8
0
  6
CONTINUOUS
 62
     7
 10
-339.6441774515129
 20
103.3917828500947
 30
0.0
  0
VERTEX
  5
262
  8
0
  6
CONTINUOUS
 62
     7
 10
-339.6520477069296
 20
103.3725201803712
 30
0.0
  0
VERTEX
  5
263
  8
0
  6
CONTINUOUS
 62
     7
 10
-339.6591110161919
 20
103.3529439447542
 30
0.0
  0
VERTEX
  5
264
  8
0
  6
CONTINUOUS
 62
     7
 10
-339.6653516060412
 20
103.3331072836648
 30
0.0
  0
VERTEX
  5
265
  8
0
  6
CONTINUOUS
 62
     7
 10
-339.6707537032189
 20
103.3130633375243
 30
0.0
  0
VERTEX
  5
266
  8
0
  6
CONTINUOUS
 62
     7
 10
-339.6759992200746
 20
103.2893741410139
 30
0.0
  0
VERTEX
  5
267
  8
0
  6
CONTINUOUS
 62
     7
 10
-339.6800903770364
 20
103.2654414240903
 30
0.0
  0
VERTEX
  5
268
  8
0
  6
CONTINUOUS
 62
     7
 10
-339.6830206765725
 20
103.2413510995552
 30
0.0
  0
VERTEX
  5
269
  8
0
  6
CONTINUOUS
 62
     7
 10
-339.6847836211508
 20
103.2171890802102
 30
0.0
  0
VERTEX
  5
26A
  8
0
  6
CONTINUOUS
 62
     7
 10
-339.6853727132396
 20
103.1930412788571
 30
0.0
  0
SEQEND
  5
3D3
  8
0
  6
CONTINUOUS
 62
     7
  0
ARC
  5
BA
  8
0
  6
CONTINUOUS
 62
     7
 10
-340.1853727132395
 20
104.1930412788571
 30
0.0
 40
2.2
 50
76.86344121305513
 51
103.1365587869569
  0
LINE
  5
BB
  8
0
  6
CONTINUOUS
 62
     7
 10
-340.6853727132396
 20
105.1930412788571
 30
0.0
 11
-340.6853727132396
 21
106.3354698074199
 31
0.0
  0
POLYLINE
  5
BC
  8
0
  6
CONTINUOUS
 62
     7
 66
     1
 10
0.0
 20
0.0
 30
0.0
  0
VERTEX
  5
26B
  8
0
  6
CONTINUOUS
 62
     7
 10
-339.6853727132396
 20
105.1930412788571
 30
0.0
  0
VERTEX
  5
26C
  8
0
  6
CONTINUOUS
 62
     7
 10
-339.6849572422866
 20
105.1726666746599
 30
0.0
  0
VERTEX
  5
26D
  8
0
  6
CONTINUOUS
 62
     7
 10
-339.6837105915511
 20
105.152306047914
 30
0.0
  0
VERTEX
  5
26E
  8
0
  6
CONTINUOUS
 62
     7
 10
-339.6816147658271
 20
105.1318559661452
 30
0.0
  0
VERTEX
  5
26F
  8
0
  6
CONTINUOUS
 62
     7
 10
-339.678677242052
 20
105.1114898113425
 30
0.0
  0
VERTEX
  5
270
  8
0
  6
CONTINUOUS
 62
     7
 10
-339.6748097445087
 20
105.090810221984
 30
0.0
  0
VERTEX
  5
271
  8
0
  6
CONTINUOUS
 62
     7
 10
-339.6700713505622
 20
105.0702926292616
 30
0.0
  0
VERTEX
  5
272
  8
0
  6
CONTINUOUS
 62
     7
 10
-339.6644231043384
 20
105.0498263744346
 30
0.0
  0
VERTEX
  5
273
  8
0
  6
CONTINUOUS
 62
     7
 10
-339.6579055754814
 20
105.0296010937692
 30
0.0
  0
VERTEX
  5
274
  8
0
  6
CONTINUOUS
 62
     7
 10
-339.6507977239658
 20
105.0103410596745
 30
0.0
  0
VERTEX
  5
275
  8
0
  6
CONTINUOUS
 62
     7
 10
-339.6428995756677
 20
104.9913752922438
 30
0.0
  0
VERTEX
  5
276
  8
0
  6
CONTINUOUS
 62
     7
 10
-339.6341584072128
 20
104.972607154744
 30
0.0
  0
VERTEX
  5
277
  8
0
  6
CONTINUOUS
 62
     7
 10
-339.6246420770021
 20
104.9542057160529
 30
0.0
  0
VERTEX
  5
278
  8
0
  6
CONTINUOUS
 62
     7
 10
-339.6141275640225
 20
104.9358078069793
 30
0.0
  0
VERTEX
  5
279
  8
0
  6
CONTINUOUS
 62
     7
 10
-339.6028377147293
 20
104.9178632046376
 30
0.0
  0
VERTEX
  5
27A
  8
0
  6
CONTINUOUS
 62
     7
 10
-339.5906974355632
 20
104.9002757725131
 30
0.0
  0
VERTEX
  5
27B
  8
0
  6
CONTINUOUS
 62
     7
 10
-339.577812785986
 20
104.8832174752158
 30
0.0
  0
VERTEX
  5
27C
  8
0
  6
CONTINUOUS
 62
     7
 10
-339.564880617133
 20
104.8675054697709
 30
0.0
  0
VERTEX
  5
27D
  8
0
  6
CONTINUOUS
 62
     7
 10
-339.5513180339678
 20
104.8523302249756
 30
0.0
  0
VERTEX
  5
27E
  8
0
  6
CONTINUOUS
 62
     7
 10
-339.5370460750448
 20
104.8376180761066
 30
0.0
  0
VERTEX
  5
27F
  8
0
  6
CONTINUOUS
 62
     7
 10
-339.5221835438611
 20
104.8235031017007
 30
0.0
  0
VERTEX
  5
280
  8
0
  6
CONTINUOUS
 62
     7
 10
-339.5064101610073
 20
104.8097205953192
 30
0.0
  0
VERTEX
  5
281
  8
0
  6
CONTINUOUS
 62
     7
 10
-339.4900765588034
 20
104.7966127651265
 30
0.0
  0
VERTEX
  5
282
  8
0
  6
CONTINUOUS
 62
     7
 10
-339.4730851852968
 20
104.7841142466029
 30
0.0
  0
VERTEX
  5
283
  8
0
  6
CONTINUOUS
 62
     7
 10
-339.4555881114217
 20
104.7723470447806
 30
0.0
  0
VERTEX
  5
284
  8
0
  6
CONTINUOUS
 62
     7
 10
-339.4383602157986
 20
104.7617674184033
 30
0.0
  0
VERTEX
  5
285
  8
0
  6
CONTINUOUS
 62
     7
 10
-339.420727358703
 20
104.7518970951045
 30
0.0
  0
VERTEX
  5
286
  8
0
  6
CONTINUOUS
 62
     7
 10
-339.4024063470686
 20
104.7426029418943
 30
0.0
  0
VERTEX
  5
287
  8
0
  6
CONTINUOUS
 62
     7
 10
-339.3837143114607
 20
104.734066798391
 30
0.0
  0
VERTEX
  5
288
  8
0
  6
CONTINUOUS
 62
     7
 10
-339.3647011728085
 20
104.7263083840154
 30
0.0
  0
VERTEX
  5
289
  8
0
  6
CONTINUOUS
 62
     7
 10
-339.3454168520409
 20
104.7193474181883
 30
0.0
  0
VERTEX
  5
28A
  8
0
  6
CONTINUOUS
 62
     7
 10
-339.3255191742595
 20
104.7130842276802
 30
0.0
  0
VERTEX
  5
28B
  8
0
  6
CONTINUOUS
 62
     7
 10
-339.3053947719067
 20
104.7076602888778
 30
0.0
  0
VERTEX
  5
28C
  8
0
  6
CONTINUOUS
 62
     7
 10
-339.2857967873083
 20
104.7032307695409
 30
0.0
  0
VERTEX
  5
28D
  8
0
  6
CONTINUOUS
 62
     7
 10
-339.2660462143698
 20
104.699593089754
 30
0.0
  0
VERTEX
  5
28E
  8
0
  6
CONTINUOUS
 62
     7
 10
-339.2461919486574
 20
104.6967540428706
 30
0.0
  0
VERTEX
  5
28F
  8
0
  6
CONTINUOUS
 62
     7
 10
-339.2259579653379
 20
104.6946918541973
 30
0.0
  0
VERTEX
  5
290
  8
0
  6
CONTINUOUS
 62
     7
 10
-339.2056680096256
 20
104.6934540371924
 30
0.0
  0
VERTEX
  5
291
  8
0
  6
CONTINUOUS
 62
     7
 10
-339.1853727132395
 20
104.6930412788571
 30
0.0
  0
SEQEND
  5
3D4
  8
0
  6
CONTINUOUS
 62
     7
  0
LINE
  5
BD
  8
0
  6
CONTINUOUS
 62
     7
 10
-339.6853727132396
 20
106.33546980742
 30
0.0
 11
-339.6853727132396
 21
105.1930412788572
 31
0.0
  0
POLYLINE
  5
BE
  8
0
  6
CONTINUOUS
 62
     7
 66
     1
 10
0.0
 20
0.0
 30
0.0
  0
VERTEX
  5
292
  8
0
  6
CONTINUOUS
 62
     7
 10
-341.1853727132395
 20
104.6930412788571
 30
0.0
  0
VERTEX
  5
293
  8
0
  6
CONTINUOUS
 62
     7
 10
-341.1649981090424
 20
104.6934567498101
 30
0.0
  0
VERTEX
  5
294
  8
0
  6
CONTINUOUS
 62
     7
 10
-341.1446374822964
 20
104.6947034005456
 30
0.0
  0
VERTEX
  5
295
  8
0
  6
CONTINUOUS
 62
     7
 10
-341.1241874005276
 20
104.6967992262696
 30
0.0
  0
VERTEX
  5
296
  8
0
  6
CONTINUOUS
 62
     7
 10
-341.103821245725
 20
104.6997367500447
 30
0.0
  0
VERTEX
  5
297
  8
0
  6
CONTINUOUS
 62
     7
 10
-341.0831416563665
 20
104.703604247588
 30
0.0
  0
VERTEX
  5
298
  8
0
  6
CONTINUOUS
 62
     7
 10
-341.062624063644
 20
104.7083426415344
 30
0.0
  0
VERTEX
  5
299
  8
0
  6
CONTINUOUS
 62
     7
 10
-341.0421578088171
 20
104.7139908877583
 30
0.0
  0
VERTEX
  5
29A
  8
0
  6
CONTINUOUS
 62
     7
 10
-341.0219325281516
 20
104.7205084166153
 30
0.0
  0
VERTEX
  5
29B
  8
0
  6
CONTINUOUS
 62
     7
 10
-341.002672494057
 20
104.7276162681309
 30
0.0
  0
VERTEX
  5
29C
  8
0
  6
CONTINUOUS
 62
     7
 10
-340.9837067266262
 20
104.7355144164291
 30
0.0
  0
VERTEX
  5
29D
  8
0
  6
CONTINUOUS
 62
     7
 10
-340.9649385891264
 20
104.744255584884
 30
0.0
  0
VERTEX
  5
29E
  8
0
  6
CONTINUOUS
 62
     7
 10
-340.9465371504353
 20
104.7537719150946
 30
0.0
  0
VERTEX
  5
29F
  8
0
  6
CONTINUOUS
 62
     7
 10
-340.9281392413617
 20
104.7642864280743
 30
0.0
  0
VERTEX
  5
2A0
  8
0
  6
CONTINUOUS
 62
     7
 10
-340.9101946390201
 20
104.7755762773674
 30
0.0
  0
VERTEX
  5
2A1
  8
0
  6
CONTINUOUS
 62
     7
 10
-340.8926072068955
 20
104.7877165565334
 30
0.0
  0
VERTEX
  5
2A2
  8
0
  6
CONTINUOUS
 62
     7
 10
-340.8755489095982
 20
104.8006012061107
 30
0.0
  0
VERTEX
  5
2A3
  8
0
  6
CONTINUOUS
 62
     7
 10
-340.8598369041533
 20
104.8135333749638
 30
0.0
  0
VERTEX
  5
2A4
  8
0
  6
CONTINUOUS
 62
     7
 10
-340.844661659358
 20
104.8270959581289
 30
0.0
  0
VERTEX
  5
2A5
  8
0
  6
CONTINUOUS
 62
     7
 10
-340.829949510489
 20
104.8413679170519
 30
0.0
  0
VERTEX
  5
2A6
  8
0
  6
CONTINUOUS
 62
     7
 10
-340.8158345360831
 20
104.8562304482356
 30
0.0
  0
VERTEX
  5
2A7
  8
0
  6
CONTINUOUS
 62
     7
 10
-340.8020520297017
 20
104.8720038310894
 30
0.0
  0
VERTEX
  5
2A8
  8
0
  6
CONTINUOUS
 62
     7
 10
-340.788944199509
 20
104.8883374332934
 30
0.0
  0
VERTEX
  5
2A9
  8
0
  6
CONTINUOUS
 62
     7
 10
-340.7764456809853
 20
104.9053288067999
 30
0.0
  0
VERTEX
  5
2AA
  8
0
  6
CONTINUOUS
 62
     7
 10
-340.764678479163
 20
104.9228258806749
 30
0.0
  0
VERTEX
  5
2AB
  8
0
  6
CONTINUOUS
 62
     7
 10
-340.7540988527858
 20
104.9400537762981
 30
0.0
  0
VERTEX
  5
2AC
  8
0
  6
CONTINUOUS
 62
     7
 10
-340.7442285294869
 20
104.9576866333938
 30
0.0
  0
VERTEX
  5
2AD
  8
0
  6
CONTINUOUS
 62
     7
 10
-340.7349343762768
 20
104.976007645028
 30
0.0
  0
VERTEX
  5
2AE
  8
0
  6
CONTINUOUS
 62
     7
 10
-340.7263982327735
 20
104.9946996806359
 30
0.0
  0
VERTEX
  5
2AF
  8
0
  6
CONTINUOUS
 62
     7
 10
-340.7186398183979
 20
105.0137128192883
 30
0.0
  0
VERTEX
  5
2B0
  8
0
  6
CONTINUOUS
 62
     7
 10
-340.7116788525707
 20
105.0329971400558
 30
0.0
  0
VERTEX
  5
2B1
  8
0
  6
CONTINUOUS
 62
     7
 10
-340.7054156620627
 20
105.0528948178373
 30
0.0
  0
VERTEX
  5
2B2
  8
0
  6
CONTINUOUS
 62
     7
 10
-340.6999917232603
 20
105.07301922019
 30
0.0
  0
VERTEX
  5
2B3
  8
0
  6
CONTINUOUS
 62
     7
 10
-340.6955622039234
 20
105.0926172047884
 30
0.0
  0
VERTEX
  5
2B4
  8
0
  6
CONTINUOUS
 62
     7
 10
-340.6919245241365
 20
105.1123677777269
 30
0.0
  0
VERTEX
  5
2B5
  8
0
  6
CONTINUOUS
 62
     7
 10
-340.689085477253
 20
105.1322220434392
 30
0.0
  0
VERTEX
  5
2B6
  8
0
  6
CONTINUOUS
 62
     7
 10
-340.6870232885797
 20
105.1524560267588
 30
0.0
  0
VERTEX
  5
2B7
  8
0
  6
CONTINUOUS
 62
     7
 10
-340.6857854715748
 20
105.1727459824711
 30
0.0
  0
VERTEX
  5
2B8
  8
0
  6
CONTINUOUS
 62
     7
 10
-340.6853727132396
 20
105.1930412788571
 30
0.0
  0
SEQEND
  5
3D5
  8
0
  6
CONTINUOUS
 62
     7
  0
ARC
  5
BF
  8
0
  6
CONTINUOUS
 62
     7
 10
-340.1853727132395
 20
104.1930412788571
 30
0.0
 40
3.3775158710637
 50
171.4867690477392
 51
188.5132309522607
  0
ARC
  5
C0
  8
0
  6
CONTINUOUS
 62
     7
 10
-340.1853727132395
 20
104.1930412788571
 30
0.0
 40
3.377515871063713
 50
351.4867690477394
 51
8.513230952260756
  0
ARC
  5
C1
  8
0
  6
CONTINUOUS
 62
     7
 10
-295.6853727132396
 20
209.1930412788571
 30
0.0
 40
2.200000000000027
 50
76.86344121305513
 51
103.1365587869569
  0
LINE
  5
C2
  8
0
  6
CONTINUOUS
 62
     7
 10
-296.1853727132396
 20
210.1930412788571
 30
0.0
 11
-296.1853727132396
 21
211.3354698074199
 31
0.0
  0
POLYLINE
  5
C3
  8
0
  6
CONTINUOUS
 62
     7
 66
     1
 10
0.0
 20
0.0
 30
0.0
  0
VERTEX
  5
2B9
  8
0
  6
CONTINUOUS
 62
     7
 10
-295.1853727132396
 20
210.1930412788571
 30
0.0
  0
VERTEX
  5
2BA
  8
0
  6
CONTINUOUS
 62
     7
 10
-295.1849572422866
 20
210.1726666746599
 30
0.0
  0
VERTEX
  5
2BB
  8
0
  6
CONTINUOUS
 62
     7
 10
-295.1837105915511
 20
210.152306047914
 30
0.0
  0
VERTEX
  5
2BC
  8
0
  6
CONTINUOUS
 62
     7
 10
-295.1816147658271
 20
210.1318559661452
 30
0.0
  0
VERTEX
  5
2BD
  8
0
  6
CONTINUOUS
 62
     7
 10
-295.1786772420521
 20
210.1114898113425
 30
0.0
  0
VERTEX
  5
2BE
  8
0
  6
CONTINUOUS
 62
     7
 10
-295.1748097445087
 20
210.090810221984
 30
0.0
  0
VERTEX
  5
2BF
  8
0
  6
CONTINUOUS
 62
     7
 10
-295.1700713505623
 20
210.0702926292616
 30
0.0
  0
VERTEX
  5
2C0
  8
0
  6
CONTINUOUS
 62
     7
 10
-295.1644231043384
 20
210.0498263744346
 30
0.0
  0
VERTEX
  5
2C1
  8
0
  6
CONTINUOUS
 62
     7
 10
-295.1579055754814
 20
210.0296010937692
 30
0.0
  0
VERTEX
  5
2C2
  8
0
  6
CONTINUOUS
 62
     7
 10
-295.1507977239658
 20
210.0103410596745
 30
0.0
  0
VERTEX
  5
2C3
  8
0
  6
CONTINUOUS
 62
     7
 10
-295.1428995756676
 20
209.9913752922438
 30
0.0
  0
VERTEX
  5
2C4
  8
0
  6
CONTINUOUS
 62
     7
 10
-295.1341584072128
 20
209.972607154744
 30
0.0
  0
VERTEX
  5
2C5
  8
0
  6
CONTINUOUS
 62
     7
 10
-295.1246420770022
 20
209.9542057160529
 30
0.0
  0
VERTEX
  5
2C6
  8
0
  6
CONTINUOUS
 62
     7
 10
-295.1141275640225
 20
209.9358078069793
 30
0.0
  0
VERTEX
  5
2C7
  8
0
  6
CONTINUOUS
 62
     7
 10
-295.1028377147293
 20
209.9178632046376
 30
0.0
  0
VERTEX
  5
2C8
  8
0
  6
CONTINUOUS
 62
     7
 10
-295.0906974355632
 20
209.9002757725131
 30
0.0
  0
VERTEX
  5
2C9
  8
0
  6
CONTINUOUS
 62
     7
 10
-295.077812785986
 20
209.8832174752158
 30
0.0
  0
VERTEX
  5
2CA
  8
0
  6
CONTINUOUS
 62
     7
 10
-295.064880617133
 20
209.8675054697709
 30
0.0
  0
VERTEX
  5
2CB
  8
0
  6
CONTINUOUS
 62
     7
 10
-295.0513180339679
 20
209.8523302249756
 30
0.0
  0
VERTEX
  5
2CC
  8
0
  6
CONTINUOUS
 62
     7
 10
-295.0370460750448
 20
209.8376180761066
 30
0.0
  0
VERTEX
  5
2CD
  8
0
  6
CONTINUOUS
 62
     7
 10
-295.0221835438611
 20
209.8235031017007
 30
0.0
  0
VERTEX
  5
2CE
  8
0
  6
CONTINUOUS
 62
     7
 10
-295.0064101610073
 20
209.8097205953192
 30
0.0
  0
VERTEX
  5
2CF
  8
0
  6
CONTINUOUS
 62
     7
 10
-294.9900765588034
 20
209.7966127651265
 30
0.0
  0
VERTEX
  5
2D0
  8
0
  6
CONTINUOUS
 62
     7
 10
-294.9730851852968
 20
209.7841142466029
 30
0.0
  0
VERTEX
  5
2D1
  8
0
  6
CONTINUOUS
 62
     7
 10
-294.9555881114217
 20
209.7723470447806
 30
0.0
  0
VERTEX
  5
2D2
  8
0
  6
CONTINUOUS
 62
     7
 10
-294.9383602157985
 20
209.7617674184033
 30
0.0
  0
VERTEX
  5
2D3
  8
0
  6
CONTINUOUS
 62
     7
 10
-294.9207273587029
 20
209.7518970951045
 30
0.0
  0
VERTEX
  5
2D4
  8
0
  6
CONTINUOUS
 62
     7
 10
-294.9024063470687
 20
209.7426029418944
 30
0.0
  0
VERTEX
  5
2D5
  8
0
  6
CONTINUOUS
 62
     7
 10
-294.8837143114608
 20
209.7340667983911
 30
0.0
  0
VERTEX
  5
2D6
  8
0
  6
CONTINUOUS
 62
     7
 10
-294.8647011728085
 20
209.7263083840154
 30
0.0
  0
VERTEX
  5
2D7
  8
0
  6
CONTINUOUS
 62
     7
 10
-294.8454168520408
 20
209.7193474181883
 30
0.0
  0
VERTEX
  5
2D8
  8
0
  6
CONTINUOUS
 62
     7
 10
-294.8255191742595
 20
209.7130842276802
 30
0.0
  0
VERTEX
  5
2D9
  8
0
  6
CONTINUOUS
 62
     7
 10
-294.8053947719067
 20
209.7076602888778
 30
0.0
  0
VERTEX
  5
2DA
  8
0
  6
CONTINUOUS
 62
     7
 10
-294.7857967873083
 20
209.7032307695409
 30
0.0
  0
VERTEX
  5
2DB
  8
0
  6
CONTINUOUS
 62
     7
 10
-294.7660462143698
 20
209.699593089754
 30
0.0
  0
VERTEX
  5
2DC
  8
0
  6
CONTINUOUS
 62
     7
 10
-294.7461919486575
 20
209.6967540428706
 30
0.0
  0
VERTEX
  5
2DD
  8
0
  6
CONTINUOUS
 62
     7
 10
-294.7259579653378
 20
209.6946918541973
 30
0.0
  0
VERTEX
  5
2DE
  8
0
  6
CONTINUOUS
 62
     7
 10
-294.7056680096256
 20
209.6934540371924
 30
0.0
  0
VERTEX
  5
2DF
  8
0
  6
CONTINUOUS
 62
     7
 10
-294.6853727132396
 20
209.6930412788571
 30
0.0
  0
SEQEND
  5
3D6
  8
0
  6
CONTINUOUS
 62
     7
  0
LINE
  5
C4
  8
0
  6
CONTINUOUS
 62
     7
 10
-295.1853727132396
 20
211.33546980742
 30
0.0
 11
-295.1853727132396
 21
210.1930412788572
 31
0.0
  0
POLYLINE
  5
C5
  8
0
  6
CONTINUOUS
 62
     7
 66
     1
 10
0.0
 20
0.0
 30
0.0
  0
VERTEX
  5
2E0
  8
0
  6
CONTINUOUS
 62
     7
 10
-296.6853727132396
 20
209.6930412788571
 30
0.0
  0
VERTEX
  5
2E1
  8
0
  6
CONTINUOUS
 62
     7
 10
-296.6649981090424
 20
209.6934567498101
 30
0.0
  0
VERTEX
  5
2E2
  8
0
  6
CONTINUOUS
 62
     7
 10
-296.6446374822964
 20
209.6947034005456
 30
0.0
  0
VERTEX
  5
2E3
  8
0
  6
CONTINUOUS
 62
     7
 10
-296.6241874005277
 20
209.6967992262696
 30
0.0
  0
VERTEX
  5
2E4
  8
0
  6
CONTINUOUS
 62
     7
 10
-296.603821245725
 20
209.6997367500447
 30
0.0
  0
VERTEX
  5
2E5
  8
0
  6
CONTINUOUS
 62
     7
 10
-296.5831416563665
 20
209.703604247588
 30
0.0
  0
VERTEX
  5
2E6
  8
0
  6
CONTINUOUS
 62
     7
 10
-296.562624063644
 20
209.7083426415344
 30
0.0
  0
VERTEX
  5
2E7
  8
0
  6
CONTINUOUS
 62
     7
 10
-296.5421578088171
 20
209.7139908877583
 30
0.0
  0
VERTEX
  5
2E8
  8
0
  6
CONTINUOUS
 62
     7
 10
-296.5219325281517
 20
209.7205084166153
 30
0.0
  0
VERTEX
  5
2E9
  8
0
  6
CONTINUOUS
 62
     7
 10
-296.5026724940569
 20
209.7276162681309
 30
0.0
  0
VERTEX
  5
2EA
  8
0
  6
CONTINUOUS
 62
     7
 10
-296.4837067266263
 20
209.7355144164291
 30
0.0
  0
VERTEX
  5
2EB
  8
0
  6
CONTINUOUS
 62
     7
 10
-296.4649385891264
 20
209.744255584884
 30
0.0
  0
VERTEX
  5
2EC
  8
0
  6
CONTINUOUS
 62
     7
 10
-296.4465371504353
 20
209.7537719150946
 30
0.0
  0
VERTEX
  5
2ED
  8
0
  6
CONTINUOUS
 62
     7
 10
-296.4281392413617
 20
209.7642864280743
 30
0.0
  0
VERTEX
  5
2EE
  8
0
  6
CONTINUOUS
 62
     7
 10
-296.4101946390201
 20
209.7755762773674
 30
0.0
  0
VERTEX
  5
2EF
  8
0
  6
CONTINUOUS
 62
     7
 10
-296.3926072068955
 20
209.7877165565334
 30
0.0
  0
VERTEX
  5
2F0
  8
0
  6
CONTINUOUS
 62
     7
 10
-296.3755489095982
 20
209.8006012061108
 30
0.0
  0
VERTEX
  5
2F1
  8
0
  6
CONTINUOUS
 62
     7
 10
-296.3598369041533
 20
209.8135333749638
 30
0.0
  0
VERTEX
  5
2F2
  8
0
  6
CONTINUOUS
 62
     7
 10
-296.344661659358
 20
209.8270959581289
 30
0.0
  0
VERTEX
  5
2F3
  8
0
  6
CONTINUOUS
 62
     7
 10
-296.3299495104891
 20
209.8413679170519
 30
0.0
  0
VERTEX
  5
2F4
  8
0
  6
CONTINUOUS
 62
     7
 10
-296.3158345360831
 20
209.8562304482356
 30
0.0
  0
VERTEX
  5
2F5
  8
0
  6
CONTINUOUS
 62
     7
 10
-296.3020520297016
 20
209.8720038310894
 30
0.0
  0
VERTEX
  5
2F6
  8
0
  6
CONTINUOUS
 62
     7
 10
-296.288944199509
 20
209.8883374332934
 30
0.0
  0
VERTEX
  5
2F7
  8
0
  6
CONTINUOUS
 62
     7
 10
-296.2764456809853
 20
209.9053288067999
 30
0.0
  0
VERTEX
  5
2F8
  8
0
  6
CONTINUOUS
 62
     7
 10
-296.264678479163
 20
209.922825880675
 30
0.0
  0
VERTEX
  5
2F9
  8
0
  6
CONTINUOUS
 62
     7
 10
-296.2540988527858
 20
209.9400537762982
 30
0.0
  0
VERTEX
  5
2FA
  8
0
  6
CONTINUOUS
 62
     7
 10
-296.244228529487
 20
209.9576866333938
 30
0.0
  0
VERTEX
  5
2FB
  8
0
  6
CONTINUOUS
 62
     7
 10
-296.2349343762768
 20
209.976007645028
 30
0.0
  0
VERTEX
  5
2FC
  8
0
  6
CONTINUOUS
 62
     7
 10
-296.2263982327735
 20
209.9946996806359
 30
0.0
  0
VERTEX
  5
2FD
  8
0
  6
CONTINUOUS
 62
     7
 10
-296.2186398183978
 20
210.0137128192883
 30
0.0
  0
VERTEX
  5
2FE
  8
0
  6
CONTINUOUS
 62
     7
 10
-296.2116788525707
 20
210.0329971400558
 30
0.0
  0
VERTEX
  5
2FF
  8
0
  6
CONTINUOUS
 62
     7
 10
-296.2054156620626
 20
210.0528948178373
 30
0.0
  0
VERTEX
  5
300
  8
0
  6
CONTINUOUS
 62
     7
 10
-296.1999917232603
 20
210.07301922019
 30
0.0
  0
VERTEX
  5
301
  8
0
  6
CONTINUOUS
 62
     7
 10
-296.1955622039234
 20
210.0926172047884
 30
0.0
  0
VERTEX
  5
302
  8
0
  6
CONTINUOUS
 62
     7
 10
-296.1919245241365
 20
210.1123677777269
 30
0.0
  0
VERTEX
  5
303
  8
0
  6
CONTINUOUS
 62
     7
 10
-296.189085477253
 20
210.1322220434392
 30
0.0
  0
VERTEX
  5
304
  8
0
  6
CONTINUOUS
 62
     7
 10
-296.1870232885798
 20
210.1524560267589
 30
0.0
  0
VERTEX
  5
305
  8
0
  6
CONTINUOUS
 62
     7
 10
-296.1857854715749
 20
210.1727459824711
 30
0.0
  0
VERTEX
  5
306
  8
0
  6
CONTINUOUS
 62
     7
 10
-296.1853727132396
 20
210.1930412788571
 30
0.0
  0
SEQEND
  5
3D7
  8
0
  6
CONTINUOUS
 62
     7
  0
ARC
  5
C6
  8
0
  6
CONTINUOUS
 62
     7
 10
-295.6853727132396
 20
209.1930412788571
 30
0.0
 40
2.199999999999976
 50
256.8634412130551
 51
283.1365587869568
  0
LINE
  5
C7
  8
0
  6
CONTINUOUS
 62
     7
 10
-295.1853727132396
 20
208.1930412788571
 30
0.0
 11
-295.1853727132396
 21
207.0506127502944
 31
0.0
  0
LINE
  5
C8
  8
0
  6
CONTINUOUS
 62
     7
 10
-296.1853727132396
 20
207.0506127502943
 30
0.0
 11
-296.1853727132396
 21
208.1930412788571
 31
0.0
  0
POLYLINE
  5
C9
  8
0
  6
CONTINUOUS
 62
     7
 66
     1
 10
0.0
 20
0.0
 30
0.0
  0
VERTEX
  5
307
  8
0
  6
CONTINUOUS
 62
     7
 10
-296.1853727132396
 20
208.1930412788571
 30
0.0
  0
VERTEX
  5
308
  8
0
  6
CONTINUOUS
 62
     7
 10
-296.1857920877758
 20
208.2134764158166
 30
0.0
  0
VERTEX
  5
309
  8
0
  6
CONTINUOUS
 62
     7
 10
-296.1870490012684
 20
208.2339145992844
 30
0.0
  0
VERTEX
  5
30A
  8
0
  6
CONTINUOUS
 62
     7
 10
-296.1891416385436
 20
208.2543039894172
 30
0.0
  0
VERTEX
  5
30B
  8
0
  6
CONTINUOUS
 62
     7
 10
-296.1920681844271
 20
208.2745927463718
 30
0.0
  0
VERTEX
  5
30C
  8
0
  6
CONTINUOUS
 62
     7
 10
-296.1959511785049
 20
208.2953383192018
 30
0.0
  0
VERTEX
  5
30D
  8
0
  6
CONTINUOUS
 62
     7
 10
-296.2007154008453
 20
208.3159394243411
 30
0.0
  0
VERTEX
  5
30E
  8
0
  6
CONTINUOUS
 62
     7
 10
-296.2063489316193
 20
208.3363393698891
 30
0.0
  0
VERTEX
  5
30F
  8
0
  6
CONTINUOUS
 62
     7
 10
-296.2128398509978
 20
208.356481463945
 30
0.0
  0
VERTEX
  5
310
  8
0
  6
CONTINUOUS
 62
     7
 10
-296.2199724112226
 20
208.3758001863005
 30
0.0
  0
VERTEX
  5
311
  8
0
  6
CONTINUOUS
 62
     7
 10
-296.2279074478421
 20
208.3948392893524
 30
0.0
  0
VERTEX
  5
312
  8
0
  6
CONTINUOUS
 62
     7
 10
-296.2366245606593
 20
208.4135483241296
 30
0.0
  0
VERTEX
  5
313
  8
0
  6
CONTINUOUS
 62
     7
 10
-296.246103349477
 20
208.4318768416614
 30
0.0
  0
VERTEX
  5
314
  8
0
  6
CONTINUOUS
 62
     7
 10
-296.2566557180758
 20
208.4503343613756
 30
0.0
  0
VERTEX
  5
315
  8
0
  6
CONTINUOUS
 62
     7
 10
-296.2679995872371
 20
208.468352201283
 30
0.0
  0
VERTEX
  5
316
  8
0
  6
CONTINUOUS
 62
     7
 10
-296.2801026602723
 20
208.4858794215889
 30
0.0
  0
VERTEX
  5
317
  8
0
  6
CONTINUOUS
 62
     7
 10
-296.2929326404932
 20
208.5028650824985
 30
0.0
  0
VERTEX
  5
318
  8
0
  6
CONTINUOUS
 62
     7
 10
-296.305906729048
 20
208.5186236070939
 30
0.0
  0
VERTEX
  5
319
  8
0
  6
CONTINUOUS
 62
     7
 10
-296.3195271882891
 20
208.5338550153708
 30
0.0
  0
VERTEX
  5
31A
  8
0
  6
CONTINUOUS
 62
     7
 10
-296.3337576841635
 20
208.5485200505904
 30
0.0
  0
VERTEX
  5
31B
  8
0
  6
CONTINUOUS
 62
     7
 10
-296.348561882618
 20
208.5625794560136
 30
0.0
  0
VERTEX
  5
31C
  8
0
  6
CONTINUOUS
 62
     7
 10
-296.3643885939575
 20
208.5764043955044
 30
0.0
  0
VERTEX
  5
31D
  8
0
  6
CONTINUOUS
 62
     7
 10
-296.3807944482007
 20
208.5895619870564
 30
0.0
  0
VERTEX
  5
31E
  8
0
  6
CONTINUOUS
 62
     7
 10
-296.3977328777625
 20
208.6020173273171
 30
0.0
  0
VERTEX
  5
31F
  8
0
  6
CONTINUOUS
 62
     7
 10
-296.4151573150574
 20
208.6137355129337
 30
0.0
  0
VERTEX
  5
320
  8
0
  6
CONTINUOUS
 62
     7
 10
-296.4324383375794
 20
208.6243446115836
 30
0.0
  0
VERTEX
  5
321
  8
0
  6
CONTINUOUS
 62
     7
 10
-296.450141918443
 20
208.6342482152629
 30
0.0
  0
VERTEX
  5
322
  8
0
  6
CONTINUOUS
 62
     7
 10
-296.4682216543499
 20
208.6434230938268
 30
0.0
  0
VERTEX
  5
323
  8
0
  6
CONTINUOUS
 62
     7
 10
-296.486631142002
 20
208.6518460171304
 30
0.0
  0
VERTEX
  5
324
  8
0
  6
CONTINUOUS
 62
     7
 10
-296.5058938117255
 20
208.6597162725471
 30
0.0
  0
VERTEX
  5
325
  8
0
  6
CONTINUOUS
 62
     7
 10
-296.5254700473425
 20
208.6667795818094
 30
0.0
  0
VERTEX
  5
326
  8
0
  6
CONTINUOUS
 62
     7
 10
-296.545306708432
 20
208.6730201716587
 30
0.0
  0
VERTEX
  5
327
  8
0
  6
CONTINUOUS
 62
     7
 10
-296.5653506545725
 20
208.6784222688364
 30
0.0
  0
VERTEX
  5
328
  8
0
  6
CONTINUOUS
 62
     7
 10
-296.5890398510829
 20
208.6836677856922
 30
0.0
  0
VERTEX
  5
329
  8
0
  6
CONTINUOUS
 62
     7
 10
-296.6129725680065
 20
208.6877589426539
 30
0.0
  0
VERTEX
  5
32A
  8
0
  6
CONTINUOUS
 62
     7
 10
-296.6370628925416
 20
208.69068924219
 30
0.0
  0
VERTEX
  5
32B
  8
0
  6
CONTINUOUS
 62
     7
 10
-296.6612249118865
 20
208.6924521867684
 30
0.0
  0
VERTEX
  5
32C
  8
0
  6
CONTINUOUS
 62
     7
 10
-296.6853727132396
 20
208.6930412788571
 30
0.0
  0
SEQEND
  5
3D8
  8
0
  6
CONTINUOUS
 62
     7
  0
POLYLINE
  5
CA
  8
0
  6
CONTINUOUS
 62
     7
 66
     1
 10
0.0
 20
0.0
 30
0.0
  0
VERTEX
  5
32D
  8
0
  6
CONTINUOUS
 62
     7
 10
-294.6853727132396
 20
208.6930412788571
 30
0.0
  0
VERTEX
  5
32E
  8
0
  6
CONTINUOUS
 62
     7
 10
-294.705807850199
 20
208.6926219043209
 30
0.0
  0
VERTEX
  5
32F
  8
0
  6
CONTINUOUS
 62
     7
 10
-294.7262460336668
 20
208.6913649908283
 30
0.0
  0
VERTEX
  5
330
  8
0
  6
CONTINUOUS
 62
     7
 10
-294.7466354237997
 20
208.6892723535532
 30
0.0
  0
VERTEX
  5
331
  8
0
  6
CONTINUOUS
 62
     7
 10
-294.7669241807542
 20
208.6863458076696
 30
0.0
  0
VERTEX
  5
332
  8
0
  6
CONTINUOUS
 62
     7
 10
-294.7876697535843
 20
208.6824628135919
 30
0.0
  0
VERTEX
  5
333
  8
0
  6
CONTINUOUS
 62
     7
 10
-294.8082708587236
 20
208.6776985912514
 30
0.0
  0
VERTEX
  5
334
  8
0
  6
CONTINUOUS
 62
     7
 10
-294.8286708042716
 20
208.6720650604774
 30
0.0
  0
VERTEX
  5
335
  8
0
  6
CONTINUOUS
 62
     7
 10
-294.8488128983275
 20
208.6655741410989
 30
0.0
  0
VERTEX
  5
336
  8
0
  6
CONTINUOUS
 62
     7
 10
-294.868131620683
 20
208.6584415808742
 30
0.0
  0
VERTEX
  5
337
  8
0
  6
CONTINUOUS
 62
     7
 10
-294.8871707237348
 20
208.6505065442546
 30
0.0
  0
VERTEX
  5
338
  8
0
  6
CONTINUOUS
 62
     7
 10
-294.9058797585121
 20
208.6417894314374
 30
0.0
  0
VERTEX
  5
339
  8
0
  6
CONTINUOUS
 62
     7
 10
-294.9242082760439
 20
208.6323106426197
 30
0.0
  0
VERTEX
  5
33A
  8
0
  6
CONTINUOUS
 62
     7
 10
-294.942665795758
 20
208.6217582740209
 30
0.0
  0
VERTEX
  5
33B
  8
0
  6
CONTINUOUS
 62
     7
 10
-294.9606836356654
 20
208.6104144048597
 30
0.0
  0
VERTEX
  5
33C
  8
0
  6
CONTINUOUS
 62
     7
 10
-294.9782108559713
 20
208.5983113318244
 30
0.0
  0
VERTEX
  5
33D
  8
0
  6
CONTINUOUS
 62
     7
 10
-294.995196516881
 20
208.5854813516035
 30
0.0
  0
VERTEX
  5
33E
  8
0
  6
CONTINUOUS
 62
     7
 10
-295.0109550414763
 20
208.5725072630487
 30
0.0
  0
VERTEX
  5
33F
  8
0
  6
CONTINUOUS
 62
     7
 10
-295.0261864497533
 20
208.5588868038076
 30
0.0
  0
VERTEX
  5
340
  8
0
  6
CONTINUOUS
 62
     7
 10
-295.0408514849728
 20
208.5446563079332
 30
0.0
  0
VERTEX
  5
341
  8
0
  6
CONTINUOUS
 62
     7
 10
-295.0549108903961
 20
208.5298521094787
 30
0.0
  0
VERTEX
  5
342
  8
0
  6
CONTINUOUS
 62
     7
 10
-295.0687358298868
 20
208.5140253981392
 30
0.0
  0
VERTEX
  5
343
  8
0
  6
CONTINUOUS
 62
     7
 10
-295.0818934214388
 20
208.497619543896
 30
0.0
  0
VERTEX
  5
344
  8
0
  6
CONTINUOUS
 62
     7
 10
-295.0943487616996
 20
208.4806811143343
 30
0.0
  0
VERTEX
  5
345
  8
0
  6
CONTINUOUS
 62
     7
 10
-295.1060669473161
 20
208.4632566770393
 30
0.0
  0
VERTEX
  5
346
  8
0
  6
CONTINUOUS
 62
     7
 10
-295.116676045966
 20
208.4459756545173
 30
0.0
  0
VERTEX
  5
347
  8
0
  6
CONTINUOUS
 62
     7
 10
-295.1265796496454
 20
208.4282720736537
 30
0.0
  0
VERTEX
  5
348
  8
0
  6
CONTINUOUS
 62
     7
 10
-295.1357545282092
 20
208.4101923377468
 30
0.0
  0
VERTEX
  5
349
  8
0
  6
CONTINUOUS
 62
     7
 10
-295.1441774515129
 20
208.3917828500947
 30
0.0
  0
VERTEX
  5
34A
  8
0
  6
CONTINUOUS
 62
     7
 10
-295.1520477069296
 20
208.3725201803713
 30
0.0
  0
VERTEX
  5
34B
  8
0
  6
CONTINUOUS
 62
     7
 10
-295.1591110161918
 20
208.3529439447542
 30
0.0
  0
VERTEX
  5
34C
  8
0
  6
CONTINUOUS
 62
     7
 10
-295.1653516060412
 20
208.3331072836648
 30
0.0
  0
VERTEX
  5
34D
  8
0
  6
CONTINUOUS
 62
     7
 10
-295.1707537032188
 20
208.3130633375243
 30
0.0
  0
VERTEX
  5
34E
  8
0
  6
CONTINUOUS
 62
     7
 10
-295.1759992200746
 20
208.2893741410139
 30
0.0
  0
VERTEX
  5
34F
  8
0
  6
CONTINUOUS
 62
     7
 10
-295.1800903770364
 20
208.2654414240903
 30
0.0
  0
VERTEX
  5
350
  8
0
  6
CONTINUOUS
 62
     7
 10
-295.1830206765724
 20
208.2413510995552
 30
0.0
  0
VERTEX
  5
351
  8
0
  6
CONTINUOUS
 62
     7
 10
-295.1847836211509
 20
208.2171890802103
 30
0.0
  0
VERTEX
  5
352
  8
0
  6
CONTINUOUS
 62
     7
 10
-295.1853727132396
 20
208.1930412788571
 30
0.0
  0
SEQEND
  5
3D9
  8
0
  6
CONTINUOUS
 62
     7
  0
ARC
  5
CB
  8
0
  6
CONTINUOUS
 62
     7
 10
-295.6853727132396
 20
209.1930412788571
 30
0.0
 40
3.377515871063713
 50
351.4867690477394
 51
8.513230952260756
  0
ARC
  5
CC
  8
0
  6
CONTINUOUS
 62
     7
 10
-295.6853727132396
 20
209.1930412788571
 30
0.0
 40
3.3775158710637
 50
171.4867690477392
 51
188.5132309522607
  0
LINE
  5
CD
  8
0
  6
CONTINUOUS
 62
     9
 10
-320.0069255421465
 20
228.3430412798521
 30
0.0
 11
-320.0069255431905
 21
244.8430412798516
 31
0.0
  0
LINE
  5
CE
  8
0
  6
CONTINUOUS
 62
     9
 10
-351.0679267474127
 20
244.8430412778863
 30
0.0
 11
-351.0679267463687
 21
228.3430412778867
 31
0.0
  0
LINE
  5
CF
  8
0
  6
CONTINUOUS
 62
     9
 10
-321.3002214954139
 20
227.0930412797703
 30
0.0
 11
-321.189181159087
 21
227.0976149885539
 31
0.0
  0
ARC
  5
D0
  8
0
  6
CONTINUOUS
 62
     9
 10
-321.2878190586389
 20
228.3908581327688
 30
0.0
 40
1.296999331259319
 50
274.3616039447238
 51
326.0494883496186
  0
POLYLINE
  5
D1
  8
0
  6
CONTINUOUS
 62
     9
 66
     1
 10
0.0
 20
0.0
 30
0.0
  0
VERTEX
  5
353
  8
0
  6
CONTINUOUS
 62
     9
 10
-320.2119318393553
 20
227.6665143216754
 30
0.0
  0
VERTEX
  5
354
  8
0
  6
CONTINUOUS
 62
     9
 10
-320.1445871634721
 20
227.780789578712
 30
0.0
  0
VERTEX
  5
355
  8
0
  6
CONTINUOUS
 62
     9
 10
-320.0877044080916
 20
227.9073121802299
 30
0.0
  0
VERTEX
  5
356
  8
0
  6
CONTINUOUS
 62
     9
 10
-320.050251305827
 20
228.0215263686229
 30
0.0
  0
VERTEX
  5
357
  8
0
  6
CONTINUOUS
 62
     9
 10
-320.0223626016377
 20
228.1500635997002
 30
0.0
  0
VERTEX
  5
358
  8
0
  6
CONTINUOUS
 62
     9
 10
-320.0086559932005
 20
228.2782564915697
 30
0.0
  0
VERTEX
  5
359
  8
0
  6
CONTINUOUS
 62
     9
 10
-320.0069255421465
 20
228.3430412798521
 30
0.0
  0
SEQEND
  5
3DA
  8
0
  6
CONTINUOUS
 62
     9
  0
POLYLINE
  5
D2
  8
0
  6
CONTINUOUS
 62
     9
 66
     1
 10
0.0
 20
0.0
 30
0.0
  0
VERTEX
  5
35A
  8
0
  6
CONTINUOUS
 62
     9
 10
-351.0679267463687
 20
228.3430412778853
 30
0.0
  0
VERTEX
  5
35B
  8
0
  6
CONTINUOUS
 62
     9
 10
-351.0633362356136
 20
228.236406119035
 30
0.0
  0
VERTEX
  5
35C
  8
0
  6
CONTINUOUS
 62
     9
 10
-351.0406858716032
 20
228.0844484842769
 30
0.0
  0
VERTEX
  5
35D
  8
0
  6
CONTINUOUS
 62
     9
 10
-351.0140994261687
 20
227.9814873209632
 30
0.0
  0
VERTEX
  5
35E
  8
0
  6
CONTINUOUS
 62
     9
 10
-350.9803640420239
 20
227.8850763226552
 30
0.0
  0
VERTEX
  5
35F
  8
0
  6
CONTINUOUS
 62
     9
 10
-350.9184110537431
 20
227.7522940693422
 30
0.0
  0
VERTEX
  5
360
  8
0
  6
CONTINUOUS
 62
     9
 10
-350.856994653926
 20
227.6505462982821
 30
0.0
  0
VERTEX
  5
361
  8
0
  6
CONTINUOUS
 62
     9
 10
-350.7940199843395
 20
227.5647721253442
 30
0.0
  0
VERTEX
  5
362
  8
0
  6
CONTINUOUS
 62
     9
 10
-350.6957194440349
 20
227.4559176494289
 30
0.0
  0
VERTEX
  5
363
  8
0
  6
CONTINUOUS
 62
     9
 10
-350.5997133031767
 20
227.3705926106485
 30
0.0
  0
VERTEX
  5
364
  8
0
  6
CONTINUOUS
 62
     9
 10
-350.5083612730756
 20
227.3039221104723
 30
0.0
  0
SEQEND
  5
3DB
  8
0
  6
CONTINUOUS
 62
     9
  0
ARC
  5
D3
  8
0
  6
CONTINUOUS
 62
     9
 10
-349.8084015560451
 20
228.3606340614903
 30
0.0
 40
1.267510849219766
 50
236.4797454724626
 51
263.5819102976562
  0
LINE
  5
D4
  8
0
  6
CONTINUOUS
 62
     9
 10
-349.9500873206285
 20
227.1010671132877
 30
0.0
 11
-349.8073071707155
 21
227.0930412779665
 31
0.0
  0
ARC
  5
D5
  8
0
  6
CONTINUOUS
 62
     7
 10
-349.6091005915467
 20
242.1000030667784
 30
0.0
 40
2.997177776249414
 50
134.935265129834
 51
179.9924007039297
  0
LINE
  5
D6
  8
0
  6
CONTINUOUS
 62
     9
 10
-286.3002214954058
 20
227.0930412797705
 30
0.0
 11
-286.1891811590789
 21
227.0976149885541
 31
0.0
  0
ARC
  5
D7
  8
0
  6
CONTINUOUS
 62
     9
 10
-286.2878190586306
 20
228.3908581327692
 30
0.0
 40
1.296999331259493
 50
274.3616039447115
 51
326.0494883495989
  0
POLYLINE
  5
D8
  8
0
  6
CONTINUOUS
 62
     9
 66
     1
 10
0.0
 20
0.0
 30
0.0
  0
VERTEX
  5
365
  8
0
  6
CONTINUOUS
 62
     9
 10
-285.2119318393471
 20
227.6665143216753
 30
0.0
  0
VERTEX
  5
366
  8
0
  6
CONTINUOUS
 62
     9
 10
-285.1445871634638
 20
227.7807895787119
 30
0.0
  0
VERTEX
  5
367
  8
0
  6
CONTINUOUS
 62
     9
 10
-285.0877044080833
 20
227.9073121802298
 30
0.0
  0
VERTEX
  5
368
  8
0
  6
CONTINUOUS
 62
     9
 10
-285.0502513058187
 20
228.0215263686228
 30
0.0
  0
VERTEX
  5
369
  8
0
  6
CONTINUOUS
 62
     9
 10
-285.0223626016293
 20
228.1500635997001
 30
0.0
  0
VERTEX
  5
36A
  8
0
  6
CONTINUOUS
 62
     9
 10
-285.0086559931921
 20
228.2782564915696
 30
0.0
  0
VERTEX
  5
36B
  8
0
  6
CONTINUOUS
 62
     9
 10
-285.0069255421381
 20
228.3430412798519
 30
0.0
  0
SEQEND
  5
3DC
  8
0
  6
CONTINUOUS
 62
     9
  0
POLYLINE
  5
D9
  8
0
  6
CONTINUOUS
 62
     9
 66
     1
 10
0.0
 20
0.0
 30
0.0
  0
VERTEX
  5
36C
  8
0
  6
CONTINUOUS
 62
     9
 10
-316.0679267463604
 20
228.3430412778943
 30
0.0
  0
VERTEX
  5
36D
  8
0
  6
CONTINUOUS
 62
     9
 10
-316.0633362356053
 20
228.2364061190438
 30
0.0
  0
VERTEX
  5
36E
  8
0
  6
CONTINUOUS
 62
     9
 10
-316.0406858715949
 20
228.0844484842858
 30
0.0
  0
VERTEX
  5
36F
  8
0
  6
CONTINUOUS
 62
     9
 10
-316.0140994261605
 20
227.9814873209721
 30
0.0
  0
VERTEX
  5
370
  8
0
  6
CONTINUOUS
 62
     9
 10
-315.9803640420158
 20
227.885076322664
 30
0.0
  0
VERTEX
  5
371
  8
0
  6
CONTINUOUS
 62
     9
 10
-315.918411053735
 20
227.752294069351
 30
0.0
  0
VERTEX
  5
372
  8
0
  6
CONTINUOUS
 62
     9
 10
-315.8569946539179
 20
227.6505462982909
 30
0.0
  0
VERTEX
  5
373
  8
0
  6
CONTINUOUS
 62
     9
 10
-315.7940199843314
 20
227.564772125353
 30
0.0
  0
VERTEX
  5
374
  8
0
  6
CONTINUOUS
 62
     9
 10
-315.6957194440269
 20
227.4559176494377
 30
0.0
  0
VERTEX
  5
375
  8
0
  6
CONTINUOUS
 62
     9
 10
-315.5997133031686
 20
227.3705926106572
 30
0.0
  0
VERTEX
  5
376
  8
0
  6
CONTINUOUS
 62
     9
 10
-315.5083612730676
 20
227.303922110481
 30
0.0
  0
SEQEND
  5
3DD
  8
0
  6
CONTINUOUS
 62
     9
  0
ARC
  5
DA
  8
0
  6
CONTINUOUS
 62
     9
 10
-314.8084015560369
 20
228.3606340614983
 30
0.0
 40
1.267510849219288
 50
236.4797454724407
 51
263.5819102976449
  0
LINE
  5
DB
  8
0
  6
CONTINUOUS
 62
     9
 10
-285.0069255421381
 20
228.3430412798519
 30
0.0
 11
-285.0069255431774
 21
244.8430412798515
 31
0.0
  0
LINE
  5
DC
  8
0
  6
CONTINUOUS
 62
     9
 10
-316.0679267473996
 20
244.8430412778952
 30
0.0
 11
-316.0679267463604
 21
228.3430412778956
 31
0.0
  0
LINE
  5
DD
  8
0
  6
CONTINUOUS
 62
     9
 10
-314.9500873206207
 20
227.1010671132963
 30
0.0
 11
-314.8789215962075
 21
227.0950551891181
 31
0.0
  0
LINE
  5
DE
  8
0
  6
CONTINUOUS
 62
     9
 10
-314.8789215962069
 20
227.095055189118
 30
0.0
 11
-314.8073071707076
 21
227.093041277975
 31
0.0
  0
ARC
  5
DF
  8
0
  6
CONTINUOUS
 62
     7
 10
-314.6091005915346
 20
242.1000030667869
 30
0.0
 40
2.997177776249206
 50
134.9352651298162
 51
179.9924007039148
  0
CIRCLE
  5
E0
  8
0
  6
CONTINUOUS
 62
     7
 10
-317.9353727132396
 20
114.9430412788571
 30
0.0
 40
2.250000000000002
  0
CIRCLE
  5
E1
  8
0
  6
CONTINUOUS
 62
     7
 10
-317.9353727132396
 20
114.9430412788571
 30
0.0
 40
4.000000000000004
  0
ARC
  5
E2
  8
0
  6
CONTINUOUS
 62
     7
 10
-297.9353727132396
 20
189.4158545115473
 30
0.0
 40
8.000000000000021
 50
359.9999999999998
 51
55.15009542095351
  0
LINE
  5
E3
  8
0
  6
CONTINUOUS
 62
     7
 10
-289.9353727132396
 20
123.970228046167
 30
0.0
 11
-289.9353727132396
 21
189.4158545115473
 31
0.0
  0
ARC
  5
E4
  8
0
  6
CONTINUOUS
 62
     7
 10
-297.9353727132396
 20
123.970228046167
 30
0.0
 40
8.000000000000021
 50
304.8499045790465
 51
0.0000000000001137
  0
ARC
  5
E5
  8
0
  6
CONTINUOUS
 62
     7
 10
-317.9353727132397
 20
152.6930412788571
 30
0.0
 40
43.00000000000009
 50
272.3314930610618
 51
304.8499045790466
  0
ARC
  5
E6
  8
0
  6
CONTINUOUS
 62
     7
 10
-317.9353727132395
 20
114.9430412788571
 30
0.0
 40
5.50000000000001
 50
251.4548734429633
 51
288.5451265570346
  0
ARC
  5
E7
  8
0
  6
CONTINUOUS
 62
     7
 10
-317.9353727132395
 20
152.6930412788571
 30
0.0
 40
43.00000000000009
 50
235.1500954209535
 51
267.6685069389382
  0
ARC
  5
E8
  8
0
  6
CONTINUOUS
 62
     7
 10
-337.9353727132395
 20
123.970228046167
 30
0.0
 40
8.000000000000021
 50
179.9999999999999
 51
235.1500954209536
  0
LINE
  5
E9
  8
0
  6
CONTINUOUS
 62
     7
 10
-345.9353727132395
 20
123.970228046167
 30
0.0
 11
-345.9353727132395
 21
189.4158545115473
 31
0.0
  0
ARC
  5
EA
  8
0
  6
CONTINUOUS
 62
     7
 10
-337.9353727132395
 20
189.4158545115473
 30
0.0
 40
8.000000000000021
 50
124.8499045790464
 51
180.0000000000001
  0
ARC
  5
EB
  8
0
  6
CONTINUOUS
 62
     7
 10
-317.9353727132395
 20
160.6930412788571
 30
0.0
 40
43.00000000000009
 50
92.33149306106185
 51
124.8499045790465
  0
ARC
  5
EC
  8
0
  6
CONTINUOUS
 62
     7
 10
-317.9353727132395
 20
198.4430412788572
 30
0.0
 40
5.500000000000036
 50
71.45487344296545
 51
108.5451265570367
  0
ARC
  5
ED
  8
0
  6
CONTINUOUS
 62
     7
 10
-317.9353727132397
 20
160.6930412788571
 30
0.0
 40
43.00000000000009
 50
55.15009542095351
 51
87.66850693893815
  0
CIRCLE
  5
EE
  8
0
  6
CONTINUOUS
 62
     7
 10
-317.9353727132396
 20
198.4430412788572
 30
0.0
 40
4.000000000000004
  0
ARC
  5
EF
  8
0
  6
CONTINUOUS
 62
     7
 10
-317.9353727132395
 20
198.4430412788572
 30
0.0
 40
5.499999999999998
 50
203.0440075950247
 51
252.6585571972405
  0
ARC
  5
F0
  8
0
  6
CONTINUOUS
 62
     7
 10
-327.5975196503255
 20
194.3329419411088
 30
0.0
 40
5.000000000000012
 50
23.04400759502462
 51
106.0252731407752
  0
ARC
  5
F1
  8
0
  6
CONTINUOUS
 62
     7
 10
-317.9353727132395
 20
160.6930412788571
 30
0.0
 40
40.00000000000008
 50
106.0252731407751
 51
124.8499045790465
  0
ARC
  5
F2
  8
0
  6
CONTINUOUS
 62
     7
 10
-337.9353727132395
 20
189.4158545115473
 30
0.0
 40
5.000000000000016
 50
124.8499045790464
 51
180.0000000000002
  0
LINE
  5
F3
  8
0
  6
CONTINUOUS
 62
     7
 10
-342.9353727132395
 20
189.4158545115473
 30
0.0
 11
-342.9353727132395
 21
123.970228046167
 31
0.0
  0
ARC
  5
F4
  8
0
  6
CONTINUOUS
 62
     7
 10
-337.9353727132395
 20
123.970228046167
 30
0.0
 40
5.000000000000016
 50
179.9999999999998
 51
235.1500954209536
  0
ARC
  5
F5
  8
0
  6
CONTINUOUS
 62
     7
 10
-317.9353727132395
 20
152.6930412788571
 30
0.0
 40
40.00000000000009
 50
235.1500954209534
 51
253.9747268592248
  0
ARC
  5
F6
  8
0
  6
CONTINUOUS
 62
     7
 10
-327.5975196503255
 20
119.0531406166055
 30
0.0
 40
5.000000000000012
 50
253.9747268592248
 51
336.9559924049754
  0
ARC
  5
F7
  8
0
  6
CONTINUOUS
 62
     7
 10
-317.9353727132395
 20
114.9430412788571
 30
0.0
 40
5.500000000000011
 50
107.3414428027595
 51
156.9559924049754
  0
LINE
  5
F8
  8
0
  6
CONTINUOUS
 62
     7
 10
-316.2960130821642
 20
120.1930412788571
 30
0.0
 11
-319.574732344315
 21
120.1930412788571
 31
0.0
  0
ARC
  5
F9
  8
0
  6
CONTINUOUS
 62
     7
 10
-317.9353727132397
 20
114.9430412788571
 30
0.0
 40
5.500000000000011
 50
23.04400759502471
 51
72.6585571972405
  0
ARC
  5
FA
  8
0
  6
CONTINUOUS
 62
     7
 10
-308.2732257761537
 20
119.0531406166055
 30
0.0
 40
5.000000000000012
 50
203.0440075950246
 51
286.0252731407752
  0
ARC
  5
FB
  8
0
  6
CONTINUOUS
 62
     7
 10
-317.9353727132397
 20
152.6930412788571
 30
0.0
 40
40.00000000000009
 50
286.0252731407751
 51
304.8499045790465
  0
ARC
  5
FC
  8
0
  6
CONTINUOUS
 62
     7
 10
-297.9353727132396
 20
123.970228046167
 30
0.0
 40
5.000000000000016
 50
304.8499045790464
 51
0.0000000000001705
  0
LINE
  5
FD
  8
0
  6
CONTINUOUS
 62
     7
 10
-292.9353727132396
 20
189.4158545115473
 30
0.0
 11
-292.9353727132396
 21
123.970228046167
 31
0.0
  0
ARC
  5
FE
  8
0
  6
CONTINUOUS
 62
     7
 10
-297.9353727132396
 20
189.4158545115473
 30
0.0
 40
5.000000000000016
 50
359.9999999999998
 51
55.15009542095362
  0
ARC
  5
FF
  8
0
  6
CONTINUOUS
 62
     7
 10
-317.9353727132397
 20
160.6930412788571
 30
0.0
 40
40.00000000000008
 50
55.15009542095351
 51
73.97472685922486
  0
ARC
  5
100
  8
0
  6
CONTINUOUS
 62
     7
 10
-308.2732257761537
 20
194.3329419411088
 30
0.0
 40
5.000000000000012
 50
73.9747268592248
 51
156.9559924049754
  0
ARC
  5
101
  8
0
  6
CONTINUOUS
 62
     7
 10
-317.9353727132397
 20
198.4430412788572
 30
0.0
 40
5.499999999999998
 50
287.3414428027595
 51
336.9559924049753
  0
LINE
  5
102
  8
0
  6
CONTINUOUS
 62
     7
 10
-316.2960130821642
 20
193.1930412788572
 30
0.0
 11
-319.574732344315
 21
193.1930412788572
 31
0.0
  0
CIRCLE
  5
103
  8
0
  6
CONTINUOUS
 62
     7
 10
-317.9353727132396
 20
198.4430412788572
 30
0.0
 40
2.250000000000002
  0
LINE
  5
104
  8
0
  6
CONTINUOUS
 62
     7
 10
-294.4353727132396
 20
159.7930412788571
 30
0.0
 11
-294.4353727132396
 21
158.2930412788571
 31
0.0
  0
LINE
  5
105
  8
0
  6
CONTINUOUS
 62
     7
 10
-292.9353727132395
 20
159.7930412788571
 30
0.0
 11
-294.4353727132395
 21
159.7930412788571
 31
0.0
  0
LINE
  5
106
  8
0
  6
CONTINUOUS
 62
     7
 10
-294.4353727132396
 20
158.2930412788571
 30
0.0
 11
-292.9353727132396
 21
158.2930412788571
 31
0.0
  0
LINE
  5
107
  8
0
  6
CONTINUOUS
 62
     7
 10
-292.9353727132395
 20
153.5930412788571
 30
0.0
 11
-294.4353727132395
 21
153.5930412788571
 31
0.0
  0
LINE
  5
108
  8
0
  6
CONTINUOUS
 62
     7
 10
-294.4353727132396
 20
155.0930412788572
 30
0.0
 11
-292.9353727132396
 21
155.0930412788572
 31
0.0
  0
LINE
  5
109
  8
0
  6
CONTINUOUS
 62
     7
 10
-294.4353727132396
 20
153.5930412788571
 30
0.0
 11
-294.4353727132396
 21
155.0930412788571
 31
0.0
  0
LINE
  5
10A
  8
0
  6
CONTINUOUS
 62
     7
 10
-342.9353727132396
 20
159.7930412788571
 30
0.0
 11
-341.4353727132396
 21
159.7930412788571
 31
0.0
  0
LINE
  5
10B
  8
0
  6
CONTINUOUS
 62
     7
 10
-341.4353727132396
 20
159.7930412788571
 30
0.0
 11
-341.4353727132396
 21
158.2930412788571
 31
0.0
  0
LINE
  5
10C
  8
0
  6
CONTINUOUS
 62
     7
 10
-341.4353727132396
 20
158.2930412788571
 30
0.0
 11
-342.9353727132396
 21
158.2930412788571
 31
0.0
  0
LINE
  5
10D
  8
0
  6
CONTINUOUS
 62
     7
 10
-341.4353727132396
 20
153.5930412788571
 30
0.0
 11
-341.4353727132396
 21
155.0930412788571
 31
0.0
  0
LINE
  5
10E
  8
0
  6
CONTINUOUS
 62
     7
 10
-342.9353727132396
 20
153.5930412788571
 30
0.0
 11
-341.4353727132396
 21
153.5930412788571
 31
0.0
  0
LINE
  5
10F
  8
0
  6
CONTINUOUS
 62
     7
 10
-341.4353727132396
 20
155.0930412788572
 30
0.0
 11
-342.9353727132396
 21
155.0930412788572
 31
0.0
  0
LINE
  5
110
  8
0
  6
CONTINUOUS
 62
     9
 10
-284.4001889547517
 20
157.6930412788571
 30
0.0
 11
-284.4001889547517
 21
155.6930412788571
 31
0.0
  0
LINE
  5
111
  8
0
  6
CONTINUOUS
 62
     9
 10
-284.4001889547517
 20
130.6930412788571
 30
0.0
 11
-284.4001889547517
 21
128.6930412788571
 31
0.0
  0
LINE
  5
112
  8
0
  6
CONTINUOUS
 62
     9
 10
-351.4705564717275
 20
182.6930412788571
 30
0.0
 11
-351.4705564717275
 21
184.6930412788571
 31
0.0
  0
LINE
  5
113
  8
0
  6
CONTINUOUS
 62
     9
 10
-351.4705564717275
 20
155.6930412788571
 30
0.0
 11
-351.4705564717275
 21
157.6930412788571
 31
0.0
  0
LINE
  5
114
  8
0
  6
CONTINUOUS
 62
     9
 10
-284.4001889547517
 20
184.6930412788571
 30
0.0
 11
-284.4001889547517
 21
182.6930412788571
 31
0.0
  0
LINE
  5
115
  8
0
  6
CONTINUOUS
 62
     9
 10
-351.4705564717275
 20
128.6930412788571
 30
0.0
 11
-351.4705564717275
 21
130.6930412788571
 31
0.0
  0
ARC
  5
116
  8
0
  6
CONTINUOUS
 62
     7
 10
-341.8700825748853
 20
108.4877266095169
 30
0.0
 40
1.000000000000001
 50
186.8260681728336
 51
243.5948662149995
  0
ARC
  5
117
  8
0
  6
CONTINUOUS
 62
     7
 10
-347.3310960142881
 20
107.8340200892326
 30
0.0
 40
4.499999999999997
 50
6.826068172832948
 51
295.6058180370452
  0
ARC
  5
118
  8
0
  6
CONTINUOUS
 62
     7
 10
-344.9541207423628
 20
102.8741825357783
 30
0.0
 40
1.000000000000011
 50
63.34191961450465
 51
115.605818037045
  0
ARC
  5
119
  8
0
  6
CONTINUOUS
 62
     7
 10
-317.9353727132396
 20
156.6930412788572
 30
0.0
 40
59.22028147948762
 50
249.6858423345054
 51
250.0481938173507
  0
ARC
  5
11A
  8
0
  6
CONTINUOUS
 62
     7
 10
-317.9353727132396
 20
156.6930412788572
 30
0.0
 40
59.2202814794876
 50
243.3419196145067
 51
244.3480653775612
  0
ARC
  5
11B
  8
0
  6
CONTINUOUS
 62
     7
 10
-337.3923810465168
 20
103.0951184952383
 30
0.0
 40
2.200000000000011
 50
250.0481938173514
 51
70.04819381735041
  0
ARC
  5
11C
  8
0
  6
CONTINUOUS
 62
     7
 10
-317.9353727132396
 20
156.6930412788572
 30
0.0
 40
54.82028147948759
 50
243.5948662149992
 51
244.2826172025855
  0
ARC
  5
11D
  8
0
  6
CONTINUOUS
 62
     7
 10
-317.9353727132396
 20
156.6930412788572
 30
0.0
 40
54.8202814794876
 50
249.8222110719626
 51
250.0481938173506
  0
ARC
  5
11E
  8
0
  6
CONTINUOUS
 62
     7
 10
-294.0006628515939
 20
204.8983559481974
 30
0.0
 40
1.000000000000001
 50
6.826068172833567
 51
63.59486621499947
  0
ARC
  5
11F
  8
0
  6
CONTINUOUS
 62
     7
 10
-288.5396494121911
 20
205.5520624684817
 30
0.0
 40
4.499999999999984
 50
186.826068172833
 51
115.6058180370453
  0
ARC
  5
120
  8
0
  6
CONTINUOUS
 62
     7
 10
-290.9166246841164
 20
210.511900021936
 30
0.0
 40
1.000000000000014
 50
243.3419196145046
 51
295.605818037045
  0
ARC
  5
121
  8
0
  6
CONTINUOUS
 62
     7
 10
-317.9353727132396
 20
156.6930412788571
 30
0.0
 40
59.22028147948761
 50
69.68584233450554
 51
70.0481938173507
  0
ARC
  5
122
  8
0
  6
CONTINUOUS
 62
     7
 10
-317.9353727132396
 20
156.6930412788571
 30
0.0
 40
59.2202814794876
 50
63.34191961450671
 51
64.34806537756128
  0
ARC
  5
123
  8
0
  6
CONTINUOUS
 62
     7
 10
-298.4783643799623
 20
210.290964062476
 30
0.0
 40
2.200000000000016
 50
70.04819381735138
 51
250.0481938173504
  0
ARC
  5
124
  8
0
  6
CONTINUOUS
 62
     7
 10
-317.9353727132396
 20
156.6930412788571
 30
0.0
 40
54.82028147948759
 50
63.59486621499917
 51
64.28261720258551
  0
ARC
  5
125
  8
0
  6
CONTINUOUS
 62
     7
 10
-317.9353727132396
 20
156.6930412788571
 30
0.0
 40
54.82028147948759
 50
69.82221107196256
 51
70.04819381735068
  0
LINE
  5
126
  8
0
  6
CONTINUOUS
 62
     7
 10
-285.9353727132395
 20
216.1930412788571
 30
0.0
 11
-317.1853727132395
 21
216.1930412788571
 31
0.0
  0
ARC
  5
127
  8
0
  6
CONTINUOUS
 62
     7
 10
-285.9353727132395
 20
212.1930412788571
 30
0.0
 40
3.99999999999999
 50
0.0000000000001988
 51
89.99999999999982
  0
LINE
  5
128
  8
0
  6
CONTINUOUS
 62
     7
 10
-281.9353727132395
 20
157.4430412788571
 30
0.0
 11
-281.9353727132395
 21
212.1930412788571
 31
0.0
  0
LINE
  5
129
  8
0
  6
CONTINUOUS
 62
     7
 10
-281.6353727132396
 20
157.4430412788571
 30
0.0
 11
-281.9353727132395
 21
157.4430412788571
 31
0.0
  0
LINE
  5
12A
  8
0
  6
CONTINUOUS
 62
     7
 10
-281.6353727132396
 20
155.9430412788571
 30
0.0
 11
-281.6353727132396
 21
157.4430412788571
 31
0.0
  0
LINE
  5
12B
  8
0
  6
CONTINUOUS
 62
     7
 10
-281.6353727132396
 20
155.9430412788571
 30
0.0
 11
-281.9353727132395
 21
155.9430412788571
 31
0.0
  0
LINE
  5
12C
  8
0
  6
CONTINUOUS
 62
     7
 10
-281.9353727132395
 20
155.9430412788571
 30
0.0
 11
-281.9353727132395
 21
101.1930412788571
 31
0.0
  0
ARC
  5
12D
  8
0
  6
CONTINUOUS
 62
     7
 10
-285.9353727132395
 20
101.1930412788571
 30
0.0
 40
3.99999999999999
 50
270.0000000000002
 51
359.9999999999998
  0
LINE
  5
12E
  8
0
  6
CONTINUOUS
 62
     7
 10
-285.9353727132395
 20
97.19304127885714
 30
0.0
 11
-317.1853727132395
 21
97.19304127885714
 31
0.0
  0
LINE
  5
12F
  8
0
  6
CONTINUOUS
 62
     7
 10
-317.1853727132395
 20
97.19304127885714
 30
0.0
 11
-317.1853727132395
 21
96.89304127885715
 31
0.0
  0
LINE
  5
130
  8
0
  6
CONTINUOUS
 62
     7
 10
-318.6853727132396
 20
96.89304127885715
 30
0.0
 11
-317.1853727132395
 21
96.89304127885715
 31
0.0
  0
LINE
  5
131
  8
0
  6
CONTINUOUS
 62
     7
 10
-318.6853727132396
 20
97.19304127885714
 30
0.0
 11
-318.6853727132396
 21
96.89304127885715
 31
0.0
  0
LINE
  5
132
  8
0
  6
CONTINUOUS
 62
     7
 10
-349.9353727132396
 20
97.19304127885714
 30
0.0
 11
-318.6853727132396
 21
97.19304127885714
 31
0.0
  0
ARC
  5
133
  8
0
  6
CONTINUOUS
 62
     7
 10
-349.9353727132396
 20
101.1930412788571
 30
0.0
 40
3.999999999999996
 50
180.0000000000002
 51
269.9999999999998
  0
LINE
  5
134
  8
0
  6
CONTINUOUS
 62
     7
 10
-353.9353727132396
 20
155.9430412788571
 30
0.0
 11
-353.9353727132396
 21
101.1930412788571
 31
0.0
  0
LINE
  5
135
  8
0
  6
CONTINUOUS
 62
     7
 10
-354.2353727132396
 20
155.9430412788571
 30
0.0
 11
-353.9353727132396
 21
155.9430412788571
 31
0.0
  0
LINE
  5
136
  8
0
  6
CONTINUOUS
 62
     7
 10
-354.2353727132396
 20
155.9430412788571
 30
0.0
 11
-354.2353727132396
 21
157.4430412788571
 31
0.0
  0
LINE
  5
137
  8
0
  6
CONTINUOUS
 62
     7
 10
-354.2353727132396
 20
157.4430412788571
 30
0.0
 11
-353.9353727132396
 21
157.4430412788571
 31
0.0
  0
LINE
  5
138
  8
0
  6
CONTINUOUS
 62
     7
 10
-353.9353727132396
 20
157.4430412788571
 30
0.0
 11
-353.9353727132396
 21
212.1930412788571
 31
0.0
  0
ARC
  5
139
  8
0
  6
CONTINUOUS
 62
     7
 10
-349.9353727132396
 20
212.1930412788571
 30
0.0
 40
3.999999999999996
 50
90.00000000000021
 51
179.9999999999998
  0
LINE
  5
13A
  8
0
  6
CONTINUOUS
 62
     7
 10
-349.9353727132396
 20
216.1930412788571
 30
0.0
 11
-318.6853727132396
 21
216.1930412788571
 31
0.0
  0
LINE
  5
13B
  8
0
  6
CONTINUOUS
 62
     7
 10
-318.6853727132396
 20
216.1930412788571
 30
0.0
 11
-318.6853727132396
 21
216.4930412788571
 31
0.0
  0
LINE
  5
13C
  8
0
  6
CONTINUOUS
 62
     7
 10
-318.6853727132396
 20
216.4930412788571
 30
0.0
 11
-317.1853727132395
 21
216.4930412788571
 31
0.0
  0
LINE
  5
13D
  8
0
  6
CONTINUOUS
 62
     7
 10
-317.1853727132395
 20
216.1930412788571
 30
0.0
 11
-317.1853727132395
 21
216.4930412788571
 31
0.0
  0
CIRCLE
  5
13E
  8
0
  6
CONTINUOUS
 62
     7
 10
-317.9353727132396
 20
156.6930412788571
 30
0.0
 40
4.762500000000003
  0
LINE
  5
13F
  8
0
  6
CONTINUOUS
 62
     9
 10
-286.3353727132396
 20
216.9859344976706
 30
0.0
 11
-286.3925607736533
 21
216.9859344976706
 31
0.0
  0
LINE
  5
140
  8
0
  6
CONTINUOUS
 62
     9
 10
-286.3925607736533
 20
216.9859344976706
 30
0.0
 11
-286.5038146835724
 21
218.2797889395796
 31
0.0
  0
LINE
  5
141
  8
0
  6
CONTINUOUS
 62
     9
 10
-286.5038146835724
 20
218.2797889395796
 30
0.0
 11
-286.5038146835724
 21
227.0930412788571
 31
0.0
  0
LINE
  5
142
  8
0
  6
CONTINUOUS
 62
     9
 10
-349.4781846528257
 20
216.9859344976706
 30
0.0
 11
-349.5353727132396
 21
216.9859344976706
 31
0.0
  0
LINE
  5
143
  8
0
  6
CONTINUOUS
 62
     9
 10
-349.3669307429067
 20
218.2797889395683
 30
0.0
 11
-349.4781846528257
 21
216.9859344976706
 31
0.0
  0
LINE
  5
144
  8
0
  6
CONTINUOUS
 62
     9
 10
-349.3669307429067
 20
227.0930412788571
 30
0.0
 11
-349.3669307429067
 21
218.2797889395683
 31
0.0
  0
POLYLINE
  5
145
  8
0
  6
CONTINUOUS
 62
     9
 66
     1
 10
0.0
 20
0.0
 30
0.0
  0
VERTEX
  5
377
  8
0
  6
CONTINUOUS
 62
     9
 10
-286.2467081357038
 20
217.3394878882638
 30
0.0
  0
VERTEX
  5
378
  8
0
  6
CONTINUOUS
 62
     9
 10
-286.3086373502299
 20
217.2637196141804
 30
0.0
  0
VERTEX
  5
379
  8
0
  6
CONTINUOUS
 62
     9
 10
-286.3546549080612
 20
217.1772762138531
 30
0.0
  0
VERTEX
  5
37A
  8
0
  6
CONTINUOUS
 62
     9
 10
-286.3829923802572
 20
217.0834796586786
 30
0.0
  0
VERTEX
  5
37B
  8
0
  6
CONTINUOUS
 62
     9
 10
-286.3925607736533
 20
216.9859344976706
 30
0.0
  0
SEQEND
  5
3DE
  8
0
  6
CONTINUOUS
 62
     9
  0
POLYLINE
  5
146
  8
0
  6
CONTINUOUS
 62
     9
 66
     1
 10
0.0
 20
0.0
 30
0.0
  0
VERTEX
  5
37C
  8
0
  6
CONTINUOUS
 62
     9
 10
-349.4781846528259
 20
216.9859344976707
 30
0.0
  0
VERTEX
  5
37D
  8
0
  6
CONTINUOUS
 62
     9
 10
-349.4877530462219
 20
217.0834796586787
 30
0.0
  0
VERTEX
  5
37E
  8
0
  6
CONTINUOUS
 62
     9
 10
-349.516090518418
 20
217.1772762138532
 30
0.0
  0
VERTEX
  5
37F
  8
0
  6
CONTINUOUS
 62
     9
 10
-349.5621080762493
 20
217.2637196141804
 30
0.0
  0
VERTEX
  5
380
  8
0
  6
CONTINUOUS
 62
     9
 10
-349.6240372907754
 20
217.3394878882639
 30
0.0
  0
SEQEND
  5
3DF
  8
0
  6
CONTINUOUS
 62
     9
  0
LINE
  5
147
  8
0
  6
CONTINUOUS
 62
     9
 10
-349.6818193226463
 20
217.3394878882639
 30
0.0
 11
-349.6240372907754
 21
217.3394878882639
 31
0.0
  0
LINE
  5
148
  8
0
  6
CONTINUOUS
 62
     9
 10
-286.2467081357037
 20
217.3394878882638
 30
0.0
 11
-286.1889261038329
 21
217.3394878882638
 31
0.0
  0
CIRCLE
  5
149
  8
0
  6
CONTINUOUS
 62
     7
 10
-317.9353727132396
 20
156.6930412788571
 30
0.0
 40
11.0
  0
CIRCLE
  5
14A
  8
0
  6
CONTINUOUS
 62
     7
 10
-313.6853799758669
 20
149.3318550454104
 30
0.0
 40
1.5000008750266
  0
CIRCLE
  5
14B
  8
0
  6
CONTINUOUS
 62
     7
 10
-322.1853777151347
 20
149.3318397556402
 30
0.0
 40
1.499996580209476
  0
CIRCLE
  5
14C
  8
0
  6
CONTINUOUS
 62
     7
 10
-326.4353738199632
 20
156.6930685937096
 30
0.0
 40
1.4999988935251
  0
CIRCLE
  5
14D
  8
0
  6
CONTINUOUS
 62
     7
 10
-322.1853698932785
 20
164.0543116545557
 30
0.0
 40
1.49999693697686
  0
CIRCLE
  5
14E
  8
0
  6
CONTINUOUS
 62
     7
 10
-313.685368308234
 20
164.0542764285453
 30
0.0
 40
1.499999150152053
  0
CIRCLE
  5
14F
  8
0
  6
CONTINUOUS
 62
     7
 10
-309.4353730276536
 20
156.6930696638914
 30
0.0
 40
1.499999685854549
  0
CIRCLE
  5
150
  8
0
  6
CONTINUOUS
 62
     7
 10
-317.9353727132396
 20
156.6930412788571
 30
0.0
 40
5.750000000000005
  0
CIRCLE
  5
151
  8
0
  6
CONTINUOUS
 62
     7
 10
-317.9353727132396
 20
156.6930412788571
 30
0.0
 40
13.5
  0
CIRCLE
  5
152
  8
0
  6
CONTINUOUS
 62
     7
 10
-298.9353727132396
 20
156.6930412788571
 30
0.0
 40
4.000000000000004
  0
CIRCLE
  5
153
  8
0
  6
CONTINUOUS
 62
     7
 10
-298.9353727132396
 20
156.6930412788571
 30
0.0
 40
3.000000000000003
  0
CIRCLE
  5
154
  8
0
  6
CONTINUOUS
 62
     7
 10
-336.9353727132396
 20
156.6930412788571
 30
0.0
 40
4.000000000000004
  0
CIRCLE
  5
155
  8
0
  6
CONTINUOUS
 62
     7
 10
-336.9353727132396
 20
156.6930412788571
 30
0.0
 40
2.999999999999996
  0
ARC
  5
156
  8
0
  6
CONTINUOUS
 62
     7
 10
-336.9353727132396
 20
156.6930412788571
 30
0.0
 40
5.000000000000002
 50
205.8419327631669
 51
154.1580672368332
  0
ARC
  5
157
  8
0
  6
CONTINUOUS
 62
     7
 10
-298.9353727132396
 20
156.6930412788571
 30
0.0
 40
5.000000000000004
 50
341.3370751150575
 51
18.66292488494253
  0
CIRCLE
  5
158
  8
0
  6
CONTINUOUS
 62
     7
 10
-317.9353727132396
 20
175.6930412788571
 30
0.0
 40
3.000000000000003
  0
CIRCLE
  5
159
  8
0
  6
CONTINUOUS
 62
     7
 10
-317.9353727132396
 20
137.6930412788572
 30
0.0
 40
2.999999999999989
  0
ARC
  5
15A
  8
0
  6
CONTINUOUS
 62
     7
 10
-349.8853727161023
 20
244.8430412779611
 30
0.0
 40
1.249999999999973
 50
90.00000000362552
 51
180.0000000036258
  0
ARC
  5
15B
  8
0
  6
CONTINUOUS
 62
     7
 10
-320.985372716103
 20
244.8430412797897
 30
0.0
 40
1.249999999999987
 50
0.0000000036245601
 51
90.00000000362496
  0
LINE
  5
15C
  8
0
  6
CONTINUOUS
 62
     7
 10
-319.1140523725041
 20
244.2217209363485
 30
0.0
 11
-319.7353727161031
 21
244.8430412798688
 31
0.0
  0
ARC
  5
15D
  8
0
  6
CONTINUOUS
 62
     7
 10
-321.2353727159295
 20
242.1004005926547
 30
0.0
 40
3.000000000000003
 50
0.0000000036250372
 51
45.00000000362517
  0
LINE
  5
15E
  8
0
  6
CONTINUOUS
 62
     7
 10
-318.23537271498
 20
227.0930412799642
 30
0.0
 11
-318.2353727159296
 21
242.1004005928445
 31
0.0
  0
LINE
  5
15F
  8
0
  6
CONTINUOUS
 62
     7
 10
-349.8812592413235
 20
227.0930907390013
 30
0.0
 11
-349.9475169284059
 21
227.1007798088524
 31
0.0
  0
LINE
  5
160
  8
0
  6
CONTINUOUS
 62
     7
 10
-351.1353727161023
 20
244.843041277882
 30
0.0
 11
-351.7566930596226
 21
244.2217209342831
 31
0.0
  0
ARC
  5
161
  8
0
  6
CONTINUOUS
 62
     7
 10
-349.6353727159288
 20
242.1004005908577
 30
0.0
 40
2.999999999999999
 50
135.0000000036255
 51
180.0000000036256
  0
ARC
  5
162
  8
0
  6
CONTINUOUS
 62
     7
 10
-314.8853727160893
 20
244.8430412779697
 30
0.0
 40
1.249999999999973
 50
90.00000000360907
 51
180.0000000036086
  0
ARC
  5
163
  8
0
  6
CONTINUOUS
 62
     7
 10
-285.9853727160899
 20
244.8430412797899
 30
0.0
 40
1.249999999999987
 50
0.0000000036086573
 51
90.00000000360868
  0
LINE
  5
164
  8
0
  6
CONTINUOUS
 62
     7
 10
-284.1140523724911
 20
244.2217209363482
 30
0.0
 11
-284.73537271609
 21
244.8430412798687
 31
0.0
  0
ARC
  5
165
  8
0
  6
CONTINUOUS
 62
     7
 10
-286.2353727159172
 20
242.100400592655
 30
0.0
 40
3.000000000000003
 50
0.0000000036086043
 51
45.00000000360869
  0
LINE
  5
166
  8
0
  6
CONTINUOUS
 62
     7
 10
-314.8812592413155
 20
227.0930907390098
 30
0.0
 11
-314.9475169283979
 21
227.1007798088609
 31
0.0
  0
LINE
  5
167
  8
0
  6
CONTINUOUS
 62
     7
 10
-316.1353727160892
 20
244.843041277891
 30
0.0
 11
-316.7566930596097
 21
244.2217209342922
 31
0.0
  0
LINE
  5
168
  8
0
  6
CONTINUOUS
 62
     7
 10
-317.6353727159164
 20
242.1004005906773
 30
0.0
 11
-317.6353727149712
 21
227.0930412777969
 31
0.0
  0
ARC
  5
169
  8
0
  6
CONTINUOUS
 62
     7
 10
-314.6353727159165
 20
242.1004005908662
 30
0.0
 40
2.999999999999989
 50
135.0000000036087
 51
180.0000000036089
  0
LINE
  5
16A
  8
0
  6
CONTINUOUS
 62
     7
 10
-314.5353727132396
 20
227.0930412779921
 30
0.0
 11
-314.5353727132396
 21
216.1930412788571
 31
0.0
  0
LINE
  5
16B
  8
0
  6
CONTINUOUS
 62
     7
 10
-286.3353727132396
 20
216.1930412788571
 30
0.0
 11
-286.3353727132396
 21
216.9859344976706
 31
0.0
  0
LINE
  5
16C
  8
0
  6
CONTINUOUS
 62
     7
 10
-349.5353727132396
 20
216.9859344976706
 30
0.0
 11
-349.5353727132396
 21
216.1930412788571
 31
0.0
  0
LINE
  5
16D
  8
0
  6
CONTINUOUS
 62
     7
 10
-321.3353727132396
 20
216.1930412788571
 30
0.0
 11
-321.3353727132396
 21
227.093041279768
 31
0.0
  0
ARC
  5
16E
  8
0
  6
CONTINUOUS
 62
     7
 10
-286.2353727132396
 20
221.5356819659764
 30
0.0
 40
2.999999999999999
 50
315.0000000000002
 51
0.0
  0
ARC
  5
16F
  8
0
  6
CONTINUOUS
 62
     7
 10
-349.6353727132396
 20
221.5356819659764
 30
0.0
 40
3.000000000000003
 50
180.0
 51
224.9999999999998
  0
LINE
  5
170
  8
0
  6
CONTINUOUS
 62
     7
 10
-351.7566930567992
 20
219.4143616224168
 30
0.0
 11
-349.6818193226463
 21
217.3394878882639
 31
0.0
  0
ARC
  5
171
  8
0
  6
CONTINUOUS
 62
     7
 10
-350.0353727132396
 20
216.9859344976706
 30
0.0
 40
0.5000000000000129
 50
0.0
 51
44.99999999999944
  0
LINE
  5
172
  8
0
  6
CONTINUOUS
 62
     7
 10
-286.1889261038329
 20
217.3394878882638
 30
0.0
 11
-284.1140523696799
 21
219.4143616224168
 31
0.0
  0
ARC
  5
173
  8
0
  6
CONTINUOUS
 62
     7
 10
-285.8353727132396
 20
216.9859344976706
 30
0.0
 40
0.5000000000000004
 50
135.0000000000006
 51
180.0
  0
ENDBLK
  8
0
  0
BLOCK
  8
0
  2
D_FRAME_VIEW_3990
 70
     0
 10
0.0
 20
0.0
 30
0.0
  0
LINE
  5
179
  8
0
  6
CONTINUOUS
 62
     7
 10
-250.7199705955303
 20
104.6930412788571
 30
0.0
 11
-250.7199705955303
 21
103.6930412788571
 31
0.0
  0
LINE
  5
17A
  8
0
  6
CONTINUOUS
 62
     7
 10
-252.0363420688795
 20
106.3930412788571
 30
0.0
 11
-252.0363420688795
 21
106.33546980742
 31
0.0
  0
LINE
  5
17B
  8
0
  6
CONTINUOUS
 62
     7
 10
-252.3230948329632
 20
105.1930412788571
 30
0.0
 11
-252.3230948329632
 21
104.6930412788571
 31
0.0
  0
ARC
  5
17C
  8
0
  6
CONTINUOUS
 62
     7
 10
-245.9199705955303
 20
104.1930412788571
 30
0.0
 40
6.480740698407862
 50
160.6957803932084
 51
171.1236049190266
  0
LINE
  5
17D
  8
0
  6
CONTINUOUS
 62
     7
 10
-252.0363420688793
 20
102.0506127502944
 30
0.0
 11
-252.0363420688793
 21
101.9930412788571
 31
0.0
  0
ARC
  5
17E
  8
0
  6
CONTINUOUS
 62
     7
 10
-245.9199705955303
 20
104.1930412788571
 30
0.0
 40
6.480740698407859
 50
188.8763950809733
 51
199.3042196067905
  0
LINE
  5
17F
  8
0
  6
CONTINUOUS
 62
     7
 10
-252.3230948329632
 20
103.6930412788571
 30
0.0
 11
-252.3230948329632
 21
103.1930412788571
 31
0.0
  0
LINE
  5
180
  8
0
  6
CONTINUOUS
 62
     7
 10
-250.7199705955303
 20
209.6930412788571
 30
0.0
 11
-250.7199705955303
 21
208.6930412788571
 31
0.0
  0
LINE
  5
181
  8
0
  6
CONTINUOUS
 62
     7
 10
-252.0363420688793
 20
207.0506127502944
 30
0.0
 11
-252.0363420688793
 21
206.9930412788571
 31
0.0
  0
ARC
  5
182
  8
0
  6
CONTINUOUS
 62
     7
 10
-245.9199705955303
 20
209.1930412788571
 30
0.0
 40
6.480740698407859
 50
188.8763950809733
 51
199.3042196067905
  0
LINE
  5
183
  8
0
  6
CONTINUOUS
 62
     7
 10
-252.3230948329632
 20
208.6930412788571
 30
0.0
 11
-252.3230948329632
 21
208.1930412788571
 31
0.0
  0
LINE
  5
184
  8
0
  6
CONTINUOUS
 62
     7
 10
-252.0363420688795
 20
211.3930412788571
 30
0.0
 11
-252.0363420688795
 21
211.33546980742
 31
0.0
  0
LINE
  5
185
  8
0
  6
CONTINUOUS
 62
     7
 10
-252.3230948329632
 20
210.1930412788571
 30
0.0
 11
-252.3230948329632
 21
209.6930412788571
 31
0.0
  0
ARC
  5
186
  8
0
  6
CONTINUOUS
 62
     7
 10
-245.9199705955303
 20
209.1930412788571
 30
0.0
 40
6.480740698407867
 50
160.6957803932084
 51
171.1236049190266
  0
POLYLINE
  5
187
  8
0
  6
CONTINUOUS
 62
     7
 66
     1
 10
0.0
 20
0.0
 30
0.0
  0
VERTEX
  5
381
  8
0
  6
CONTINUOUS
 62
     7
 10
-226.7273780029379
 20
244.8430412798515
 30
0.0
  0
VERTEX
  5
382
  8
0
  6
CONTINUOUS
 62
     7
 10
-226.7114079644045
 20
244.8427649974842
 30
0.0
  0
VERTEX
  5
383
  8
0
  6
CONTINUOUS
 62
     7
 10
-226.6955540534731
 20
244.8419409790295
 30
0.0
  0
VERTEX
  5
384
  8
0
  6
CONTINUOUS
 62
     7
 10
-226.6798661201453
 20
244.8405764674584
 30
0.0
  0
VERTEX
  5
385
  8
0
  6
CONTINUOUS
 62
     7
 10
-226.6643940144222
 20
244.8386787057422
 30
0.0
  0
VERTEX
  5
386
  8
0
  6
CONTINUOUS
 62
     7
 10
-226.6486177884767
 20
244.8361573784894
 30
0.0
  0
VERTEX
  5
387
  8
0
  6
CONTINUOUS
 62
     7
 10
-226.6331016023728
 20
244.8330847491517
 30
0.0
  0
VERTEX
  5
388
  8
0
  6
CONTINUOUS
 62
     7
 10
-226.617887437934
 20
244.829481747465
 30
0.0
  0
VERTEX
  5
389
  8
0
  6
CONTINUOUS
 62
     7
 10
-226.6030172769842
 20
244.8253693031652
 30
0.0
  0
VERTEX
  5
38A
  8
0
  6
CONTINUOUS
 62
     7
 10
-226.5842318822813
 20
244.8192855832023
 30
0.0
  0
VERTEX
  5
38B
  8
0
  6
CONTINUOUS
 62
     7
 10
-226.5660341638847
 20
244.8123956849565
 30
0.0
  0
VERTEX
  5
38C
  8
0
  6
CONTINUOUS
 62
     7
 10
-226.5484647044342
 20
244.8047578839969
 30
0.0
  0
VERTEX
  5
38D
  8
0
  6
CONTINUOUS
 62
     7
 10
-226.5315640865699
 20
244.7964304558924
 30
0.0
  0
VERTEX
  5
38E
  8
0
  6
CONTINUOUS
 62
     7
 10
-226.5153728929314
 20
244.7874716762119
 30
0.0
  0
VERTEX
  5
38F
  8
0
  6
CONTINUOUS
 62
     7
 10
-226.4999317061587
 20
244.7779398205244
 30
0.0
  0
VERTEX
  5
390
  8
0
  6
CONTINUOUS
 62
     7
 10
-226.4843545898962
 20
244.7672422602882
 30
0.0
  0
VERTEX
  5
391
  8
0
  6
CONTINUOUS
 62
     7
 10
-226.469550812622
 20
244.7559686764506
 30
0.0
  0
VERTEX
  5
392
  8
0
  6
CONTINUOUS
 62
     7
 10
-226.4555267195031
 20
244.7441755589378
 30
0.0
  0
VERTEX
  5
393
  8
0
  6
CONTINUOUS
 62
     7
 10
-226.4422886557067
 20
244.7319193976757
 30
0.0
  0
VERTEX
  5
394
  8
0
  6
CONTINUOUS
 62
     7
 10
-226.4253786670835
 20
244.7144213047936
 30
0.0
  0
VERTEX
  5
395
  8
0
  6
CONTINUOUS
 62
     7
 10
-226.4098556104886
 20
244.6961908906301
 30
0.0
  0
VERTEX
  5
396
  8
0
  6
CONTINUOUS
 62
     7
 10
-226.3957029024604
 20
244.6773357146806
 30
0.0
  0
VERTEX
  5
397
  8
0
  6
CONTINUOUS
 62
     7
 10
-226.3826091872492
 20
244.6574907557987
 30
0.0
  0
VERTEX
  5
398
  8
0
  6
CONTINUOUS
 62
     7
 10
-226.3708484769157
 20
244.6371125910493
 30
0.0
  0
VERTEX
  5
399
  8
0
  6
CONTINUOUS
 62
     7
 10
-226.3603941870946
 20
244.6162801454079
 30
0.0
  0
VERTEX
  5
39A
  8
0
  6
CONTINUOUS
 62
     7
 10
-226.3512197334206
 20
244.5950723438498
 30
0.0
  0
VERTEX
  5
39B
  8
0
  6
CONTINUOUS
 62
     7
 10
-226.3406473014937
 20
244.5654549077559
 30
0.0
  0
VERTEX
  5
39C
  8
0
  6
CONTINUOUS
 62
     7
 10
-226.3323155971865
 20
244.5352833990979
 30
0.0
  0
VERTEX
  5
39D
  8
0
  6
CONTINUOUS
 62
     7
 10
-226.3261677133005
 20
244.5046968650256
 30
0.0
  0
VERTEX
  5
39E
  8
0
  6
CONTINUOUS
 62
     7
 10
-226.3227107679396
 20
244.4793551979648
 30
0.0
  0
VERTEX
  5
39F
  8
0
  6
CONTINUOUS
 62
     7
 10
-226.3206521130936
 20
244.4538167546397
 30
0.0
  0
VERTEX
  5
3A0
  8
0
  6
CONTINUOUS
 62
     7
 10
-226.3199705955304
 20
244.4281413422471
 30
0.0
  0
SEQEND
  5
3E0
  8
0
  6
CONTINUOUS
 62
     7
  0
LINE
  5
188
  8
0
  6
CONTINUOUS
 62
     7
 10
-226.7273780029378
 20
244.8430412788798
 30
0.0
 11
-222.3662668918269
 21
244.8430412788798
 31
0.0
  0
POLYLINE
  5
189
  8
0
  6
CONTINUOUS
 62
     7
 66
     1
 10
0.0
 20
0.0
 30
0.0
  0
VERTEX
  5
3A1
  8
0
  6
CONTINUOUS
 62
     7
 10
-222.8199705955304
 20
244.3816675759134
 30
0.0
  0
VERTEX
  5
3A2
  8
0
  6
CONTINUOUS
 62
     7
 10
-222.8191961749646
 20
244.4093839275616
 30
0.0
  0
VERTEX
  5
3A3
  8
0
  6
CONTINUOUS
 62
     7
 10
-222.8168651070989
 20
244.437007789401
 30
0.0
  0
VERTEX
  5
3A4
  8
0
  6
CONTINUOUS
 62
     7
 10
-222.8129313086177
 20
244.4646719407681
 30
0.0
  0
VERTEX
  5
3A5
  8
0
  6
CONTINUOUS
 62
     7
 10
-222.8073838326286
 20
244.4921457919787
 30
0.0
  0
VERTEX
  5
3A6
  8
0
  6
CONTINUOUS
 62
     7
 10
-222.8000196341399
 20
244.5199715785899
 30
0.0
  0
VERTEX
  5
3A7
  8
0
  6
CONTINUOUS
 62
     7
 10
-222.7909082689627
 20
244.5474801856149
 30
0.0
  0
VERTEX
  5
3A8
  8
0
  6
CONTINUOUS
 62
     7
 10
-222.7799101067814
 20
244.574829213254
 30
0.0
  0
VERTEX
  5
3A9
  8
0
  6
CONTINUOUS
 62
     7
 10
-222.7670468082887
 20
244.6017057929261
 30
0.0
  0
VERTEX
  5
3AA
  8
0
  6
CONTINUOUS
 62
     7
 10
-222.7544114139735
 20
244.6244419184531
 30
0.0
  0
VERTEX
  5
3AB
  8
0
  6
CONTINUOUS
 62
     7
 10
-222.7403033034966
 20
244.6467052521547
 30
0.0
  0
VERTEX
  5
3AC
  8
0
  6
CONTINUOUS
 62
     7
 10
-222.7246974882355
 20
244.6683976755439
 30
0.0
  0
VERTEX
  5
3AD
  8
0
  6
CONTINUOUS
 62
     7
 10
-222.711681685995
 20
244.6846049212903
 30
0.0
  0
VERTEX
  5
3AE
  8
0
  6
CONTINUOUS
 62
     7
 10
-222.6977245082967
 20
244.700405693732
 30
0.0
  0
VERTEX
  5
3AF
  8
0
  6
CONTINUOUS
 62
     7
 10
-222.6828207112063
 20
244.7157367861551
 30
0.0
  0
VERTEX
  5
3B0
  8
0
  6
CONTINUOUS
 62
     7
 10
-222.6669650507899
 20
244.7305349918455
 30
0.0
  0
VERTEX
  5
3B1
  8
0
  6
CONTINUOUS
 62
     7
 10
-222.6547372182959
 20
244.7410058112323
 30
0.0
  0
VERTEX
  5
3B2
  8
0
  6
CONTINUOUS
 62
     7
 10
-222.641979326662
 20
244.7511433850328
 30
0.0
  0
VERTEX
  5
3B3
  8
0
  6
CONTINUOUS
 62
     7
 10
-222.6286167255273
 20
244.7609715024004
 30
0.0
  0
VERTEX
  5
3B4
  8
0
  6
CONTINUOUS
 62
     7
 10
-222.6147126752687
 20
244.7704081651911
 30
0.0
  0
VERTEX
  5
3B5
  8
0
  6
CONTINUOUS
 62
     7
 10
-222.5999953950742
 20
244.7795851771835
 30
0.0
  0
VERTEX
  5
3B6
  8
0
  6
CONTINUOUS
 62
     7
 10
-222.5847190791425
 20
244.7882915119611
 30
0.0
  0
VERTEX
  5
3B7
  8
0
  6
CONTINUOUS
 62
     7
 10
-222.5687687991744
 20
244.796550963747
 30
0.0
  0
VERTEX
  5
3B8
  8
0
  6
CONTINUOUS
 62
     7
 10
-222.5522671465716
 20
244.804259747169
 30
0.0
  0
VERTEX
  5
3B9
  8
0
  6
CONTINUOUS
 62
     7
 10
-222.5390414964122
 20
244.8098574434663
 30
0.0
  0
VERTEX
  5
3BA
  8
0
  6
CONTINUOUS
 62
     7
 10
-222.5254991942626
 20
244.8150794949751
 30
0.0
  0
VERTEX
  5
3BB
  8
0
  6
CONTINUOUS
 62
     7
 10
-222.5115672829188
 20
244.8199349832979
 30
0.0
  0
VERTEX
  5
3BC
  8
0
  6
CONTINUOUS
 62
     7
 10
-222.4973401656606
 20
244.8243733630702
 30
0.0
  0
VERTEX
  5
3BD
  8
0
  6
CONTINUOUS
 62
     7
 10
-222.4825362071028
 20
244.8284530013994
 30
0.0
  0
VERTEX
  5
3BE
  8
0
  6
CONTINUOUS
 62
     7
 10
-222.4674619170265
 20
244.8320616505528
 30
0.0
  0
VERTEX
  5
3BF
  8
0
  6
CONTINUOUS
 62
     7
 10
-222.4520212483046
 20
244.8352037744843
 30
0.0
  0
VERTEX
  5
3C0
  8
0
  6
CONTINUOUS
 62
     7
 10
-222.4363552812429
 20
244.8378348037453
 30
0.0
  0
VERTEX
  5
3C1
  8
0
  6
CONTINUOUS
 62
     7
 10
-222.4191685710021
 20
244.8400909054699
 30
0.0
  0
VERTEX
  5
3C2
  8
0
  6
CONTINUOUS
 62
     7
 10
-222.4017908509545
 20
244.8417174362587
 30
0.0
  0
VERTEX
  5
3C3
  8
0
  6
CONTINUOUS
 62
     7
 10
-222.3840820300748
 20
244.8427094192056
 30
0.0
  0
VERTEX
  5
3C4
  8
0
  6
CONTINUOUS
 62
     7
 10
-222.3662668918267
 20
244.8430412798644
 30
0.0
  0
SEQEND
  5
3E1
  8
0
  6
CONTINUOUS
 62
     7
  0
LINE
  5
18A
  8
0
  6
CONTINUOUS
 62
     7
 10
-238.2699705955298
 20
246.0930412788798
 30
0.0
 11
-209.3699705955311
 21
246.0930412788798
 31
0.0
  0
LINE
  5
18B
  8
0
  6
CONTINUOUS
 62
     7
 10
-249.3199705955303
 20
155.9430412788571
 30
0.0
 11
-246.8199705955303
 21
155.9430412788571
 31
0.0
  0
LINE
  5
18C
  8
0
  6
CONTINUOUS
 62
     7
 10
-249.3199705955303
 20
157.4430412788571
 30
0.0
 11
-246.8199705955303
 21
157.4430412788571
 31
0.0
  0
LINE
  5
18D
  8
0
  6
CONTINUOUS
 62
     9
 10
-257.1227462332623
 20
155.6930412788571
 30
0.0
 11
-257.122746233263
 21
157.6930412788571
 31
0.0
  0
LINE
  5
18E
  8
0
  6
CONTINUOUS
 62
     9
 10
-257.1227462332623
 20
128.6930412788571
 30
0.0
 11
-257.1227462332629
 21
130.6930412788571
 31
0.0
  0
LINE
  5
18F
  8
0
  6
CONTINUOUS
 62
     9
 10
-257.1227462332623
 20
182.6930412788571
 30
0.0
 11
-257.122746233263
 21
184.6930412788571
 31
0.0
  0
LINE
  5
190
  8
0
  6
CONTINUOUS
 62
     7
 10
-249.3199705955303
 20
96.89304127885715
 30
0.0
 11
-246.8199705955303
 21
96.89304127885715
 31
0.0
  0
LINE
  5
191
  8
0
  6
CONTINUOUS
 62
     7
 10
-249.3199705955303
 20
216.4930412788571
 30
0.0
 11
-246.8199705955303
 21
216.4930412788571
 31
0.0
  0
LINE
  5
192
  8
0
  6
CONTINUOUS
 62
     7
 10
-213.9199705955303
 20
106.1930412788571
 30
0.0
 11
-222.9199705955304
 21
106.1930412788571
 31
0.0
  0
ARC
  5
193
  8
0
  6
CONTINUOUS
 62
     7
 10
-222.9199705955304
 20
106.6930412788571
 30
0.0
 40
0.5000000000000004
 50
180.0000000000016
 51
270.0000000000005
  0
LINE
  5
194
  8
0
  6
CONTINUOUS
 62
     7
 10
-223.4199705955304
 20
106.6930412788571
 30
0.0
 11
-223.4199705955304
 21
107.1930412788571
 31
0.0
  0
ARC
  5
195
  8
0
  6
CONTINUOUS
 62
     7
 10
-222.9199705955304
 20
107.1930412788571
 30
0.0
 40
0.5000000000000004
 50
90.0
 51
179.9999999999984
  0
LINE
  5
196
  8
0
  6
CONTINUOUS
 62
     7
 10
-222.9199705955304
 20
107.6930412788571
 30
0.0
 11
-213.9199705955303
 21
107.6930412788571
 31
0.0
  0
ARC
  5
197
  8
0
  6
CONTINUOUS
 62
     7
 10
-213.9199705955303
 20
107.1930412788571
 30
0.0
 40
0.5000000000000004
 50
359.9999999999985
 51
90.00000000000021
  0
ARC
  5
198
  8
0
  6
CONTINUOUS
 62
     7
 10
-213.9199705955303
 20
106.6930412788571
 30
0.0
 40
0.5000000000000004
 50
269.9999999999998
 51
0.0000000000015916
  0
LINE
  5
199
  8
0
  6
CONTINUOUS
 62
     7
 10
-213.4199705955303
 20
107.1930412788571
 30
0.0
 11
-213.4199705955303
 21
106.6930412788571
 31
0.0
  0
ARC
  5
19A
  8
0
  6
CONTINUOUS
 62
     7
 10
-227.3199705955304
 20
156.4430412788571
 30
0.0
 40
0.5000000000000004
 50
269.9999999999996
 51
0.0
  0
LINE
  5
19B
  8
0
  6
CONTINUOUS
 62
     7
 10
-240.3199705955304
 20
155.9430412788571
 30
0.0
 11
-227.3199705955304
 21
155.9430412788571
 31
0.0
  0
ARC
  5
19C
  8
0
  6
CONTINUOUS
 62
     7
 10
-240.3199705955304
 20
156.4430412788571
 30
0.0
 40
0.5000000000000004
 50
180.0
 51
269.9999999999984
  0
LINE
  5
19D
  8
0
  6
CONTINUOUS
 62
     7
 10
-240.8199705955304
 20
156.9430412788571
 30
0.0
 11
-240.8199705955304
 21
156.4430412788571
 31
0.0
  0
ARC
  5
19E
  8
0
  6
CONTINUOUS
 62
     7
 10
-240.3199705955304
 20
156.9430412788571
 30
0.0
 40
0.5000000000000004
 50
89.9999999999992
 51
180.0
  0
ARC
  5
19F
  8
0
  6
CONTINUOUS
 62
     7
 10
-227.3199705955304
 20
156.9430412788571
 30
0.0
 40
0.5000000000000004
 50
359.9999999999998
 51
89.9999999999992
  0
LINE
  5
1A0
  8
0
  6
CONTINUOUS
 62
     7
 10
-226.8199705955303
 20
156.4430412788571
 30
0.0
 11
-226.8199705955303
 21
156.9430412788571
 31
0.0
  0
LINE
  5
1A1
  8
0
  6
CONTINUOUS
 62
     7
 10
-227.3199705955304
 20
157.4430412788571
 30
0.0
 11
-240.3199705955304
 21
157.4430412788571
 31
0.0
  0
LINE
  5
1A2
  8
0
  6
CONTINUOUS
 62
     7
 10
-213.4199705955303
 20
206.1930412788572
 30
0.0
 11
-213.4199705955303
 21
206.6930412788572
 31
0.0
  0
ARC
  5
1A3
  8
0
  6
CONTINUOUS
 62
     7
 10
-213.9199705955303
 20
206.1930412788572
 30
0.0
 40
0.5000000000000004
 50
269.9999999999998
 51
0.0000000000015916
  0
LINE
  5
1A4
  8
0
  6
CONTINUOUS
 62
     7
 10
-223.4199705955304
 20
206.6930412788572
 30
0.0
 11
-223.4199705955304
 21
206.1930412788572
 31
0.0
  0
LINE
  5
1A5
  8
0
  6
CONTINUOUS
 62
     7
 10
-222.9199705955304
 20
205.6930412788572
 30
0.0
 11
-213.9199705955303
 21
205.6930412788572
 31
0.0
  0
ARC
  5
1A6
  8
0
  6
CONTINUOUS
 62
     7
 10
-213.9199705955303
 20
206.6930412788572
 30
0.0
 40
0.5000000000000004
 50
359.9999999999985
 51
90.00000000000021
  0
ARC
  5
1A7
  8
0
  6
CONTINUOUS
 62
     7
 10
-222.9199705955304
 20
206.1930412788572
 30
0.0
 40
0.5000000000000004
 50
180.0000000000016
 51
270.0
  0
ARC
  5
1A8
  8
0
  6
CONTINUOUS
 62
     7
 10
-222.9199705955304
 20
206.6930412788572
 30
0.0
 40
0.5000000000000004
 50
89.99999999999962
 51
179.9999999999984
  0
LINE
  5
1A9
  8
0
  6
CONTINUOUS
 62
     7
 10
-213.9199705955303
 20
207.1930412788572
 30
0.0
 11
-222.9199705955304
 21
207.1930412788572
 31
0.0
  0
LINE
  5
1AA
  8
0
  6
CONTINUOUS
 62
     7
 10
-202.5839026180306
 20
108.9147778223704
 30
0.0
 11
-202.8199705955304
 21
108.9147778223704
 31
0.0
  0
ARC
  5
1AB
  8
0
  6
CONTINUOUS
 62
     7
 10
-200.0033802824524
 20
100.5737139452716
 30
0.0
 40
8.803779165424787
 50
108.6586727091685
 51
123.1686196638191
  0
ARC
  5
1AC
  8
0
  6
CONTINUOUS
 62
     7
 10
-199.7507940954976
 20
213.3322341843221
 30
0.0
 40
9.377415160273273
 50
237.2773529049154
 51
250.8953547220967
  0
LINE
  5
1AD
  8
0
  6
CONTINUOUS
 62
     7
 10
-202.8199705955304
 20
204.4713047353439
 30
0.0
 11
-202.5839026180306
 21
204.4713047353439
 31
0.0
  0
LINE
  5
1AE
  8
0
  6
CONTINUOUS
 62
     7
 10
-208.1199705955304
 20
206.230262636218
 30
0.0
 11
-208.1199705955304
 21
204.9430412788571
 31
0.0
  0
LINE
  5
1AF
  8
0
  6
CONTINUOUS
 62
     7
 10
-208.1199705955304
 20
204.9430412788571
 30
0.0
 11
-205.9199705955304
 21
204.9430412788571
 31
0.0
  0
LINE
  5
1B0
  8
0
  6
CONTINUOUS
 62
     7
 10
-205.9199705955303
 20
206.2302626362181
 30
0.0
 11
-205.9199705955303
 21
204.9430412788571
 31
0.0
  0
ARC
  5
1B1
  8
0
  6
CONTINUOUS
 62
     7
 10
-207.0199705955304
 20
208.1930412788571
 30
0.0
 40
2.250000000000019
 50
299.2675775975314
 51
60.73242240246918
  0
ARC
  5
1B2
  8
0
  6
CONTINUOUS
 62
     7
 10
-207.0199705955304
 20
208.1930412788571
 30
0.0
 40
2.249999999999981
 50
119.2675775975309
 51
240.7324224024692
  0
CIRCLE
  5
1B3
  8
0
  6
CONTINUOUS
 62
     7
 10
-207.0199705955304
 20
105.1930412788571
 30
0.0
 40
2.250000000000002
  0
CIRCLE
  5
1B4
  8
0
  6
CONTINUOUS
 62
     7
 10
-223.4199705955304
 20
129.1930412788571
 30
0.0
 40
13.54999999999999
  0
CIRCLE
  5
1B5
  8
0
  6
CONTINUOUS
 62
     7
 10
-223.4199705955304
 20
184.1930412788571
 30
0.0
 40
13.55000000000001
  0
LINE
  5
1B6
  8
0
  6
CONTINUOUS
 62
     7
 10
-205.9199705955303
 20
211.4430412788572
 30
0.0
 11
-208.1199705955304
 21
211.4430412788572
 31
0.0
  0
LINE
  5
1B7
  8
0
  6
CONTINUOUS
 62
     7
 10
-204.8199705955304
 20
98.19304127885714
 30
0.0
 11
-246.8199705955304
 21
98.19304127885714
 31
0.0
  0
ARC
  5
1B8
  8
0
  6
CONTINUOUS
 62
     7
 10
-202.8199705955304
 20
205.4430412788572
 30
0.0
 40
0.9999999999999977
 50
283.6545847459752
 51
0.0
  0
ARC
  5
1B9
  8
0
  6
CONTINUOUS
 62
     7
 10
-202.8199705955304
 20
107.9430412788571
 30
0.0
 40
0.9999999999999977
 50
0.0
 51
76.34541525402487
  0
LINE
  5
1BA
  8
0
  6
CONTINUOUS
 62
     7
 10
-202.8199705955268
 20
101.4434869342061
 30
0.0
 11
-202.7889576281877
 21
101.4435222966179
 31
0.0
  0
ARC
  5
1BB
  8
0
  6
CONTINUOUS
 62
     7
 10
-204.8199705955304
 20
101.1930412788571
 30
0.0
 40
3.000000000000003
 50
269.9999999999999
 51
0.0
  0
ARC
  5
1BC
  8
0
  6
CONTINUOUS
 62
     7
 10
-201.6897116602049
 20
106.4980029615185
 30
0.0
 40
5.179345280171379
 50
232.8162285042975
 51
257.3952417426194
  0
ARC
  5
1BD
  8
0
  6
CONTINUOUS
 62
     7
 10
-201.8080543079764
 20
207.1430938435912
 30
0.0
 40
4.905017014082888
 50
101.9057450320392
 51
127.882784721117
  0
ARC
  5
1BE
  8
0
  6
CONTINUOUS
 62
     7
 10
-204.8199705955304
 20
212.1930412788571
 30
0.0
 40
3.000000000000003
 50
0.0
 51
90.00000000000006
  0
LINE
  5
1BF
  8
0
  6
CONTINUOUS
 62
     7
 10
-202.7889576281987
 20
211.9425602610968
 30
0.0
 11
-202.8199705955304
 21
211.9425956235081
 31
0.0
  0
ARC
  5
1C0
  8
0
  6
CONTINUOUS
 62
     7
 10
-202.8199705955304
 20
210.9430412788572
 30
0.0
 40
0.9999999999999991
 50
0.0
 51
88.22280289812471
  0
ARC
  5
1C1
  8
0
  6
CONTINUOUS
 62
     7
 10
-202.8199705955304
 20
102.4430412788571
 30
0.0
 40
0.9999999999999941
 50
271.777197102507
 51
0.0
  0
LINE
  5
1C2
  8
0
  6
CONTINUOUS
 62
     9
 10
-225.1017812293041
 20
217.3394878882638
 30
0.0
 11
-222.5381599617566
 21
217.3394878882638
 31
0.0
  0
POLYLINE
  5
1C3
  8
0
  6
CONTINUOUS
 62
     9
 66
     1
 10
0.0
 20
0.0
 30
0.0
  0
VERTEX
  5
3C5
  8
0
  6
CONTINUOUS
 62
     9
 10
-222.5381599617566
 20
217.3394878882638
 30
0.0
  0
VERTEX
  5
3C6
  8
0
  6
CONTINUOUS
 62
     9
 10
-222.4324488383109
 20
217.3575486943288
 30
0.0
  0
VERTEX
  5
3C7
  8
0
  6
CONTINUOUS
 62
     9
 10
-222.3412427794115
 20
217.4136303579274
 30
0.0
  0
VERTEX
  5
3C8
  8
0
  6
CONTINUOUS
 62
     9
 10
-222.2697912252409
 20
217.4907585919695
 30
0.0
  0
VERTEX
  5
3C9
  8
0
  6
CONTINUOUS
 62
     9
 10
-222.2068181725333
 20
217.5929496652462
 30
0.0
  0
SEQEND
  5
3E2
  8
0
  6
CONTINUOUS
 62
     9
  0
ARC
  5
1C4
  8
0
  6
CONTINUOUS
 62
     9
 10
-223.5904687756358
 20
218.2256842404838
 30
0.0
 40
1.521460493791011
 50
335.425684768017
 51
2.037926490875634
  0
ARC
  5
1C5
  8
0
  6
CONTINUOUS
 62
     9
 10
-223.8542689027926
 20
218.2503539985307
 30
0.0
 40
1.715954170197302
 50
179.0171179155356
 51
198.6071472945589
  0
POLYLINE
  5
1C6
  8
0
  6
CONTINUOUS
 62
     9
 66
     1
 10
0.0
 20
0.0
 30
0.0
  0
VERTEX
  5
3CA
  8
0
  6
CONTINUOUS
 62
     9
 10
-225.4805277709427
 20
217.7028315716101
 30
0.0
  0
VERTEX
  5
3CB
  8
0
  6
CONTINUOUS
 62
     9
 10
-225.4257900465697
 20
217.5788983826455
 30
0.0
  0
VERTEX
  5
3CC
  8
0
  6
CONTINUOUS
 62
     9
 10
-225.3621721383539
 20
217.4803793161776
 30
0.0
  0
VERTEX
  5
3CD
  8
0
  6
CONTINUOUS
 62
     9
 10
-225.2853920428772
 20
217.4027800021585
 30
0.0
  0
VERTEX
  5
3CE
  8
0
  6
CONTINUOUS
 62
     9
 10
-225.1924361400527
 20
217.3520946893122
 30
0.0
  0
VERTEX
  5
3CF
  8
0
  6
CONTINUOUS
 62
     9
 10
-225.1017812293041
 20
217.3394878882638
 30
0.0
  0
SEQEND
  5
3E3
  8
0
  6
CONTINUOUS
 62
     9
  0
LINE
  5
1C7
  8
0
  6
CONTINUOUS
 62
     7
 10
-249.3199705955303
 20
107.6930412788571
 30
0.0
 11
-250.8011748945746
 21
107.5634526943249
 31
0.0
  0
LINE
  5
1C8
  8
0
  6
CONTINUOUS
 62
     7
 10
-250.8011748945746
 20
100.8226298633894
 30
0.0
 11
-249.3199705955303
 21
100.6930412788571
 31
0.0
  0
ARC
  5
1C9
  8
0
  6
CONTINUOUS
 62
     7
 10
-250.6878724290027
 20
102.1176829709086
 30
0.0
 40
1.299999999999985
 50
203.5223875269064
 51
264.9999999999999
  0
ARC
  5
1CA
  8
0
  6
CONTINUOUS
 62
     7
 10
-250.6878724290027
 20
106.2683995868056
 30
0.0
 40
1.299999999999992
 50
95.00000000000014
 51
156.4776124730936
  0
ARC
  5
1CB
  8
0
  6
CONTINUOUS
 62
     7
 10
-245.9199705955303
 20
104.1930412788571
 30
0.0
 40
6.500000000000004
 50
156.4776124730938
 51
160.2168296273383
  0
ARC
  5
1CC
  8
0
  6
CONTINUOUS
 62
     7
 10
-245.9199705955303
 20
104.1930412788571
 30
0.0
 40
6.500000000000003
 50
199.7831703726616
 51
203.5223875269061
  0
LINE
  5
1CD
  8
0
  6
CONTINUOUS
 62
     7
 10
-249.3199705955303
 20
212.6930412788571
 30
0.0
 11
-250.8011748945746
 21
212.5634526943249
 31
0.0
  0
LINE
  5
1CE
  8
0
  6
CONTINUOUS
 62
     7
 10
-250.8011748945746
 20
205.8226298633894
 30
0.0
 11
-249.3199705955303
 21
205.6930412788571
 31
0.0
  0
ARC
  5
1CF
  8
0
  6
CONTINUOUS
 62
     7
 10
-250.6878724290027
 20
211.2683995868056
 30
0.0
 40
1.299999999999992
 50
95.00000000000014
 51
156.4776124730936
  0
ARC
  5
1D0
  8
0
  6
CONTINUOUS
 62
     7
 10
-250.6878724290027
 20
207.1176829709086
 30
0.0
 40
1.299999999999985
 50
203.5223875269064
 51
264.9999999999999
  0
ARC
  5
1D1
  8
0
  6
CONTINUOUS
 62
     7
 10
-245.9199705955303
 20
209.1930412788571
 30
0.0
 40
6.499999999999998
 50
199.7831703726616
 51
203.5223875269061
  0
ARC
  5
1D2
  8
0
  6
CONTINUOUS
 62
     7
 10
-245.9199705955303
 20
209.1930412788571
 30
0.0
 40
6.50000000000001
 50
156.4776124730938
 51
160.2168296273383
  0
ARC
  5
1D3
  8
0
  6
CONTINUOUS
 62
     7
 10
-209.3699705955308
 20
228.3430412788802
 30
0.0
 40
1.250000000000001
 50
270.0000000000148
 51
359.9999999999993
  0
ARC
  5
1D4
  8
0
  6
CONTINUOUS
 62
     7
 10
-238.2699705955301
 20
244.8430412788798
 30
0.0
 40
1.250000000000001
 50
90.00000000001495
 51
180.0
  0
ARC
  5
1D5
  8
0
  6
CONTINUOUS
 62
     7
 10
-209.3699705955308
 20
244.8430412788798
 30
0.0
 40
1.249999999999973
 50
0.0
 51
89.99999999998529
  0
LINE
  5
1D6
  8
0
  6
CONTINUOUS
 62
     7
 10
-208.1199705955304
 20
228.3430412788802
 30
0.0
 11
-208.1199705955304
 21
244.8430412788798
 31
0.0
  0
ARC
  5
1D7
  8
0
  6
CONTINUOUS
 62
     7
 10
-238.2699705955301
 20
228.3430412788802
 30
0.0
 40
1.250000000000015
 50
180.0000000000006
 51
269.9999999999851
  0
LINE
  5
1D8
  8
0
  6
CONTINUOUS
 62
     7
 10
-239.5199705955305
 20
244.8430412788798
 30
0.0
 11
-239.5199705955305
 21
228.3430412788802
 31
0.0
  0
LINE
  5
1D9
  8
0
  6
CONTINUOUS
 62
     7
 10
-259.8199705955306
 20
109.4430412788571
 30
0.0
 11
-249.3199705955307
 21
109.4430412788571
 31
0.0
  0
LINE
  5
1DA
  8
0
  6
CONTINUOUS
 62
     7
 10
-249.3199705955307
 20
203.9430412788572
 30
0.0
 11
-259.8199705955306
 21
203.9430412788572
 31
0.0
  0
LINE
  5
1DB
  8
0
  6
CONTINUOUS
 62
     7
 10
-237.9199705955303
 20
227.0930412790793
 30
0.0
 11
-237.9199705955303
 21
215.1930412788571
 31
0.0
  0
LINE
  5
1DC
  8
0
  6
CONTINUOUS
 62
     7
 10
-209.7199705955304
 20
215.1930412788571
 30
0.0
 11
-209.7199705955304
 21
227.0930412790793
 31
0.0
  0
ENDBLK
  8
0
  0
BLOCK
  8
0
  2
D_FRAME_VIEW_3604
 70
     0
 10
0.0
 20
0.0
 30
0.0
  0
LINE
  5
1E1
  8
0
  6
CONTINUOUS
 62
     7
 10
-336.8078568421759
 20
63.39004594373587
 30
0.0
 11
-336.8450713107779
 21
63.39004594373587
 31
0.0
  0
LINE
  5
1E2
  8
0
  6
CONTINUOUS
 62
     7
 10
-343.5256741157012
 20
63.39004594373587
 30
0.0
 11
-343.5628885843033
 21
63.39004594373587
 31
0.0
  0
LINE
  5
1E3
  8
0
  6
CONTINUOUS
 62
     7
 10
-343.5184903393541
 20
63.47125024278021
 30
0.0
 11
-343.5256741157012
 21
63.39004594373587
 31
0.0
  0
LINE
  5
1E4
  8
0
  6
CONTINUOUS
 62
     7
 10
-336.8450713107779
 20
63.39004594373587
 30
0.0
 11
-336.8522550871251
 21
63.47125024278021
 31
0.0
  0
ARC
  5
1E5
  8
0
  6
CONTINUOUS
 62
     7
 10
-342.2254739666051
 20
63.35403679500795
 30
0.0
 40
1.298318270893441
 50
112.9119507901852
 51
174.8202280498819
  0
ARC
  5
1E6
  8
0
  6
CONTINUOUS
 62
     7
 10
-338.1449567413494
 20
63.35426657714061
 30
0.0
 40
1.297984108092598
 50
5.17092451344236
 51
67.09689664649025
  0
LINE
  5
1E7
  8
0
  6
CONTINUOUS
 62
     7
 10
-339.6853727132391
 20
64.70641741708508
 30
0.0
 11
-340.6853727132395
 21
64.7064174170851
 31
0.0
  0
LINE
  5
1E8
  8
0
  6
CONTINUOUS
 62
     7
 10
-339.6853727132396
 20
64.99317018116874
 30
0.0
 11
-339.6853727132396
 21
64.70641741708513
 31
0.0
  0
LINE
  5
1E9
  8
0
  6
CONTINUOUS
 62
     7
 10
-339.1853727132395
 20
64.99317018116872
 30
0.0
 11
-339.6853727132395
 21
64.99317018116872
 31
0.0
  0
ARC
  5
1EA
  8
0
  6
CONTINUOUS
 62
     7
 10
-340.1853727132395
 20
58.59004594373587
 30
0.0
 40
6.480740698407867
 50
66.87190898975544
 51
81.12360491902666
  0
ARC
  5
1EB
  8
0
  6
CONTINUOUS
 62
     7
 10
-340.1853727132395
 20
58.59004594373587
 30
0.0
 40
6.480740698407859
 50
98.87639508097337
 51
113.1280910102446
  0
LINE
  5
1EC
  8
0
  6
CONTINUOUS
 62
     7
 10
-340.6853727132396
 20
64.99317018116872
 30
0.0
 11
-341.1853727132396
 21
64.99317018116872
 31
0.0
  0
LINE
  5
1ED
  8
0
  6
CONTINUOUS
 62
     7
 10
-340.6853727132396
 20
64.7064174170851
 30
0.0
 11
-340.6853727132396
 21
64.99317018116874
 31
0.0
  0
LINE
  5
1EE
  8
0
  6
CONTINUOUS
 62
     7
 10
-318.6853727132396
 20
61.99004594373586
 30
0.0
 11
-318.6853727132396
 21
59.49004594373587
 31
0.0
  0
LINE
  5
1EF
  8
0
  6
CONTINUOUS
 62
     7
 10
-317.1853727132395
 20
61.99004594373586
 30
0.0
 11
-317.1853727132395
 21
59.49004594373587
 31
0.0
  0
LINE
  5
1F0
  8
0
  6
CONTINUOUS
 62
     7
 10
-353.9353727132396
 20
61.99004594373587
 30
0.0
 11
-353.9353727132396
 21
59.49004594373589
 31
0.0
  0
LINE
  5
1F1
  8
0
  6
CONTINUOUS
 62
     7
 10
-319.6846557666771
 20
61.99004594373603
 30
0.0
 11
-319.6846557666771
 21
72.49004594373585
 31
0.0
  0
LINE
  5
1F2
  8
0
  6
CONTINUOUS
 62
     7
 10
-316.1860896598022
 20
61.99004594373603
 30
0.0
 11
-316.1860896598022
 21
72.49004594373585
 31
0.0
  0
LINE
  5
1F3
  8
0
  6
CONTINUOUS
 62
     7
 10
-289.9353727132396
 20
61.99004594373603
 30
0.0
 11
-289.9353727132396
 21
72.49004594373585
 31
0.0
  0
LINE
  5
1F4
  8
0
  6
CONTINUOUS
 62
     7
 10
-345.9353727132395
 20
61.99004594373603
 30
0.0
 11
-345.9353727132395
 21
72.49004594373585
 31
0.0
  0
ARC
  5
1F5
  8
0
  6
CONTINUOUS
 62
     7
 10
-351.4705564717275
 20
62.99004594373587
 30
0.0
 40
1.000000000000006
 50
270.0
 51
326.3099324740203
  0
LINE
  5
1F6
  8
0
  6
CONTINUOUS
 62
     7
 10
-346.1033224189017
 20
69.23812138524262
 30
0.0
 11
-350.6385061773897
 21
62.43534574751064
 31
0.0
  0
ARC
  5
1F7
  8
0
  6
CONTINUOUS
 62
     7
 10
-346.9353727132395
 20
69.79282158146785
 30
0.0
 40
1.000000000000001
 50
326.3099324740205
 51
0.0
  0
LINE
  5
1F8
  8
0
  6
CONTINUOUS
 62
     7
 10
-285.2322392490895
 20
62.43534574751065
 30
0.0
 11
-289.7674230075775
 21
69.23812138524264
 31
0.0
  0
ARC
  5
1F9
  8
0
  6
CONTINUOUS
 62
     7
 10
-284.4001889547517
 20
62.99004594373587
 30
0.0
 40
1.000000000000001
 50
213.6900675259794
 51
270.0
  0
ARC
  5
1FA
  8
0
  6
CONTINUOUS
 62
     7
 10
-288.9353727132396
 20
69.79282158146788
 30
0.0
 40
1.000000000000006
 50
180.0
 51
213.6900675259797
  0
LINE
  5
1FB
  8
0
  6
CONTINUOUS
 62
     7
 10
-354.2353727132396
 20
61.99004594373587
 30
0.0
 11
-354.2353727132396
 21
59.49004594373589
 31
0.0
  0
LINE
  5
1FC
  8
0
  6
CONTINUOUS
 62
     7
 10
-281.6353727132396
 20
61.99004594373587
 30
0.0
 11
-281.6353727132396
 21
59.49004594373589
 31
0.0
  0
ARC
  5
1FD
  8
0
  6
CONTINUOUS
 62
     7
 10
-348.8448760230277
 20
17.20782308076124
 30
0.0
 40
2.718666056950802
 50
220.0348176336354
 51
268.5347799514757
  0
LINE
  5
1FE
  8
0
  6
CONTINUOUS
 62
     7
 10
-350.9264327241818
 20
15.4590329764043
 30
0.0
 11
-350.9562842248035
 21
15.49004594373593
 31
0.0
  0
ARC
  5
1FF
  8
0
  6
CONTINUOUS
 62
     7
 10
-348.8038738354393
 20
17.76543550828163
 30
0.0
 40
3.132134759981807
 50
185.0441829050695
 51
226.5909428556417
  0
LINE
  5
200
  8
0
  6
CONTINUOUS
 62
     7
 10
-351.9353727132396
 20
18.59004594373592
 30
0.0
 11
-351.8724325505643
 21
18.59004594373592
 31
0.0
  0
LINE
  5
201
  8
0
  6
CONTINUOUS
 62
     7
 10
-351.8724325505643
 20
18.59004594373592
 30
0.0
 11
-351.8724325505643
 21
20.79004594373593
 31
0.0
  0
LINE
  5
202
  8
0
  6
CONTINUOUS
 62
     7
 10
-351.9353727132396
 20
20.79004594373593
 30
0.0
 11
-351.8724325505643
 21
20.79004594373593
 31
0.0
  0
LINE
  5
203
  8
0
  6
CONTINUOUS
 62
     7
 10
-284.914461201679
 20
15.49004594373238
 30
0.0
 11
-284.944312702308
 21
15.45903297639327
 31
0.0
  0
ARC
  5
204
  8
0
  6
CONTINUOUS
 62
     7
 10
-287.0523769393065
 20
17.26286429634885
 30
0.0
 40
2.774480538436863
 50
271.9833906443787
 51
319.4470117702381
  0
ARC
  5
205
  8
0
  6
CONTINUOUS
 62
     7
 10
-287.0930507064001
 20
17.77810088859295
 30
0.0
 40
3.159342915984522
 50
313.5961155868886
 51
354.7687586523214
  0
LINE
  5
206
  8
0
  6
CONTINUOUS
 62
     7
 10
-306.4353727132396
 20
23.29004594373593
 30
0.0
 11
-297.4353727132396
 21
23.29004594373593
 31
0.0
  0
CIRCLE
  5
207
  8
0
  6
CONTINUOUS
 62
     7
 10
-323.4353727132396
 20
38.99004594373592
 30
0.0
 40
13.54999999999999
  0
ARC
  5
208
  8
0
  6
CONTINUOUS
 62
     7
 10
-340.9853727132396
 20
10.90763335293683
 30
0.0
 40
3.878618306912383
 50
67.46283727193372
 51
112.5371627280663
  0
LINE
  5
209
  8
0
  6
CONTINUOUS
 62
     7
 10
-283.9353727132396
 20
59.49004594373593
 30
0.0
 11
-283.9353727132396
 21
15.49004594373593
 31
0.0
  0
ARC
  5
20A
  8
0
  6
CONTINUOUS
 62
     7
 10
-350.9353727132396
 20
15.49004594373593
 30
0.0
 40
1.000000000000001
 50
180.0
 51
270.0
  0
ARC
  5
20B
  8
0
  6
CONTINUOUS
 62
     7
 10
-284.9353727132396
 20
15.49004594373593
 30
0.0
 40
1.000000000000001
 50
270.0
 51
0.0
  0
LINE
  5
20C
  8
0
  6
CONTINUOUS
 62
     7
 10
-283.9353727132396
 20
26.09004594373593
 30
0.0
 11
-281.9353727132396
 21
26.09004594373593
 31
0.0
  0
LINE
  5
20D
  8
0
  6
CONTINUOUS
 62
     7
 10
-351.9353727132395
 20
26.09004594373593
 30
0.0
 11
-353.9353727132396
 21
26.09004594373593
 31
0.0
  0
LINE
  5
20E
  8
0
  6
CONTINUOUS
 62
     7
 10
-351.9353727132395
 20
50.49004594373594
 30
0.0
 11
-353.9353727132396
 21
50.49004594373594
 31
0.0
  0
LINE
  5
20F
  8
0
  6
CONTINUOUS
 62
     7
 10
-283.9353727132396
 20
36.09004594373592
 30
0.0
 11
-281.9353727132396
 21
36.09004594373592
 31
0.0
  0
LINE
  5
210
  8
0
  6
CONTINUOUS
 62
     7
 10
-351.9353727132395
 20
36.09004594373592
 30
0.0
 11
-353.9353727132396
 21
36.09004594373592
 31
0.0
  0
LINE
  5
211
  8
0
  6
CONTINUOUS
 62
     7
 10
-351.9353727132395
 20
53.49004594373595
 30
0.0
 11
-353.9353727132396
 21
53.49004594373595
 31
0.0
  0
LINE
  5
212
  8
0
  6
CONTINUOUS
 62
     7
 10
-283.9353727132396
 20
53.49004594373594
 30
0.0
 11
-281.9353727132396
 21
53.49004594373594
 31
0.0
  0
LINE
  5
213
  8
0
  6
CONTINUOUS
 62
     7
 10
-351.9353727132395
 20
39.49004594373592
 30
0.0
 11
-353.9353727132396
 21
39.49004594373592
 31
0.0
  0
LINE
  5
214
  8
0
  6
CONTINUOUS
 62
     7
 10
-283.9353727132396
 20
39.49004594373594
 30
0.0
 11
-281.9353727132396
 21
39.49004594373592
 31
0.0
  0
LINE
  5
215
  8
0
  6
CONTINUOUS
 62
     7
 10
-336.6853727132396
 20
61.99004594373587
 30
0.0
 11
-336.8078568421759
 21
63.39004594373587
 31
0.0
  0
LINE
  5
216
  8
0
  6
CONTINUOUS
 62
     7
 10
-343.5628885843033
 20
63.39004594373587
 30
0.0
 11
-343.6853727132396
 21
61.99004594373587
 31
0.0
  0
ENDBLK
  8
0
  0
ENDSEC
  0
SECTION
  2
ENTITIES
  0
CIRCLE
  5
6F
  8
0
  6
CONTINUOUS
 62
     7
 10
-340.1853727132395
 20
104.1930412788571
 30
0.0
 40
3.5
  0
LINE
  5
70
  8
0
  6
CONTINUOUS
 62
     7
 10
-349.885372716181
 20
246.0930412779611
 30
0.0
 11
-320.9853727161829
 21
246.0930412797897
 31
0.0
  0
LINE
  5
71
  8
0
  6
CONTINUOUS
 62
     7
 10
-341.1853727132395
 20
103.6930412788571
 30
0.0
 11
-343.5184903393541
 21
103.6930412788571
 31
0.0
  0
LINE
  5
72
  8
0
  6
CONTINUOUS
 62
     7
 10
-299.0184903393541
 20
209.6930412788571
 30
0.0
 11
-296.6853727132396
 21
209.6930412788571
 31
0.0
  0
ARC
  5
73
  8
0
  6
CONTINUOUS
 62
     7
 10
-298.9353727132396
 20
156.6930412788571
 30
0.0
 40
5.000000000000008
 50
25.84193276316688
 51
334.1580672368331
  0
LINE
  5
74
  8
0
  6
CONTINUOUS
 62
     7
 10
-292.352255087125
 20
208.6930412788571
 30
0.0
 11
-294.6853727132396
 21
208.6930412788571
 31
0.0
  0
LINE
  5
75
  8
0
  6
CONTINUOUS
 62
     7
 10
-296.6853727132396
 20
208.6930412788571
 30
0.0
 11
-299.0184903393541
 21
208.6930412788571
 31
0.0
  0
LINE
  5
76
  8
0
  6
CONTINUOUS
 62
     7
 10
-336.8522550871251
 20
103.6930412788571
 30
0.0
 11
-339.1853727132396
 21
103.6930412788571
 31
0.0
  0
CIRCLE
  5
77
  8
0
  6
CONTINUOUS
 62
     7
 10
-295.6853727132396
 20
209.1930412788571
 30
0.0
 40
3.499999999999998
  0
LINE
  5
78
  8
0
  6
CONTINUOUS
 62
     7
 10
-294.6853727132396
 20
209.6930412788571
 30
0.0
 11
-292.352255087125
 21
209.6930412788571
 31
0.0
  0
LINE
  5
79
  8
0
  6
CONTINUOUS
 62
     7
 10
-343.5184903393541
 20
104.6930412788571
 30
0.0
 11
-341.1853727132395
 21
104.6930412788571
 31
0.0
  0
LINE
  5
7A
  8
0
  6
CONTINUOUS
 62
     7
 10
-339.1853727132395
 20
104.6930412788571
 30
0.0
 11
-336.8522550871251
 21
104.6930412788571
 31
0.0
  0
ARC
  5
7B
  8
0
  6
CONTINUOUS
 62
     7
 10
-336.9353727132396
 20
156.6930412788571
 30
0.0
 40
4.999999999999998
 50
161.3370751150576
 51
198.6629248849424
  0
LINE
  5
7C
  8
0
  6
CONTINUOUS
 62
     7
 10
-283.2353727132396
 20
221.5356819659764
 30
0.0
 11
-283.2353727132396
 21
242.1004005928439
 31
0.0
  0
LINE
  5
7D
  8
0
  6
CONTINUOUS
 62
     7
 10
-250.7199705955303
 20
103.6930412788571
 30
0.0
 11
-252.3230948329632
 21
103.6930412788571
 31
0.0
  0
LINE
  5
7E
  8
0
  6
CONTINUOUS
 62
     7
 10
-246.8199705955304
 20
215.1930412788571
 30
0.0
 11
-204.8199705955304
 21
215.1930412788571
 31
0.0
  0
LINE
  5
7F
  8
0
  6
CONTINUOUS
 62
     7
 10
-238.2699705955298
 20
227.0930412788802
 30
0.0
 11
-209.3699705955314
 21
227.0930412788802
 31
0.0
  0
LINE
  5
80
  8
0
  6
CONTINUOUS
 62
     7
 10
-318.2353727149805
 20
227.0930412799634
 30
0.0
 11
-352.6353727132396
 21
227.0930412777876
 31
0.0
  0
LINE
  5
81
  8
0
  6
CONTINUOUS
 62
     7
 10
-225.5699705955304
 20
218.2797889395796
 30
0.0
 11
-225.5699705955304
 21
227.0930412788571
 31
0.0
  0
LINE
  5
82
  8
0
  6
CONTINUOUS
 62
     7
 10
-352.6353727132396
 20
242.1004005906679
 30
0.0
 11
-352.6353727132396
 21
221.5356819659764
 31
0.0
  0
LINE
  5
83
  8
0
  6
CONTINUOUS
 62
     7
 10
-283.2353727132396
 20
227.0930412799634
 30
0.0
 11
-317.6353727149708
 21
227.0930412777969
 31
0.0
  0
LINE
  5
84
  8
0
  6
CONTINUOUS
 62
     7
 10
-250.7199705955303
 20
208.6930412788571
 30
0.0
 11
-252.3230948329632
 21
208.6930412788571
 31
0.0
  0
LINE
  5
85
  8
0
  6
CONTINUOUS
 62
     7
 10
-222.8199705955304
 20
227.0930412799617
 30
0.0
 11
-222.8199705955304
 21
244.3816675759134
 31
0.0
  0
LINE
  5
86
  8
0
  6
CONTINUOUS
 62
     7
 10
-205.9199705955303
 20
211.4430412788572
 30
0.0
 11
-205.9199705955303
 21
210.1139627052919
 31
0.0
  0
LINE
  5
87
  8
0
  6
CONTINUOUS
 62
     7
 10
-208.1199705955304
 20
211.4430412788572
 30
0.0
 11
-208.1199705955304
 21
210.1139627052911
 31
0.0
  0
LINE
  5
88
  8
0
  6
CONTINUOUS
 62
     7
 10
-252.3230948329632
 20
209.6930412788571
 30
0.0
 11
-250.7199705955303
 21
209.6930412788571
 31
0.0
  0
LINE
  5
89
  8
0
  6
CONTINUOUS
 62
     7
 10
-252.3230948329632
 20
104.6930412788571
 30
0.0
 11
-250.7199705955303
 21
104.6930412788571
 31
0.0
  0
LINE
  5
8A
  8
0
  6
CONTINUOUS
 62
     7
 10
-201.8199705955304
 20
101.1930412788571
 30
0.0
 11
-201.8199705955304
 21
212.1930412788571
 31
0.0
  0
LINE
  5
8B
  8
0
  6
CONTINUOUS
 62
     7
 10
-222.0699705955304
 20
227.0930412788571
 30
0.0
 11
-222.0699705955304
 21
218.2797889395683
 31
0.0
  0
LINE
  5
8C
  8
0
  6
CONTINUOUS
 62
     7
 10
-350.9353727132396
 20
14.49004594373593
 30
0.0
 11
-284.9353727132396
 21
14.49004594373593
 31
0.0
  0
LINE
  5
8D
  8
0
  6
CONTINUOUS
 62
     7
 10
-353.9353727132396
 20
26.09004594373593
 30
0.0
 11
-353.9353727132396
 21
36.09004594373592
 31
0.0
  0
LINE
  5
8E
  8
0
  6
CONTINUOUS
 62
     9
 10
-297.4353727132396
 20
23.29004594373593
 30
0.0
 11
-297.4353727132396
 21
14.49004594373593
 31
0.0
  0
LINE
  5
8F
  8
0
  6
CONTINUOUS
 62
     9
 10
-306.4353727132396
 20
14.49004594373593
 30
0.0
 11
-306.4353727132396
 21
23.29004594373593
 31
0.0
  0
LINE
  5
90
  8
0
  6
CONTINUOUS
 62
     7
 10
-249.3199705955303
 20
130.6930412788571
 30
0.0
 11
-257.1227462332629
 21
130.6930412788571
 31
0.0
  0
LINE
  5
91
  8
0
  6
CONTINUOUS
 62
     7
 10
-281.9353727132396
 20
26.09004594373593
 30
0.0
 11
-281.9353727132396
 21
36.09004594373592
 31
0.0
  0
LINE
  5
92
  8
0
  6
CONTINUOUS
 62
     7
 10
-249.3199705955303
 20
184.6930412788571
 30
0.0
 11
-257.122746233263
 21
184.6930412788571
 31
0.0
  0
LINE
  5
93
  8
0
  6
CONTINUOUS
 62
     7
 10
-351.9353727132396
 20
59.49004594373593
 30
0.0
 11
-351.9353727132396
 21
15.49004594373592
 31
0.0
  0
LINE
  5
94
  8
0
  6
CONTINUOUS
 62
     7
 10
-259.8199705955303
 20
203.9430412788572
 30
0.0
 11
-259.8199705955303
 21
109.4430412788571
 31
0.0
  0
LINE
  5
95
  8
0
  6
CONTINUOUS
 62
     7
 10
-257.1227462332623
 20
155.6930412788571
 30
0.0
 11
-249.3199705955303
 21
155.6930412788571
 31
0.0
  0
LINE
  5
96
  8
0
  6
CONTINUOUS
 62
     7
 10
-281.6353727132396
 20
61.99004594373587
 30
0.0
 11
-354.2353727132396
 21
61.99004594373587
 31
0.0
  0
LINE
  5
97
  8
0
  6
CONTINUOUS
 62
     7
 10
-226.3199705955304
 20
244.4281413422471
 30
0.0
 11
-226.3199705955304
 21
227.093041279952
 31
0.0
  0
LINE
  5
98
  8
0
  6
CONTINUOUS
 62
     7
 10
-353.9353727132396
 20
53.49004594373595
 30
0.0
 11
-353.9353727132396
 21
39.49004594373592
 31
0.0
  0
LINE
  5
99
  8
0
  6
CONTINUOUS
 62
     7
 10
-281.9353727132396
 20
53.49004594373594
 30
0.0
 11
-281.9353727132396
 21
39.49004594373592
 31
0.0
  0
LINE
  5
9A
  8
0
  6
CONTINUOUS
 62
     7
 10
-249.3199705955303
 20
216.4930412788571
 30
0.0
 11
-249.3199705955303
 21
96.89304127885718
 31
0.0
  0
LINE
  5
9B
  8
0
  6
CONTINUOUS
 62
     7
 10
-257.1227462332623
 20
128.6930412788571
 30
0.0
 11
-249.3199705955303
 21
128.6930412788571
 31
0.0
  0
LINE
  5
9C
  8
0
  6
CONTINUOUS
 62
     7
 10
-246.8199705955304
 20
216.4930412788571
 30
0.0
 11
-246.8199705955304
 21
96.89304127885718
 31
0.0
  0
LINE
  5
9D
  8
0
  6
CONTINUOUS
 62
     7
 10
-257.1227462332623
 20
182.6930412788571
 30
0.0
 11
-249.3199705955303
 21
182.6930412788571
 31
0.0
  0
LINE
  5
9E
  8
0
  6
CONTINUOUS
 62
     7
 10
-249.3199705955303
 20
157.6930412788571
 30
0.0
 11
-257.122746233263
 21
157.6930412788571
 31
0.0
  0
LINE
  5
9F
  8
0
  6
CONTINUOUS
 62
     7
 10
-289.9353727132396
 20
155.6930412788571
 30
0.0
 11
-284.4001889547517
 21
155.6930412788571
 31
0.0
  0
LINE
  5
A0
  8
0
  6
CONTINUOUS
 62
     7
 10
-351.4705564717275
 20
155.6930412788571
 30
0.0
 11
-345.9353727132395
 21
155.6930412788571
 31
0.0
  0
LINE
  5
A1
  8
0
  6
CONTINUOUS
 62
     7
 10
-351.4705564717275
 20
128.6930412788571
 30
0.0
 11
-345.9353727132395
 21
128.693041278857
 31
0.0
  0
LINE
  5
A2
  8
0
  6
CONTINUOUS
 62
     7
 10
-345.9353727132395
 20
184.6930412788571
 30
0.0
 11
-351.4705564717275
 21
184.6930412788571
 31
0.0
  0
LINE
  5
A3
  8
0
  6
CONTINUOUS
 62
     7
 10
-345.9353727132395
 20
157.6930412788571
 30
0.0
 11
-351.4705564717275
 21
157.6930412788571
 31
0.0
  0
LINE
  5
A4
  8
0
  6
CONTINUOUS
 62
     7
 10
-314.8853727161677
 20
246.0930412779697
 30
0.0
 11
-285.9853727161693
 21
246.0930412797899
 31
0.0
  0
LINE
  5
A5
  8
0
  6
CONTINUOUS
 62
     7
 10
-326.9353727132396
 20
158.1072548412302
 30
0.0
 11
-326.9353727132396
 21
155.278827716484
 31
0.0
  0
LINE
  5
A6
  8
0
  6
CONTINUOUS
 62
     7
 10
-345.9353727132395
 20
130.6930412788571
 30
0.0
 11
-351.4705564717275
 21
130.6930412788571
 31
0.0
  0
LINE
  5
A7
  8
0
  6
CONTINUOUS
 62
     7
 10
-308.9353727132395
 20
155.278827716484
 30
0.0
 11
-308.9353727132395
 21
158.1072548412302
 31
0.0
  0
LINE
  5
A8
  8
0
  6
CONTINUOUS
 62
     7
 10
-284.4001889547517
 20
130.6930412788571
 30
0.0
 11
-289.9353727132396
 21
130.6930412788571
 31
0.0
  0
LINE
  5
A9
  8
0
  6
CONTINUOUS
 62
     7
 10
-284.4001889547517
 20
157.6930412788571
 30
0.0
 11
-289.9353727132396
 21
157.6930412788571
 31
0.0
  0
LINE
  5
AA
  8
0
  6
CONTINUOUS
 62
     7
 10
-289.9353727132396
 20
182.6930412788571
 30
0.0
 11
-284.4001889547517
 21
182.6930412788571
 31
0.0
  0
LINE
  5
AB
  8
0
  6
CONTINUOUS
 62
     7
 10
-289.9353727132396
 20
128.6930412788571
 30
0.0
 11
-284.4001889547517
 21
128.6930412788571
 31
0.0
  0
LINE
  5
AC
  8
0
  6
CONTINUOUS
 62
     7
 10
-351.4705564717275
 20
182.6930412788571
 30
0.0
 11
-345.9353727132395
 21
182.6930412788571
 31
0.0
  0
LINE
  5
AD
  8
0
  6
CONTINUOUS
 62
     7
 10
-284.4001889547517
 20
184.6930412788571
 30
0.0
 11
-289.9353727132396
 21
184.6930412788571
 31
0.0
  0
LINE
  5
AE
  8
0
  6
CONTINUOUS
 62
     7
 10
-281.6353727132396
 20
59.49004594373589
 30
0.0
 11
-354.2353727132396
 21
59.49004594373589
 31
0.0
  0
LINE
  5
AF
  8
0
  6
CONTINUOUS
 62
     7
 10
-345.9353727132395
 20
72.49004594373586
 30
0.0
 11
-289.9353727132396
 21
72.49004594373586
 31
0.0
  0
POINT
  5
B0
  8
0
 62
     9
 10
-317.9353727132396
 20
96.89304127885715
 30
0.0
  0
INSERT
  5
174
  8
0
  6
CONTINUOUS
 62
     7
  2
D_FRAME_VIEW_2945
 10
0.0
 20
0.0
 30
0.0
  0
TEXT
  5
175
  8
0
  6
CONTINUOUS
 62
     7
 10
-303.8641512745534
 20
-6.980730832792472
 30
0.0
 40
6.0
  1
CDO-M16SWG
  0
INSERT
  5
1DD
  8
0
  6
CONTINUOUS
 62
     7
  2
D_FRAME_VIEW_3990
 10
0.0
 20
0.0
 30
0.0
  0
INSERT
  5
217
  8
0
  6
CONTINUOUS
 62
     7
  2
D_FRAME_VIEW_3604
 10
0.0
 20
0.0
 30
0.0
  0
ENDSEC
  0
EOF
