  0
SECTION
  2
HEADER
  9
$ACADVER
  1
AC1006
  9
$DWGCODEPAGE
  3
ansi_932
  9
$INSBASE
 10
0.0
 20
0.0
 30
0.0
  9
$EXTMIN
 10
-518.7990196597566
 20
22.34090909090909
  9
$EXTMAX
 10
-348.0808513700215
 20
265.4458307496645
  9
$LIMMIN
 10
0.0
 20
0.0
  9
$LIMMAX
 10
12.0
 20
9.0
  9
$ORTHOMODE
 70
     0
  9
$REGENMODE
 70
     1
  9
$FILLMODE
 70
     1
  9
$QTEXTMODE
 70
     0
  9
$MIRRTEXT
 70
     1
  9
$DRAGMODE
 70
     2
  9
$LTSCALE
 40
1.0
  9
$OSMODE
 70
    37
  9
$ATTMODE
 70
     1
  9
$TEXTSIZE
 40
0.2
  9
$TRACEWID
 40
0.05
  9
$TEXTSTYLE
  7
STANDARD
  9
$CLAYER
  8
0
  9
$CELTYPE
  6
BYLAYER
  9
$CECOLOR
 62
   256
  9
$DIMSCALE
 40
1.0
  9
$DIMASZ
 40
3.0
  9
$DIMEXO
 40
0.0625
  9
$DIMDLI
 40
0.38
  9
$DIMRND
 40
0.0
  9
$DIMDLE
 40
0.0
  9
$DIMEXE
 40
1.5
  9
$DIMTP
 40
0.0
  9
$DIMTM
 40
0.0
  9
$DIMTXT
 40
3.0
  9
$DIMCEN
 40
0.09
  9
$DIMTSZ
 40
0.0
  9
$DIMTOL
 70
     0
  9
$DIMLIM
 70
     0
  9
$DIMTIH
 70
     1
  9
$DIMTOH
 70
     1
  9
$DIMSE1
 70
     0
  9
$DIMSE2
 70
     0
  9
$DIMTAD
 70
     1
  9
$DIMZIN
 70
     0
  9
$DIMBLK
  1

  9
$DIMASO
 70
     1
  9
$DIMSHO
 70
     1
  9
$DIMPOST
  1

  9
$DIMAPOST
  1

  9
$DIMALT
 70
     0
  9
$DIMALTD
 70
     2
  9
$DIMALTF
 40
25.4
  9
$DIMLFAC
 40
1.0
  9
$DIMTOFL
 70
     0
  9
$DIMTVP
 40
0.0
  9
$DIMTIX
 70
     0
  9
$DIMSOXD
 70
     0
  9
$DIMSAH
 70
     0
  9
$DIMBLK1
  1

  9
$DIMBLK2
  1

  9
$LUNITS
 70
     2
  9
$LUPREC
 70
     4
  9
$SKETCHINC
 40
0.1
  9
$FILLETRAD
 40
0.5
  9
$AUNITS
 70
     0
  9
$AUPREC
 70
     0
  9
$MENU
  1
.
  9
$ELEVATION
 40
0.0
  9
$THICKNESS
 40
0.0
  9
$LIMCHECK
 70
     0
  9
$CHAMFERA
 40
0.0
  9
$CHAMFERB
 40
0.0
  9
$SKPOLY
 70
     0
  9
$TDCREATE
 40
2459395.625173044
  9
$TDUPDATE
 40
2459395.625173218
  9
$TDINDWG
 40
0.0000000116
  9
$TDUSRTIMER
 40
0.0000000116
  9
$USRTIMER
 70
     1
  9
$ANGBASE
 50
0.0
  9
$ANGDIR
 70
     0
  9
$PDMODE
 70
     0
  9
$PDSIZE
 40
0.0
  9
$PLINEWID
 40
0.0
  9
$COORDS
 70
     1
  9
$SPLFRAME
 70
     0
  9
$SPLINETYPE
 70
     6
  9
$SPLINESEGS
 70
     8
  9
$ATTDIA
 70
     0
  9
$ATTREQ
 70
     1
  9
$HANDLING
 70
     1
  9
$HANDSEED
  5
284
  9
$SURFTAB1
 70
     6
  9
$SURFTAB2
 70
     6
  9
$SURFTYPE
 70
     6
  9
$SURFU
 70
     6
  9
$SURFV
 70
     6
  9
$UCSNAME
  2

  9
$UCSORG
 10
0.0
 20
0.0
 30
0.0
  9
$UCSXDIR
 10
1.0
 20
0.0
 30
0.0
  9
$UCSYDIR
 10
0.0
 20
1.0
 30
0.0
  9
$USERI1
 70
     0
  9
$USERI2
 70
     0
  9
$USERI3
 70
     0
  9
$USERI4
 70
     0
  9
$USERI5
 70
     0
  9
$USERR1
 40
0.0
  9
$USERR2
 40
0.0
  9
$USERR3
 40
0.0
  9
$USERR4
 40
0.0
  9
$USERR5
 40
0.0
  9
$WORLDVIEW
 70
     1
  0
ENDSEC
  0
SECTION
  2
TABLES
  0
TABLE
  2
VPORT
 70
     1
  0
VPORT
  2
*ACTIVE
 70
     0
 10
0.0
 20
0.0
 11
1.0
 21
1.0
 12
-433.439935514889
 22
143.8933699202868
 13
0.0
 23
0.0
 14
0.5
 24
0.5
 15
0.5
 25
0.5
 16
0.0
 26
0.0
 36
1.0
 17
0.0
 27
0.0
 37
0.0
 40
243.1049216587554
 41
1.6
 42
50.0
 43
0.0
 44
0.0
 50
0.0
 51
0.0
 71
     0
 72
   100
 73
     1
 74
     3
 75
     0
 76
     0
 77
     0
 78
     0
  0
ENDTAB
  0
TABLE
  2
LTYPE
 70
     1
  0
LTYPE
  2
CONTINUOUS
 70
     0
  3
Solid line
 72
    65
 73
     0
 40
0.0
  0
ENDTAB
  0
TABLE
  2
LAYER
 70
     1
  0
LAYER
  2
0
 70
     0
 62
     7
  6
CONTINUOUS
  0
ENDTAB
  0
TABLE
  2
STYLE
 70
     2
  0
STYLE
  2
STANDARD
 70
     0
 40
0.0
 41
1.0
 50
0.0
 71
     0
 42
0.2
  3
txt
  4

  0
STYLE
  2
ＭＳ_ゴシック
 70
     0
 40
0.0
 41
1.0
 50
0.0
 71
     0
 42
0.2
  3
ＭＳ ゴシック.shx
  4

  0
ENDTAB
  0
TABLE
  2
VIEW
 70
     0
  0
ENDTAB
  0
TABLE
  2
UCS
 70
     0
  0
ENDTAB
  0
ENDSEC
  0
SECTION
  2
BLOCKS
  0
BLOCK
  8
0
  2
D_FRAME_VIEW_2053
 70
     0
 10
0.0
 20
0.0
 30
0.0
  0
LINE
  5
75
  8
0
  6
CONTINUOUS
 62
     7
 10
-516.7990196597566
 20
49.15037498432341
 30
0.0
 11
-516.7360794970813
 21
49.15037498432341
 31
0.0
  0
LINE
  5
76
  8
0
  6
CONTINUOUS
 62
     7
 10
-516.7360794970813
 20
49.15037498432341
 30
0.0
 11
-516.7360794970813
 21
51.35037498432342
 31
0.0
  0
LINE
  5
77
  8
0
  6
CONTINUOUS
 62
     7
 10
-516.7990196597566
 20
51.35037498432342
 30
0.0
 11
-516.7360794970813
 21
51.35037498432342
 31
0.0
  0
ARC
  5
78
  8
0
  6
CONTINUOUS
 62
     7
 10
-513.7085229695447
 20
47.76815212134871
 30
0.0
 40
2.718666056950788
 50
220.0348176336352
 51
268.5347799514758
  0
LINE
  5
79
  8
0
  6
CONTINUOUS
 62
     7
 10
-515.7900796706988
 20
46.01936201699179
 30
0.0
 11
-515.8199311713204
 21
46.05037498432342
 31
0.0
  0
ARC
  5
7A
  8
0
  6
CONTINUOUS
 62
     7
 10
-513.6675207819563
 20
48.32576454886912
 30
0.0
 40
3.132134759981779
 50
185.0441829050694
 51
226.590942855642
  0
LINE
  5
7B
  8
0
  6
CONTINUOUS
 62
     7
 10
-449.7781081481961
 20
46.05037498431987
 30
0.0
 11
-449.807959648825
 21
46.01936201698076
 31
0.0
  0
ARC
  5
7C
  8
0
  6
CONTINUOUS
 62
     7
 10
-451.9160238858236
 20
47.82319333693639
 30
0.0
 40
2.774480538436924
 50
271.9833906443791
 51
319.4470117702374
  0
ARC
  5
7D
  8
0
  6
CONTINUOUS
 62
     7
 10
-451.9566976529171
 20
48.33842992918044
 30
0.0
 40
3.159342915984522
 50
313.5961155868886
 51
354.7687586523214
  0
LINE
  5
7E
  8
0
  6
CONTINUOUS
 62
     7
 10
-448.7990196597566
 20
90.0503749843234
 30
0.0
 11
-448.7990196597566
 21
46.0503749843234
 31
0.0
  0
ARC
  5
7F
  8
0
  6
CONTINUOUS
 62
     7
 10
-505.8490196597566
 20
41.46796239352431
 30
0.0
 40
3.87861830691239
 50
67.46283727193372
 51
112.5371627280663
  0
LINE
  5
80
  8
0
  6
CONTINUOUS
 62
     7
 10
-471.2990196597566
 20
53.85037498432342
 30
0.0
 11
-462.2990196597566
 21
53.85037498432342
 31
0.0
  0
CIRCLE
  5
81
  8
0
  6
CONTINUOUS
 62
     7
 10
-488.2990196597566
 20
69.55037498432341
 30
0.0
 40
13.54999999999999
  0
ARC
  5
82
  8
0
  6
CONTINUOUS
 62
     7
 10
-449.7990196597566
 20
46.05037498432342
 30
0.0
 40
1.000000000000001
 50
270.0
 51
0.0
  0
ARC
  5
83
  8
0
  6
CONTINUOUS
 62
     7
 10
-515.7990196597566
 20
46.05037498432342
 30
0.0
 40
1.000000000000001
 50
180.0
 51
270.0
  0
LINE
  5
84
  8
0
  6
CONTINUOUS
 62
     7
 10
-516.7990196597565
 20
81.05037498432343
 30
0.0
 11
-518.7990196597565
 21
81.05037498432343
 31
0.0
  0
LINE
  5
85
  8
0
  6
CONTINUOUS
 62
     7
 10
-516.7990196597565
 20
56.65037498432341
 30
0.0
 11
-518.7990196597565
 21
56.65037498432341
 31
0.0
  0
LINE
  5
86
  8
0
  6
CONTINUOUS
 62
     7
 10
-448.7990196597566
 20
56.65037498432341
 30
0.0
 11
-446.7990196597566
 21
56.65037498432341
 31
0.0
  0
LINE
  5
87
  8
0
  6
CONTINUOUS
 62
     7
 10
-448.7990196597567
 20
66.65037498432342
 30
0.0
 11
-446.7990196597566
 21
66.65037498432342
 31
0.0
  0
LINE
  5
88
  8
0
  6
CONTINUOUS
 62
     7
 10
-516.7990196597565
 20
66.65037498432342
 30
0.0
 11
-518.7990196597565
 21
66.65037498432342
 31
0.0
  0
LINE
  5
89
  8
0
  6
CONTINUOUS
 62
     7
 10
-516.7990196597565
 20
84.05037498432345
 30
0.0
 11
-518.7990196597565
 21
84.05037498432345
 31
0.0
  0
LINE
  5
8A
  8
0
  6
CONTINUOUS
 62
     7
 10
-448.7990196597567
 20
84.05037498432343
 30
0.0
 11
-446.7990196597566
 21
84.05037498432343
 31
0.0
  0
LINE
  5
8B
  8
0
  6
CONTINUOUS
 62
     7
 10
-448.7990196597566
 20
70.05037498432344
 30
0.0
 11
-446.7990196597566
 21
70.05037498432343
 31
0.0
  0
LINE
  5
8C
  8
0
  6
CONTINUOUS
 62
     7
 10
-516.7990196597565
 20
70.05037498432341
 30
0.0
 11
-518.7990196597565
 21
70.05037498432341
 31
0.0
  0
ENDBLK
  8
0
  0
BLOCK
  8
0
  2
D_FRAME_VIEW_1401
 70
     0
 10
0.0
 20
0.0
 30
0.0
  0
CIRCLE
  5
AB
  8
0
  6
CONTINUOUS
 62
    15
 10
-482.7990196597566
 20
176.0458307487317
 30
0.0
 40
4.762500000000003
  0
CIRCLE
  5
AC
  8
0
  6
CONTINUOUS
 62
     7
 10
-482.7990196597566
 20
134.2958307487317
 30
0.0
 40
1.649999999999999
  0
CIRCLE
  5
AD
  8
0
  6
CONTINUOUS
 62
     7
 10
-482.7990196597566
 20
217.7958307487317
 30
0.0
 40
1.649999999999999
  0
ARC
  5
AE
  8
0
  6
CONTINUOUS
 62
     7
 10
-505.0490196597565
 20
123.5458307487317
 30
0.0
 40
2.250000000000012
 50
77.16041159309587
 51
102.8395884069042
  0
LINE
  5
AF
  8
0
  6
CONTINUOUS
 62
     7
 10
-505.5490196597566
 20
125.7395718455798
 30
0.0
 11
-505.5490196597566
 21
124.8458307487317
 31
0.0
  0
LINE
  5
B0
  8
0
  6
CONTINUOUS
 62
     7
 10
-507.7990196597566
 20
124.0458307487317
 30
0.0
 11
-507.7990196597566
 21
123.0458307487317
 31
0.0
  0
LINE
  5
B1
  8
0
  6
CONTINUOUS
 62
     7
 10
-507.7990196597566
 20
123.0458307487317
 30
0.0
 11
-506.3490196597567
 21
123.0458307487317
 31
0.0
  0
ARC
  5
B2
  8
0
  6
CONTINUOUS
 62
     7
 10
-506.3490196597567
 20
122.2458307487317
 30
0.0
 40
0.800000000000009
 50
0.0
 51
89.99999999999949
  0
ARC
  5
B3
  8
0
  6
CONTINUOUS
 62
     7
 10
-505.0490196597565
 20
123.5458307487317
 30
0.0
 40
2.249999999999998
 50
257.1604115930959
 51
282.8395884069041
  0
LINE
  5
B4
  8
0
  6
CONTINUOUS
 62
     7
 10
-502.2990196597565
 20
123.0458307487317
 30
0.0
 11
-502.2990196597565
 21
124.0458307487317
 31
0.0
  0
ARC
  5
B5
  8
0
  6
CONTINUOUS
 62
     7
 10
-506.3490196597567
 20
124.8458307487317
 30
0.0
 40
0.7999999999999952
 50
270.0
 51
359.9999999999996
  0
LINE
  5
B6
  8
0
  6
CONTINUOUS
 62
     7
 10
-504.5490196597566
 20
124.8458307487317
 30
0.0
 11
-504.5490196597566
 21
125.7395718455798
 31
0.0
  0
ARC
  5
B7
  8
0
  6
CONTINUOUS
 62
     7
 10
-503.7490196597566
 20
124.8458307487317
 30
0.0
 40
0.7999999999999952
 50
180.0
 51
269.9999999999995
  0
LINE
  5
B8
  8
0
  6
CONTINUOUS
 62
     7
 10
-502.2990196597565
 20
124.0458307487317
 30
0.0
 11
-503.7490196597565
 21
124.0458307487317
 31
0.0
  0
ARC
  5
B9
  8
0
  6
CONTINUOUS
 62
     7
 10
-503.7490196597566
 20
122.2458307487317
 30
0.0
 40
0.7999999999999952
 50
90.0
 51
180.0
  0
LINE
  5
BA
  8
0
  6
CONTINUOUS
 62
     7
 10
-504.5490196597566
 20
121.3520896518837
 30
0.0
 11
-504.5490196597566
 21
122.2458307487317
 31
0.0
  0
LINE
  5
BB
  8
0
  6
CONTINUOUS
 62
     7
 10
-505.5490196597566
 20
122.2458307487317
 30
0.0
 11
-505.5490196597566
 21
121.3520896518837
 31
0.0
  0
LINE
  5
BC
  8
0
  6
CONTINUOUS
 62
     7
 10
-503.7490196597566
 20
123.0458307487317
 30
0.0
 11
-502.2990196597565
 21
123.0458307487317
 31
0.0
  0
LINE
  5
BD
  8
0
  6
CONTINUOUS
 62
     7
 10
-506.3490196597567
 20
124.0458307487317
 30
0.0
 11
-507.7990196597566
 21
124.0458307487317
 31
0.0
  0
ARC
  5
BE
  8
0
  6
CONTINUOUS
 62
     7
 10
-460.5490196597566
 20
228.5458307487317
 30
0.0
 40
2.249999999999998
 50
257.1604115930959
 51
282.8395884069041
  0
ARC
  5
BF
  8
0
  6
CONTINUOUS
 62
     7
 10
-460.5490196597566
 20
228.5458307487317
 30
0.0
 40
2.249999999999998
 50
77.16041159309587
 51
102.8395884069042
  0
LINE
  5
C0
  8
0
  6
CONTINUOUS
 62
     7
 10
-463.2990196597566
 20
228.0458307487317
 30
0.0
 11
-461.8490196597566
 21
228.0458307487317
 31
0.0
  0
ARC
  5
C1
  8
0
  6
CONTINUOUS
 62
     7
 10
-459.2490196597566
 20
227.2458307487317
 30
0.0
 40
0.800000000000009
 50
90.0
 51
179.9999999999995
  0
LINE
  5
C2
  8
0
  6
CONTINUOUS
 62
     7
 10
-457.7990196597566
 20
228.0458307487317
 30
0.0
 11
-457.7990196597566
 21
229.0458307487317
 31
0.0
  0
LINE
  5
C3
  8
0
  6
CONTINUOUS
 62
     7
 10
-460.0490196597566
 20
229.8458307487317
 30
0.0
 11
-460.0490196597566
 21
230.7395718455797
 31
0.0
  0
LINE
  5
C4
  8
0
  6
CONTINUOUS
 62
     7
 10
-461.0490196597566
 20
230.7395718455797
 30
0.0
 11
-461.0490196597566
 21
229.8458307487317
 31
0.0
  0
ARC
  5
C5
  8
0
  6
CONTINUOUS
 62
     7
 10
-461.8490196597566
 20
229.8458307487317
 30
0.0
 40
0.800000000000009
 50
270.0
 51
0.0
  0
LINE
  5
C6
  8
0
  6
CONTINUOUS
 62
     7
 10
-461.8490196597566
 20
229.0458307487317
 30
0.0
 11
-463.2990196597566
 21
229.0458307487317
 31
0.0
  0
ARC
  5
C7
  8
0
  6
CONTINUOUS
 62
     7
 10
-461.8490196597566
 20
227.2458307487317
 30
0.0
 40
0.7999999999999952
 50
0.0
 51
89.99999999999949
  0
ARC
  5
C8
  8
0
  6
CONTINUOUS
 62
     7
 10
-459.2490196597566
 20
229.8458307487317
 30
0.0
 40
0.8000000000000229
 50
180.0
 51
269.9999999999995
  0
LINE
  5
C9
  8
0
  6
CONTINUOUS
 62
     7
 10
-461.0490196597566
 20
227.2458307487317
 30
0.0
 11
-461.0490196597566
 21
226.3520896518837
 31
0.0
  0
LINE
  5
CA
  8
0
  6
CONTINUOUS
 62
     7
 10
-463.2990196597566
 20
229.0458307487317
 30
0.0
 11
-463.2990196597566
 21
228.0458307487317
 31
0.0
  0
LINE
  5
CB
  8
0
  6
CONTINUOUS
 62
     7
 10
-460.0490196597566
 20
226.3520896518837
 30
0.0
 11
-460.0490196597566
 21
227.2458307487317
 31
0.0
  0
LINE
  5
CC
  8
0
  6
CONTINUOUS
 62
     7
 10
-457.7990196597566
 20
229.0458307487317
 30
0.0
 11
-459.2490196597566
 21
229.0458307487317
 31
0.0
  0
LINE
  5
CD
  8
0
  6
CONTINUOUS
 62
     7
 10
-459.2490196597566
 20
228.0458307487317
 30
0.0
 11
-457.7990196597566
 21
228.0458307487317
 31
0.0
  0
CIRCLE
  5
CE
  8
0
  6
CONTINUOUS
 62
     7
 10
-460.5490196597566
 20
123.5458307487317
 30
0.0
 40
2.000000000000002
  0
CIRCLE
  5
CF
  8
0
  6
CONTINUOUS
 62
     7
 10
-482.7990196597566
 20
134.2958307487317
 30
0.0
 40
4.000000000000004
  0
LINE
  5
D0
  8
0
  6
CONTINUOUS
 62
     7
 10
-453.7990196597565
 20
231.2958307487317
 30
0.0
 11
-456.9870679475628
 21
231.2958307487317
 31
0.0
  0
ARC
  5
D1
  8
0
  6
CONTINUOUS
 62
     7
 10
-453.7990196597565
 20
229.5458307487317
 30
0.0
 40
1.750000000000002
 50
359.9999999999998
 51
90.0
  0
LINE
  5
D2
  8
0
  6
CONTINUOUS
 62
     7
 10
-452.0490196597566
 20
122.5458307487317
 30
0.0
 11
-452.0490196597566
 21
229.5458307487317
 31
0.0
  0
ARC
  5
D3
  8
0
  6
CONTINUOUS
 62
     7
 10
-453.7990196597565
 20
122.5458307487317
 30
0.0
 40
1.750000000000002
 50
270.0
 51
0.0000000000002274
  0
LINE
  5
D4
  8
0
  6
CONTINUOUS
 62
     7
 10
-453.7990196597565
 20
120.7958307487317
 30
0.0
 11
-456.9870679475628
 21
120.7958307487317
 31
0.0
  0
ARC
  5
D5
  8
0
  6
CONTINUOUS
 62
     7
 10
-460.5490196597566
 20
123.5458307487317
 30
0.0
 40
4.500000000000002
 50
217.6698869643297
 51
322.3301130356701
  0
LINE
  5
D6
  8
0
  6
CONTINUOUS
 62
     7
 10
-501.4870679475629
 20
120.7958307487317
 30
0.0
 11
-464.1109713719503
 21
120.7958307487317
 31
0.0
  0
ARC
  5
D7
  8
0
  6
CONTINUOUS
 62
     7
 10
-505.0490196597565
 20
123.5458307487317
 30
0.0
 40
4.500000000000002
 50
217.6698869643299
 51
322.3301130356703
  0
LINE
  5
D8
  8
0
  6
CONTINUOUS
 62
     7
 10
-511.7990196597566
 20
120.7958307487317
 30
0.0
 11
-508.6109713719503
 21
120.7958307487317
 31
0.0
  0
ARC
  5
D9
  8
0
  6
CONTINUOUS
 62
     7
 10
-511.7990196597566
 20
122.5458307487317
 30
0.0
 40
1.750000000000002
 50
179.9999999999998
 51
270.0
  0
LINE
  5
DA
  8
0
  6
CONTINUOUS
 62
     7
 10
-513.5490196597566
 20
122.5458307487317
 30
0.0
 11
-513.5490196597566
 21
229.5458307487317
 31
0.0
  0
ARC
  5
DB
  8
0
  6
CONTINUOUS
 62
     7
 10
-511.7990196597566
 20
229.5458307487317
 30
0.0
 40
1.750000000000002
 50
90.0
 51
180.0000000000002
  0
LINE
  5
DC
  8
0
  6
CONTINUOUS
 62
     7
 10
-511.7990196597566
 20
231.2958307487317
 30
0.0
 11
-508.6109713719503
 21
231.2958307487317
 31
0.0
  0
ARC
  5
DD
  8
0
  6
CONTINUOUS
 62
     7
 10
-505.0490196597565
 20
228.5458307487317
 30
0.0
 40
4.500000000000011
 50
37.66988696432974
 51
142.3301130356701
  0
LINE
  5
DE
  8
0
  6
CONTINUOUS
 62
     7
 10
-501.4870679475629
 20
231.2958307487317
 30
0.0
 11
-464.1109713719503
 21
231.2958307487317
 31
0.0
  0
ARC
  5
DF
  8
0
  6
CONTINUOUS
 62
     7
 10
-460.5490196597566
 20
228.5458307487317
 30
0.0
 40
4.500000000000011
 50
37.66988696432986
 51
142.3301130356703
  0
CIRCLE
  5
E0
  8
0
  6
CONTINUOUS
 62
     7
 10
-482.7990196597566
 20
217.7958307487317
 30
0.0
 40
4.000000000000004
  0
ARC
  5
E1
  8
0
  6
CONTINUOUS
 62
     7
 10
-491.4555151675438
 20
214.989572470586
 30
0.0
 40
3.999999999999994
 50
17.96163070225044
 51
103.9135857707628
  0
ARC
  5
E2
  8
0
  6
CONTINUOUS
 62
     7
 10
-482.7990196597567
 20
180.0458307487317
 30
0.0
 40
39.99999999999995
 50
103.9135857707628
 51
124.8499045790465
  0
ARC
  5
E3
  8
0
  6
CONTINUOUS
 62
     7
 10
-502.7990196597566
 20
208.7686439814219
 30
0.0
 40
4.999999999999992
 50
124.8499045790466
 51
180.0000000000002
  0
LINE
  5
E4
  8
0
  6
CONTINUOUS
 62
     7
 10
-507.7990196597566
 20
208.7686439814219
 30
0.0
 11
-507.7990196597566
 21
143.3230175160416
 31
0.0
  0
ARC
  5
E5
  8
0
  6
CONTINUOUS
 62
     7
 10
-502.7990196597566
 20
143.3230175160416
 30
0.0
 40
5.000000000000004
 50
179.9999999999999
 51
235.1500954209534
  0
ARC
  5
E6
  8
0
  6
CONTINUOUS
 62
     7
 10
-482.7990196597567
 20
172.0458307487317
 30
0.0
 40
39.99999999999995
 50
235.1500954209534
 51
256.0864142292371
  0
ARC
  5
E7
  8
0
  6
CONTINUOUS
 62
     7
 10
-491.4555151675438
 20
137.1020890268774
 30
0.0
 40
3.999999999999994
 50
256.0864142292372
 51
342.0383692977496
  0
ARC
  5
E8
  8
0
  6
CONTINUOUS
 62
     7
 10
-482.7990196597567
 20
134.2958307487317
 30
0.0
 40
5.100000000000003
 50
17.96163070225003
 51
162.0383692977496
  0
ARC
  5
E9
  8
0
  6
CONTINUOUS
 62
     7
 10
-474.1425241519694
 20
137.1020890268774
 30
0.0
 40
3.999999999999994
 50
197.9616307022505
 51
283.9135857707628
  0
ARC
  5
EA
  8
0
  6
CONTINUOUS
 62
     7
 10
-482.7990196597565
 20
172.0458307487317
 30
0.0
 40
39.99999999999995
 50
283.9135857707628
 51
304.8499045790465
  0
ARC
  5
EB
  8
0
  6
CONTINUOUS
 62
     7
 10
-462.7990196597565
 20
143.3230175160416
 30
0.0
 40
5.000000000000004
 50
304.8499045790466
 51
0.0000000000001705
  0
LINE
  5
EC
  8
0
  6
CONTINUOUS
 62
     7
 10
-457.7990196597565
 20
208.7686439814219
 30
0.0
 11
-457.7990196597565
 21
143.3230175160416
 31
0.0
  0
ARC
  5
ED
  8
0
  6
CONTINUOUS
 62
     7
 10
-462.7990196597565
 20
208.7686439814219
 30
0.0
 40
4.999999999999992
 50
359.9999999999998
 51
55.15009542095333
  0
ARC
  5
EE
  8
0
  6
CONTINUOUS
 62
     7
 10
-482.7990196597565
 20
180.0458307487317
 30
0.0
 40
39.99999999999995
 50
55.15009542095351
 51
76.08641422923716
  0
ARC
  5
EF
  8
0
  6
CONTINUOUS
 62
     7
 10
-474.1425241519694
 20
214.989572470586
 30
0.0
 40
3.999999999999994
 50
76.08641422923722
 51
162.0383692977496
  0
ARC
  5
F0
  8
0
  6
CONTINUOUS
 62
     7
 10
-482.7990196597567
 20
217.7958307487317
 30
0.0
 40
5.100000000000003
 50
197.9616307022505
 51
342.03836929775
  0
CIRCLE
  5
F1
  8
0
  6
CONTINUOUS
 62
     7
 10
-505.0490196597565
 20
228.5458307487317
 30
0.0
 40
2.000000000000002
  0
ARC
  5
F2
  8
0
  6
CONTINUOUS
 62
     7
 10
-509.8490196597566
 20
227.3458307487317
 30
0.0
 40
0.6000000000000033
 50
180.0
 51
270.0000000000003
  0
LINE
  5
F3
  8
0
  6
CONTINUOUS
 62
     7
 10
-509.8490196597566
 20
226.7458307487317
 30
0.0
 11
-509.6490196597566
 21
226.7458307487317
 31
0.0
  0
ARC
  5
F4
  8
0
  6
CONTINUOUS
 62
     7
 10
-509.6490196597566
 20
227.3458307487317
 30
0.0
 40
0.5999999999999894
 50
270.0000000000007
 51
359.9999999999987
  0
LINE
  5
F5
  8
0
  6
CONTINUOUS
 62
     7
 10
-509.0490196597565
 20
227.3458307487317
 30
0.0
 11
-509.0490196597565
 21
229.7458307487317
 31
0.0
  0
ARC
  5
F6
  8
0
  6
CONTINUOUS
 62
     7
 10
-509.6490196597566
 20
229.7458307487317
 30
0.0
 40
0.6000000000000033
 50
0.0000000000006626
 51
90.00000000000034
  0
LINE
  5
F7
  8
0
  6
CONTINUOUS
 62
     7
 10
-509.6490196597566
 20
230.3458307487317
 30
0.0
 11
-509.8490196597566
 21
230.3458307487317
 31
0.0
  0
LINE
  5
F8
  8
0
  6
CONTINUOUS
 62
     7
 10
-510.4490196597566
 20
229.7458307487317
 30
0.0
 11
-510.4490196597566
 21
227.3458307487317
 31
0.0
  0
ARC
  5
F9
  8
0
  6
CONTINUOUS
 62
     7
 10
-455.7490196597566
 20
124.7458307487317
 30
0.0
 40
0.6000000000000033
 50
0.0000000000013252
 51
90.0
  0
LINE
  5
FA
  8
0
  6
CONTINUOUS
 62
     7
 10
-455.7490196597566
 20
125.3458307487317
 30
0.0
 11
-455.9490196597566
 21
125.3458307487317
 31
0.0
  0
ARC
  5
FB
  8
0
  6
CONTINUOUS
 62
     7
 10
-455.9490196597566
 20
124.7458307487317
 30
0.0
 40
0.6000000000000033
 50
90.00000000000068
 51
179.9999999999994
  0
LINE
  5
FC
  8
0
  6
CONTINUOUS
 62
     7
 10
-456.5490196597566
 20
124.7458307487317
 30
0.0
 11
-456.5490196597566
 21
122.3458307487317
 31
0.0
  0
ARC
  5
FD
  8
0
  6
CONTINUOUS
 62
     7
 10
-455.9490196597566
 20
122.3458307487317
 30
0.0
 40
0.6000000000000172
 50
180.0
 51
270.0000000000003
  0
LINE
  5
FE
  8
0
  6
CONTINUOUS
 62
     7
 10
-455.9490196597566
 20
121.7458307487317
 30
0.0
 11
-455.7490196597566
 21
121.7458307487317
 31
0.0
  0
ARC
  5
FF
  8
0
  6
CONTINUOUS
 62
     7
 10
-455.7490196597566
 20
122.3458307487317
 30
0.0
 40
0.6000000000000033
 50
269.999999999999
 51
359.9999999999986
  0
ARC
  5
100
  8
0
  6
CONTINUOUS
 62
     7
 10
-500.4490196597566
 20
227.3458307487317
 30
0.0
 40
0.6000000000000033
 50
180.0
 51
269.999999999999
  0
LINE
  5
101
  8
0
  6
CONTINUOUS
 62
     7
 10
-500.4490196597566
 20
226.7458307487317
 30
0.0
 11
-500.2490196597565
 21
226.7458307487317
 31
0.0
  0
ARC
  5
102
  8
0
  6
CONTINUOUS
 62
     7
 10
-500.2490196597565
 20
227.3458307487317
 30
0.0
 40
0.6000000000000172
 50
270.0000000000013
 51
359.9999999999986
  0
LINE
  5
103
  8
0
  6
CONTINUOUS
 62
     7
 10
-499.6490196597566
 20
227.3458307487317
 30
0.0
 11
-499.6490196597566
 21
229.7458307487317
 31
0.0
  0
ARC
  5
104
  8
0
  6
CONTINUOUS
 62
     7
 10
-500.2490196597566
 20
229.7458307487317
 30
0.0
 40
0.6000000000000033
 50
0.0
 51
89.999999999999
  0
LINE
  5
105
  8
0
  6
CONTINUOUS
 62
     7
 10
-500.2490196597565
 20
230.3458307487317
 30
0.0
 11
-500.4490196597565
 21
230.3458307487317
 31
0.0
  0
ARC
  5
106
  8
0
  6
CONTINUOUS
 62
     7
 10
-500.4490196597566
 20
229.7458307487317
 30
0.0
 40
0.5999999999999894
 50
89.99999999999935
 51
179.9999999999987
  0
LINE
  5
107
  8
0
  6
CONTINUOUS
 62
     7
 10
-501.0490196597565
 20
229.7458307487317
 30
0.0
 11
-501.0490196597565
 21
227.3458307487317
 31
0.0
  0
ARC
  5
108
  8
0
  6
CONTINUOUS
 62
     7
 10
-455.9490196597566
 20
227.3458307487317
 30
0.0
 40
0.6000000000000033
 50
180.0000000000014
 51
269.9999999999993
  0
LINE
  5
109
  8
0
  6
CONTINUOUS
 62
     7
 10
-455.9490196597566
 20
226.7458307487317
 30
0.0
 11
-455.7490196597565
 21
226.7458307487317
 31
0.0
  0
ARC
  5
10A
  8
0
  6
CONTINUOUS
 62
     7
 10
-455.7490196597566
 20
227.3458307487317
 30
0.0
 40
0.5999999999999894
 50
270.0
 51
359.9999999999987
  0
LINE
  5
10B
  8
0
  6
CONTINUOUS
 62
     7
 10
-455.1490196597566
 20
227.3458307487317
 30
0.0
 11
-455.1490196597566
 21
229.7458307487317
 31
0.0
  0
ARC
  5
10C
  8
0
  6
CONTINUOUS
 62
     7
 10
-455.7490196597566
 20
229.7458307487317
 30
0.0
 40
0.6000000000000033
 50
0.0000000000013252
 51
90.000000000001
  0
LINE
  5
10D
  8
0
  6
CONTINUOUS
 62
     7
 10
-455.7490196597566
 20
230.3458307487317
 30
0.0
 11
-455.9490196597566
 21
230.3458307487317
 31
0.0
  0
ARC
  5
10E
  8
0
  6
CONTINUOUS
 62
     7
 10
-455.9490196597566
 20
229.7458307487317
 30
0.0
 40
0.5999999999999894
 50
89.99999999999969
 51
180.0
  0
ARC
  5
10F
  8
0
  6
CONTINUOUS
 62
     7
 10
-465.1490196597566
 20
229.7458307487317
 30
0.0
 40
0.6000000000000033
 50
0.0000000000013252
 51
90.00000000000064
  0
LINE
  5
110
  8
0
  6
CONTINUOUS
 62
     7
 10
-465.1490196597566
 20
230.3458307487317
 30
0.0
 11
-465.3490196597566
 21
230.3458307487317
 31
0.0
  0
ARC
  5
111
  8
0
  6
CONTINUOUS
 62
     7
 10
-465.3490196597566
 20
229.7458307487317
 30
0.0
 40
0.6000000000000172
 50
90.00000000000068
 51
180.0
  0
LINE
  5
112
  8
0
  6
CONTINUOUS
 62
     7
 10
-465.9490196597566
 20
229.7458307487317
 30
0.0
 11
-465.9490196597566
 21
227.3458307487317
 31
0.0
  0
ARC
  5
113
  8
0
  6
CONTINUOUS
 62
     7
 10
-465.3490196597566
 20
227.3458307487317
 30
0.0
 40
0.6000000000000033
 50
180.0000000000014
 51
269.9999999999987
  0
LINE
  5
114
  8
0
  6
CONTINUOUS
 62
     7
 10
-465.3490196597566
 20
226.7458307487317
 30
0.0
 11
-465.1490196597566
 21
226.7458307487317
 31
0.0
  0
ARC
  5
115
  8
0
  6
CONTINUOUS
 62
     7
 10
-465.1490196597566
 20
227.3458307487317
 30
0.0
 40
0.5999999999999894
 50
270.0000000000013
 51
359.9999999999986
  0
ARC
  5
116
  8
0
  6
CONTINUOUS
 62
     7
 10
-509.6490196597566
 20
124.7458307487317
 30
0.0
 40
0.6000000000000033
 50
0.0000000000006626
 51
89.99999999999935
  0
LINE
  5
117
  8
0
  6
CONTINUOUS
 62
     7
 10
-509.6490196597566
 20
125.3458307487317
 30
0.0
 11
-509.8490196597566
 21
125.3458307487317
 31
0.0
  0
ARC
  5
118
  8
0
  6
CONTINUOUS
 62
     7
 10
-509.8490196597566
 20
124.7458307487317
 30
0.0
 40
0.6000000000000033
 50
89.99999999999969
 51
179.9999999999994
  0
LINE
  5
119
  8
0
  6
CONTINUOUS
 62
     7
 10
-510.4490196597566
 20
124.7458307487317
 30
0.0
 11
-510.4490196597566
 21
122.3458307487317
 31
0.0
  0
ARC
  5
11A
  8
0
  6
CONTINUOUS
 62
     7
 10
-509.8490196597566
 20
122.3458307487317
 30
0.0
 40
0.6000000000000033
 50
180.0
 51
270.000000000001
  0
ARC
  5
11B
  8
0
  6
CONTINUOUS
 62
     7
 10
-509.6490196597566
 20
122.3458307487317
 30
0.0
 40
0.6000000000000033
 50
269.9999999999997
 51
359.9999999999993
  0
ARC
  5
11C
  8
0
  6
CONTINUOUS
 62
     7
 10
-500.4490196597566
 20
122.3458307487317
 30
0.0
 40
0.6000000000000033
 50
180.0
 51
270.0000000000007
  0
LINE
  5
11D
  8
0
  6
CONTINUOUS
 62
     7
 10
-500.4490196597566
 20
121.7458307487317
 30
0.0
 11
-500.2490196597566
 21
121.7458307487317
 31
0.0
  0
ARC
  5
11E
  8
0
  6
CONTINUOUS
 62
     7
 10
-500.2490196597566
 20
122.3458307487317
 30
0.0
 40
0.6000000000000172
 50
270.000000000001
 51
0.0
  0
LINE
  5
11F
  8
0
  6
CONTINUOUS
 62
     7
 10
-499.6490196597566
 20
122.3458307487317
 30
0.0
 11
-499.6490196597566
 21
124.7458307487317
 31
0.0
  0
ARC
  5
120
  8
0
  6
CONTINUOUS
 62
     7
 10
-500.2490196597565
 20
124.7458307487317
 30
0.0
 40
0.6000000000000033
 50
0.0000000000013252
 51
89.99999999999868
  0
LINE
  5
121
  8
0
  6
CONTINUOUS
 62
     7
 10
-500.2490196597565
 20
125.3458307487317
 30
0.0
 11
-500.4490196597566
 21
125.3458307487317
 31
0.0
  0
ARC
  5
122
  8
0
  6
CONTINUOUS
 62
     7
 10
-500.4490196597566
 20
124.7458307487317
 30
0.0
 40
0.6000000000000033
 50
90.000000000001
 51
180.0
  0
ARC
  5
123
  8
0
  6
CONTINUOUS
 62
     7
 10
-465.1490196597566
 20
124.7458307487317
 30
0.0
 40
0.6000000000000033
 50
0.0000000000013252
 51
89.99999999999868
  0
LINE
  5
124
  8
0
  6
CONTINUOUS
 62
     7
 10
-465.1490196597566
 20
125.3458307487317
 30
0.0
 11
-465.3490196597566
 21
125.3458307487317
 31
0.0
  0
ARC
  5
125
  8
0
  6
CONTINUOUS
 62
     7
 10
-465.3490196597566
 20
124.7458307487317
 30
0.0
 40
0.6000000000000033
 50
90.00000000000132
 51
179.9999999999987
  0
LINE
  5
126
  8
0
  6
CONTINUOUS
 62
     7
 10
-465.9490196597566
 20
124.7458307487317
 30
0.0
 11
-465.9490196597566
 21
122.3458307487317
 31
0.0
  0
ARC
  5
127
  8
0
  6
CONTINUOUS
 62
     7
 10
-465.3490196597566
 20
122.3458307487317
 30
0.0
 40
0.6000000000000033
 50
180.0
 51
269.9999999999993
  0
LINE
  5
128
  8
0
  6
CONTINUOUS
 62
     7
 10
-465.3490196597566
 20
121.7458307487317
 30
0.0
 11
-465.1490196597566
 21
121.7458307487317
 31
0.0
  0
ARC
  5
129
  8
0
  6
CONTINUOUS
 62
     7
 10
-465.1490196597566
 20
122.3458307487317
 30
0.0
 40
0.6000000000000033
 50
269.9999999999993
 51
359.9999999999986
  0
LINE
  5
12A
  8
0
  6
CONTINUOUS
 62
     7
 10
-464.5490196597566
 20
122.3458307487317
 30
0.0
 11
-464.5490196597566
 21
124.7458307487317
 31
0.0
  0
ARC
  5
12B
  8
0
  6
CONTINUOUS
 62
     7
 10
-509.8490196597566
 20
229.7458307487317
 30
0.0
 40
0.5999999999999894
 50
89.999999999999
 51
179.9999999999987
  0
LINE
  5
12C
  8
0
  6
CONTINUOUS
 62
     7
 10
-509.8490196597566
 20
121.7458307487317
 30
0.0
 11
-509.6490196597566
 21
121.7458307487317
 31
0.0
  0
LINE
  5
12D
  8
0
  6
CONTINUOUS
 62
     7
 10
-455.1490196597566
 20
122.3458307487317
 30
0.0
 11
-455.1490196597566
 21
124.7458307487317
 31
0.0
  0
CIRCLE
  5
12E
  8
0
  6
CONTINUOUS
 62
     7
 10
-482.7990196597566
 20
134.2958307487317
 30
0.0
 40
2.100000000000005
  0
CIRCLE
  5
12F
  8
0
  6
CONTINUOUS
 62
     7
 10
-482.7990196597566
 20
217.7958307487317
 30
0.0
 40
2.100000000000005
  0
CIRCLE
  5
130
  8
0
  6
CONTINUOUS
 62
     7
 10
-505.0490196597565
 20
228.5458307487317
 30
0.0
 40
1.250000000000001
  0
CIRCLE
  5
131
  8
0
  6
CONTINUOUS
 62
     7
 10
-505.0490196597565
 20
228.5458307487317
 30
0.0
 40
1.750000000000002
  0
CIRCLE
  5
132
  8
0
  6
CONTINUOUS
 62
     7
 10
-460.5490196597566
 20
123.5458307487318
 30
0.0
 40
1.250000000000001
  0
CIRCLE
  5
133
  8
0
  6
CONTINUOUS
 62
     7
 10
-460.5490196597566
 20
123.5458307487318
 30
0.0
 40
1.750000000000002
  0
LINE
  5
134
  8
0
  6
CONTINUOUS
 62
     9
 10
-486.1638684419308
 20
246.4458307496448
 30
0.0
 11
-486.0528281056039
 21
246.4504044584284
 31
0.0
  0
ARC
  5
135
  8
0
  6
CONTINUOUS
 62
     9
 10
-486.1514660051561
 20
247.7436476026438
 30
0.0
 40
1.296999331259753
 50
274.3616039447334
 51
326.0494883496094
  0
POLYLINE
  5
136
  8
0
  6
CONTINUOUS
 62
     9
 66
     1
 10
0.0
 20
0.0
 30
0.0
  0
VERTEX
  5
207
  8
0
  6
CONTINUOUS
 62
     9
 10
-485.0755787858723
 20
247.01930379155
 30
0.0
  0
VERTEX
  5
208
  8
0
  6
CONTINUOUS
 62
     9
 10
-485.008234109989
 20
247.1335790485866
 30
0.0
  0
VERTEX
  5
209
  8
0
  6
CONTINUOUS
 62
     9
 10
-484.9513513546086
 20
247.2601016501045
 30
0.0
  0
VERTEX
  5
20A
  8
0
  6
CONTINUOUS
 62
     9
 10
-484.913898252344
 20
247.3743158384975
 30
0.0
  0
VERTEX
  5
20B
  8
0
  6
CONTINUOUS
 62
     9
 10
-484.8860095481547
 20
247.5028530695748
 30
0.0
  0
VERTEX
  5
20C
  8
0
  6
CONTINUOUS
 62
     9
 10
-484.8723029397175
 20
247.6310459614443
 30
0.0
  0
VERTEX
  5
20D
  8
0
  6
CONTINUOUS
 62
     9
 10
-484.8705724886635
 20
247.6958307497266
 30
0.0
  0
SEQEND
  5
27C
  8
0
  6
CONTINUOUS
 62
     9
  0
POLYLINE
  5
137
  8
0
  6
CONTINUOUS
 62
     9
 66
     1
 10
0.0
 20
0.0
 30
0.0
  0
VERTEX
  5
20E
  8
0
  6
CONTINUOUS
 62
     9
 10
-515.9315736928856
 20
247.6958307477599
 30
0.0
  0
VERTEX
  5
20F
  8
0
  6
CONTINUOUS
 62
     9
 10
-515.9269831821306
 20
247.5891955889096
 30
0.0
  0
VERTEX
  5
210
  8
0
  6
CONTINUOUS
 62
     9
 10
-515.9043328181201
 20
247.4372379541516
 30
0.0
  0
VERTEX
  5
211
  8
0
  6
CONTINUOUS
 62
     9
 10
-515.8777463726857
 20
247.3342767908378
 30
0.0
  0
VERTEX
  5
212
  8
0
  6
CONTINUOUS
 62
     9
 10
-515.844010988541
 20
247.2378657925298
 30
0.0
  0
VERTEX
  5
213
  8
0
  6
CONTINUOUS
 62
     9
 10
-515.7820580002601
 20
247.1050835392168
 30
0.0
  0
VERTEX
  5
214
  8
0
  6
CONTINUOUS
 62
     9
 10
-515.720641600443
 20
247.0033357681567
 30
0.0
  0
VERTEX
  5
215
  8
0
  6
CONTINUOUS
 62
     9
 10
-515.6576669308565
 20
246.9175615952188
 30
0.0
  0
VERTEX
  5
216
  8
0
  6
CONTINUOUS
 62
     9
 10
-515.559366390552
 20
246.8087071193035
 30
0.0
  0
VERTEX
  5
217
  8
0
  6
CONTINUOUS
 62
     9
 10
-515.4633602496938
 20
246.7233820805231
 30
0.0
  0
VERTEX
  5
218
  8
0
  6
CONTINUOUS
 62
     9
 10
-515.3720082195927
 20
246.6567115803468
 30
0.0
  0
SEQEND
  5
27D
  8
0
  6
CONTINUOUS
 62
     9
  0
ARC
  5
138
  8
0
  6
CONTINUOUS
 62
     9
 10
-514.6720485025625
 20
247.713423531364
 30
0.0
 40
1.267510849218819
 50
236.4797454724522
 51
263.5819102976665
  0
LINE
  5
139
  8
0
  6
CONTINUOUS
 62
     9
 10
-484.8705724886635
 20
247.6958307497266
 30
0.0
 11
-484.8705724897075
 21
264.1958307497262
 31
0.0
  0
LINE
  5
13A
  8
0
  6
CONTINUOUS
 62
     9
 10
-515.9315736939297
 20
264.1958307477609
 30
0.0
 11
-515.9315736928856
 21
247.6958307477613
 31
0.0
  0
LINE
  5
13B
  8
0
  6
CONTINUOUS
 62
     9
 10
-514.8137342671455
 20
246.4538565831624
 30
0.0
 11
-514.6709541172326
 21
246.4458307478411
 31
0.0
  0
ARC
  5
13C
  8
0
  6
CONTINUOUS
 62
     7
 10
-514.4727475380639
 20
261.4527925366531
 30
0.0
 40
2.997177776249171
 50
134.9352651298323
 51
179.9924007039313
  0
LINE
  5
13D
  8
0
  6
CONTINUOUS
 62
     9
 10
-451.1638684419228
 20
246.4458307496451
 30
0.0
 11
-451.0528281055959
 21
246.4504044584286
 31
0.0
  0
ARC
  5
13E
  8
0
  6
CONTINUOUS
 62
     9
 10
-451.1514660051476
 20
247.7436476026438
 30
0.0
 40
1.296999331259493
 50
274.3616039447115
 51
326.0494883495989
  0
POLYLINE
  5
13F
  8
0
  6
CONTINUOUS
 62
     9
 66
     1
 10
0.0
 20
0.0
 30
0.0
  0
VERTEX
  5
219
  8
0
  6
CONTINUOUS
 62
     9
 10
-450.0755787858641
 20
247.0193037915499
 30
0.0
  0
VERTEX
  5
21A
  8
0
  6
CONTINUOUS
 62
     9
 10
-450.0082341099808
 20
247.1335790485865
 30
0.0
  0
VERTEX
  5
21B
  8
0
  6
CONTINUOUS
 62
     9
 10
-449.9513513546003
 20
247.2601016501044
 30
0.0
  0
VERTEX
  5
21C
  8
0
  6
CONTINUOUS
 62
     9
 10
-449.9138982523357
 20
247.3743158384974
 30
0.0
  0
VERTEX
  5
21D
  8
0
  6
CONTINUOUS
 62
     9
 10
-449.8860095481463
 20
247.5028530695747
 30
0.0
  0
VERTEX
  5
21E
  8
0
  6
CONTINUOUS
 62
     9
 10
-449.8723029397091
 20
247.6310459614441
 30
0.0
  0
VERTEX
  5
21F
  8
0
  6
CONTINUOUS
 62
     9
 10
-449.8705724886551
 20
247.6958307497265
 30
0.0
  0
SEQEND
  5
27E
  8
0
  6
CONTINUOUS
 62
     9
  0
POLYLINE
  5
140
  8
0
  6
CONTINUOUS
 62
     9
 66
     1
 10
0.0
 20
0.0
 30
0.0
  0
VERTEX
  5
220
  8
0
  6
CONTINUOUS
 62
     9
 10
-480.9315736928774
 20
247.6958307477689
 30
0.0
  0
VERTEX
  5
221
  8
0
  6
CONTINUOUS
 62
     9
 10
-480.9269831821223
 20
247.5891955889184
 30
0.0
  0
VERTEX
  5
222
  8
0
  6
CONTINUOUS
 62
     9
 10
-480.9043328181119
 20
247.4372379541604
 30
0.0
  0
VERTEX
  5
223
  8
0
  6
CONTINUOUS
 62
     9
 10
-480.8777463726775
 20
247.3342767908466
 30
0.0
  0
VERTEX
  5
224
  8
0
  6
CONTINUOUS
 62
     9
 10
-480.8440109885328
 20
247.2378657925386
 30
0.0
  0
VERTEX
  5
225
  8
0
  6
CONTINUOUS
 62
     9
 10
-480.782058000252
 20
247.1050835392256
 30
0.0
  0
VERTEX
  5
226
  8
0
  6
CONTINUOUS
 62
     9
 10
-480.7206416004349
 20
247.0033357681655
 30
0.0
  0
VERTEX
  5
227
  8
0
  6
CONTINUOUS
 62
     9
 10
-480.6576669308484
 20
246.9175615952276
 30
0.0
  0
VERTEX
  5
228
  8
0
  6
CONTINUOUS
 62
     9
 10
-480.5593663905439
 20
246.8087071193122
 30
0.0
  0
VERTEX
  5
229
  8
0
  6
CONTINUOUS
 62
     9
 10
-480.4633602496856
 20
246.7233820805318
 30
0.0
  0
VERTEX
  5
22A
  8
0
  6
CONTINUOUS
 62
     9
 10
-480.3720082195846
 20
246.6567115803555
 30
0.0
  0
SEQEND
  5
27F
  8
0
  6
CONTINUOUS
 62
     9
  0
ARC
  5
141
  8
0
  6
CONTINUOUS
 62
     9
 10
-479.6720485025539
 20
247.7134235313729
 30
0.0
 40
1.267510849219288
 50
236.4797454724407
 51
263.5819102976449
  0
LINE
  5
142
  8
0
  6
CONTINUOUS
 62
     9
 10
-449.8705724886551
 20
247.6958307497265
 30
0.0
 11
-449.8705724896944
 21
264.1958307497262
 31
0.0
  0
LINE
  5
143
  8
0
  6
CONTINUOUS
 62
     9
 10
-480.9315736939166
 20
264.1958307477698
 30
0.0
 11
-480.9315736928774
 21
247.6958307477701
 31
0.0
  0
LINE
  5
144
  8
0
  6
CONTINUOUS
 62
     9
 10
-479.8137342671377
 20
246.4538565831709
 30
0.0
 11
-479.7425685427245
 21
246.4478446589927
 31
0.0
  0
LINE
  5
145
  8
0
  6
CONTINUOUS
 62
     9
 10
-479.7425685427239
 20
246.4478446589927
 30
0.0
 11
-479.6709541172246
 21
246.4458307478496
 31
0.0
  0
ARC
  5
146
  8
0
  6
CONTINUOUS
 62
     7
 10
-479.4727475380515
 20
261.4527925366615
 30
0.0
 40
2.99717777624933
 50
134.9352651298172
 51
179.9924007039142
  0
CIRCLE
  5
147
  8
0
  6
CONTINUOUS
 62
     7
 10
-482.7990196597566
 20
176.0458307487317
 30
0.0
 40
4.762500000000003
  0
LINE
  5
148
  8
0
  6
CONTINUOUS
 62
     7
 10
-456.9310091567315
 20
231.5458307487317
 30
0.0
 11
-453.2990196597565
 21
231.5458307487317
 31
0.0
  0
LINE
  5
149
  8
0
  6
CONTINUOUS
 62
     7
 10
-512.2990196597565
 20
231.5458307487317
 30
0.0
 11
-508.6670301627817
 21
231.5458307487317
 31
0.0
  0
LINE
  5
14A
  8
0
  6
CONTINUOUS
 62
     7
 10
-501.4310091567314
 20
231.5458307487317
 30
0.0
 11
-464.1670301627817
 21
231.5458307487317
 31
0.0
  0
LINE
  5
14B
  8
0
  6
CONTINUOUS
 62
     7
 10
-509.2490196597565
 20
124.6458307487317
 30
0.0
 11
-509.2490196597565
 21
122.4458307487317
 31
0.0
  0
ARC
  5
14C
  8
0
  6
CONTINUOUS
 62
     7
 10
-509.7490196597566
 20
124.6458307487317
 30
0.0
 40
0.5000000000000004
 50
0.0
 51
180.0
  0
LINE
  5
14D
  8
0
  6
CONTINUOUS
 62
     7
 10
-510.2490196597565
 20
122.4458307487317
 30
0.0
 11
-510.2490196597565
 21
124.6458307487317
 31
0.0
  0
ARC
  5
14E
  8
0
  6
CONTINUOUS
 62
     7
 10
-509.7490196597566
 20
122.4458307487317
 30
0.0
 40
0.5000000000000004
 50
180.0
 51
0.0
  0
LINE
  5
14F
  8
0
  6
CONTINUOUS
 62
     7
 10
-513.7990196597566
 20
122.0458307487317
 30
0.0
 11
-513.7990196597566
 21
230.0458307487317
 31
0.0
  0
LINE
  5
150
  8
0
  6
CONTINUOUS
 62
     7
 10
-465.7490196597566
 20
227.4458307487317
 30
0.0
 11
-465.7490196597566
 21
229.6458307487317
 31
0.0
  0
ARC
  5
151
  8
0
  6
CONTINUOUS
 62
     7
 10
-465.2490196597566
 20
229.6458307487317
 30
0.0
 40
0.5000000000000004
 50
0.0
 51
180.0
  0
LINE
  5
152
  8
0
  6
CONTINUOUS
 62
     7
 10
-464.7490196597566
 20
229.6458307487317
 30
0.0
 11
-464.7490196597566
 21
227.4458307487317
 31
0.0
  0
ARC
  5
153
  8
0
  6
CONTINUOUS
 62
     7
 10
-465.2490196597566
 20
227.4458307487317
 30
0.0
 40
0.5000000000000004
 50
180.0
 51
0.0
  0
ARC
  5
154
  8
0
  6
CONTINUOUS
 62
     7
 10
-455.8490196597566
 20
229.6458307487317
 30
0.0
 40
0.5000000000000004
 50
0.0
 51
180.0
  0
LINE
  5
155
  8
0
  6
CONTINUOUS
 62
     7
 10
-455.3490196597566
 20
229.6458307487317
 30
0.0
 11
-455.3490196597566
 21
227.4458307487317
 31
0.0
  0
ARC
  5
156
  8
0
  6
CONTINUOUS
 62
     7
 10
-455.8490196597566
 20
227.4458307487317
 30
0.0
 40
0.5000000000000004
 50
180.0
 51
0.0
  0
LINE
  5
157
  8
0
  6
CONTINUOUS
 62
     7
 10
-456.3490196597566
 20
227.4458307487317
 30
0.0
 11
-456.3490196597566
 21
229.6458307487317
 31
0.0
  0
ARC
  5
158
  8
0
  6
CONTINUOUS
 62
     7
 10
-500.3490196597566
 20
122.4458307487317
 30
0.0
 40
0.5000000000000004
 50
180.0
 51
0.0
  0
LINE
  5
159
  8
0
  6
CONTINUOUS
 62
     7
 10
-499.8490196597566
 20
124.6458307487317
 30
0.0
 11
-499.8490196597566
 21
122.4458307487317
 31
0.0
  0
ARC
  5
15A
  8
0
  6
CONTINUOUS
 62
     7
 10
-500.3490196597566
 20
124.6458307487317
 30
0.0
 40
0.5000000000000004
 50
0.0
 51
180.0
  0
LINE
  5
15B
  8
0
  6
CONTINUOUS
 62
     7
 10
-500.8490196597566
 20
122.4458307487317
 30
0.0
 11
-500.8490196597566
 21
124.6458307487317
 31
0.0
  0
LINE
  5
15C
  8
0
  6
CONTINUOUS
 62
     7
 10
-451.7990196597566
 20
230.0458307487317
 30
0.0
 11
-451.7990196597566
 21
122.0458307487317
 31
0.0
  0
ARC
  5
15D
  8
0
  6
CONTINUOUS
 62
     7
 10
-453.2990196597566
 20
122.0458307487317
 30
0.0
 40
1.500000000000001
 50
270.0000000000001
 51
0.0
  0
ARC
  5
15E
  8
0
  6
CONTINUOUS
 62
     7
 10
-512.2990196597565
 20
230.0458307487317
 30
0.0
 40
1.500000000000001
 50
90.0
 51
180.0
  0
LINE
  5
15F
  8
0
  6
CONTINUOUS
 62
     7
 10
-508.6670301627817
 20
120.5458307487317
 30
0.0
 11
-512.2990196597566
 21
120.5458307487317
 31
0.0
  0
LINE
  5
160
  8
0
  6
CONTINUOUS
 62
     7
 10
-453.2990196597566
 20
120.5458307487317
 30
0.0
 11
-456.9310091567315
 21
120.5458307487317
 31
0.0
  0
LINE
  5
161
  8
0
  6
CONTINUOUS
 62
     7
 10
-464.1670301627817
 20
120.5458307487317
 30
0.0
 11
-501.4310091567314
 21
120.5458307487317
 31
0.0
  0
ARC
  5
162
  8
0
  6
CONTINUOUS
 62
     7
 10
-453.2990196597566
 20
230.0458307487317
 30
0.0
 40
1.500000000000001
 50
0.0000000000002274
 51
90.00000000000011
  0
LINE
  5
163
  8
0
  6
CONTINUOUS
 62
     7
 10
-453.2990196597566
 20
117.5458307487317
 30
0.0
 11
-512.2990196597565
 21
117.5458307487317
 31
0.0
  0
ARC
  5
164
  8
0
  6
CONTINUOUS
 62
     7
 10
-453.2990196597566
 20
230.0458307487317
 30
0.0
 40
4.500000000000004
 50
0.0
 51
90.0
  0
ARC
  5
165
  8
0
  6
CONTINUOUS
 62
     7
 10
-512.2990196597565
 20
122.0458307487317
 30
0.0
 40
1.500000000000001
 50
180.0
 51
270.0
  0
ARC
  5
166
  8
0
  6
CONTINUOUS
 62
     7
 10
-505.0490196597565
 20
228.5458307487317
 30
0.0
 40
4.700000000000005
 50
39.6650129075932
 51
140.3349870924068
  0
ARC
  5
167
  8
0
  6
CONTINUOUS
 62
     7
 10
-505.0490196597565
 20
123.5458307487317
 30
0.0
 40
4.699999999999999
 50
219.6650129075932
 51
320.3349870924068
  0
ARC
  5
168
  8
0
  6
CONTINUOUS
 62
     7
 10
-460.5490196597566
 20
123.5458307487317
 30
0.0
 40
4.700000000000005
 50
219.6650129075932
 51
320.3349870924068
  0
ARC
  5
169
  8
0
  6
CONTINUOUS
 62
     7
 10
-453.2990196597566
 20
122.0458307487317
 30
0.0
 40
4.500000000000004
 50
270.0
 51
0.0
  0
ARC
  5
16A
  8
0
  6
CONTINUOUS
 62
     7
 10
-512.2990196597565
 20
122.0458307487317
 30
0.0
 40
4.499999999999997
 50
180.0
 51
270.0
  0
LINE
  5
16B
  8
0
  6
CONTINUOUS
 62
     7
 10
-448.7990196597565
 20
230.0458307487317
 30
0.0
 11
-448.7990196597565
 21
122.0458307487317
 31
0.0
  0
LINE
  5
16C
  8
0
  6
CONTINUOUS
 62
     7
 10
-516.7990196597566
 20
122.0458307487317
 30
0.0
 11
-516.7990196597566
 21
230.0458307487317
 31
0.0
  0
ARC
  5
16D
  8
0
  6
CONTINUOUS
 62
     7
 10
-512.2990196597565
 20
230.0458307487317
 30
0.0
 40
4.500000000000004
 50
90.0
 51
180.0
  0
ARC
  5
16E
  8
0
  6
CONTINUOUS
 62
     7
 10
-505.0490196597565
 20
123.5458307487317
 30
0.0
 40
5.499999999999993
 50
163.387828739728
 51
169.0575010931328
  0
ARC
  5
16F
  8
0
  6
CONTINUOUS
 62
     7
 10
-505.0490196597565
 20
123.5458307487317
 30
0.0
 40
5.500000000000006
 50
10.94249890686666
 51
16.61217126010411
  0
ARC
  5
170
  8
0
  6
CONTINUOUS
 62
     7
 10
-460.5490196597566
 20
228.5458307487317
 30
0.0
 40
5.499999999999999
 50
343.3878287399004
 51
349.0575010931332
  0
ARC
  5
171
  8
0
  6
CONTINUOUS
 62
     7
 10
-460.5490196597566
 20
228.5458307487317
 30
0.0
 40
5.5
 50
190.9424989068666
 51
196.6121712598919
  0
LINE
  5
172
  8
0
  6
CONTINUOUS
 62
     7
 10
-516.7990196597565
 20
125.5458307487317
 30
0.0
 11
-518.7990196597565
 21
125.5458307487317
 31
0.0
  0
LINE
  5
173
  8
0
  6
CONTINUOUS
 62
     7
 10
-516.7990196597565
 20
176.7958307487317
 30
0.0
 11
-518.7990196597565
 21
176.7958307487317
 31
0.0
  0
LINE
  5
174
  8
0
  6
CONTINUOUS
 62
     7
 10
-516.7990196597565
 20
226.5458307487317
 30
0.0
 11
-518.7990196597565
 21
226.5458307487317
 31
0.0
  0
LINE
  5
175
  8
0
  6
CONTINUOUS
 62
     7
 10
-448.7990196597567
 20
176.7958307487317
 30
0.0
 11
-446.7990196597566
 21
176.7958307487317
 31
0.0
  0
LINE
  5
176
  8
0
  6
CONTINUOUS
 62
     7
 10
-516.7990196597565
 20
225.0458307487317
 30
0.0
 11
-518.7990196597565
 21
225.0458307487317
 31
0.0
  0
LINE
  5
177
  8
0
  6
CONTINUOUS
 62
     7
 10
-516.7990196597565
 20
127.0458307487317
 30
0.0
 11
-518.7990196597565
 21
127.0458307487317
 31
0.0
  0
LINE
  5
178
  8
0
  6
CONTINUOUS
 62
     7
 10
-516.7990196597565
 20
175.2958307487317
 30
0.0
 11
-518.7990196597565
 21
175.2958307487317
 31
0.0
  0
LINE
  5
179
  8
0
  6
CONTINUOUS
 62
     7
 10
-448.7990196597567
 20
175.2958307487317
 30
0.0
 11
-446.7990196597566
 21
175.2958307487317
 31
0.0
  0
LINE
  5
17A
  8
0
  6
CONTINUOUS
 62
     9
 10
-514.2305776894239
 20
237.6325784094429
 30
0.0
 11
-514.3418315993428
 21
236.3387239675452
 31
0.0
  0
LINE
  5
17B
  8
0
  6
CONTINUOUS
 62
     9
 10
-514.2305776894239
 20
246.4458307487317
 30
0.0
 11
-514.2305776894239
 21
237.6325784094429
 31
0.0
  0
LINE
  5
17C
  8
0
  6
CONTINUOUS
 62
     9
 10
-451.2562077201703
 20
236.3387239675452
 30
0.0
 11
-451.3674616300895
 21
237.6325784094541
 31
0.0
  0
LINE
  5
17D
  8
0
  6
CONTINUOUS
 62
     9
 10
-451.3674616300895
 20
237.6325784094541
 30
0.0
 11
-451.3674616300895
 21
246.4458307487317
 31
0.0
  0
LINE
  5
17E
  8
0
  6
CONTINUOUS
 62
     7
 10
-448.7990196597567
 20
125.5458307487317
 30
0.0
 11
-446.7990196597566
 21
125.5458307487317
 31
0.0
  0
LINE
  5
17F
  8
0
  6
CONTINUOUS
 62
     7
 10
-448.7990196597567
 20
226.5458307487317
 30
0.0
 11
-446.7990196597566
 21
226.5458307487317
 31
0.0
  0
LINE
  5
180
  8
0
  6
CONTINUOUS
 62
     7
 10
-448.7990196597567
 20
127.0458307487317
 30
0.0
 11
-446.7990196597566
 21
127.0458307487317
 31
0.0
  0
LINE
  5
181
  8
0
  6
CONTINUOUS
 62
     7
 10
-448.7990196597567
 20
225.0458307487317
 30
0.0
 11
-446.7990196597566
 21
225.0458307487317
 31
0.0
  0
CIRCLE
  5
182
  8
0
  6
CONTINUOUS
 62
     7
 10
-482.7990196597566
 20
176.0458307487317
 30
0.0
 40
11.0
  0
CIRCLE
  5
183
  8
0
  6
CONTINUOUS
 62
     7
 10
-482.7990196597566
 20
176.0458307487317
 30
0.0
 40
13.5
  0
CIRCLE
  5
184
  8
0
  6
CONTINUOUS
 62
     7
 10
-478.5490269223839
 20
168.684644515285
 30
0.0
 40
1.5000008750266
  0
CIRCLE
  5
185
  8
0
  6
CONTINUOUS
 62
     7
 10
-487.0490246616517
 20
168.6846292255148
 30
0.0
 40
1.499996580209476
  0
CIRCLE
  5
186
  8
0
  6
CONTINUOUS
 62
     7
 10
-491.2990207664802
 20
176.0458580635842
 30
0.0
 40
1.4999988935251
  0
CIRCLE
  5
187
  8
0
  6
CONTINUOUS
 62
     7
 10
-487.0490168397955
 20
183.4071011244303
 30
0.0
 40
1.49999693697686
  0
CIRCLE
  5
188
  8
0
  6
CONTINUOUS
 62
     7
 10
-478.549015254751
 20
183.4070658984199
 30
0.0
 40
1.499999150152067
  0
CIRCLE
  5
189
  8
0
  6
CONTINUOUS
 62
     7
 10
-474.2990199741706
 20
176.045859133766
 30
0.0
 40
1.499999685854549
  0
CIRCLE
  5
18A
  8
0
  6
CONTINUOUS
 62
     7
 10
-482.7990196597566
 20
176.0458307487317
 30
0.0
 40
5.750000000000005
  0
CIRCLE
  5
18B
  8
0
  6
CONTINUOUS
 62
     7
 10
-501.7990196597566
 20
176.0458307487317
 30
0.0
 40
4.000000000000004
  0
CIRCLE
  5
18C
  8
0
  6
CONTINUOUS
 62
     7
 10
-501.7990196597566
 20
176.0458307487317
 30
0.0
 40
2.999999999999989
  0
CIRCLE
  5
18D
  8
0
  6
CONTINUOUS
 62
     7
 10
-501.7990196597566
 20
176.0458307487317
 30
0.0
 40
5.000000000000004
  0
CIRCLE
  5
18E
  8
0
  6
CONTINUOUS
 62
     7
 10
-463.7990196597566
 20
176.0458307487317
 30
0.0
 40
5.000000000000004
  0
CIRCLE
  5
18F
  8
0
  6
CONTINUOUS
 62
     7
 10
-463.7990196597566
 20
176.0458307487317
 30
0.0
 40
4.000000000000004
  0
CIRCLE
  5
190
  8
0
  6
CONTINUOUS
 62
     7
 10
-463.7990196597566
 20
176.0458307487317
 30
0.0
 40
3.000000000000003
  0
CIRCLE
  5
191
  8
0
  6
CONTINUOUS
 62
     7
 10
-482.7990196597566
 20
195.0458307487317
 30
0.0
 40
3.000000000000003
  0
CIRCLE
  5
192
  8
0
  6
CONTINUOUS
 62
     7
 10
-482.7990196597566
 20
157.0458307487317
 30
0.0
 40
2.999999999999989
  0
ARC
  5
193
  8
0
  6
CONTINUOUS
 62
     7
 10
-514.7490196626193
 20
264.1958307478357
 30
0.0
 40
1.250000000000001
 50
90.00000000362552
 51
180.0000000036258
  0
ARC
  5
194
  8
0
  6
CONTINUOUS
 62
     7
 10
-485.84901966262
 20
264.1958307496644
 30
0.0
 40
1.249999999999987
 50
0.0000000036245601
 51
90.00000000362496
  0
LINE
  5
195
  8
0
  6
CONTINUOUS
 62
     7
 10
-483.9776993190212
 20
263.5745104062231
 30
0.0
 11
-484.5990196626201
 21
264.1958307497434
 31
0.0
  0
LINE
  5
196
  8
0
  6
CONTINUOUS
 62
     7
 10
-483.099019661497
 20
246.4458307498388
 30
0.0
 11
-483.0990196624466
 21
261.4531900627191
 31
0.0
  0
ARC
  5
197
  8
0
  6
CONTINUOUS
 62
     7
 10
-486.0990196624466
 20
261.4531900625293
 30
0.0
 40
3.000000000000003
 50
0.0000000036250372
 51
45.00000000362517
  0
LINE
  5
198
  8
0
  6
CONTINUOUS
 62
     7
 10
-514.7449061878405
 20
246.4458802088758
 30
0.0
 11
-514.811163874923
 21
246.453569278727
 31
0.0
  0
LINE
  5
199
  8
0
  6
CONTINUOUS
 62
     7
 10
-515.9990196626193
 20
264.1958307477566
 30
0.0
 11
-516.6203400061396
 21
263.5745104041577
 31
0.0
  0
ARC
  5
19A
  8
0
  6
CONTINUOUS
 62
     7
 10
-514.4990196624458
 20
261.4531900607323
 30
0.0
 40
2.999999999999999
 50
135.0000000036255
 51
180.0000000036256
  0
ARC
  5
19B
  8
0
  6
CONTINUOUS
 62
     7
 10
-479.7490196626063
 20
264.1958307478442
 30
0.0
 40
1.250000000000001
 50
90.00000000360907
 51
180.0000000036086
  0
ARC
  5
19C
  8
0
  6
CONTINUOUS
 62
     7
 10
-450.8490196626069
 20
264.1958307496645
 30
0.0
 40
1.249999999999987
 50
0.0000000036086573
 51
90.00000000360868
  0
LINE
  5
19D
  8
0
  6
CONTINUOUS
 62
     7
 10
-448.9776993190081
 20
263.5745104062228
 30
0.0
 11
-449.599019662607
 21
264.1958307497432
 31
0.0
  0
ARC
  5
19E
  8
0
  6
CONTINUOUS
 62
     7
 10
-451.0990196624342
 20
261.4531900625295
 30
0.0
 40
3.000000000000003
 50
0.0000000036086043
 51
45.00000000360869
  0
LINE
  5
19F
  8
0
  6
CONTINUOUS
 62
     7
 10
-479.7449061878326
 20
246.4458802088844
 30
0.0
 11
-479.8111638749149
 21
246.4535692787355
 31
0.0
  0
LINE
  5
1A0
  8
0
  6
CONTINUOUS
 62
     7
 10
-480.9990196626062
 20
264.1958307477655
 30
0.0
 11
-481.6203400061268
 21
263.5745104041668
 31
0.0
  0
ARC
  5
1A1
  8
0
  6
CONTINUOUS
 62
     7
 10
-479.4990196624335
 20
261.4531900607408
 30
0.0
 40
3.000000000000009
 50
135.0000000036087
 51
180.0000000036089
  0
LINE
  5
1A2
  8
0
  6
CONTINUOUS
 62
     7
 10
-482.4990196624335
 20
261.4531900605518
 30
0.0
 11
-482.4990196614882
 21
246.4458307476715
 31
0.0
  0
LINE
  5
1A3
  8
0
  6
CONTINUOUS
 62
     7
 10
-514.3990196597566
 20
236.3387239675452
 30
0.0
 11
-514.3990196597566
 21
234.5458307487317
 31
0.0
  0
LINE
  5
1A4
  8
0
  6
CONTINUOUS
 62
     7
 10
-486.1990196597566
 20
234.5458307487317
 30
0.0
 11
-486.1990196597566
 21
246.4458307496426
 31
0.0
  0
LINE
  5
1A5
  8
0
  6
CONTINUOUS
 62
     7
 10
-479.3990196597566
 20
246.4458307478667
 30
0.0
 11
-479.3990196597566
 21
234.5458307487317
 31
0.0
  0
LINE
  5
1A6
  8
0
  6
CONTINUOUS
 62
     7
 10
-451.1990196597566
 20
234.5458307487317
 30
0.0
 11
-451.1990196597566
 21
236.3387239675452
 31
0.0
  0
ARC
  5
1A7
  8
0
  6
CONTINUOUS
 62
     7
 10
-512.2990196597565
 20
230.5658810003052
 30
0.0
 40
4.499999999999997
 50
117.818139284654
 51
180.0
  0
ARC
  5
1A8
  8
0
  6
CONTINUOUS
 62
     7
 10
-453.2990196597566
 20
230.5658810003052
 30
0.0
 40
4.500000000000004
 50
0.0
 51
62.18186071534655
  0
ARC
  5
1A9
  8
0
  6
CONTINUOUS
 62
     7
 10
-451.0990196597566
 20
240.888471435851
 30
0.0
 40
2.999999999999999
 50
315.0000000000002
 51
0.0
  0
ARC
  5
1AA
  8
0
  6
CONTINUOUS
 62
     7
 10
-514.4990196597565
 20
240.888471435851
 30
0.0
 40
3.000000000000003
 50
180.0
 51
224.9999999999998
  0
ARC
  5
1AB
  8
0
  6
CONTINUOUS
 62
     7
 10
-514.8990196597566
 20
236.3387239675452
 30
0.0
 40
0.4999999999999933
 50
0.0
 51
44.99999999999944
  0
LINE
  5
1AC
  8
0
  6
CONTINUOUS
 62
     7
 10
-516.6203400033162
 20
238.7671510922914
 30
0.0
 11
-514.5454662691633
 21
236.6922773581385
 31
0.0
  0
LINE
  5
1AD
  8
0
  6
CONTINUOUS
 62
     7
 10
-451.0525730503499
 20
236.6922773581385
 30
0.0
 11
-448.9776993161969
 21
238.7671510922914
 31
0.0
  0
ARC
  5
1AE
  8
0
  6
CONTINUOUS
 62
     7
 10
-450.6990196597566
 20
236.3387239675452
 30
0.0
 40
0.5000000000000004
 50
135.0000000000006
 51
180.0
  0
ENDBLK
  8
0
  0
BLOCK
  8
0
  2
D_FRAME_VIEW_2321
 70
     0
 10
0.0
 20
0.0
 30
0.0
  0
POLYLINE
  5
1B3
  8
0
  6
CONTINUOUS
 62
     7
 66
     1
 10
0.0
 20
0.0
 30
0.0
  0
VERTEX
  5
22D
  8
0
  6
CONTINUOUS
 62
     7
 10
-382.9882587774291
 20
264.1958307497262
 30
0.0
  0
VERTEX
  5
22E
  8
0
  6
CONTINUOUS
 62
     7
 10
-382.9722887388957
 20
264.1955544673589
 30
0.0
  0
VERTEX
  5
22F
  8
0
  6
CONTINUOUS
 62
     7
 10
-382.9564348279644
 20
264.1947304489041
 30
0.0
  0
VERTEX
  5
230
  8
0
  6
CONTINUOUS
 62
     7
 10
-382.9407468946364
 20
264.193365937333
 30
0.0
  0
VERTEX
  5
231
  8
0
  6
CONTINUOUS
 62
     7
 10
-382.9252747889134
 20
264.1914681756168
 30
0.0
  0
VERTEX
  5
232
  8
0
  6
CONTINUOUS
 62
     7
 10
-382.9094985629679
 20
264.188946848364
 30
0.0
  0
VERTEX
  5
233
  8
0
  6
CONTINUOUS
 62
     7
 10
-382.893982376864
 20
264.1858742190263
 30
0.0
  0
VERTEX
  5
234
  8
0
  6
CONTINUOUS
 62
     7
 10
-382.8787682124252
 20
264.1822712173396
 30
0.0
  0
VERTEX
  5
235
  8
0
  6
CONTINUOUS
 62
     7
 10
-382.8638980514755
 20
264.1781587730399
 30
0.0
  0
VERTEX
  5
236
  8
0
  6
CONTINUOUS
 62
     7
 10
-382.8451126567726
 20
264.1720750530769
 30
0.0
  0
VERTEX
  5
237
  8
0
  6
CONTINUOUS
 62
     7
 10
-382.8269149383759
 20
264.1651851548311
 30
0.0
  0
VERTEX
  5
238
  8
0
  6
CONTINUOUS
 62
     7
 10
-382.8093454789255
 20
264.1575473538715
 30
0.0
  0
VERTEX
  5
239
  8
0
  6
CONTINUOUS
 62
     7
 10
-382.7924448610611
 20
264.149219925767
 30
0.0
  0
VERTEX
  5
23A
  8
0
  6
CONTINUOUS
 62
     7
 10
-382.7762536674226
 20
264.1402611460865
 30
0.0
  0
VERTEX
  5
23B
  8
0
  6
CONTINUOUS
 62
     7
 10
-382.7608124806499
 20
264.130729290399
 30
0.0
  0
VERTEX
  5
23C
  8
0
  6
CONTINUOUS
 62
     7
 10
-382.7452353643874
 20
264.1200317301628
 30
0.0
  0
VERTEX
  5
23D
  8
0
  6
CONTINUOUS
 62
     7
 10
-382.7304315871132
 20
264.1087581463252
 30
0.0
  0
VERTEX
  5
23E
  8
0
  6
CONTINUOUS
 62
     7
 10
-382.7164074939943
 20
264.0969650288124
 30
0.0
  0
VERTEX
  5
23F
  8
0
  6
CONTINUOUS
 62
     7
 10
-382.7031694301979
 20
264.0847088675503
 30
0.0
  0
VERTEX
  5
240
  8
0
  6
CONTINUOUS
 62
     7
 10
-382.6862594415747
 20
264.0672107746682
 30
0.0
  0
VERTEX
  5
241
  8
0
  6
CONTINUOUS
 62
     7
 10
-382.6707363849798
 20
264.0489803605047
 30
0.0
  0
VERTEX
  5
242
  8
0
  6
CONTINUOUS
 62
     7
 10
-382.6565836769516
 20
264.0301251845552
 30
0.0
  0
VERTEX
  5
243
  8
0
  6
CONTINUOUS
 62
     7
 10
-382.6434899617403
 20
264.0102802256733
 30
0.0
  0
VERTEX
  5
244
  8
0
  6
CONTINUOUS
 62
     7
 10
-382.6317292514069
 20
263.989902060924
 30
0.0
  0
VERTEX
  5
245
  8
0
  6
CONTINUOUS
 62
     7
 10
-382.6212749615858
 20
263.9690696152824
 30
0.0
  0
VERTEX
  5
246
  8
0
  6
CONTINUOUS
 62
     7
 10
-382.6121005079118
 20
263.9478618137244
 30
0.0
  0
VERTEX
  5
247
  8
0
  6
CONTINUOUS
 62
     7
 10
-382.6015280759849
 20
263.9182443776306
 30
0.0
  0
VERTEX
  5
248
  8
0
  6
CONTINUOUS
 62
     7
 10
-382.5931963716777
 20
263.8880728689725
 30
0.0
  0
VERTEX
  5
249
  8
0
  6
CONTINUOUS
 62
     7
 10
-382.5870484877917
 20
263.8574863349002
 30
0.0
  0
VERTEX
  5
24A
  8
0
  6
CONTINUOUS
 62
     7
 10
-382.5835915424308
 20
263.8321446678394
 30
0.0
  0
VERTEX
  5
24B
  8
0
  6
CONTINUOUS
 62
     7
 10
-382.5815328875849
 20
263.8066062245143
 30
0.0
  0
VERTEX
  5
24C
  8
0
  6
CONTINUOUS
 62
     7
 10
-382.5808513700216
 20
263.7809308121217
 30
0.0
  0
SEQEND
  5
280
  8
0
  6
CONTINUOUS
 62
     7
  0
LINE
  5
1B4
  8
0
  6
CONTINUOUS
 62
     7
 10
-382.988258777429
 20
264.1958307487544
 30
0.0
 11
-378.627147666318
 21
264.1958307487544
 31
0.0
  0
POLYLINE
  5
1B5
  8
0
  6
CONTINUOUS
 62
     7
 66
     1
 10
0.0
 20
0.0
 30
0.0
  0
VERTEX
  5
24D
  8
0
  6
CONTINUOUS
 62
     7
 10
-379.0808513700217
 20
263.734457045788
 30
0.0
  0
VERTEX
  5
24E
  8
0
  6
CONTINUOUS
 62
     7
 10
-379.0800769494558
 20
263.7621733974362
 30
0.0
  0
VERTEX
  5
24F
  8
0
  6
CONTINUOUS
 62
     7
 10
-379.0777458815901
 20
263.7897972592755
 30
0.0
  0
VERTEX
  5
250
  8
0
  6
CONTINUOUS
 62
     7
 10
-379.0738120831089
 20
263.8174614106427
 30
0.0
  0
VERTEX
  5
251
  8
0
  6
CONTINUOUS
 62
     7
 10
-379.0682646071198
 20
263.8449352618533
 30
0.0
  0
VERTEX
  5
252
  8
0
  6
CONTINUOUS
 62
     7
 10
-379.0609004086311
 20
263.8727610484646
 30
0.0
  0
VERTEX
  5
253
  8
0
  6
CONTINUOUS
 62
     7
 10
-379.0517890434539
 20
263.9002696554895
 30
0.0
  0
VERTEX
  5
254
  8
0
  6
CONTINUOUS
 62
     7
 10
-379.0407908812726
 20
263.9276186831286
 30
0.0
  0
VERTEX
  5
255
  8
0
  6
CONTINUOUS
 62
     7
 10
-379.0279275827799
 20
263.9544952628007
 30
0.0
  0
VERTEX
  5
256
  8
0
  6
CONTINUOUS
 62
     7
 10
-379.0152921884647
 20
263.9772313883277
 30
0.0
  0
VERTEX
  5
257
  8
0
  6
CONTINUOUS
 62
     7
 10
-379.0011840779878
 20
263.9994947220293
 30
0.0
  0
VERTEX
  5
258
  8
0
  6
CONTINUOUS
 62
     7
 10
-378.9855782627267
 20
264.0211871454185
 30
0.0
  0
VERTEX
  5
259
  8
0
  6
CONTINUOUS
 62
     7
 10
-378.9725624604862
 20
264.0373943911649
 30
0.0
  0
VERTEX
  5
25A
  8
0
  6
CONTINUOUS
 62
     7
 10
-378.9586052827879
 20
264.0531951636066
 30
0.0
  0
VERTEX
  5
25B
  8
0
  6
CONTINUOUS
 62
     7
 10
-378.9437014856974
 20
264.0685262560297
 30
0.0
  0
VERTEX
  5
25C
  8
0
  6
CONTINUOUS
 62
     7
 10
-378.9278458252811
 20
264.0833244617201
 30
0.0
  0
VERTEX
  5
25D
  8
0
  6
CONTINUOUS
 62
     7
 10
-378.9156179927871
 20
264.0937952811068
 30
0.0
  0
VERTEX
  5
25E
  8
0
  6
CONTINUOUS
 62
     7
 10
-378.9028601011532
 20
264.1039328549074
 30
0.0
  0
VERTEX
  5
25F
  8
0
  6
CONTINUOUS
 62
     7
 10
-378.8894975000185
 20
264.113760972275
 30
0.0
  0
VERTEX
  5
260
  8
0
  6
CONTINUOUS
 62
     7
 10
-378.8755934497599
 20
264.1231976350657
 30
0.0
  0
VERTEX
  5
261
  8
0
  6
CONTINUOUS
 62
     7
 10
-378.8608761695654
 20
264.1323746470581
 30
0.0
  0
VERTEX
  5
262
  8
0
  6
CONTINUOUS
 62
     7
 10
-378.8455998536338
 20
264.1410809818356
 30
0.0
  0
VERTEX
  5
263
  8
0
  6
CONTINUOUS
 62
     7
 10
-378.8296495736656
 20
264.1493404336216
 30
0.0
  0
VERTEX
  5
264
  8
0
  6
CONTINUOUS
 62
     7
 10
-378.8131479210628
 20
264.1570492170436
 30
0.0
  0
VERTEX
  5
265
  8
0
  6
CONTINUOUS
 62
     7
 10
-378.7999222709034
 20
264.1626469133409
 30
0.0
  0
VERTEX
  5
266
  8
0
  6
CONTINUOUS
 62
     7
 10
-378.7863799687539
 20
264.1678689648497
 30
0.0
  0
VERTEX
  5
267
  8
0
  6
CONTINUOUS
 62
     7
 10
-378.77244805741
 20
264.1727244531725
 30
0.0
  0
VERTEX
  5
268
  8
0
  6
CONTINUOUS
 62
     7
 10
-378.7582209401519
 20
264.1771628329448
 30
0.0
  0
VERTEX
  5
269
  8
0
  6
CONTINUOUS
 62
     7
 10
-378.743416981594
 20
264.181242471274
 30
0.0
  0
VERTEX
  5
26A
  8
0
  6
CONTINUOUS
 62
     7
 10
-378.7283426915178
 20
264.1848511204274
 30
0.0
  0
VERTEX
  5
26B
  8
0
  6
CONTINUOUS
 62
     7
 10
-378.7129020227958
 20
264.1879932443589
 30
0.0
  0
VERTEX
  5
26C
  8
0
  6
CONTINUOUS
 62
     7
 10
-378.6972360557342
 20
264.19062427362
 30
0.0
  0
VERTEX
  5
26D
  8
0
  6
CONTINUOUS
 62
     7
 10
-378.6800493454933
 20
264.1928803753445
 30
0.0
  0
VERTEX
  5
26E
  8
0
  6
CONTINUOUS
 62
     7
 10
-378.6626716254456
 20
264.1945069061333
 30
0.0
  0
VERTEX
  5
26F
  8
0
  6
CONTINUOUS
 62
     7
 10
-378.644962804566
 20
264.1954988890802
 30
0.0
  0
VERTEX
  5
270
  8
0
  6
CONTINUOUS
 62
     7
 10
-378.6271476663179
 20
264.195830749739
 30
0.0
  0
SEQEND
  5
281
  8
0
  6
CONTINUOUS
 62
     7
  0
LINE
  5
1B6
  8
0
  6
CONTINUOUS
 62
     7
 10
-394.530851370021
 20
265.4458307487544
 30
0.0
 11
-365.6308513700223
 21
265.4458307487544
 31
0.0
  0
ARC
  5
1B7
  8
0
  6
CONTINUOUS
 62
     7
 10
-379.1808513700216
 20
126.5458307487317
 30
0.0
 40
0.5000000000000004
 50
90.0
 51
179.9999999999984
  0
LINE
  5
1B8
  8
0
  6
CONTINUOUS
 62
     7
 10
-379.6808513700216
 20
126.0458307487317
 30
0.0
 11
-379.6808513700216
 21
126.5458307487317
 31
0.0
  0
ARC
  5
1B9
  8
0
  6
CONTINUOUS
 62
     7
 10
-379.1808513700216
 20
126.0458307487317
 30
0.0
 40
0.5000000000000004
 50
180.0000000000016
 51
270.0000000000005
  0
LINE
  5
1BA
  8
0
  6
CONTINUOUS
 62
     7
 10
-370.1808513700215
 20
125.5458307487317
 30
0.0
 11
-379.1808513700216
 21
125.5458307487317
 31
0.0
  0
ARC
  5
1BB
  8
0
  6
CONTINUOUS
 62
     7
 10
-370.1808513700215
 20
126.0458307487317
 30
0.0
 40
0.5000000000000004
 50
269.9999999999998
 51
0.0000000000015916
  0
LINE
  5
1BC
  8
0
  6
CONTINUOUS
 62
     7
 10
-369.6808513700216
 20
126.5458307487317
 30
0.0
 11
-369.6808513700216
 21
126.0458307487317
 31
0.0
  0
ARC
  5
1BD
  8
0
  6
CONTINUOUS
 62
     7
 10
-370.1808513700215
 20
126.5458307487317
 30
0.0
 40
0.5000000000000004
 50
359.9999999999985
 51
90.00000000000021
  0
LINE
  5
1BE
  8
0
  6
CONTINUOUS
 62
     7
 10
-379.1808513700216
 20
127.0458307487317
 30
0.0
 11
-370.1808513700215
 21
127.0458307487317
 31
0.0
  0
ARC
  5
1BF
  8
0
  6
CONTINUOUS
 62
     7
 10
-383.5808513700215
 20
175.7958307487317
 30
0.0
 40
0.5000000000000004
 50
269.9999999999996
 51
0.0
  0
ARC
  5
1C0
  8
0
  6
CONTINUOUS
 62
     7
 10
-396.5808513700215
 20
176.2958307487317
 30
0.0
 40
0.5000000000000004
 50
89.9999999999992
 51
180.0
  0
LINE
  5
1C1
  8
0
  6
CONTINUOUS
 62
     7
 10
-383.5808513700215
 20
176.7958307487317
 30
0.0
 11
-396.5808513700215
 21
176.7958307487317
 31
0.0
  0
ARC
  5
1C2
  8
0
  6
CONTINUOUS
 62
     7
 10
-383.5808513700215
 20
176.2958307487317
 30
0.0
 40
0.5000000000000004
 50
359.9999999999998
 51
89.9999999999992
  0
LINE
  5
1C3
  8
0
  6
CONTINUOUS
 62
     7
 10
-383.0808513700215
 20
175.7958307487317
 30
0.0
 11
-383.0808513700215
 21
176.2958307487317
 31
0.0
  0
LINE
  5
1C4
  8
0
  6
CONTINUOUS
 62
     7
 10
-396.5808513700215
 20
175.2958307487317
 30
0.0
 11
-383.5808513700215
 21
175.2958307487317
 31
0.0
  0
ARC
  5
1C5
  8
0
  6
CONTINUOUS
 62
     7
 10
-396.5808513700215
 20
175.7958307487317
 30
0.0
 40
0.5000000000000004
 50
180.0
 51
269.9999999999984
  0
LINE
  5
1C6
  8
0
  6
CONTINUOUS
 62
     7
 10
-397.0808513700215
 20
176.2958307487317
 30
0.0
 11
-397.0808513700215
 21
175.7958307487317
 31
0.0
  0
ARC
  5
1C7
  8
0
  6
CONTINUOUS
 62
     7
 10
-379.1808513700216
 20
226.0458307487317
 30
0.0
 40
0.5000000000000004
 50
89.99999999999962
 51
179.9999999999984
  0
ARC
  5
1C8
  8
0
  6
CONTINUOUS
 62
     7
 10
-379.1808513700216
 20
225.5458307487317
 30
0.0
 40
0.5000000000000004
 50
180.0000000000016
 51
270.0
  0
LINE
  5
1C9
  8
0
  6
CONTINUOUS
 62
     7
 10
-379.6808513700216
 20
226.0458307487317
 30
0.0
 11
-379.6808513700216
 21
225.5458307487317
 31
0.0
  0
LINE
  5
1CA
  8
0
  6
CONTINUOUS
 62
     7
 10
-370.1808513700215
 20
226.5458307487317
 30
0.0
 11
-379.1808513700216
 21
226.5458307487317
 31
0.0
  0
ARC
  5
1CB
  8
0
  6
CONTINUOUS
 62
     7
 10
-370.1808513700215
 20
226.0458307487317
 30
0.0
 40
0.5000000000000004
 50
359.9999999999985
 51
90.00000000000021
  0
LINE
  5
1CC
  8
0
  6
CONTINUOUS
 62
     7
 10
-369.6808513700216
 20
225.5458307487317
 30
0.0
 11
-369.6808513700216
 21
226.0458307487317
 31
0.0
  0
ARC
  5
1CD
  8
0
  6
CONTINUOUS
 62
     7
 10
-370.1808513700215
 20
225.5458307487317
 30
0.0
 40
0.5000000000000004
 50
269.9999999999998
 51
0.0000000000015916
  0
LINE
  5
1CE
  8
0
  6
CONTINUOUS
 62
     7
 10
-379.1808513700216
 20
225.0458307487317
 30
0.0
 11
-370.1808513700215
 21
225.0458307487317
 31
0.0
  0
ARC
  5
1CF
  8
0
  6
CONTINUOUS
 62
     7
 10
-356.0116748699887
 20
232.6850236541966
 30
0.0
 40
9.377415160273273
 50
237.2773529049154
 51
250.8953547220967
  0
LINE
  5
1D0
  8
0
  6
CONTINUOUS
 62
     7
 10
-362.1808513700215
 20
230.7958307487317
 30
0.0
 11
-364.3808513700215
 21
230.7958307487317
 31
0.0
  0
LINE
  5
1D1
  8
0
  6
CONTINUOUS
 62
     7
 10
-358.8447833925218
 20
128.267567292245
 30
0.0
 11
-359.0808513700215
 21
128.267567292245
 31
0.0
  0
ARC
  5
1D2
  8
0
  6
CONTINUOUS
 62
     7
 10
-356.2642610569436
 20
119.9265034151462
 30
0.0
 40
8.803779165424787
 50
108.6586727091685
 51
123.1686196638191
  0
LINE
  5
1D3
  8
0
  6
CONTINUOUS
 62
     7
 10
-359.0808513700215
 20
223.8240942052184
 30
0.0
 11
-358.8447833925218
 21
223.8240942052184
 31
0.0
  0
LINE
  5
1D4
  8
0
  6
CONTINUOUS
 62
     7
 10
-364.3808513700216
 20
225.5830521060926
 30
0.0
 11
-364.3808513700216
 21
224.2958307487317
 31
0.0
  0
LINE
  5
1D5
  8
0
  6
CONTINUOUS
 62
     7
 10
-364.3808513700216
 20
224.2958307487317
 30
0.0
 11
-362.1808513700216
 21
224.2958307487317
 31
0.0
  0
LINE
  5
1D6
  8
0
  6
CONTINUOUS
 62
     7
 10
-362.1808513700215
 20
225.5830521060927
 30
0.0
 11
-362.1808513700215
 21
224.2958307487317
 31
0.0
  0
ARC
  5
1D7
  8
0
  6
CONTINUOUS
 62
     7
 10
-363.2808513700216
 20
227.5458307487317
 30
0.0
 40
2.249999999999995
 50
299.2675775975314
 51
60.73242240246918
  0
ARC
  5
1D8
  8
0
  6
CONTINUOUS
 62
     7
 10
-363.2808513700216
 20
227.5458307487317
 30
0.0
 40
2.250000000000005
 50
119.2675775975309
 51
240.7324224024692
  0
CIRCLE
  5
1D9
  8
0
  6
CONTINUOUS
 62
     7
 10
-363.2808513700216
 20
124.5458307487317
 30
0.0
 40
2.250000000000002
  0
CIRCLE
  5
1DA
  8
0
  6
CONTINUOUS
 62
     7
 10
-379.6808513700216
 20
148.5458307487317
 30
0.0
 40
13.54999999999999
  0
CIRCLE
  5
1DB
  8
0
  6
CONTINUOUS
 62
     7
 10
-379.6808513700216
 20
203.5458307487317
 30
0.0
 40
13.55000000000001
  0
LINE
  5
1DC
  8
0
  6
CONTINUOUS
 62
     7
 10
-361.0808513700215
 20
117.5458307487317
 30
0.0
 11
-403.0808513700215
 21
117.5458307487317
 31
0.0
  0
ARC
  5
1DD
  8
0
  6
CONTINUOUS
 62
     7
 10
-359.0808513700215
 20
224.7958307487317
 30
0.0
 40
0.9999999999999977
 50
283.6545847459752
 51
0.0
  0
ARC
  5
1DE
  8
0
  6
CONTINUOUS
 62
     7
 10
-359.0808513700215
 20
127.2958307487317
 30
0.0
 40
0.9999999999999977
 50
0.0
 51
76.34541525402487
  0
ARC
  5
1DF
  8
0
  6
CONTINUOUS
 62
     7
 10
-358.1684884986221
 20
226.7104090146729
 30
0.0
 40
4.67487022830043
 50
101.2542604121132
 51
128.5342693410431
  0
LINE
  5
1E0
  8
0
  6
CONTINUOUS
 62
     7
 10
-359.080851370018
 20
120.7962764040806
 30
0.0
 11
-359.0498384026789
 21
120.7963117664925
 31
0.0
  0
ARC
  5
1E1
  8
0
  6
CONTINUOUS
 62
     7
 10
-361.0808513700215
 20
120.5458307487317
 30
0.0
 40
3.000000000000003
 50
269.9999999999999
 51
0.0
  0
ARC
  5
1E2
  8
0
  6
CONTINUOUS
 62
     7
 10
-357.950592434696
 20
125.8507924313931
 30
0.0
 40
5.179345280171379
 50
232.8162285042975
 51
257.3952417426194
  0
ARC
  5
1E3
  8
0
  6
CONTINUOUS
 62
     7
 10
-361.0808513700215
 20
231.5458307487317
 30
0.0
 40
3.000000000000003
 50
0.0
 51
90.00000000000006
  0
LINE
  5
1E4
  8
0
  6
CONTINUOUS
 62
     7
 10
-359.0498384026899
 20
231.2953497309713
 30
0.0
 11
-359.0808513700215
 21
231.2953850933827
 31
0.0
  0
ARC
  5
1E5
  8
0
  6
CONTINUOUS
 62
     7
 10
-359.0808513700215
 20
121.7958307487317
 30
0.0
 40
0.9999999999999941
 50
271.777197102507
 51
0.0
  0
ARC
  5
1E6
  8
0
  6
CONTINUOUS
 62
     7
 10
-359.0808513700215
 20
230.2958307487317
 30
0.0
 40
0.9999999999999991
 50
0.0
 51
88.22280289812471
  0
LINE
  5
1E7
  8
0
  6
CONTINUOUS
 62
     9
 10
-381.3626620037953
 20
236.6922773581385
 30
0.0
 11
-378.7990407362478
 21
236.6922773581385
 31
0.0
  0
ARC
  5
1E8
  8
0
  6
CONTINUOUS
 62
     9
 10
-380.1151496772839
 20
237.6031434684053
 30
0.0
 40
1.715954170197274
 50
179.0171179155365
 51
198.6071472945592
  0
POLYLINE
  5
1E9
  8
0
  6
CONTINUOUS
 62
     9
 66
     1
 10
0.0
 20
0.0
 30
0.0
  0
VERTEX
  5
271
  8
0
  6
CONTINUOUS
 62
     9
 10
-381.7414085454338
 20
237.0556210414847
 30
0.0
  0
VERTEX
  5
272
  8
0
  6
CONTINUOUS
 62
     9
 10
-381.686670821061
 20
236.9316878525201
 30
0.0
  0
VERTEX
  5
273
  8
0
  6
CONTINUOUS
 62
     9
 10
-381.6230529128451
 20
236.8331687860522
 30
0.0
  0
VERTEX
  5
274
  8
0
  6
CONTINUOUS
 62
     9
 10
-381.5462728173684
 20
236.755569472033
 30
0.0
  0
VERTEX
  5
275
  8
0
  6
CONTINUOUS
 62
     9
 10
-381.4533169145439
 20
236.7048841591868
 30
0.0
  0
VERTEX
  5
276
  8
0
  6
CONTINUOUS
 62
     9
 10
-381.3626620037953
 20
236.6922773581385
 30
0.0
  0
SEQEND
  5
282
  8
0
  6
CONTINUOUS
 62
     9
  0
POLYLINE
  5
1EA
  8
0
  6
CONTINUOUS
 62
     9
 66
     1
 10
0.0
 20
0.0
 30
0.0
  0
VERTEX
  5
277
  8
0
  6
CONTINUOUS
 62
     9
 10
-378.7990407362478
 20
236.6922773581385
 30
0.0
  0
VERTEX
  5
278
  8
0
  6
CONTINUOUS
 62
     9
 10
-378.6933296128021
 20
236.7103381642034
 30
0.0
  0
VERTEX
  5
279
  8
0
  6
CONTINUOUS
 62
     9
 10
-378.6021235539026
 20
236.7664198278021
 30
0.0
  0
VERTEX
  5
27A
  8
0
  6
CONTINUOUS
 62
     9
 10
-378.5306719997321
 20
236.8435480618441
 30
0.0
  0
VERTEX
  5
27B
  8
0
  6
CONTINUOUS
 62
     9
 10
-378.4676989470245
 20
236.9457391351208
 30
0.0
  0
SEQEND
  5
283
  8
0
  6
CONTINUOUS
 62
     9
  0
ARC
  5
1EB
  8
0
  6
CONTINUOUS
 62
     9
 10
-379.8513495501267
 20
237.5784737103584
 30
0.0
 40
1.521460493790736
 50
335.4256847680145
 51
2.037926490877055
  0
ARC
  5
1EC
  8
0
  6
CONTINUOUS
 62
     7
 10
-365.6308513700219
 20
247.6958307487548
 30
0.0
 40
1.250000000000029
 50
270.0000000000148
 51
359.9999999999993
  0
ARC
  5
1ED
  8
0
  6
CONTINUOUS
 62
     7
 10
-394.5308513700213
 20
264.1958307487544
 30
0.0
 40
1.249999999999973
 50
90.00000000001495
 51
180.0
  0
ARC
  5
1EE
  8
0
  6
CONTINUOUS
 62
     7
 10
-365.6308513700219
 20
264.1958307487544
 30
0.0
 40
1.249999999999973
 50
0.0
 51
89.99999999998529
  0
LINE
  5
1EF
  8
0
  6
CONTINUOUS
 62
     7
 10
-364.3808513700216
 20
247.6958307487548
 30
0.0
 11
-364.3808513700216
 21
264.1958307487544
 31
0.0
  0
ARC
  5
1F0
  8
0
  6
CONTINUOUS
 62
     7
 10
-394.5308513700214
 20
247.6958307487548
 30
0.0
 40
1.250000000000015
 50
180.0000000000006
 51
269.9999999999851
  0
LINE
  5
1F1
  8
0
  6
CONTINUOUS
 62
     7
 10
-395.7808513700217
 20
264.1958307487544
 30
0.0
 11
-395.7808513700217
 21
247.6958307487548
 31
0.0
  0
LINE
  5
1F2
  8
0
  6
CONTINUOUS
 62
     7
 10
-394.1808513700216
 20
246.4458307489539
 30
0.0
 11
-394.1808513700216
 21
234.5458307487317
 31
0.0
  0
LINE
  5
1F3
  8
0
  6
CONTINUOUS
 62
     7
 10
-365.9808513700216
 20
234.5458307487317
 30
0.0
 11
-365.9808513700216
 21
246.4458307489539
 31
0.0
  0
ENDBLK
  8
0
  0
ENDSEC
  0
SECTION
  2
ENTITIES
  0
LINE
  5
6F
  8
0
  6
CONTINUOUS
 62
     7
 10
-362.1808513700215
 20
230.7958307487317
 30
0.0
 11
-362.1808513700215
 21
229.4667521751665
 31
0.0
  0
LINE
  5
70
  8
0
  6
CONTINUOUS
 62
     7
 10
-364.3808513700216
 20
230.7958307487317
 30
0.0
 11
-364.3808513700216
 21
229.4667521751657
 31
0.0
  0
LINE
  5
71
  8
0
  6
CONTINUOUS
 62
     7
 10
-361.0808513700215
 20
234.5458307487317
 30
0.0
 11
-403.0808513700216
 21
234.5458307487317
 31
0.0
  0
LINE
  5
72
  8
0
  6
CONTINUOUS
 62
     7
 10
-403.0808513700216
 20
117.5458307487317
 30
0.0
 11
-403.0808513700216
 21
234.5458307487318
 31
0.0
  0
LINE
  5
73
  8
0
  6
CONTINUOUS
 62
     7
 10
-358.0808513700215
 20
120.5458307487317
 30
0.0
 11
-358.0808513700215
 21
231.5458307487318
 31
0.0
  0
INSERT
  5
8D
  8
0
  6
CONTINUOUS
 62
     7
  2
D_FRAME_VIEW_2053
 10
0.0
 20
0.0
 30
0.0
  0
LINE
  5
8E
  8
0
  6
CONTINUOUS
 62
     7
 10
-448.0990196597566
 20
246.4458307498386
 30
0.0
 11
-482.4990196614878
 21
246.4458307476714
 31
0.0
  0
LINE
  5
8F
  8
0
  6
CONTINUOUS
 62
     7
 10
-446.7990196597566
 20
84.05037498432343
 30
0.0
 11
-446.7990196597566
 21
70.05037498432343
 31
0.0
  0
LINE
  5
90
  8
0
  6
CONTINUOUS
 62
     7
 10
-518.7990196597566
 20
84.05037498432345
 30
0.0
 11
-518.7990196597566
 21
70.05037498432343
 31
0.0
  0
LINE
  5
91
  8
0
  6
CONTINUOUS
 62
     7
 10
-382.5808513700216
 20
263.7809308121217
 30
0.0
 11
-382.5808513700216
 21
246.4458307498266
 31
0.0
  0
CIRCLE
  5
92
  8
0
  6
CONTINUOUS
 62
     7
 10
-460.5490196597566
 20
228.5458307487317
 30
0.0
 40
4.000000000000004
  0
CIRCLE
  5
93
  8
0
  6
CONTINUOUS
 62
     7
 10
-505.0490196597565
 20
123.5458307487317
 30
0.0
 40
4.000000000000004
  0
LINE
  5
94
  8
0
  6
CONTINUOUS
 62
     7
 10
-446.7990196597566
 20
226.5458307487317
 30
0.0
 11
-446.7990196597566
 21
225.0458307487317
 31
0.0
  0
LINE
  5
95
  8
0
  6
CONTINUOUS
 62
     9
 10
-471.2990196597566
 20
45.05037498432342
 30
0.0
 11
-471.2990196597566
 21
53.85037498432342
 31
0.0
  0
LINE
  5
96
  8
0
  6
CONTINUOUS
 62
     7
 10
-473.7990196597565
 20
174.6316171863586
 30
0.0
 11
-473.7990196597565
 21
177.4600443111048
 31
0.0
  0
LINE
  5
97
  8
0
  6
CONTINUOUS
 62
     7
 10
-491.7990196597566
 20
177.4600443111048
 30
0.0
 11
-491.7990196597566
 21
174.6316171863586
 31
0.0
  0
LINE
  5
98
  8
0
  6
CONTINUOUS
 62
     7
 10
-446.7990196597566
 20
176.7958307487317
 30
0.0
 11
-446.7990196597566
 21
175.2958307487317
 31
0.0
  0
LINE
  5
99
  8
0
  6
CONTINUOUS
 62
     7
 10
-451.1990196597566
 20
234.5458307487317
 30
0.0
 11
-514.3990196597565
 21
234.5458307487317
 31
0.0
  0
LINE
  5
9A
  8
0
  6
CONTINUOUS
 62
     7
 10
-516.7990196597566
 20
90.0503749843234
 30
0.0
 11
-448.7990196597566
 21
90.0503749843234
 31
0.0
  0
LINE
  5
9B
  8
0
  6
CONTINUOUS
 62
     7
 10
-446.7990196597566
 20
125.5458307487317
 30
0.0
 11
-446.7990196597566
 21
127.0458307487317
 31
0.0
  0
LINE
  5
9C
  8
0
  6
CONTINUOUS
 62
     7
 10
-518.7990196597566
 20
56.65037498432341
 30
0.0
 11
-518.7990196597566
 21
66.65037498432342
 31
0.0
  0
LINE
  5
9D
  8
0
  6
CONTINUOUS
 62
     7
 10
-515.7990196597566
 20
45.05037498432342
 30
0.0
 11
-449.7990196597566
 21
45.05037498432342
 31
0.0
  0
LINE
  5
9E
  8
0
  6
CONTINUOUS
 62
     7
 10
-516.7990196597566
 20
90.0503749843234
 30
0.0
 11
-516.7990196597566
 21
46.05037498432343
 31
0.0
  0
LINE
  5
9F
  8
0
  6
CONTINUOUS
 62
     7
 10
-446.7990196597566
 20
56.65037498432341
 30
0.0
 11
-446.7990196597566
 21
66.65037498432342
 31
0.0
  0
LINE
  5
A0
  8
0
  6
CONTINUOUS
 62
     9
 10
-462.2990196597566
 20
53.85037498432342
 30
0.0
 11
-462.2990196597566
 21
45.05037498432342
 31
0.0
  0
LINE
  5
A1
  8
0
  6
CONTINUOUS
 62
     7
 10
-378.3308513700215
 20
246.4458307487317
 30
0.0
 11
-378.3308513700215
 21
237.6325784094429
 31
0.0
  0
LINE
  5
A2
  8
0
  6
CONTINUOUS
 62
     7
 10
-381.8308513700216
 20
237.6325784094541
 30
0.0
 11
-381.8308513700216
 21
246.4458307487317
 31
0.0
  0
LINE
  5
A3
  8
0
  6
CONTINUOUS
 62
     7
 10
-379.0808513700217
 20
246.4458307498363
 30
0.0
 11
-379.0808513700217
 21
263.734457045788
 31
0.0
  0
LINE
  5
A4
  8
0
  6
CONTINUOUS
 62
     7
 10
-517.4990196597566
 20
261.4531900605425
 30
0.0
 11
-517.4990196597566
 21
240.888471435851
 31
0.0
  0
LINE
  5
A5
  8
0
  6
CONTINUOUS
 62
     7
 10
-365.6308513700226
 20
246.4458307517306
 30
0.0
 11
-394.530851370021
 21
246.4458307482766
 31
0.0
  0
LINE
  5
A6
  8
0
  6
CONTINUOUS
 62
     7
 10
-448.0990196597566
 20
240.888471435851
 30
0.0
 11
-448.0990196597566
 21
261.4531900627185
 31
0.0
  0
TEXT
  5
A7
  8
0
  6
CONTINUOUS
 62
     7
 10
-461.5970238839565
 20
21.65684006502438
 30
0.0
 40
6.0
  1
CDO-M16SWGF
  0
INSERT
  5
1AF
  8
0
  6
CONTINUOUS
 62
     7
  2
D_FRAME_VIEW_1401
 10
0.0
 20
0.0
 30
0.0
  0
INSERT
  5
1F4
  8
0
  6
CONTINUOUS
 62
     7
  2
D_FRAME_VIEW_2321
 10
0.0
 20
0.0
 30
0.0
  0
LINE
  5
1F5
  8
0
  6
CONTINUOUS
 62
     7
 10
-456.5490196597566
 20
229.7458307487317
 30
0.0
 11
-456.5490196597565
 21
227.3458307487317
 31
0.0
  0
ARC
  5
1F6
  8
0
  6
CONTINUOUS
 62
     7
 10
-460.5490196597566
 20
228.5458307487317
 30
0.0
 40
4.700000000000005
 50
39.6650129075932
 51
140.6796321950647
  0
LINE
  5
1F7
  8
0
  6
CONTINUOUS
 62
     7
 10
-514.7490196626981
 20
265.4458307478356
 30
0.0
 11
-485.8490196627
 21
265.4458307496642
 31
0.0
  0
LINE
  5
1F8
  8
0
  6
CONTINUOUS
 62
     7
 10
-501.0490196597565
 20
124.7458307487317
 30
0.0
 11
-501.0490196597565
 21
122.3458307487317
 31
0.0
  0
LINE
  5
1F9
  8
0
  6
CONTINUOUS
 62
     7
 10
-509.0490196597565
 20
122.3458307487317
 30
0.0
 11
-509.0490196597565
 21
124.7458307487317
 31
0.0
  0
LINE
  5
1FA
  8
0
  6
CONTINUOUS
 62
     7
 10
-518.7990196597566
 20
176.7958307487317
 30
0.0
 11
-518.7990196597566
 21
175.2958307487317
 31
0.0
  0
LINE
  5
1FB
  8
0
  6
CONTINUOUS
 62
     7
 10
-479.7490196626846
 20
265.4458307478442
 30
0.0
 11
-450.8490196626863
 21
265.4458307496645
 31
0.0
  0
LINE
  5
1FC
  8
0
  6
CONTINUOUS
 62
     7
 10
-464.5490196597566
 20
227.3458307487317
 30
0.0
 11
-464.5490196597567
 21
229.7458307487317
 31
0.0
  0
LINE
  5
1FD
  8
0
  6
CONTINUOUS
 62
     7
 10
-518.7990196597566
 20
226.5458307487317
 30
0.0
 11
-518.7990196597566
 21
225.0458307487317
 31
0.0
  0
LINE
  5
1FE
  8
0
  6
CONTINUOUS
 62
     7
 10
-518.7990196597566
 20
125.5458307487317
 30
0.0
 11
-518.7990196597566
 21
127.0458307487317
 31
0.0
  0
LINE
  5
1FF
  8
0
  6
CONTINUOUS
 62
     7
 10
-483.0990196614975
 20
246.445830749838
 30
0.0
 11
-517.4990196614957
 21
246.4458307476622
 31
0.0
  0
ENDSEC
  0
EOF
