  0
SECTION
  2
HEADER
  9
$ACADVER
  1
AC1004
  9
$INSBASE
 10
0.0
 20
0.0
  9
$EXTMIN
 10
-275.0
 20
117.7704545454545
  9
$EXTMAX
 10
-190.5
 20
159.5
  9
$LIMMIN
 10
0.0
 20
0.0
  9
$LIMMAX
 10
12.0
 20
9.0
  9
$ORTHOMODE
 70
     0
  9
$REGENMODE
 70
     1
  9
$FILLMODE
 70
     1
  9
$QTEXTMODE
 70
     0
  9
$DRAGMODE
 70
     2
  9
$LTSCALE
 40
1.0
  9
$OSMODE
 70
    37
  9
$ATTMODE
 70
     1
  9
$TEXTSIZE
 40
0.2
  9
$TRACEWID
 40
0.05
  9
$TEXTSTYLE
  7
STANDARD
  9
$CLAYER
  8
0
  9
$CELTYPE
  6
BYLAYER
  9
$CECOLOR
 62
   256
  9
$DIMSCALE
 40
1.0
  9
$DIMASZ
 40
3.0
  9
$DIMEXO
 40
0.0625
  9
$DIMDLI
 40
0.38
  9
$DIMRND
 40
0.0
  9
$DIMDLE
 40
0.0
  9
$DIMEXE
 40
1.5
  9
$DIMTP
 40
0.0
  9
$DIMTM
 40
0.0
  9
$DIMTXT
 40
3.0
  9
$DIMCEN
 40
0.09
  9
$DIMTSZ
 40
0.0
  9
$DIMTOL
 70
     0
  9
$DIMLIM
 70
     0
  9
$DIMTIH
 70
     1
  9
$DIMTOH
 70
     1
  9
$DIMSE1
 70
     0
  9
$DIMSE2
 70
     0
  9
$DIMTAD
 70
     1
  9
$DIMZIN
 70
     0
  9
$DIMBLK
  1

  9
$DIMASO
 70
     1
  9
$DIMSHO
 70
     1
  9
$DIMPOST
  1

  9
$DIMAPOST
  1

  9
$DIMALT
 70
     0
  9
$DIMALTD
 70
     2
  9
$DIMALTF
 40
25.4
  9
$DIMLFAC
 40
1.0
  9
$DIMTOFL
 70
     0
  9
$DIMTVP
 40
0.0
  9
$DIMTIX
 70
     0
  9
$DIMSOXD
 70
     0
  9
$DIMSAH
 70
     0
  9
$DIMBLK1
  1

  9
$DIMBLK2
  1

  9
$LUNITS
 70
     2
  9
$LUPREC
 70
     4
  9
$SKETCHINC
 40
0.1
  9
$FILLETRAD
 40
0.5
  9
$AUNITS
 70
     0
  9
$AUPREC
 70
     0
  9
$MENU
  1
.
  9
$ELEVATION
 40
0.0
  9
$THICKNESS
 40
0.0
  9
$LIMCHECK
 70
     0
  9
$CHAMFERA
 40
0.0
  9
$CHAMFERB
 40
0.0
  9
$SKPOLY
 70
     0
  9
$TDCREATE
 40
2460053.321627627
  9
$TDUPDATE
 40
2460053.321627917
  9
$TDINDWG
 40
0.0000000116
  9
$TDUSRTIMER
 40
0.0000000116
  9
$USRTIMER
 70
     1
  9
$ANGBASE
 50
0.0
  9
$ANGDIR
 70
     0
  9
$PDMODE
 70
     0
  9
$PDSIZE
 40
0.0
  9
$PLINEWID
 40
0.0
  9
$COORDS
 70
     1
  9
$SPLFRAME
 70
     0
  9
$SPLINETYPE
 70
     6
  9
$SPLINESEGS
 70
     8
  9
$ATTDIA
 70
     0
  9
$ATTREQ
 70
     1
  9
$SURFTAB1
 70
     6
  9
$SURFTAB2
 70
     6
  9
$SURFTYPE
 70
     6
  9
$SURFU
 70
     6
  9
$SURFV
 70
     6
  9
$UCSNAME
  2

  9
$UCSORG
 10
0.0
 20
0.0
 30
0.0
  9
$UCSXDIR
 10
1.0
 20
0.0
 30
0.0
  9
$UCSYDIR
 10
0.0
 20
1.0
 30
0.0
  9
$USERI1
 70
     0
  9
$USERI2
 70
     0
  9
$USERI3
 70
     0
  9
$USERI4
 70
     0
  9
$USERI5
 70
     0
  9
$USERR1
 40
0.0
  9
$USERR2
 40
0.0
  9
$USERR3
 40
0.0
  9
$USERR4
 40
0.0
  9
$USERR5
 40
0.0
  9
$WORLDVIEW
 70
     1
  0
ENDSEC
  0
SECTION
  2
TABLES
  0
TABLE
  2
LTYPE
 70
     2
  0
LTYPE
  2
CONTINUOUS
 70
     0
  3
Solid line
 72
    65
 73
     0
 40
0.0
  0
LTYPE
  2
CENTER
 70
     0
  3

 72
    65
 73
     0
 40
0.0
  0
ENDTAB
  0
TABLE
  2
LAYER
 70
     1
  0
LAYER
  2
0
 70
     0
 62
     7
  6
CONTINUOUS
  0
ENDTAB
  0
TABLE
  2
STYLE
 70
     2
  0
STYLE
  2
STANDARD
 70
     0
 40
0.0
 41
1.0
 50
0.0
 71
     0
 42
0.2
  3
txt
  4

  0
STYLE
  2
ＭＳ_ゴシック
 70
     0
 40
0.0
 41
1.0
 50
0.0
 71
     0
 42
0.2
  3
ＭＳ ゴシック.shx
  4

  0
ENDTAB
  0
TABLE
  2
VIEW
 70
     0
  0
ENDTAB
  0
ENDSEC
  0
SECTION
  2
BLOCKS
  0
BLOCK
  8
0
  2
D_FRAME_VIEW_1900
 70
     0
 10
0.0
 20
0.0
  0
ARC
  8
0
  6
CONTINUOUS
 62
     7
 10
-206.0001233955377
 20
140.7000473570351
 40
3.800122992027431
 50
317.5256211085518
 51
0.4825328878434903
  0
ARC
  8
0
  6
CONTINUOUS
 62
     7
 10
-206.0040970126884
 20
140.7010919698413
 40
5.104090191705471
 50
329.8044393307746
 51
0.3475294421655804
  0
LINE
  8
0
  6
CONTINUOUS
 62
     7
 10
-208.6712034094975
 20
145.7179618932123
 11
-209.4994253485746
 21
145.7107341098486
  0
ARC
  8
0
  6
CONTINUOUS
 62
     7
 10
-208.6755666772466
 20
146.2179428547444
 40
0.5000000000000154
 50
270.5000000000001
 51
33.39221818301826
  0
ARC
  8
0
  6
CONTINUOUS
 62
     7
 10
-204.0
 20
149.3
 40
3.800000000000016
 50
180.4832625730323
 51
248.9671767860071
  0
LINE
  8
0
  6
CONTINUOUS
 62
     7
 10
-200.5005746514254
 20
145.7107341098486
 11
-205.3638303127266
 21
145.7531750990374
  0
LINE
  8
0
  6
CONTINUOUS
 62
     7
 10
-201.3287965905026
 20
144.2820381067877
 11
-200.5005746514254
 21
144.2892658901514
  0
ARC
  8
0
  6
CONTINUOUS
 62
     7
 10
-201.3244333227534
 20
143.7820571452556
 40
0.5000000000000154
 50
90.5
 51
213.3922181830183
  0
ARC
  8
0
  6
CONTINUOUS
 62
     7
 10
-209.4950620808254
 20
144.7892468516835
 40
0.5000000000000023
 50
182.6843743664059
 51
269.5000000000001
  0
ARC
  8
0
  6
CONTINUOUS
 62
     7
 10
-205.0
 20
145.0
 40
4.999999999999992
 50
357.315625633594
 51
2.684374366405905
  0
ARC
  8
0
  6
CONTINUOUS
 62
     7
 10
-205.0
 20
145.0
 40
4.999999999999992
 50
177.3156256335942
 51
182.6843743664059
  0
LINE
  8
0
  6
CONTINUOUS
 62
     7
 10
-209.4994253485746
 20
144.2892658901514
 11
-204.6361696872734
 21
144.2468249009625
  0
ARC
  8
0
  6
CONTINUOUS
 62
     7
 10
-206.0
 20
140.7
 40
3.800000000000016
 50
0.4832625730322647
 51
68.96717678600706
  0
ARC
  8
0
  6
CONTINUOUS
 62
     7
 10
-200.5049379191746
 20
144.7892468516835
 40
0.5000000000000016
 50
270.5000000000001
 51
357.3156256335942
  0
ARC
  8
0
  6
CONTINUOUS
 62
     7
 10
-200.5049379191746
 20
145.2107531483165
 40
0.5000000000000023
 50
2.684374366405887
 51
89.50000000000004
  0
ARC
  8
0
  6
CONTINUOUS
 62
     7
 10
-209.4950620808254
 20
145.2107531483165
 40
0.5000000000000016
 50
90.5
 51
177.3156256335942
  0
ARC
  8
0
  6
CONTINUOUS
 62
     7
 10
-204.0
 20
149.3
 40
5.100000000000001
 50
180.3600760964151
 51
213.3922181830183
  0
ARC
  8
0
  6
CONTINUOUS
 62
     7
 10
-206.0
 20
140.7
 40
5.100000000000001
 50
0.3600760964151278
 51
33.39221818301826
  0
ARC
  8
0
  6
CONTINUOUS
 62
     7
 10
-203.9998766044622
 20
149.2999526429649
 40
3.800122992027532
 50
137.5256211085526
 51
180.4825328878435
  0
ARC
  8
0
  6
CONTINUOUS
 62
     7
 10
-203.9959029873114
 20
149.2989080301586
 40
5.104090191705666
 50
149.8044393307752
 51
180.3475294421653
  0
LINE
  8
0
  6
CONTINUOUS
 62
     7
 10
-209.074494132668
 20
150.8295454545446
 11
-209.1153436467785
 21
150.6868162731098
  0
LINE
  8
0
  6
CONTINUOUS
 62
     7
 10
-209.1153436467785
 20
150.6868162731098
 11
-209.1538668039952
 21
150.5359842097195
  0
LINE
  8
0
  6
CONTINUOUS
 62
     7
 10
-209.2998935216904
 20
149.3335955167237
 11
-209.2392747589716
 21
148.5000000000007
  0
LINE
  8
0
  6
CONTINUOUS
 62
     7
 10
-209.1257810330077
 20
150.6477272727271
 11
-209.1401945978117
 21
150.5916653965432
  0
LINE
  8
0
  6
CONTINUOUS
 62
     7
 10
-209.2472092221135
 20
150.0461872280915
 11
-209.2996186549519
 21
149.3635776067945
  0
LINE
  8
0
  6
CONTINUOUS
 62
     7
 10
-209.2997419066965
 20
149.2476958662757
 11
-209.2645276103245
 21
148.6878325064731
  0
LINE
  8
0
  6
CONTINUOUS
 62
     7
 10
-209.1538668039952
 20
150.5359842097195
 11
-209.2421929901103
 21
150.0806488675703
  0
ARC
  8
0
  6
CONTINUOUS
 62
     7
 10
-204.7671171994062
 20
139.0
 40
3.0
 50
270.0
 51
305.9505676196174
  0
LINE
  8
0
  6
CONTINUOUS
 62
     7
 10
-204.7671171994062
 20
136.0
 11
-205.5
 21
136.0
  0
POLYLINE
  8
0
  6
CONTINUOUS
 62
     7
 66
     1
  0
VERTEX
  8
0
  6
CONTINUOUS
 62
     7
 10
-205.9987441545586
 20
136.4645843495937
  0
VERTEX
  8
0
  6
CONTINUOUS
 62
     7
 10
-205.9965369906415
 20
136.441254643378
  0
VERTEX
  8
0
  6
CONTINUOUS
 62
     7
 10
-205.9932391399968
 20
136.4180539764525
  0
VERTEX
  8
0
  6
CONTINUOUS
 62
     7
 10
-205.9888578466403
 20
136.3950333111017
  0
VERTEX
  8
0
  6
CONTINUOUS
 62
     7
 10
-205.9834027344643
 20
136.3722432142215
  0
VERTEX
  8
0
  6
CONTINUOUS
 62
     7
 10
-205.9768857860977
 20
136.3497337462435
  0
VERTEX
  8
0
  6
CONTINUOUS
 62
     7
 10
-205.9693213165849
 20
136.3275543511738
  0
VERTEX
  8
0
  6
CONTINUOUS
 62
     7
 10
-205.9607259419416
 20
136.3057537479847
  0
VERTEX
  8
0
  6
CONTINUOUS
 62
     7
 10
-205.9511185426568
 20
136.284379823599
  0
VERTEX
  8
0
  6
CONTINUOUS
 62
     7
 10
-205.9405202222192
 20
136.2634795277023
  0
VERTEX
  8
0
  6
CONTINUOUS
 62
     7
 10
-205.9289542607625
 20
136.2430987696142
  0
VERTEX
  8
0
  6
CONTINUOUS
 62
     7
 10
-205.9164460639277
 20
136.2232823174441
  0
VERTEX
  8
0
  6
CONTINUOUS
 62
     7
 10
-205.9030231070583
 20
136.2040736997544
  0
VERTEX
  8
0
  6
CONTINUOUS
 62
     7
 10
-205.8887148748477
 20
136.1855151099462
  0
VERTEX
  8
0
  6
CONTINUOUS
 62
     7
 10
-205.8735527965734
 20
136.1676473135776
  0
VERTEX
  8
0
  6
CONTINUOUS
 62
     7
 10
-205.8575701770604
 20
136.1505095588188
  0
VERTEX
  8
0
  6
CONTINUOUS
 62
     7
 10
-205.840802123524
 20
136.1341394902404
  0
VERTEX
  8
0
  6
CONTINUOUS
 62
     7
 10
-205.8232854684534
 20
136.1185730661229
  0
VERTEX
  8
0
  6
CONTINUOUS
 62
     7
 10
-205.8050586887066
 20
136.1038444794722
  0
VERTEX
  8
0
  6
CONTINUOUS
 62
     7
 10
-205.786161820992
 20
136.0899860829111
  0
VERTEX
  8
0
  6
CONTINUOUS
 62
     7
 10
-205.7666363739248
 20
136.0770283176142
  0
VERTEX
  8
0
  6
CONTINUOUS
 62
     7
 10
-205.7465252368492
 20
136.064999646441
  0
VERTEX
  8
0
  6
CONTINUOUS
 62
     7
 10
-205.7258725856287
 20
136.0539264914149
  0
VERTEX
  8
0
  6
CONTINUOUS
 62
     7
 10
-205.7047237856098
 20
136.043833175685
  0
VERTEX
  8
0
  6
CONTINUOUS
 62
     7
 10
-205.6831252919727
 20
136.034741870098
  0
VERTEX
  8
0
  6
CONTINUOUS
 62
     7
 10
-205.6611245476892
 20
136.026672544498
  0
VERTEX
  8
0
  6
CONTINUOUS
 62
     7
 10
-205.6387698793095
 20
136.0196429238614
  0
VERTEX
  8
0
  6
CONTINUOUS
 62
     7
 10
-205.6161103908086
 20
136.0136684493617
  0
VERTEX
  8
0
  6
CONTINUOUS
 62
     7
 10
-205.593195855726
 20
136.0087622444523
  0
VERTEX
  8
0
  6
CONTINUOUS
 62
     7
 10
-205.5700766078328
 20
136.0049350860396
  0
VERTEX
  8
0
  6
CONTINUOUS
 62
     7
 10
-205.5468034305696
 20
136.00219538081
  0
VERTEX
  8
0
  6
CONTINUOUS
 62
     7
 10
-205.5234274454966
 20
136.0005491467647
  0
VERTEX
  8
0
  6
CONTINUOUS
 62
     7
 10
-205.5
 20
136.0
  0
SEQEND
  8
0
  6
CONTINUOUS
 62
     7
  0
POLYLINE
  8
0
  6
CONTINUOUS
 62
     7
 66
     1
  0
VERTEX
  8
0
  6
CONTINUOUS
 62
     7
 10
-205.5581395348837
 20
136.9257769899796
  0
VERTEX
  8
0
  6
CONTINUOUS
 62
     7
 10
-205.5825939513425
 20
136.9222997560087
  0
VERTEX
  8
0
  6
CONTINUOUS
 62
     7
 10
-205.6068468023375
 20
136.9176190659907
  0
VERTEX
  8
0
  6
CONTINUOUS
 62
     7
 10
-205.6308389002759
 20
136.9117463428621
  0
VERTEX
  8
0
  6
CONTINUOUS
 62
     7
 10
-205.6545116939167
 20
136.9046959186429
  0
VERTEX
  8
0
  6
CONTINUOUS
 62
     7
 10
-205.6778074112614
 20
136.8964849994601
  0
VERTEX
  8
0
  6
CONTINUOUS
 62
     7
 10
-205.700669200543
 20
136.8871336235577
  0
VERTEX
  8
0
  6
CONTINUOUS
 62
     7
 10
-205.7230412689696
 20
136.8766646123939
  0
VERTEX
  8
0
  6
CONTINUOUS
 62
     7
 10
-205.7448690188825
 20
136.8651035149473
  0
VERTEX
  8
0
  6
CONTINUOUS
 62
     7
 10
-205.7660991809991
 20
136.8524785453659
  0
VERTEX
  8
0
  6
CONTINUOUS
 62
     7
 10
-205.7866799444132
 20
136.8388205141123
  0
VERTEX
  8
0
  6
CONTINUOUS
 62
     7
 10
-205.8065610830361
 20
136.8241627527728
  0
VERTEX
  8
0
  6
CONTINUOUS
 62
     7
 10
-205.8256940781704
 20
136.8085410327132
  0
VERTEX
  8
0
  6
CONTINUOUS
 62
     7
 10
-205.844032236917
 20
136.7919934777816
  0
VERTEX
  8
0
  6
CONTINUOUS
 62
     7
 10
-205.8615308061262
 20
136.7745604712692
  0
VERTEX
  8
0
  6
CONTINUOUS
 62
     7
 10
-205.8781470816148
 20
136.7562845573573
  0
VERTEX
  8
0
  6
CONTINUOUS
 62
     7
 10
-205.8938405123835
 20
136.737210337291
  0
VERTEX
  8
0
  6
CONTINUOUS
 62
     7
 10
-205.9085727995786
 20
136.7173843605324
  0
VERTEX
  8
0
  6
CONTINUOUS
 62
     7
 10
-205.9223079899583
 20
136.6968550111598
  0
VERTEX
  8
0
  6
CONTINUOUS
 62
     7
 10
-205.9350125636344
 20
136.6756723897891
  0
VERTEX
  8
0
  6
CONTINUOUS
 62
     7
 10
-205.9466555158754
 20
136.6538881913061
  0
VERTEX
  8
0
  6
CONTINUOUS
 62
     7
 10
-205.9572084327716
 20
136.6315555787091
  0
VERTEX
  8
0
  6
CONTINUOUS
 62
     7
 10
-205.9666455605778
 20
136.6087290533668
  0
VERTEX
  8
0
  6
CONTINUOUS
 62
     7
 10
-205.9749438685633
 20
136.5854643220121
  0
VERTEX
  8
0
  6
CONTINUOUS
 62
     7
 10
-205.9820831052173
 20
136.5618181607924
  0
VERTEX
  8
0
  6
CONTINUOUS
 62
     7
 10
-205.9880458476713
 20
136.5378482767114
  0
VERTEX
  8
0
  6
CONTINUOUS
 62
     7
 10
-205.9928175442188
 20
136.5136131667986
  0
VERTEX
  8
0
  6
CONTINUOUS
 62
     7
 10
-205.9963865498275
 20
136.4891719753506
  0
VERTEX
  8
0
  6
CONTINUOUS
 62
     7
 10
-205.9987441545586
 20
136.4645843495937
  0
SEQEND
  8
0
  6
CONTINUOUS
 62
     7
  0
ARC
  8
0
  6
CONTINUOUS
 62
     7
 10
-206.0
 20
140.7
 40
3.8
 50
276.6774053271711
 51
317.5248914233644
  0
ARC
  8
0
  6
CONTINUOUS
 62
     7
 10
-206.0
 20
140.7
 40
5.100000000000001
 50
305.9505676196179
 51
329.7918926765259
  0
ARC
  8
0
  6
CONTINUOUS
 62
     7
 10
-205.2328828005938
 20
151.0
 40
3.0
 50
90.0
 51
125.9505676196175
  0
LINE
  8
0
  6
CONTINUOUS
 62
     7
 10
-205.2328828005938
 20
154.0
 11
-204.5
 21
154.0
  0
POLYLINE
  8
0
  6
CONTINUOUS
 62
     7
 66
     1
  0
VERTEX
  8
0
  6
CONTINUOUS
 62
     7
 10
-204.0012558454415
 20
153.5354156504062
  0
VERTEX
  8
0
  6
CONTINUOUS
 62
     7
 10
-204.0034630093585
 20
153.5587453566219
  0
VERTEX
  8
0
  6
CONTINUOUS
 62
     7
 10
-204.0067608600033
 20
153.5819460235475
  0
VERTEX
  8
0
  6
CONTINUOUS
 62
     7
 10
-204.0111421533597
 20
153.6049666888982
  0
VERTEX
  8
0
  6
CONTINUOUS
 62
     7
 10
-204.0165972655357
 20
153.6277567857785
  0
VERTEX
  8
0
  6
CONTINUOUS
 62
     7
 10
-204.0231142139023
 20
153.6502662537565
  0
VERTEX
  8
0
  6
CONTINUOUS
 62
     7
 10
-204.0306786834152
 20
153.6724456488261
  0
VERTEX
  8
0
  6
CONTINUOUS
 62
     7
 10
-204.0392740580583
 20
153.6942462520152
  0
VERTEX
  8
0
  6
CONTINUOUS
 62
     7
 10
-204.0488814573432
 20
153.715620176401
  0
VERTEX
  8
0
  6
CONTINUOUS
 62
     7
 10
-204.0594797777808
 20
153.7365204722977
  0
VERTEX
  8
0
  6
CONTINUOUS
 62
     7
 10
-204.0710457392375
 20
153.7569012303858
  0
VERTEX
  8
0
  6
CONTINUOUS
 62
     7
 10
-204.0835539360723
 20
153.7767176825558
  0
VERTEX
  8
0
  6
CONTINUOUS
 62
     7
 10
-204.0969768929417
 20
153.7959263002456
  0
VERTEX
  8
0
  6
CONTINUOUS
 62
     7
 10
-204.1112851251523
 20
153.8144848900538
  0
VERTEX
  8
0
  6
CONTINUOUS
 62
     7
 10
-204.1264472034266
 20
153.8323526864224
  0
VERTEX
  8
0
  6
CONTINUOUS
 62
     7
 10
-204.1424298229396
 20
153.8494904411811
  0
VERTEX
  8
0
  6
CONTINUOUS
 62
     7
 10
-204.1591978764761
 20
153.8658605097596
  0
VERTEX
  8
0
  6
CONTINUOUS
 62
     7
 10
-204.1767145315466
 20
153.8814269338771
  0
VERTEX
  8
0
  6
CONTINUOUS
 62
     7
 10
-204.1949413112934
 20
153.8961555205278
  0
VERTEX
  8
0
  6
CONTINUOUS
 62
     7
 10
-204.213838179008
 20
153.9100139170888
  0
VERTEX
  8
0
  6
CONTINUOUS
 62
     7
 10
-204.2333636260752
 20
153.9229716823857
  0
VERTEX
  8
0
  6
CONTINUOUS
 62
     7
 10
-204.2534747631508
 20
153.935000353559
  0
VERTEX
  8
0
  6
CONTINUOUS
 62
     7
 10
-204.2741274143713
 20
153.946073508585
  0
VERTEX
  8
0
  6
CONTINUOUS
 62
     7
 10
-204.2952762143902
 20
153.9561668243149
  0
VERTEX
  8
0
  6
CONTINUOUS
 62
     7
 10
-204.3168747080273
 20
153.965258129902
  0
VERTEX
  8
0
  6
CONTINUOUS
 62
     7
 10
-204.3388754523108
 20
153.9733274555019
  0
VERTEX
  8
0
  6
CONTINUOUS
 62
     7
 10
-204.3612301206906
 20
153.9803570761386
  0
VERTEX
  8
0
  6
CONTINUOUS
 62
     7
 10
-204.3838896091914
 20
153.9863315506383
  0
VERTEX
  8
0
  6
CONTINUOUS
 62
     7
 10
-204.406804144274
 20
153.9912377555476
  0
VERTEX
  8
0
  6
CONTINUOUS
 62
     7
 10
-204.4299233921672
 20
153.9950649139604
  0
VERTEX
  8
0
  6
CONTINUOUS
 62
     7
 10
-204.4531965694304
 20
153.99780461919
  0
VERTEX
  8
0
  6
CONTINUOUS
 62
     7
 10
-204.4765725545034
 20
153.9994508532353
  0
VERTEX
  8
0
  6
CONTINUOUS
 62
     7
 10
-204.5
 20
154.0
  0
SEQEND
  8
0
  6
CONTINUOUS
 62
     7
  0
POLYLINE
  8
0
  6
CONTINUOUS
 62
     7
 66
     1
  0
VERTEX
  8
0
  6
CONTINUOUS
 62
     7
 10
-204.4418604651163
 20
153.0742230100203
  0
VERTEX
  8
0
  6
CONTINUOUS
 62
     7
 10
-204.4174060486575
 20
153.0777002439913
  0
VERTEX
  8
0
  6
CONTINUOUS
 62
     7
 10
-204.3931531976625
 20
153.0823809340093
  0
VERTEX
  8
0
  6
CONTINUOUS
 62
     7
 10
-204.3691610997241
 20
153.0882536571378
  0
VERTEX
  8
0
  6
CONTINUOUS
 62
     7
 10
-204.3454883060834
 20
153.0953040813571
  0
VERTEX
  8
0
  6
CONTINUOUS
 62
     7
 10
-204.3221925887387
 20
153.1035150005398
  0
VERTEX
  8
0
  6
CONTINUOUS
 62
     7
 10
-204.299330799457
 20
153.1128663764423
  0
VERTEX
  8
0
  6
CONTINUOUS
 62
     7
 10
-204.2769587310304
 20
153.1233353876061
  0
VERTEX
  8
0
  6
CONTINUOUS
 62
     7
 10
-204.2551309811176
 20
153.1348964850527
  0
VERTEX
  8
0
  6
CONTINUOUS
 62
     7
 10
-204.2339008190009
 20
153.1475214546341
  0
VERTEX
  8
0
  6
CONTINUOUS
 62
     7
 10
-204.2133200555868
 20
153.1611794858876
  0
VERTEX
  8
0
  6
CONTINUOUS
 62
     7
 10
-204.1934389169639
 20
153.1758372472272
  0
VERTEX
  8
0
  6
CONTINUOUS
 62
     7
 10
-204.1743059218296
 20
153.1914589672868
  0
VERTEX
  8
0
  6
CONTINUOUS
 62
     7
 10
-204.155967763083
 20
153.2080065222184
  0
VERTEX
  8
0
  6
CONTINUOUS
 62
     7
 10
-204.1384691938739
 20
153.2254395287307
  0
VERTEX
  8
0
  6
CONTINUOUS
 62
     7
 10
-204.1218529183852
 20
153.2437154426426
  0
VERTEX
  8
0
  6
CONTINUOUS
 62
     7
 10
-204.1061594876165
 20
153.2627896627089
  0
VERTEX
  8
0
  6
CONTINUOUS
 62
     7
 10
-204.0914272004214
 20
153.2826156394675
  0
VERTEX
  8
0
  6
CONTINUOUS
 62
     7
 10
-204.0776920100417
 20
153.3031449888401
  0
VERTEX
  8
0
  6
CONTINUOUS
 62
     7
 10
-204.0649874363656
 20
153.3243276102109
  0
VERTEX
  8
0
  6
CONTINUOUS
 62
     7
 10
-204.0533444841246
 20
153.3461118086938
  0
VERTEX
  8
0
  6
CONTINUOUS
 62
     7
 10
-204.0427915672284
 20
153.3684444212909
  0
VERTEX
  8
0
  6
CONTINUOUS
 62
     7
 10
-204.0333544394222
 20
153.3912709466331
  0
VERTEX
  8
0
  6
CONTINUOUS
 62
     7
 10
-204.0250561314367
 20
153.4145356779879
  0
VERTEX
  8
0
  6
CONTINUOUS
 62
     7
 10
-204.0179168947828
 20
153.4381818392075
  0
VERTEX
  8
0
  6
CONTINUOUS
 62
     7
 10
-204.0119541523287
 20
153.4621517232885
  0
VERTEX
  8
0
  6
CONTINUOUS
 62
     7
 10
-204.0071824557812
 20
153.4863868332014
  0
VERTEX
  8
0
  6
CONTINUOUS
 62
     7
 10
-204.0036134501725
 20
153.5108280246493
  0
VERTEX
  8
0
  6
CONTINUOUS
 62
     7
 10
-204.0012558454415
 20
153.5354156504062
  0
SEQEND
  8
0
  6
CONTINUOUS
 62
     7
  0
ARC
  8
0
  6
CONTINUOUS
 62
     7
 10
-204.0
 20
149.3
 40
3.8
 50
96.67740532717103
 51
137.5248914233641
  0
ARC
  8
0
  6
CONTINUOUS
 62
     7
 10
-204.0
 20
149.3
 40
5.100000000000001
 50
125.9505676196176
 51
149.7918926765257
  0
LINE
  8
0
  6
CONTINUOUS
 62
     7
 10
-209.2808616721138
 20
149.75
 11
-209.2859304135296
 21
149.6859270181299
  0
LINE
  8
0
  6
CONTINUOUS
 62
     7
 10
-209.2859304135296
 20
149.6859270181299
 11
-209.2920101947017
 21
149.5909090909091
  0
POLYLINE
  8
0
  6
CONTINUOUS
 62
     7
 10
0.0
 20
0.0
 30
0.0
 66
     1
 70
     9
  0
VERTEX
  8
0
  6
CONTINUOUS
 62
     7
 10
-209.2808616721138
 20
149.75
 30
0.0
 70
    32
  0
VERTEX
  8
0
  6
CONTINUOUS
 62
     7
 10
-209.2808616721138
 20
149.75
 30
0.0
 70
    32
  0
VERTEX
  8
0
  6
CONTINUOUS
 62
     7
 10
-209.2808616721138
 20
149.75
 30
0.0
 70
    32
  0
SEQEND
  8
0
  6
CONTINUOUS
 62
     7
  0
LINE
  8
0
  6
CONTINUOUS
 62
     7
 10
-209.250491909265
 20
150.0227272727269
 11
-209.2517871672955
 21
150.0132541969244
  0
LINE
  8
0
  6
CONTINUOUS
 62
     7
 10
-209.2405957841328
 20
148.5086999132254
 11
-209.2392747589719
 21
148.5000000000001
  0
LINE
  8
0
  6
CONTINUOUS
 62
     7
 10
-209.0744941326678
 20
150.8295454545454
 11
-208.8653423914644
 21
150.8295454545454
  0
LINE
  8
0
  6
CONTINUOUS
 62
     7
 10
-201.0290727506043
 20
138.8615543844824
 11
-201.2428876701528
 21
138.8615543844825
  0
LINE
  8
0
  6
CONTINUOUS
 62
     7
 10
-201.0290727506043
 20
138.8615543844824
 11
-201.0717410506969
 21
138.7500605833478
  0
LINE
  8
0
  6
CONTINUOUS
 62
     7
 10
-201.0717410506969
 20
138.7500605833478
 11
-201.2874915096749
 21
138.7500605833478
  0
ARC
  8
0
  6
CONTINUOUS
 62
     7
 10
-206.0
 20
140.7
 40
5.3
 50
329.3738663938068
 51
338.4130299545841
  0
LINE
  8
0
  6
CONTINUOUS
 62
     7
 10
-201.4392982996035
 20
138.0
 11
-201.6733384694433
 21
138.0
  0
LINE
  8
0
  6
CONTINUOUS
 62
     7
 10
-200.8050505296009
 20
141.75
 11
-201.0092585721158
 21
141.75
  0
ARC
  8
0
  6
CONTINUOUS
 62
     7
 10
-206.0
 20
140.7
 40
5.3
 50
344.3384839709422
 51
11.42664618838887
  0
LINE
  8
0
  6
CONTINUOUS
 62
     7
 10
-209.2078368909409
 20
150.2840909090909
 11
-209.2282439530007
 21
150.1691749926868
  0
LINE
  8
0
  6
CONTINUOUS
 62
     7
 10
-209.2282439530007
 20
150.1691749926868
 11
-209.2371948149322
 21
150.1135050525028
  0
LINE
  8
0
  6
CONTINUOUS
 62
     7
 10
-209.2371948149322
 20
150.1135050525028
 11
-209.2422458734131
 21
150.0802936643879
  0
LINE
  8
0
  6
CONTINUOUS
 62
     7
 10
-209.2422458734131
 20
150.0802936643879
 11
-209.2457085607566
 21
150.0566648502507
  0
LINE
  8
0
  6
CONTINUOUS
 62
     7
 10
-209.2457085607566
 20
150.0566648502507
 11
-209.2460736451839
 21
150.0541295219482
  0
ARC
  8
0
  6
CONTINUOUS
 62
     7
 10
-206.0
 20
140.7
 40
5.300000000000002
 50
339.0493308850736
 51
339.7593946311678
  0
ARC
  8
0
  6
CONTINUOUS
 62
     7
 10
-206.0
 20
140.7
 40
5.300000000000002
 50
339.7593946311679
 51
340.6527631528976
  0
LINE
  8
0
  6
CONTINUOUS
 62
     7
 10
-200.999300847027
 20
138.9441503534028
 11
-201.2117861348364
 21
138.9441503534028
  0
LINE
  8
0
  6
CONTINUOUS
 62
     7
 10
-200.999300847027
 20
138.9441503534028
 11
-200.9676998781964
 21
139.0368838031891
  0
LINE
  8
0
  6
CONTINUOUS
 62
     7
 10
-200.9676998781964
 20
139.0368838031891
 11
-201.1787922139877
 21
139.0368838031891
  0
LINE
  8
0
  6
CONTINUOUS
 62
     7
 10
-200.9251210166211
 20
139.1717319266375
 11
-201.1343657457695
 21
139.1717319266375
  0
ARC
  8
0
  6
CONTINUOUS
 62
     7
 10
-206.0
 20
140.7
 40
5.300000000000001
 50
341.7118849271855
 51
343.2406537130333
  0
LINE
  8
0
  6
CONTINUOUS
 62
     7
 10
-200.9130589489434
 20
139.2123741253007
 11
-201.1217862637104
 21
139.2123741253007
  0
LINE
  8
0
  6
CONTINUOUS
 62
     7
 10
-200.9251210166211
 20
139.1717319266375
 11
-200.9130589489434
 21
139.2123741253007
  0
LINE
  8
0
  6
CONTINUOUS
 62
     7
 10
-200.9128637568646
 20
139.2130417478025
 11
-201.121582720162
 21
139.2130417478025
  0
ARC
  8
0
  6
CONTINUOUS
 62
     7
 10
-206.0
 20
140.7
 40
5.3
 50
342.9341156443425
 51
343.7064796963336
  0
LINE
  8
0
  6
CONTINUOUS
 62
     7
 10
-200.9065648268699
 20
139.2347634535268
 11
-201.1150146506996
 21
139.2347634535268
  0
LINE
  8
0
  6
CONTINUOUS
 62
     7
 10
-200.9065648268699
 20
139.2347634535268
 11
-200.9128637568646
 21
139.2130417478025
  0
POLYLINE
  8
0
  6
CONTINUOUS
 62
     7
 10
0.0
 20
0.0
 30
0.0
 66
     1
 70
     9
  0
VERTEX
  8
0
  6
CONTINUOUS
 62
     7
 10
-209.1257810330083
 20
150.6477272727273
 30
0.0
 70
    32
  0
VERTEX
  8
0
  6
CONTINUOUS
 62
     7
 10
-209.1257810330083
 20
150.6477272727273
 30
0.0
 70
    32
  0
VERTEX
  8
0
  6
CONTINUOUS
 62
     7
 10
-209.1257810330083
 20
150.6477272727273
 30
0.0
 70
    32
  0
VERTEX
  8
0
  6
CONTINUOUS
 62
     7
 10
-209.1257810330083
 20
150.6477272727273
 30
0.0
 70
    32
  0
SEQEND
  8
0
  6
CONTINUOUS
 62
     7
  0
LINE
  8
0
  6
CONTINUOUS
 62
     7
 10
-209.0744941326678
 20
150.8295454545454
 11
-209.1016084972564
 21
150.7365203586172
  0
LINE
  8
0
  6
CONTINUOUS
 62
     7
 10
-209.1016084972564
 20
150.7365203586172
 11
-209.1250530158314
 21
150.6504930895481
  0
LINE
  8
0
  6
CONTINUOUS
 62
     7
 10
-209.1250530158314
 20
150.6504930895481
 11
-209.1257810330083
 21
150.6477272727273
  0
POLYLINE
  8
0
  6
CONTINUOUS
 62
     7
 10
0.0
 20
0.0
 30
0.0
 66
     1
 70
     9
  0
VERTEX
  8
0
  6
CONTINUOUS
 62
     7
 10
-209.1257810330083
 20
150.6477272727273
 30
0.0
 70
    32
  0
VERTEX
  8
0
  6
CONTINUOUS
 62
     7
 10
-209.1257810330083
 20
150.6477272727273
 30
0.0
 70
    32
  0
VERTEX
  8
0
  6
CONTINUOUS
 62
     7
 10
-209.1257810330083
 20
150.6477272727273
 30
0.0
 70
    32
  0
SEQEND
  8
0
  6
CONTINUOUS
 62
     7
  0
LINE
  8
0
  6
CONTINUOUS
 62
     7
 10
-200.8318886428406
 20
141.875
 11
-200.8050505296009
 21
141.75
  0
LINE
  8
0
  6
CONTINUOUS
 62
     7
 10
-201.2250654454747
 20
143.0
 11
-201.4480773293036
 21
143.0
  0
ARC
  8
0
  6
CONTINUOUS
 62
     7
 10
-206.0
 20
140.7
 40
5.299999999999993
 50
12.80879095202687
 51
25.7192795021831
  0
LINE
  8
0
  6
CONTINUOUS
 62
     7
 10
-209.2746078151182
 20
149.8181818181818
 11
-209.2789139594975
 21
149.7723001251561
  0
LINE
  8
0
  6
CONTINUOUS
 62
     7
 10
-209.2789139594975
 20
149.7723001251561
 11
-209.2810087194249
 21
149.7482710177542
  0
LINE
  8
0
  6
CONTINUOUS
 62
     7
 10
-209.2810087194249
 20
149.7482710177542
 11
-209.2824524575985
 21
149.7309246259051
  0
LINE
  8
0
  6
CONTINUOUS
 62
     7
 10
-209.2824524575985
 20
149.7309246259051
 11
-209.2838637661845
 21
149.7132598461047
  0
LINE
  8
0
  6
CONTINUOUS
 62
     7
 10
-209.2838637661845
 20
149.7132598461047
 11
-209.2870243637522
 21
149.6706391467327
  0
LINE
  8
0
  6
CONTINUOUS
 62
     7
 10
-209.2870243637522
 20
149.6706391467327
 11
-209.28931559884
 21
149.6363636363636
  0
LINE
  8
0
  6
CONTINUOUS
 62
     7
 10
-200.8967715947989
 20
139.269245008973
 11
-200.8987517610847
 21
139.2622008467928
  0
LINE
  8
0
  6
CONTINUOUS
 62
     7
 10
-200.9022063596101
 20
139.25
 11
-201.1104703702708
 21
139.25
  0
POLYLINE
  8
0
  6
CONTINUOUS
 62
     7
 10
0.0
 20
0.0
 30
0.0
 66
     1
 70
     8
  0
VERTEX
  8
0
  6
CONTINUOUS
 62
     7
 10
-209.2392747589719
 20
148.5
 30
0.0
 70
    32
  0
VERTEX
  8
0
  6
CONTINUOUS
 62
     7
 10
-209.2392747589719
 20
148.5
 30
0.0
 70
    32
  0
VERTEX
  8
0
  6
CONTINUOUS
 62
     7
 10
-209.2392747589719
 20
148.5
 30
0.0
 70
    32
  0
SEQEND
  8
0
  6
CONTINUOUS
 62
     7
  0
LINE
  8
0
  6
CONTINUOUS
 62
     7
 10
-202.3339394440353
 20
141.7
 11
-203.6356819164926
 21
141.7
  0
LINE
  8
0
  6
CONTINUOUS
 62
     7
 10
-208.0
 20
143.25
 11
-208.0
 21
144.2761806033723
  0
LINE
  8
0
  6
CONTINUOUS
 62
     7
 10
-204.843496649378
 20
143.25
 11
-204.9571673192693
 21
142.75
  0
LINE
  8
0
  6
CONTINUOUS
 62
     7
 10
-204.9571673192693
 20
142.75
 11
-207.5
 21
142.75
  0
ARC
  8
0
  6
CONTINUOUS
 62
     7
 10
-203.6356819164926
 20
142.2
 40
0.5000000000000004
 50
212.3923654858429
 51
270.0
  0
ARC
  8
0
  6
CONTINUOUS
 62
     7
 10
-207.5
 20
143.25
 40
0.5000000000000004
 50
180.0
 51
270.0
  0
ARC
  8
0
  6
CONTINUOUS
 62
     7
 10
-206.0
 20
140.7
 40
2.300000000000005
 50
32.39236548584296
 51
63.03761100252009
  0
LINE
  8
0
  6
CONTINUOUS
 62
     7
 10
-204.9571673192693
 20
142.75
 11
-205.0848497391138
 21
142.25
  0
LINE
  8
0
  6
CONTINUOUS
 62
     7
 10
-208.5
 20
143.7805249980748
 11
-208.0
 21
144.2761806033723
  0
ARC
  8
0
  6
CONTINUOUS
 62
     7
 10
-205.0013530633493
 20
145.0
 40
7.40000024740275
 50
89.98952367318057
 51
100.6329794989688
  0
ARC
  8
0
  6
CONTINUOUS
 62
     7
 10
-205.0013530633493
 20
145.0
 40
7.40000024740275
 50
119.3215118006434
 51
270.0104763268194
  0
ARC
  8
0
  6
CONTINUOUS
 62
     7
 10
-204.9986469366507
 20
145.0
 40
7.40000024740275
 50
269.9895236731804
 51
280.6329794989688
  0
ARC
  8
0
  6
CONTINUOUS
 62
     7
 10
-204.9986469366507
 20
145.0
 40
7.40000024740275
 50
301.9426096821613
 51
90.01047632681946
  0
ARC
  8
0
  6
CONTINUOUS
 62
     7
 10
-205.0
 20
145.0
 40
8.250000000000005
 50
109.2510591083392
 51
264.1366010627193
  0
LINE
  8
0
  6
CONTINUOUS
 62
     7
 10
-205.0
 20
152.9658325471189
 11
-205.0
 21
152.7499995578174
  0
LINE
  8
0
  6
CONTINUOUS
 62
     7
 10
-205.0
 20
137.2500004421825
 11
-205.0
 21
137.0341605969473
  0
ARC
  8
0
  6
CONTINUOUS
 62
     7
 10
-205.0
 20
145.0
 40
8.250000000000005
 50
289.2510591083391
 51
84.13660106271924
  0
LINE
  8
0
  6
CONTINUOUS
 62
     7
 10
-205.0
 20
137.2500004421825
 11
-205.0
 21
137.6
  0
LINE
  8
0
  6
CONTINUOUS
 62
     7
 10
-205.0
 20
152.4
 11
-205.0
 21
152.7499995578174
  0
LINE
  8
0
  6
CONTINUOUS
 62
     7
 10
-205.0
 20
133.0000002855762
 11
-205.0
 21
132.5
  0
ARC
  8
0
  6
CONTINUOUS
 62
     7
 10
-205.0
 20
145.0
 40
12.50000000000001
 50
90.0
 51
270.0
  0
LINE
  8
0
  6
CONTINUOUS
 62
     7
 10
-205.0
 20
157.5
 11
-205.0
 21
156.9999997144238
  0
ARC
  8
0
  6
CONTINUOUS
 62
     7
 10
-205.0
 20
145.0
 40
12.50000000000001
 50
270.0
 51
90.0
  0
LINE
  8
0
  6
CONTINUOUS
 62
     7
 10
-205.0
 20
133.0000002855762
 11
-205.0
 21
136.0
  0
LINE
  8
0
  6
CONTINUOUS
 62
     7
 10
-205.0
 20
154.0
 11
-205.0
 21
156.9999997144238
  0
LINE
  8
0
  6
CONTINUOUS
 62
     7
 10
-208.865328508359
 20
150.8295454545454
 11
-209.0745405277716
 21
150.8295454545454
  0
LINE
  8
0
  6
CONTINUOUS
 62
     7
 10
-209.2393122974399
 20
148.5
 11
-209.0369265933631
 21
148.5
  0
LINE
  8
0
  6
CONTINUOUS
 62
     7
 10
-209.0998895461573
 20
149.3335955167238
 11
-209.2998935721115
 21
149.3335955167238
  0
LINE
  8
0
  6
CONTINUOUS
 62
     7
 10
-209.2427296905636
 20
150.0789397234947
 11
-209.0404656092118
 21
150.0789397234947
  0
LINE
  8
0
  6
CONTINUOUS
 62
     7
 10
-201.1078546353348
 20
139.2622008467928
 11
-200.8987510779862
 21
139.2622008467928
  0
ENDBLK
  8
0
  0
BLOCK
  8
0
  2
D_FRAME_VIEW_1507
 70
     0
 10
0.0
 20
0.0
  0
LINE
  8
0
  6
CONTINUOUS
 62
     7
 10
-271.7846208764758
 20
132.5423078275116
 11
-271.9859140588534
 21
132.4999999999995
  0
LINE
  8
0
  6
CONTINUOUS
 62
     7
 10
-271.9873133298504
 20
157.4968999416753
 11
-271.9865120831301
 21
157.499433813112
  0
LINE
  8
0
  6
CONTINUOUS
 62
     7
 10
-271.9865120831301
 20
157.499433813112
 11
-271.9859140588535
 21
157.5
  0
LINE
  8
0
  6
CONTINUOUS
 62
     7
 10
-271.6719027953347
 20
157.3891009441269
 11
-271.4859072048832
 21
156.9999997144238
  0
LINE
  8
0
  6
CONTINUOUS
 62
     7
 10
-271.4859072048832
 20
133.0000002855762
 11
-271.6719010577871
 21
132.6109004580732
  0
LINE
  8
0
  6
CONTINUOUS
 62
     7
 10
-271.9859140588535
 20
132.5
 11
-271.986685705375
 21
132.5009426826736
  0
LINE
  8
0
  6
CONTINUOUS
 62
     7
 10
-271.9859140588534
 20
157.5000000000005
 11
-271.7484586791604
 21
157.4400186743686
  0
LINE
  8
0
  6
CONTINUOUS
 62
     7
 10
-272.485900350913
 20
132.5
 11
-272.4851287043915
 21
132.5009426826737
  0
LINE
  8
0
  6
CONTINUOUS
 62
     7
 10
-272.485900350913
 20
157.5
 11
-272.4851287043915
 21
157.4990573173263
  0
LINE
  8
0
  6
CONTINUOUS
 62
     7
 10
-272.7233562006687
 20
157.4400184207065
 11
-272.6872636898971
 21
157.4576613119881
  0
LINE
  8
0
  6
CONTINUOUS
 62
     7
 10
-272.6872636898971
 20
157.4576613119881
 11
-272.4859003509131
 21
157.5000000000005
  0
LINE
  8
0
  6
CONTINUOUS
 62
     7
 10
-272.4845010799161
 20
132.5031000583247
 11
-272.4853023266364
 21
132.500566186888
  0
LINE
  8
0
  6
CONTINUOUS
 62
     7
 10
-272.4853023266364
 20
132.500566186888
 11
-272.485900350913
 21
132.5
  0
LINE
  8
0
  6
CONTINUOUS
 62
     7
 10
-272.7999105770717
 20
132.6108982187302
 11
-272.9859072048832
 21
133.0000002855762
  0
LINE
  8
0
  6
CONTINUOUS
 62
     7
 10
-272.9859072048832
 20
156.9999997144238
 11
-272.7999111170413
 21
157.3891013455184
  0
LINE
  8
0
  6
CONTINUOUS
 62
     7
 10
-272.4859003509131
 20
132.4999999999995
 11
-272.7233557236342
 21
132.5599813218691
  0
LINE
  8
0
  6
CONTINUOUS
 62
     7
 10
-271.4859072048832
 20
136.75
 11
-271.4859072048832
 21
153.25
  0
LINE
  8
0
  6
CONTINUOUS
 62
     7
 10
-271.4859072048832
 20
133.0000002855762
 11
-271.4859072048832
 21
136.75
  0
LINE
  8
0
  6
CONTINUOUS
 62
     7
 10
-271.4859072048832
 20
153.25
 11
-271.4859072048832
 21
156.9999997144238
  0
LINE
  8
0
  6
CONTINUOUS
 62
     7
 10
-272.9859072048832
 20
133.0000002855762
 11
-272.9859072048832
 21
156.9999997144238
  0
LINE
  8
0
  6
CONTINUOUS
 62
     7
 10
-270.4859140588534
 20
153.25
 11
-270.4864145712158
 21
153.2493724309726
  0
LINE
  8
0
  6
CONTINUOUS
 62
     7
 10
-270.4859140588534
 20
136.75
 11
-270.4864145712158
 21
136.7506275690274
  0
LINE
  8
0
  6
CONTINUOUS
 62
     7
 10
-270.4868152010578
 20
153.247965509911
 11
-270.4862979950444
 21
153.249630730712
  0
LINE
  8
0
  6
CONTINUOUS
 62
     7
 10
-270.4862979950444
 20
153.249630730712
 11
-270.4859140588534
 21
153.25
  0
LINE
  8
0
  6
CONTINUOUS
 62
     7
 10
-270.1720534252781
 20
153.1392223968253
 11
-269.9859072048832
 21
152.7499995578174
  0
LINE
  8
0
  6
CONTINUOUS
 62
     7
 10
-270.3076932077105
 20
136.7828403383239
 11
-270.4859140588534
 21
136.7499999999994
  0
LINE
  8
0
  6
CONTINUOUS
 62
     7
 10
-270.4859140588534
 20
153.2500000000005
 11
-270.2476887781934
 21
153.1896023066315
  0
LINE
  8
0
  6
CONTINUOUS
 62
     7
 10
-269.9859072048832
 20
137.2500004421825
 11
-270.1720573015796
 21
136.8607744775227
  0
LINE
  8
0
  6
CONTINUOUS
 62
     7
 10
-269.9859072048832
 20
152.4
 11
-269.9859072048832
 21
137.6
  0
LINE
  8
0
  6
CONTINUOUS
 62
     7
 10
-269.9859072048832
 20
137.2500004421825
 11
-269.9859072048832
 21
137.6
  0
LINE
  8
0
  6
CONTINUOUS
 62
     7
 10
-269.9859072048832
 20
152.4
 11
-269.9859072048832
 21
152.7499995578174
  0
LINE
  8
0
  6
CONTINUOUS
 62
     7
 10
-267.9859072048832
 20
151.8473140736129
 11
-267.9859072048832
 21
138.152685926387
  0
POLYLINE
  8
0
  6
CONTINUOUS
 62
     7
 66
     1
  0
VERTEX
  8
0
  6
CONTINUOUS
 62
     7
 10
-267.9859072048832
 20
146.2107150713807
  0
VERTEX
  8
0
  6
CONTINUOUS
 62
     7
 10
-267.9762998450848
 20
146.1131736245934
  0
VERTEX
  8
0
  6
CONTINUOUS
 62
     7
 10
-267.9478469711389
 20
146.0193806409044
  0
VERTEX
  8
0
  6
CONTINUOUS
 62
     7
 10
-267.9016420110345
 20
145.9329405320769
  0
VERTEX
  8
0
  6
CONTINUOUS
 62
     7
 10
-267.8394605954765
 20
145.8571751430171
  0
VERTEX
  8
0
  6
CONTINUOUS
 62
     7
 10
-267.763692321393
 20
145.7949960951369
  0
VERTEX
  8
0
  6
CONTINUOUS
 62
     7
 10
-267.6772489210658
 20
145.7487928943759
  0
VERTEX
  8
0
  6
CONTINUOUS
 62
     7
 10
-267.5834523658913
 20
145.7203411038281
  0
VERTEX
  8
0
  6
CONTINUOUS
 62
     7
 10
-267.4859072048832
 20
145.7107341098486
  0
SEQEND
  8
0
  6
CONTINUOUS
 62
     7
  0
POLYLINE
  8
0
  6
CONTINUOUS
 62
     7
 66
     1
  0
VERTEX
  8
0
  6
CONTINUOUS
 62
     7
 10
-267.4859072048832
 20
144.2892658901514
  0
VERTEX
  8
0
  6
CONTINUOUS
 62
     7
 10
-267.5834523658913
 20
144.2796588961718
  0
VERTEX
  8
0
  6
CONTINUOUS
 62
     7
 10
-267.6772489210658
 20
144.2512071056241
  0
VERTEX
  8
0
  6
CONTINUOUS
 62
     7
 10
-267.763692321393
 20
144.205003904863
  0
VERTEX
  8
0
  6
CONTINUOUS
 62
     7
 10
-267.8394605954765
 20
144.1428248569828
  0
VERTEX
  8
0
  6
CONTINUOUS
 62
     7
 10
-267.9016420110345
 20
144.0670594679231
  0
VERTEX
  8
0
  6
CONTINUOUS
 62
     7
 10
-267.9478469711389
 20
143.9806193590956
  0
VERTEX
  8
0
  6
CONTINUOUS
 62
     7
 10
-267.9762998450848
 20
143.8868263754065
  0
VERTEX
  8
0
  6
CONTINUOUS
 62
     7
 10
-267.9859072048832
 20
143.7892849286193
  0
SEQEND
  8
0
  6
CONTINUOUS
 62
     7
  0
LINE
  8
0
  6
CONTINUOUS
 62
     7
 10
-246.9859072048833
 20
145.2341701647961
 11
-246.9859072048833
 21
144.7658298352039
  0
LINE
  8
0
  6
CONTINUOUS
 62
     7
 10
-246.9859072048833
 20
144.7658298352039
 11
-246.9859072048833
 21
144.2892658901514
  0
LINE
  8
0
  6
CONTINUOUS
 62
     7
 10
-246.9859072048833
 20
145.7107341098486
 11
-246.9859072048833
 21
145.2341701647961
  0
POLYLINE
  8
0
  6
CONTINUOUS
 62
     7
 66
     1
  0
VERTEX
  8
0
  6
CONTINUOUS
 62
     7
 10
-267.4859072048832
 20
144.2761806033723
  0
VERTEX
  8
0
  6
CONTINUOUS
 62
     7
 10
-267.510441042047
 20
144.2755835644885
  0
VERTEX
  8
0
  6
CONTINUOUS
 62
     7
 10
-267.534915775048
 20
144.2737938861563
  0
VERTEX
  8
0
  6
CONTINUOUS
 62
     7
 10
-267.5592724421109
 20
144.2708158798674
  0
VERTEX
  8
0
  6
CONTINUOUS
 62
     7
 10
-267.5834523658913
 20
144.2666567198999
  0
VERTEX
  8
0
  6
CONTINUOUS
 62
     7
 10
-267.6073972948349
 20
144.2613264260344
  0
VERTEX
  8
0
  6
CONTINUOUS
 62
     7
 10
-267.6310495435105
 20
144.2548378394157
  0
VERTEX
  8
0
  6
CONTINUOUS
 62
     7
 10
-267.6543521315793
 20
144.2472065916173
  0
VERTEX
  8
0
  6
CONTINUOUS
 62
     7
 10
-267.6772489210658
 20
144.2384510669836
  0
VERTEX
  8
0
  6
CONTINUOUS
 62
     7
 10
-267.6996847515984
 20
144.2285923583403
  0
VERTEX
  8
0
  6
CONTINUOUS
 62
     7
 10
-267.7216055732962
 20
144.2176542161801
  0
VERTEX
  8
0
  6
CONTINUOUS
 62
     7
 10
-267.7429585769798
 20
144.2056629914454
  0
VERTEX
  8
0
  6
CONTINUOUS
 62
     7
 10
-267.763692321393
 20
144.1926475720471
  0
VERTEX
  8
0
  6
CONTINUOUS
 62
     7
 10
-267.7837568571294
 20
144.1786393132703
  0
VERTEX
  8
0
  6
CONTINUOUS
 62
     7
 10
-267.803103846965
 20
144.1636719622375
  0
VERTEX
  8
0
  6
CONTINUOUS
 62
     7
 10
-267.8216866823068
 20
144.1477815766085
  0
VERTEX
  8
0
  6
CONTINUOUS
 62
     7
 10
-267.8394605954765
 20
144.1310064377138
  0
VERTEX
  8
0
  6
CONTINUOUS
 62
     7
 10
-267.8563827675607
 20
144.1133869583324
  0
VERTEX
  8
0
  6
CONTINUOUS
 62
     7
 10
-267.8724124315646
 20
144.0949655853336
  0
VERTEX
  8
0
  6
CONTINUOUS
 62
     7
 10
-267.8875109706236
 20
144.0757866974183
  0
VERTEX
  8
0
  6
CONTINUOUS
 62
     7
 10
-267.9016420110345
 20
144.0558964982074
  0
VERTEX
  8
0
  6
CONTINUOUS
 62
     7
 10
-267.9147715098834
 20
144.035342904933
  0
VERTEX
  8
0
  6
CONTINUOUS
 62
     7
 10
-267.9268678370574
 20
144.0141754330015
  0
VERTEX
  8
0
  6
CONTINUOUS
 62
     7
 10
-267.937901851445
 20
143.992445076707
  0
VERTEX
  8
0
  6
CONTINUOUS
 62
     7
 10
-267.9478469711389
 20
143.970204186381
  0
VERTEX
  8
0
  6
CONTINUOUS
 62
     7
 10
-267.9566792374748
 20
143.9475063422765
  0
VERTEX
  8
0
  6
CONTINUOUS
 62
     7
 10
-267.9643773727494
 20
143.9244062254879
  0
VERTEX
  8
0
  6
CONTINUOUS
 62
     7
 10
-267.9709228314805
 20
143.90095948622
  0
VERTEX
  8
0
  6
CONTINUOUS
 62
     7
 10
-267.9762998450848
 20
143.8772226097213
  0
VERTEX
  8
0
  6
CONTINUOUS
 62
     7
 10
-267.9804954598656
 20
143.8532527802066
  0
VERTEX
  8
0
  6
CONTINUOUS
 62
     7
 10
-267.9834995682193
 20
143.8291077430943
  0
VERTEX
  8
0
  6
CONTINUOUS
 62
     7
 10
-267.9853049329859
 20
143.8048456658941
  0
VERTEX
  8
0
  6
CONTINUOUS
 62
     7
 10
-267.9859072048832
 20
143.7805249980748
  0
SEQEND
  8
0
  6
CONTINUOUS
 62
     7
  0
POLYLINE
  8
0
  6
CONTINUOUS
 62
     7
 66
     1
  0
VERTEX
  8
0
  6
CONTINUOUS
 62
     7
 10
-267.9859072048832
 20
146.2179428547443
  0
VERTEX
  8
0
  6
CONTINUOUS
 62
     7
 10
-267.9762998450848
 20
146.1204014079571
  0
VERTEX
  8
0
  6
CONTINUOUS
 62
     7
 10
-267.9478469711389
 20
146.026608424268
  0
VERTEX
  8
0
  6
CONTINUOUS
 62
     7
 10
-267.9016420110345
 20
145.9401683154406
  0
VERTEX
  8
0
  6
CONTINUOUS
 62
     7
 10
-267.8394605954765
 20
145.8644029263808
  0
VERTEX
  8
0
  6
CONTINUOUS
 62
     7
 10
-267.763692321393
 20
145.8022238785006
  0
VERTEX
  8
0
  6
CONTINUOUS
 62
     7
 10
-267.6772489210657
 20
145.7560206777395
  0
VERTEX
  8
0
  6
CONTINUOUS
 62
     7
 10
-267.5834523658912
 20
145.7275688871919
  0
VERTEX
  8
0
  6
CONTINUOUS
 62
     7
 10
-267.4859072048832
 20
145.7179618932123
  0
SEQEND
  8
0
  6
CONTINUOUS
 62
     7
  0
LINE
  8
0
  6
CONTINUOUS
 62
     7
 10
-246.9859072048833
 20
145.7179618932123
 11
-246.9859072048833
 21
145.7107341098486
  0
LINE
  8
0
  6
CONTINUOUS
 62
     7
 10
-246.9859072048833
 20
144.2468249009625
 11
-262.9859072048832
 21
144.2468249009625
  0
LINE
  8
0
  6
CONTINUOUS
 62
     7
 10
-263.4859072048832
 20
144.2761806033723
 11
-262.9859072048832
 21
144.2718171694769
  0
LINE
  8
0
  6
CONTINUOUS
 62
     7
 10
-267.4859072048832
 20
144.2761806033723
 11
-263.4859072048832
 21
144.2761806033723
  0
LINE
  8
0
  6
CONTINUOUS
 62
     7
 10
-246.9859072048833
 20
144.2892658901514
 11
-246.9859072048833
 21
144.2468249009625
  0
ARC
  8
0
  6
CONTINUOUS
 62
     7
 10
-267.4859072048832
 20
148.8
 40
0.5000000000000004
 50
180.0
 51
270.0
  0
LINE
  8
0
  6
CONTINUOUS
 62
     7
 10
-248.4859072048833
 20
151.8660254037844
 11
-251.1923163089791
 21
153.4285714285714
  0
ARC
  8
0
  6
CONTINUOUS
 62
     7
 10
-249.9871257315279
 20
149.2672456757448
 40
3.00121860910044
 50
0.0134307235030101
 51
59.98656927649701
  0
LINE
  8
0
  6
CONTINUOUS
 62
     7
 10
-264.9859072048832
 20
147.6369565217391
 11
-264.9859072048832
 21
153.4285714285714
  0
LINE
  8
0
  6
CONTINUOUS
 62
     7
 10
-246.9859072048833
 20
146.493126528428
 11
-246.9859072048833
 21
149.2679491924311
  0
LINE
  8
0
  6
CONTINUOUS
 62
     7
 10
-267.4859072048832
 20
148.3
 11
-264.9859072048832
 21
148.3
  0
LINE
  8
0
  6
CONTINUOUS
 62
     7
 10
-246.9859072048833
 20
145.7179618932123
 11
-246.9859072048833
 21
146.493126528428
  0
ARC
  8
0
  6
CONTINUOUS
 62
     7
 10
-267.4859072048832
 20
142.25
 40
0.5000000000000004
 50
90.00000000000001
 51
180.0
  0
LINE
  8
0
  6
CONTINUOUS
 62
     7
 10
-263.4859072048832
 20
142.75
 11
-267.4859072048832
 21
142.75
  0
ARC
  8
0
  6
CONTINUOUS
 62
     7
 10
-263.4859072048832
 20
143.25
 40
0.5000000000000004
 50
270.0
 51
0.0
  0
LINE
  8
0
  6
CONTINUOUS
 62
     7
 10
-262.9859072048832
 20
144.2718171694769
 11
-262.9859072048832
 21
143.25
  0
LINE
  8
0
  6
CONTINUOUS
 62
     7
 10
-264.9859072048832
 20
154.0
 11
-262.8519326086677
 21
154.0
  0
POLYLINE
  8
0
  6
CONTINUOUS
 62
     7
 66
     1
  0
VERTEX
  8
0
  6
CONTINUOUS
 62
     7
 10
-262.4189199067754
 20
153.75
  0
VERTEX
  8
0
  6
CONTINUOUS
 62
     7
 10
-262.4455272211653
 20
153.791263902688
  0
VERTEX
  8
0
  6
CONTINUOUS
 62
     7
 10
-262.475197272851
 20
153.828740759185
  0
VERTEX
  8
0
  6
CONTINUOUS
 62
     7
 10
-262.5076235456662
 20
153.8625620900412
  0
VERTEX
  8
0
  6
CONTINUOUS
 62
     7
 10
-262.5423177041641
 20
153.8926049043368
  0
VERTEX
  8
0
  6
CONTINUOUS
 62
     7
 10
-262.5795398735976
 20
153.9192877268428
  0
VERTEX
  8
0
  6
CONTINUOUS
 62
     7
 10
-262.6184306630307
 20
153.9421276301972
  0
VERTEX
  8
0
  6
CONTINUOUS
 62
     7
 10
-262.658805973822
 20
153.9611963821553
  0
VERTEX
  8
0
  6
CONTINUOUS
 62
     7
 10
-262.7002946800499
 20
153.9764514021435
  0
VERTEX
  8
0
  6
CONTINUOUS
 62
     7
 10
-262.7365695170928
 20
153.9865093597273
  0
VERTEX
  8
0
  6
CONTINUOUS
 62
     7
 10
-262.7733206113757
 20
153.9937814839398
  0
VERTEX
  8
0
  6
CONTINUOUS
 62
     7
 10
-262.8104626499975
 20
153.9982772747456
  0
VERTEX
  8
0
  6
CONTINUOUS
 62
     7
 10
-262.8477922406604
 20
153.9999828570589
  0
VERTEX
  8
0
  6
CONTINUOUS
 62
     7
 10
-262.8519326086677
 20
154.0
  0
SEQEND
  8
0
  6
CONTINUOUS
 62
     7
  0
POLYLINE
  8
0
  6
CONTINUOUS
 62
     7
 66
     1
  0
VERTEX
  8
0
  6
CONTINUOUS
 62
     7
 10
-261.552894502991
 20
153.7500000000001
  0
VERTEX
  8
0
  6
CONTINUOUS
 62
     7
 10
-261.5661692516196
 20
153.7282523680484
  0
VERTEX
  8
0
  6
CONTINUOUS
 62
     7
 10
-261.5815215049211
 20
153.7058304705072
  0
VERTEX
  8
0
  6
CONTINUOUS
 62
     7
 10
-261.5992216134643
 20
153.6829174421489
  0
VERTEX
  8
0
  6
CONTINUOUS
 62
     7
 10
-261.6195399278178
 20
153.6596964177459
  0
VERTEX
  8
0
  6
CONTINUOUS
 62
     7
 10
-261.6427467985503
 20
153.6363505320705
  0
VERTEX
  8
0
  6
CONTINUOUS
 62
     7
 10
-261.6573234701416
 20
153.6231212028746
  0
VERTEX
  8
0
  6
CONTINUOUS
 62
     7
 10
-261.6730715001763
 20
153.6099394836075
  0
VERTEX
  8
0
  6
CONTINUOUS
 62
     7
 10
-261.6900363864877
 20
153.596913744076
  0
VERTEX
  8
0
  6
CONTINUOUS
 62
     7
 10
-261.7082636269092
 20
153.5841523540871
  0
VERTEX
  8
0
  6
CONTINUOUS
 62
     7
 10
-261.7277987192744
 20
153.5717636834477
  0
VERTEX
  8
0
  6
CONTINUOUS
 62
     7
 10
-261.7486871614166
 20
153.5598561019647
  0
VERTEX
  8
0
  6
CONTINUOUS
 62
     7
 10
-261.7632088576315
 20
153.5523373197523
  0
VERTEX
  8
0
  6
CONTINUOUS
 62
     7
 10
-261.7784129503804
 20
153.5450966670406
  0
VERTEX
  8
0
  6
CONTINUOUS
 62
     7
 10
-261.7942721755255
 20
153.538194206958
  0
VERTEX
  8
0
  6
CONTINUOUS
 62
     7
 10
-261.8107592689292
 20
153.531690002633
  0
VERTEX
  8
0
  6
CONTINUOUS
 62
     7
 10
-261.8278469664538
 20
153.5256441171938
  0
VERTEX
  8
0
  6
CONTINUOUS
 62
     7
 10
-261.8455080039615
 20
153.520116613769
  0
VERTEX
  8
0
  6
CONTINUOUS
 62
     7
 10
-261.8603551344567
 20
153.5160208541758
  0
VERTEX
  8
0
  6
CONTINUOUS
 62
     7
 10
-261.8755762598809
 20
153.5123257060465
  0
VERTEX
  8
0
  6
CONTINUOUS
 62
     7
 10
-261.8911225790575
 20
153.509066323515
  0
VERTEX
  8
0
  6
CONTINUOUS
 62
     7
 10
-261.9033097568601
 20
153.5068706057771
  0
VERTEX
  8
0
  6
CONTINUOUS
 62
     7
 10
-261.9156699031583
 20
153.504959769528
  0
VERTEX
  8
0
  6
CONTINUOUS
 62
     7
 10
-261.9281696474313
 20
153.5033458858478
  0
VERTEX
  8
0
  6
CONTINUOUS
 62
     7
 10
-261.9407756191581
 20
153.5020410258164
  0
VERTEX
  8
0
  6
CONTINUOUS
 62
     7
 10
-261.9531537635787
 20
153.5010751324678
  0
VERTEX
  8
0
  6
CONTINUOUS
 62
     7
 10
-261.9656102735195
 20
153.5004142518861
  0
VERTEX
  8
0
  6
CONTINUOUS
 62
     7
 10
-261.9781076314493
 20
153.500062027058
  0
VERTEX
  8
0
  6
CONTINUOUS
 62
     7
 10
-261.9906083198364
 20
153.5000221009703
  0
VERTEX
  8
0
  6
CONTINUOUS
 62
     7
 10
-262.0035270452354
 20
153.5003118847184
  0
VERTEX
  8
0
  6
CONTINUOUS
 62
     7
 10
-262.0164211963412
 20
153.5009343376428
  0
VERTEX
  8
0
  6
CONTINUOUS
 62
     7
 10
-262.0292501819862
 20
153.5018834877803
  0
VERTEX
  8
0
  6
CONTINUOUS
 62
     7
 10
-262.0419734110026
 20
153.5031533631679
  0
VERTEX
  8
0
  6
CONTINUOUS
 62
     7
 10
-262.0571673474797
 20
153.5051091532847
  0
VERTEX
  8
0
  6
CONTINUOUS
 62
     7
 10
-262.0721847216504
 20
153.5075131556821
  0
VERTEX
  8
0
  6
CONTINUOUS
 62
     7
 10
-262.0869778810141
 20
153.5103384649079
  0
VERTEX
  8
0
  6
CONTINUOUS
 62
     7
 10
-262.1014991730702
 20
153.5135581755098
  0
VERTEX
  8
0
  6
CONTINUOUS
 62
     7
 10
-262.1157009453181
 20
153.5171453820356
  0
VERTEX
  8
0
  6
CONTINUOUS
 62
     7
 10
-262.129535545257
 20
153.5210731790331
  0
VERTEX
  8
0
  6
CONTINUOUS
 62
     7
 10
-262.1436187095138
 20
153.5255252369492
  0
VERTEX
  8
0
  6
CONTINUOUS
 62
     7
 10
-262.1573250470223
 20
153.5303037878234
  0
VERTEX
  8
0
  6
CONTINUOUS
 62
     7
 10
-262.1706335500145
 20
153.5353760734901
  0
VERTEX
  8
0
  6
CONTINUOUS
 62
     7
 10
-262.1835232107229
 20
153.540709335784
  0
VERTEX
  8
0
  6
CONTINUOUS
 62
     7
 10
-262.2005277718241
 20
153.5484053061467
  0
VERTEX
  8
0
  6
CONTINUOUS
 62
     7
 10
-262.2167780097183
 20
153.5564930490404
  0
VERTEX
  8
0
  6
CONTINUOUS
 62
     7
 10
-262.2322638144241
 20
153.5649041244329
  0
VERTEX
  8
0
  6
CONTINUOUS
 62
     7
 10
-262.2541062283506
 20
153.578006421689
  0
VERTEX
  8
0
  6
CONTINUOUS
 62
     7
 10
-262.2744034113828
 20
153.5915977917989
  0
VERTEX
  8
0
  6
CONTINUOUS
 62
     7
 10
-262.2932183206208
 20
153.6055553185518
  0
VERTEX
  8
0
  6
CONTINUOUS
 62
     7
 10
-262.3106139131651
 20
153.6197560857369
  0
VERTEX
  8
0
  6
CONTINUOUS
 62
     7
 10
-262.3266531461156
 20
153.6340771771435
  0
VERTEX
  8
0
  6
CONTINUOUS
 62
     7
 10
-262.3413989765727
 20
153.6483956765609
  0
VERTEX
  8
0
  6
CONTINUOUS
 62
     7
 10
-262.3609629402277
 20
153.6693149664492
  0
VERTEX
  8
0
  6
CONTINUOUS
 62
     7
 10
-262.378306184214
 20
153.6900570564708
  0
VERTEX
  8
0
  6
CONTINUOUS
 62
     7
 10
-262.393619539393
 20
153.7104999338922
  0
VERTEX
  8
0
  6
CONTINUOUS
 62
     7
 10
-262.4070938366264
 20
153.7305215859798
  0
VERTEX
  8
0
  6
CONTINUOUS
 62
     7
 10
-262.4189199067754
 20
153.75
  0
SEQEND
  8
0
  6
CONTINUOUS
 62
     7
  0
POLYLINE
  8
0
  6
CONTINUOUS
 62
     7
 66
     1
  0
VERTEX
  8
0
  6
CONTINUOUS
 62
     7
 10
-261.1198818010988
 20
154.0
  0
VERTEX
  8
0
  6
CONTINUOUS
 62
     7
 10
-261.1240221691061
 20
153.9999828570589
  0
VERTEX
  8
0
  6
CONTINUOUS
 62
     7
 10
-261.1612011555434
 20
153.9982897861167
  0
VERTEX
  8
0
  6
CONTINUOUS
 62
     7
 10
-261.1982535369299
 20
153.9938196746066
  0
VERTEX
  8
0
  6
CONTINUOUS
 62
     7
 10
-261.2350956478393
 20
153.9865447250965
  0
VERTEX
  8
0
  6
CONTINUOUS
 62
     7
 10
-261.2715197297166
 20
153.9764514021435
  0
VERTEX
  8
0
  6
CONTINUOUS
 62
     7
 10
-261.3117908265892
 20
153.9617043707128
  0
VERTEX
  8
0
  6
CONTINUOUS
 62
     7
 10
-261.3511105627292
 20
153.9433207188874
  0
VERTEX
  8
0
  6
CONTINUOUS
 62
     7
 10
-261.3893172925984
 20
153.9211941546608
  0
VERTEX
  8
0
  6
CONTINUOUS
 62
     7
 10
-261.4260393080895
 20
153.8953069451872
  0
VERTEX
  8
0
  6
CONTINUOUS
 62
     7
 10
-261.4614451649807
 20
153.8651499259944
  0
VERTEX
  8
0
  6
CONTINUOUS
 62
     7
 10
-261.4946466726245
 20
153.8309853336182
  0
VERTEX
  8
0
  6
CONTINUOUS
 62
     7
 10
-261.5253323574955
 20
153.7925916032933
  0
VERTEX
  8
0
  6
CONTINUOUS
 62
     7
 10
-261.552894502991
 20
153.7500000000001
  0
SEQEND
  8
0
  6
CONTINUOUS
 62
     7
  0
LINE
  8
0
  6
CONTINUOUS
 62
     7
 10
-261.1198818010988
 20
154.0
 11
-258.8519326086677
 21
154.0
  0
POLYLINE
  8
0
  6
CONTINUOUS
 62
     7
 66
     1
  0
VERTEX
  8
0
  6
CONTINUOUS
 62
     7
 10
-258.4189199067754
 20
153.75
  0
VERTEX
  8
0
  6
CONTINUOUS
 62
     7
 10
-258.4455272211653
 20
153.791263902688
  0
VERTEX
  8
0
  6
CONTINUOUS
 62
     7
 10
-258.475197272851
 20
153.828740759185
  0
VERTEX
  8
0
  6
CONTINUOUS
 62
     7
 10
-258.5076235456662
 20
153.8625620900412
  0
VERTEX
  8
0
  6
CONTINUOUS
 62
     7
 10
-258.5423177041641
 20
153.8926049043368
  0
VERTEX
  8
0
  6
CONTINUOUS
 62
     7
 10
-258.5795398735976
 20
153.9192877268428
  0
VERTEX
  8
0
  6
CONTINUOUS
 62
     7
 10
-258.6184306630307
 20
153.9421276301972
  0
VERTEX
  8
0
  6
CONTINUOUS
 62
     7
 10
-258.658805973822
 20
153.9611963821553
  0
VERTEX
  8
0
  6
CONTINUOUS
 62
     7
 10
-258.7002946800499
 20
153.9764514021435
  0
VERTEX
  8
0
  6
CONTINUOUS
 62
     7
 10
-258.7365695170928
 20
153.9865093597273
  0
VERTEX
  8
0
  6
CONTINUOUS
 62
     7
 10
-258.7733206113757
 20
153.9937814839398
  0
VERTEX
  8
0
  6
CONTINUOUS
 62
     7
 10
-258.8104626499975
 20
153.9982772747456
  0
VERTEX
  8
0
  6
CONTINUOUS
 62
     7
 10
-258.8477922406604
 20
153.9999828570589
  0
VERTEX
  8
0
  6
CONTINUOUS
 62
     7
 10
-258.8519326086677
 20
154.0
  0
SEQEND
  8
0
  6
CONTINUOUS
 62
     7
  0
POLYLINE
  8
0
  6
CONTINUOUS
 62
     7
 66
     1
  0
VERTEX
  8
0
  6
CONTINUOUS
 62
     7
 10
-257.552894502991
 20
153.7500000000001
  0
VERTEX
  8
0
  6
CONTINUOUS
 62
     7
 10
-257.5661692516196
 20
153.7282523680484
  0
VERTEX
  8
0
  6
CONTINUOUS
 62
     7
 10
-257.5815215049211
 20
153.7058304705072
  0
VERTEX
  8
0
  6
CONTINUOUS
 62
     7
 10
-257.5992216134642
 20
153.6829174421489
  0
VERTEX
  8
0
  6
CONTINUOUS
 62
     7
 10
-257.6195399278178
 20
153.6596964177459
  0
VERTEX
  8
0
  6
CONTINUOUS
 62
     7
 10
-257.6427467985503
 20
153.6363505320705
  0
VERTEX
  8
0
  6
CONTINUOUS
 62
     7
 10
-257.6573234701416
 20
153.6231212028746
  0
VERTEX
  8
0
  6
CONTINUOUS
 62
     7
 10
-257.6730715001763
 20
153.6099394836075
  0
VERTEX
  8
0
  6
CONTINUOUS
 62
     7
 10
-257.6900363864877
 20
153.596913744076
  0
VERTEX
  8
0
  6
CONTINUOUS
 62
     7
 10
-257.7082636269092
 20
153.5841523540871
  0
VERTEX
  8
0
  6
CONTINUOUS
 62
     7
 10
-257.7277987192744
 20
153.5717636834477
  0
VERTEX
  8
0
  6
CONTINUOUS
 62
     7
 10
-257.7486871614166
 20
153.5598561019647
  0
VERTEX
  8
0
  6
CONTINUOUS
 62
     7
 10
-257.7632088576315
 20
153.5523373197523
  0
VERTEX
  8
0
  6
CONTINUOUS
 62
     7
 10
-257.7784129503804
 20
153.5450966670406
  0
VERTEX
  8
0
  6
CONTINUOUS
 62
     7
 10
-257.7942721755255
 20
153.538194206958
  0
VERTEX
  8
0
  6
CONTINUOUS
 62
     7
 10
-257.8107592689292
 20
153.531690002633
  0
VERTEX
  8
0
  6
CONTINUOUS
 62
     7
 10
-257.8278469664538
 20
153.5256441171938
  0
VERTEX
  8
0
  6
CONTINUOUS
 62
     7
 10
-257.8455080039615
 20
153.520116613769
  0
VERTEX
  8
0
  6
CONTINUOUS
 62
     7
 10
-257.8603551344567
 20
153.5160208541758
  0
VERTEX
  8
0
  6
CONTINUOUS
 62
     7
 10
-257.8755762598809
 20
153.5123257060465
  0
VERTEX
  8
0
  6
CONTINUOUS
 62
     7
 10
-257.8911225790575
 20
153.509066323515
  0
VERTEX
  8
0
  6
CONTINUOUS
 62
     7
 10
-257.9033097568601
 20
153.5068706057771
  0
VERTEX
  8
0
  6
CONTINUOUS
 62
     7
 10
-257.9156699031583
 20
153.504959769528
  0
VERTEX
  8
0
  6
CONTINUOUS
 62
     7
 10
-257.9281696474313
 20
153.5033458858478
  0
VERTEX
  8
0
  6
CONTINUOUS
 62
     7
 10
-257.9407756191581
 20
153.5020410258164
  0
VERTEX
  8
0
  6
CONTINUOUS
 62
     7
 10
-257.9531537635787
 20
153.5010751324678
  0
VERTEX
  8
0
  6
CONTINUOUS
 62
     7
 10
-257.9656102735195
 20
153.5004142518861
  0
VERTEX
  8
0
  6
CONTINUOUS
 62
     7
 10
-257.9781076314493
 20
153.500062027058
  0
VERTEX
  8
0
  6
CONTINUOUS
 62
     7
 10
-257.9906083198364
 20
153.5000221009703
  0
VERTEX
  8
0
  6
CONTINUOUS
 62
     7
 10
-258.0035270452354
 20
153.5003118847184
  0
VERTEX
  8
0
  6
CONTINUOUS
 62
     7
 10
-258.0164211963412
 20
153.5009343376428
  0
VERTEX
  8
0
  6
CONTINUOUS
 62
     7
 10
-258.0292501819862
 20
153.5018834877803
  0
VERTEX
  8
0
  6
CONTINUOUS
 62
     7
 10
-258.0419734110027
 20
153.5031533631679
  0
VERTEX
  8
0
  6
CONTINUOUS
 62
     7
 10
-258.0571673474797
 20
153.5051091532847
  0
VERTEX
  8
0
  6
CONTINUOUS
 62
     7
 10
-258.0721847216504
 20
153.5075131556821
  0
VERTEX
  8
0
  6
CONTINUOUS
 62
     7
 10
-258.0869778810141
 20
153.5103384649079
  0
VERTEX
  8
0
  6
CONTINUOUS
 62
     7
 10
-258.1014991730702
 20
153.5135581755098
  0
VERTEX
  8
0
  6
CONTINUOUS
 62
     7
 10
-258.1157009453181
 20
153.5171453820356
  0
VERTEX
  8
0
  6
CONTINUOUS
 62
     7
 10
-258.129535545257
 20
153.5210731790331
  0
VERTEX
  8
0
  6
CONTINUOUS
 62
     7
 10
-258.1436187095138
 20
153.5255252369492
  0
VERTEX
  8
0
  6
CONTINUOUS
 62
     7
 10
-258.1573250470223
 20
153.5303037878234
  0
VERTEX
  8
0
  6
CONTINUOUS
 62
     7
 10
-258.1706335500145
 20
153.5353760734901
  0
VERTEX
  8
0
  6
CONTINUOUS
 62
     7
 10
-258.1835232107229
 20
153.540709335784
  0
VERTEX
  8
0
  6
CONTINUOUS
 62
     7
 10
-258.2005277718241
 20
153.5484053061467
  0
VERTEX
  8
0
  6
CONTINUOUS
 62
     7
 10
-258.2167780097183
 20
153.5564930490404
  0
VERTEX
  8
0
  6
CONTINUOUS
 62
     7
 10
-258.2322638144241
 20
153.5649041244329
  0
VERTEX
  8
0
  6
CONTINUOUS
 62
     7
 10
-258.2541062283506
 20
153.578006421689
  0
VERTEX
  8
0
  6
CONTINUOUS
 62
     7
 10
-258.2744034113828
 20
153.5915977917989
  0
VERTEX
  8
0
  6
CONTINUOUS
 62
     7
 10
-258.2932183206208
 20
153.6055553185518
  0
VERTEX
  8
0
  6
CONTINUOUS
 62
     7
 10
-258.3106139131651
 20
153.6197560857369
  0
VERTEX
  8
0
  6
CONTINUOUS
 62
     7
 10
-258.3266531461156
 20
153.6340771771435
  0
VERTEX
  8
0
  6
CONTINUOUS
 62
     7
 10
-258.3413989765727
 20
153.6483956765609
  0
VERTEX
  8
0
  6
CONTINUOUS
 62
     7
 10
-258.3609629402277
 20
153.6693149664492
  0
VERTEX
  8
0
  6
CONTINUOUS
 62
     7
 10
-258.378306184214
 20
153.6900570564708
  0
VERTEX
  8
0
  6
CONTINUOUS
 62
     7
 10
-258.393619539393
 20
153.7104999338922
  0
VERTEX
  8
0
  6
CONTINUOUS
 62
     7
 10
-258.4070938366264
 20
153.7305215859798
  0
VERTEX
  8
0
  6
CONTINUOUS
 62
     7
 10
-258.4189199067754
 20
153.75
  0
SEQEND
  8
0
  6
CONTINUOUS
 62
     7
  0
POLYLINE
  8
0
  6
CONTINUOUS
 62
     7
 66
     1
  0
VERTEX
  8
0
  6
CONTINUOUS
 62
     7
 10
-257.1198818010988
 20
154.0
  0
VERTEX
  8
0
  6
CONTINUOUS
 62
     7
 10
-257.1240221691061
 20
153.9999828570589
  0
VERTEX
  8
0
  6
CONTINUOUS
 62
     7
 10
-257.1612011555434
 20
153.9982897861168
  0
VERTEX
  8
0
  6
CONTINUOUS
 62
     7
 10
-257.1982535369299
 20
153.9938196746066
  0
VERTEX
  8
0
  6
CONTINUOUS
 62
     7
 10
-257.2350956478393
 20
153.9865447250965
  0
VERTEX
  8
0
  6
CONTINUOUS
 62
     7
 10
-257.2715197297166
 20
153.9764514021435
  0
VERTEX
  8
0
  6
CONTINUOUS
 62
     7
 10
-257.3117908265892
 20
153.9617043707129
  0
VERTEX
  8
0
  6
CONTINUOUS
 62
     7
 10
-257.3511105627292
 20
153.9433207188874
  0
VERTEX
  8
0
  6
CONTINUOUS
 62
     7
 10
-257.3893172925984
 20
153.9211941546608
  0
VERTEX
  8
0
  6
CONTINUOUS
 62
     7
 10
-257.4260393080895
 20
153.8953069451872
  0
VERTEX
  8
0
  6
CONTINUOUS
 62
     7
 10
-257.4614451649807
 20
153.8651499259944
  0
VERTEX
  8
0
  6
CONTINUOUS
 62
     7
 10
-257.4946466726245
 20
153.8309853336182
  0
VERTEX
  8
0
  6
CONTINUOUS
 62
     7
 10
-257.5253323574955
 20
153.7925916032933
  0
VERTEX
  8
0
  6
CONTINUOUS
 62
     7
 10
-257.552894502991
 20
153.7500000000001
  0
SEQEND
  8
0
  6
CONTINUOUS
 62
     7
  0
LINE
  8
0
  6
CONTINUOUS
 62
     7
 10
-257.1198818010988
 20
154.0
 11
-254.8519326086677
 21
154.0
  0
POLYLINE
  8
0
  6
CONTINUOUS
 62
     7
 66
     1
  0
VERTEX
  8
0
  6
CONTINUOUS
 62
     7
 10
-254.4189199067754
 20
153.75
  0
VERTEX
  8
0
  6
CONTINUOUS
 62
     7
 10
-254.4455272211653
 20
153.791263902688
  0
VERTEX
  8
0
  6
CONTINUOUS
 62
     7
 10
-254.475197272851
 20
153.828740759185
  0
VERTEX
  8
0
  6
CONTINUOUS
 62
     7
 10
-254.5076235456662
 20
153.8625620900412
  0
VERTEX
  8
0
  6
CONTINUOUS
 62
     7
 10
-254.5423177041641
 20
153.8926049043368
  0
VERTEX
  8
0
  6
CONTINUOUS
 62
     7
 10
-254.5795398735976
 20
153.9192877268428
  0
VERTEX
  8
0
  6
CONTINUOUS
 62
     7
 10
-254.6184306630307
 20
153.9421276301972
  0
VERTEX
  8
0
  6
CONTINUOUS
 62
     7
 10
-254.658805973822
 20
153.9611963821553
  0
VERTEX
  8
0
  6
CONTINUOUS
 62
     7
 10
-254.7002946800499
 20
153.9764514021435
  0
VERTEX
  8
0
  6
CONTINUOUS
 62
     7
 10
-254.7365695170928
 20
153.9865093597273
  0
VERTEX
  8
0
  6
CONTINUOUS
 62
     7
 10
-254.7733206113756
 20
153.9937814839398
  0
VERTEX
  8
0
  6
CONTINUOUS
 62
     7
 10
-254.8104626499975
 20
153.9982772747456
  0
VERTEX
  8
0
  6
CONTINUOUS
 62
     7
 10
-254.8477922406604
 20
153.9999828570589
  0
VERTEX
  8
0
  6
CONTINUOUS
 62
     7
 10
-254.8519326086677
 20
154.0
  0
SEQEND
  8
0
  6
CONTINUOUS
 62
     7
  0
POLYLINE
  8
0
  6
CONTINUOUS
 62
     7
 66
     1
  0
VERTEX
  8
0
  6
CONTINUOUS
 62
     7
 10
-253.5528945029909
 20
153.7500000000001
  0
VERTEX
  8
0
  6
CONTINUOUS
 62
     7
 10
-253.5661692516196
 20
153.7282523680484
  0
VERTEX
  8
0
  6
CONTINUOUS
 62
     7
 10
-253.5815215049211
 20
153.7058304705072
  0
VERTEX
  8
0
  6
CONTINUOUS
 62
     7
 10
-253.5992216134643
 20
153.6829174421489
  0
VERTEX
  8
0
  6
CONTINUOUS
 62
     7
 10
-253.6195399278178
 20
153.6596964177459
  0
VERTEX
  8
0
  6
CONTINUOUS
 62
     7
 10
-253.6427467985503
 20
153.6363505320705
  0
VERTEX
  8
0
  6
CONTINUOUS
 62
     7
 10
-253.6573234701416
 20
153.6231212028746
  0
VERTEX
  8
0
  6
CONTINUOUS
 62
     7
 10
-253.6730715001763
 20
153.6099394836075
  0
VERTEX
  8
0
  6
CONTINUOUS
 62
     7
 10
-253.6900363864877
 20
153.596913744076
  0
VERTEX
  8
0
  6
CONTINUOUS
 62
     7
 10
-253.7082636269092
 20
153.5841523540871
  0
VERTEX
  8
0
  6
CONTINUOUS
 62
     7
 10
-253.7277987192744
 20
153.5717636834477
  0
VERTEX
  8
0
  6
CONTINUOUS
 62
     7
 10
-253.7486871614166
 20
153.5598561019647
  0
VERTEX
  8
0
  6
CONTINUOUS
 62
     7
 10
-253.7632088576315
 20
153.5523373197523
  0
VERTEX
  8
0
  6
CONTINUOUS
 62
     7
 10
-253.7784129503804
 20
153.5450966670406
  0
VERTEX
  8
0
  6
CONTINUOUS
 62
     7
 10
-253.7942721755255
 20
153.538194206958
  0
VERTEX
  8
0
  6
CONTINUOUS
 62
     7
 10
-253.8107592689292
 20
153.531690002633
  0
VERTEX
  8
0
  6
CONTINUOUS
 62
     7
 10
-253.8278469664538
 20
153.5256441171938
  0
VERTEX
  8
0
  6
CONTINUOUS
 62
     7
 10
-253.8455080039615
 20
153.520116613769
  0
VERTEX
  8
0
  6
CONTINUOUS
 62
     7
 10
-253.8603551344567
 20
153.5160208541758
  0
VERTEX
  8
0
  6
CONTINUOUS
 62
     7
 10
-253.8755762598809
 20
153.5123257060465
  0
VERTEX
  8
0
  6
CONTINUOUS
 62
     7
 10
-253.8911225790575
 20
153.509066323515
  0
VERTEX
  8
0
  6
CONTINUOUS
 62
     7
 10
-253.9033097568601
 20
153.5068706057771
  0
VERTEX
  8
0
  6
CONTINUOUS
 62
     7
 10
-253.9156699031583
 20
153.504959769528
  0
VERTEX
  8
0
  6
CONTINUOUS
 62
     7
 10
-253.9281696474313
 20
153.5033458858478
  0
VERTEX
  8
0
  6
CONTINUOUS
 62
     7
 10
-253.9407756191581
 20
153.5020410258164
  0
VERTEX
  8
0
  6
CONTINUOUS
 62
     7
 10
-253.9531537635786
 20
153.5010751324678
  0
VERTEX
  8
0
  6
CONTINUOUS
 62
     7
 10
-253.9656102735195
 20
153.5004142518861
  0
VERTEX
  8
0
  6
CONTINUOUS
 62
     7
 10
-253.9781076314493
 20
153.500062027058
  0
VERTEX
  8
0
  6
CONTINUOUS
 62
     7
 10
-253.9906083198364
 20
153.5000221009703
  0
VERTEX
  8
0
  6
CONTINUOUS
 62
     7
 10
-254.0035270452354
 20
153.5003118847184
  0
VERTEX
  8
0
  6
CONTINUOUS
 62
     7
 10
-254.0164211963412
 20
153.5009343376428
  0
VERTEX
  8
0
  6
CONTINUOUS
 62
     7
 10
-254.0292501819862
 20
153.5018834877803
  0
VERTEX
  8
0
  6
CONTINUOUS
 62
     7
 10
-254.0419734110027
 20
153.5031533631679
  0
VERTEX
  8
0
  6
CONTINUOUS
 62
     7
 10
-254.0571673474797
 20
153.5051091532847
  0
VERTEX
  8
0
  6
CONTINUOUS
 62
     7
 10
-254.0721847216504
 20
153.5075131556821
  0
VERTEX
  8
0
  6
CONTINUOUS
 62
     7
 10
-254.0869778810141
 20
153.5103384649079
  0
VERTEX
  8
0
  6
CONTINUOUS
 62
     7
 10
-254.1014991730702
 20
153.5135581755098
  0
VERTEX
  8
0
  6
CONTINUOUS
 62
     7
 10
-254.1157009453181
 20
153.5171453820356
  0
VERTEX
  8
0
  6
CONTINUOUS
 62
     7
 10
-254.129535545257
 20
153.5210731790331
  0
VERTEX
  8
0
  6
CONTINUOUS
 62
     7
 10
-254.1436187095137
 20
153.5255252369492
  0
VERTEX
  8
0
  6
CONTINUOUS
 62
     7
 10
-254.1573250470223
 20
153.5303037878234
  0
VERTEX
  8
0
  6
CONTINUOUS
 62
     7
 10
-254.1706335500146
 20
153.5353760734901
  0
VERTEX
  8
0
  6
CONTINUOUS
 62
     7
 10
-254.1835232107229
 20
153.540709335784
  0
VERTEX
  8
0
  6
CONTINUOUS
 62
     7
 10
-254.2005277718241
 20
153.5484053061467
  0
VERTEX
  8
0
  6
CONTINUOUS
 62
     7
 10
-254.2167780097183
 20
153.5564930490404
  0
VERTEX
  8
0
  6
CONTINUOUS
 62
     7
 10
-254.2322638144242
 20
153.5649041244329
  0
VERTEX
  8
0
  6
CONTINUOUS
 62
     7
 10
-254.2541062283506
 20
153.578006421689
  0
VERTEX
  8
0
  6
CONTINUOUS
 62
     7
 10
-254.2744034113828
 20
153.5915977917989
  0
VERTEX
  8
0
  6
CONTINUOUS
 62
     7
 10
-254.2932183206208
 20
153.6055553185518
  0
VERTEX
  8
0
  6
CONTINUOUS
 62
     7
 10
-254.3106139131651
 20
153.6197560857369
  0
VERTEX
  8
0
  6
CONTINUOUS
 62
     7
 10
-254.3266531461156
 20
153.6340771771435
  0
VERTEX
  8
0
  6
CONTINUOUS
 62
     7
 10
-254.3413989765727
 20
153.6483956765609
  0
VERTEX
  8
0
  6
CONTINUOUS
 62
     7
 10
-254.3609629402277
 20
153.6693149664492
  0
VERTEX
  8
0
  6
CONTINUOUS
 62
     7
 10
-254.378306184214
 20
153.6900570564708
  0
VERTEX
  8
0
  6
CONTINUOUS
 62
     7
 10
-254.393619539393
 20
153.7104999338922
  0
VERTEX
  8
0
  6
CONTINUOUS
 62
     7
 10
-254.4070938366264
 20
153.7305215859798
  0
VERTEX
  8
0
  6
CONTINUOUS
 62
     7
 10
-254.4189199067754
 20
153.75
  0
SEQEND
  8
0
  6
CONTINUOUS
 62
     7
  0
POLYLINE
  8
0
  6
CONTINUOUS
 62
     7
 66
     1
  0
VERTEX
  8
0
  6
CONTINUOUS
 62
     7
 10
-253.1198818010988
 20
154.0
  0
VERTEX
  8
0
  6
CONTINUOUS
 62
     7
 10
-253.1240221691061
 20
153.9999828570589
  0
VERTEX
  8
0
  6
CONTINUOUS
 62
     7
 10
-253.1612011555434
 20
153.9982897861168
  0
VERTEX
  8
0
  6
CONTINUOUS
 62
     7
 10
-253.1982535369299
 20
153.9938196746066
  0
VERTEX
  8
0
  6
CONTINUOUS
 62
     7
 10
-253.2350956478392
 20
153.9865447250965
  0
VERTEX
  8
0
  6
CONTINUOUS
 62
     7
 10
-253.2715197297166
 20
153.9764514021435
  0
VERTEX
  8
0
  6
CONTINUOUS
 62
     7
 10
-253.3117908265892
 20
153.9617043707129
  0
VERTEX
  8
0
  6
CONTINUOUS
 62
     7
 10
-253.3511105627292
 20
153.9433207188874
  0
VERTEX
  8
0
  6
CONTINUOUS
 62
     7
 10
-253.3893172925984
 20
153.9211941546608
  0
VERTEX
  8
0
  6
CONTINUOUS
 62
     7
 10
-253.4260393080894
 20
153.8953069451872
  0
VERTEX
  8
0
  6
CONTINUOUS
 62
     7
 10
-253.4614451649807
 20
153.8651499259944
  0
VERTEX
  8
0
  6
CONTINUOUS
 62
     7
 10
-253.4946466726245
 20
153.8309853336182
  0
VERTEX
  8
0
  6
CONTINUOUS
 62
     7
 10
-253.5253323574955
 20
153.7925916032933
  0
VERTEX
  8
0
  6
CONTINUOUS
 62
     7
 10
-253.5528945029909
 20
153.7500000000001
  0
SEQEND
  8
0
  6
CONTINUOUS
 62
     7
  0
LINE
  8
0
  6
CONTINUOUS
 62
     7
 10
-253.1198818010988
 20
154.0
 11
-252.1820596275899
 21
154.0
  0
LINE
  8
0
  6
CONTINUOUS
 62
     7
 10
-252.1820596275899
 20
154.0
 11
-251.1923163089791
 21
153.4285714285714
  0
LINE
  8
0
  6
CONTINUOUS
 62
     7
 10
-264.9859072048832
 20
153.4285714285714
 11
-264.9859072048832
 21
154.0
  0
LINE
  8
0
  6
CONTINUOUS
 62
     7
 10
-253.8010792250951
 20
136.4645843495937
 11
-251.3773759296922
 21
136.4645843495937
  0
LINE
  8
0
  6
CONTINUOUS
 62
     7
 10
-251.3773759296922
 20
136.4645843495937
 11
-252.1820596275899
 21
136.0
  0
LINE
  8
0
  6
CONTINUOUS
 62
     7
 10
-252.1820596275899
 20
136.0
 11
-253.1198818010988
 21
136.0
  0
POLYLINE
  8
0
  6
CONTINUOUS
 62
     7
 66
     1
  0
VERTEX
  8
0
  6
CONTINUOUS
 62
     7
 10
-253.552894502991
 20
136.25
  0
VERTEX
  8
0
  6
CONTINUOUS
 62
     7
 10
-253.5415775240052
 20
136.2313501958266
  0
VERTEX
  8
0
  6
CONTINUOUS
 62
     7
 10
-253.5294578232433
 20
136.2132117818245
  0
VERTEX
  8
0
  6
CONTINUOUS
 62
     7
 10
-253.5165584712444
 20
136.1956192854956
  0
VERTEX
  8
0
  6
CONTINUOUS
 62
     7
 10
-253.5029040226583
 20
136.1786061951567
  0
VERTEX
  8
0
  6
CONTINUOUS
 62
     7
 10
-253.4885204695039
 20
136.1622048961922
  0
VERTEX
  8
0
  6
CONTINUOUS
 62
     7
 10
-253.4734351916921
 20
136.1464466094067
  0
VERTEX
  8
0
  6
CONTINUOUS
 62
     7
 10
-253.4576769049066
 20
136.1313613315949
  0
VERTEX
  8
0
  6
CONTINUOUS
 62
     7
 10
-253.4412756059421
 20
136.1169777784405
  0
VERTEX
  8
0
  6
CONTINUOUS
 62
     7
 10
-253.4242625156032
 20
136.1033233298544
  0
VERTEX
  8
0
  6
CONTINUOUS
 62
     7
 10
-253.4066700192743
 20
136.0904239778555
  0
VERTEX
  8
0
  6
CONTINUOUS
 62
     7
 10
-253.3885316052722
 20
136.0783042770935
  0
VERTEX
  8
0
  6
CONTINUOUS
 62
     7
 10
-253.3698818010988
 20
136.0669872981078
  0
VERTEX
  8
0
  6
CONTINUOUS
 62
     7
 10
-253.3507561077163
 20
136.0564945834109
  0
VERTEX
  8
0
  6
CONTINUOUS
 62
     7
 10
-253.3311909319692
 20
136.0468461064817
  0
VERTEX
  8
0
  6
CONTINUOUS
 62
     7
 10
-253.3112235172813
 20
136.0380602337443
  0
VERTEX
  8
0
  6
CONTINUOUS
 62
     7
 10
-253.2908918727616
 20
136.030153689607
  0
VERTEX
  8
0
  6
CONTINUOUS
 62
     7
 10
-253.2702347008509
 20
136.0231415246259
  0
VERTEX
  8
0
  6
CONTINUOUS
 62
     7
 10
-253.24929132365
 20
136.0170370868555
  0
VERTEX
  8
0
  6
CONTINUOUS
 62
     7
 10
-253.2281016080678
 20
136.01185199644
  0
VERTEX
  8
0
  6
CONTINUOUS
 62
     7
 10
-253.2067058899323
 20
136.0075961234939
  0
VERTEX
  8
0
  6
CONTINUOUS
 62
     7
 10
-253.1851448972088
 20
136.0042775693131
  0
VERTEX
  8
0
  6
CONTINUOUS
 62
     7
 10
-253.1634596724726
 20
136.0019026509541
  0
VERTEX
  8
0
  6
CONTINUOUS
 62
     7
 10
-253.1416914947815
 20
136.000475889209
  0
VERTEX
  8
0
  6
CONTINUOUS
 62
     7
 10
-253.1198818010988
 20
136.0
  0
SEQEND
  8
0
  6
CONTINUOUS
 62
     7
  0
LINE
  8
0
  6
CONTINUOUS
 62
     7
 10
-253.8010792250951
 20
136.4645843495937
 11
-253.552894502991
 21
136.25
  0
LINE
  8
0
  6
CONTINUOUS
 62
     7
 10
-261.8010792250951
 20
136.4645843495937
 11
-258.1707351846713
 21
136.4645843495937
  0
POLYLINE
  8
0
  6
CONTINUOUS
 62
     7
 66
     1
  0
VERTEX
  8
0
  6
CONTINUOUS
 62
     7
 10
-258.8519326086677
 20
136.0
  0
VERTEX
  8
0
  6
CONTINUOUS
 62
     7
 10
-258.830122914985
 20
136.000475889209
  0
VERTEX
  8
0
  6
CONTINUOUS
 62
     7
 10
-258.8083547372938
 20
136.0019026509541
  0
VERTEX
  8
0
  6
CONTINUOUS
 62
     7
 10
-258.7866695125577
 20
136.0042775693131
  0
VERTEX
  8
0
  6
CONTINUOUS
 62
     7
 10
-258.7651085198342
 20
136.0075961234939
  0
VERTEX
  8
0
  6
CONTINUOUS
 62
     7
 10
-258.7437128016986
 20
136.01185199644
  0
VERTEX
  8
0
  6
CONTINUOUS
 62
     7
 10
-258.7225230861164
 20
136.0170370868555
  0
VERTEX
  8
0
  6
CONTINUOUS
 62
     7
 10
-258.7015797089156
 20
136.0231415246259
  0
VERTEX
  8
0
  6
CONTINUOUS
 62
     7
 10
-258.6809225370048
 20
136.030153689607
  0
VERTEX
  8
0
  6
CONTINUOUS
 62
     7
 10
-258.6605908924852
 20
136.0380602337443
  0
VERTEX
  8
0
  6
CONTINUOUS
 62
     7
 10
-258.6406234777973
 20
136.0468461064817
  0
VERTEX
  8
0
  6
CONTINUOUS
 62
     7
 10
-258.6210583020502
 20
136.0564945834109
  0
VERTEX
  8
0
  6
CONTINUOUS
 62
     7
 10
-258.6019326086677
 20
136.0669872981078
  0
VERTEX
  8
0
  6
CONTINUOUS
 62
     7
 10
-258.5832828044943
 20
136.0783042770935
  0
VERTEX
  8
0
  6
CONTINUOUS
 62
     7
 10
-258.5651443904922
 20
136.0904239778555
  0
VERTEX
  8
0
  6
CONTINUOUS
 62
     7
 10
-258.5475518941633
 20
136.1033233298544
  0
VERTEX
  8
0
  6
CONTINUOUS
 62
     7
 10
-258.5305388038244
 20
136.1169777784405
  0
VERTEX
  8
0
  6
CONTINUOUS
 62
     7
 10
-258.5141375048598
 20
136.1313613315949
  0
VERTEX
  8
0
  6
CONTINUOUS
 62
     7
 10
-258.4983792180744
 20
136.1464466094067
  0
VERTEX
  8
0
  6
CONTINUOUS
 62
     7
 10
-258.4832939402626
 20
136.1622048961922
  0
VERTEX
  8
0
  6
CONTINUOUS
 62
     7
 10
-258.4689103871082
 20
136.1786061951567
  0
VERTEX
  8
0
  6
CONTINUOUS
 62
     7
 10
-258.4552559385221
 20
136.1956192854956
  0
VERTEX
  8
0
  6
CONTINUOUS
 62
     7
 10
-258.4423565865232
 20
136.2132117818245
  0
VERTEX
  8
0
  6
CONTINUOUS
 62
     7
 10
-258.4302368857612
 20
136.2313501958266
  0
VERTEX
  8
0
  6
CONTINUOUS
 62
     7
 10
-258.4189199067754
 20
136.25
  0
SEQEND
  8
0
  6
CONTINUOUS
 62
     7
  0
LINE
  8
0
  6
CONTINUOUS
 62
     7
 10
-258.8519326086677
 20
136.0
 11
-261.1198818010988
 21
136.0
  0
POLYLINE
  8
0
  6
CONTINUOUS
 62
     7
 66
     1
  0
VERTEX
  8
0
  6
CONTINUOUS
 62
     7
 10
-261.552894502991
 20
136.25
  0
VERTEX
  8
0
  6
CONTINUOUS
 62
     7
 10
-261.5415775240052
 20
136.2313501958266
  0
VERTEX
  8
0
  6
CONTINUOUS
 62
     7
 10
-261.5294578232433
 20
136.2132117818245
  0
VERTEX
  8
0
  6
CONTINUOUS
 62
     7
 10
-261.5165584712444
 20
136.1956192854956
  0
VERTEX
  8
0
  6
CONTINUOUS
 62
     7
 10
-261.5029040226583
 20
136.1786061951567
  0
VERTEX
  8
0
  6
CONTINUOUS
 62
     7
 10
-261.4885204695039
 20
136.1622048961922
  0
VERTEX
  8
0
  6
CONTINUOUS
 62
     7
 10
-261.4734351916921
 20
136.1464466094067
  0
VERTEX
  8
0
  6
CONTINUOUS
 62
     7
 10
-261.4576769049066
 20
136.1313613315949
  0
VERTEX
  8
0
  6
CONTINUOUS
 62
     7
 10
-261.4412756059421
 20
136.1169777784405
  0
VERTEX
  8
0
  6
CONTINUOUS
 62
     7
 10
-261.4242625156032
 20
136.1033233298544
  0
VERTEX
  8
0
  6
CONTINUOUS
 62
     7
 10
-261.4066700192743
 20
136.0904239778555
  0
VERTEX
  8
0
  6
CONTINUOUS
 62
     7
 10
-261.3885316052722
 20
136.0783042770935
  0
VERTEX
  8
0
  6
CONTINUOUS
 62
     7
 10
-261.3698818010988
 20
136.0669872981078
  0
VERTEX
  8
0
  6
CONTINUOUS
 62
     7
 10
-261.3507561077163
 20
136.0564945834109
  0
VERTEX
  8
0
  6
CONTINUOUS
 62
     7
 10
-261.3311909319692
 20
136.0468461064817
  0
VERTEX
  8
0
  6
CONTINUOUS
 62
     7
 10
-261.3112235172813
 20
136.0380602337443
  0
VERTEX
  8
0
  6
CONTINUOUS
 62
     7
 10
-261.2908918727617
 20
136.030153689607
  0
VERTEX
  8
0
  6
CONTINUOUS
 62
     7
 10
-261.2702347008509
 20
136.0231415246259
  0
VERTEX
  8
0
  6
CONTINUOUS
 62
     7
 10
-261.2492913236501
 20
136.0170370868555
  0
VERTEX
  8
0
  6
CONTINUOUS
 62
     7
 10
-261.2281016080678
 20
136.01185199644
  0
VERTEX
  8
0
  6
CONTINUOUS
 62
     7
 10
-261.2067058899323
 20
136.0075961234939
  0
VERTEX
  8
0
  6
CONTINUOUS
 62
     7
 10
-261.1851448972088
 20
136.0042775693131
  0
VERTEX
  8
0
  6
CONTINUOUS
 62
     7
 10
-261.1634596724726
 20
136.0019026509541
  0
VERTEX
  8
0
  6
CONTINUOUS
 62
     7
 10
-261.1416914947815
 20
136.000475889209
  0
VERTEX
  8
0
  6
CONTINUOUS
 62
     7
 10
-261.1198818010988
 20
136.0
  0
SEQEND
  8
0
  6
CONTINUOUS
 62
     7
  0
LINE
  8
0
  6
CONTINUOUS
 62
     7
 10
-261.8010792250951
 20
136.4645843495937
 11
-261.552894502991
 21
136.25
  0
LINE
  8
0
  6
CONTINUOUS
 62
     7
 10
-258.4189199067754
 20
136.25
 11
-258.1707351846713
 21
136.4645843495937
  0
LINE
  8
0
  6
CONTINUOUS
 62
     7
 10
-257.8010792250951
 20
136.4645843495937
 11
-254.1707351846714
 21
136.4645843495937
  0
POLYLINE
  8
0
  6
CONTINUOUS
 62
     7
 66
     1
  0
VERTEX
  8
0
  6
CONTINUOUS
 62
     7
 10
-254.8519326086677
 20
136.0
  0
VERTEX
  8
0
  6
CONTINUOUS
 62
     7
 10
-254.830122914985
 20
136.000475889209
  0
VERTEX
  8
0
  6
CONTINUOUS
 62
     7
 10
-254.8083547372939
 20
136.0019026509541
  0
VERTEX
  8
0
  6
CONTINUOUS
 62
     7
 10
-254.7866695125577
 20
136.0042775693131
  0
VERTEX
  8
0
  6
CONTINUOUS
 62
     7
 10
-254.7651085198342
 20
136.0075961234939
  0
VERTEX
  8
0
  6
CONTINUOUS
 62
     7
 10
-254.7437128016986
 20
136.01185199644
  0
VERTEX
  8
0
  6
CONTINUOUS
 62
     7
 10
-254.7225230861164
 20
136.0170370868555
  0
VERTEX
  8
0
  6
CONTINUOUS
 62
     7
 10
-254.7015797089155
 20
136.0231415246259
  0
VERTEX
  8
0
  6
CONTINUOUS
 62
     7
 10
-254.6809225370048
 20
136.030153689607
  0
VERTEX
  8
0
  6
CONTINUOUS
 62
     7
 10
-254.6605908924851
 20
136.0380602337443
  0
VERTEX
  8
0
  6
CONTINUOUS
 62
     7
 10
-254.6406234777973
 20
136.0468461064817
  0
VERTEX
  8
0
  6
CONTINUOUS
 62
     7
 10
-254.6210583020502
 20
136.0564945834109
  0
VERTEX
  8
0
  6
CONTINUOUS
 62
     7
 10
-254.6019326086677
 20
136.0669872981078
  0
VERTEX
  8
0
  6
CONTINUOUS
 62
     7
 10
-254.5832828044943
 20
136.0783042770935
  0
VERTEX
  8
0
  6
CONTINUOUS
 62
     7
 10
-254.5651443904922
 20
136.0904239778555
  0
VERTEX
  8
0
  6
CONTINUOUS
 62
     7
 10
-254.5475518941633
 20
136.1033233298544
  0
VERTEX
  8
0
  6
CONTINUOUS
 62
     7
 10
-254.5305388038244
 20
136.1169777784405
  0
VERTEX
  8
0
  6
CONTINUOUS
 62
     7
 10
-254.5141375048598
 20
136.1313613315949
  0
VERTEX
  8
0
  6
CONTINUOUS
 62
     7
 10
-254.4983792180744
 20
136.1464466094067
  0
VERTEX
  8
0
  6
CONTINUOUS
 62
     7
 10
-254.4832939402626
 20
136.1622048961922
  0
VERTEX
  8
0
  6
CONTINUOUS
 62
     7
 10
-254.4689103871082
 20
136.1786061951567
  0
VERTEX
  8
0
  6
CONTINUOUS
 62
     7
 10
-254.4552559385221
 20
136.1956192854956
  0
VERTEX
  8
0
  6
CONTINUOUS
 62
     7
 10
-254.4423565865232
 20
136.2132117818245
  0
VERTEX
  8
0
  6
CONTINUOUS
 62
     7
 10
-254.4302368857612
 20
136.2313501958266
  0
VERTEX
  8
0
  6
CONTINUOUS
 62
     7
 10
-254.4189199067754
 20
136.25
  0
SEQEND
  8
0
  6
CONTINUOUS
 62
     7
  0
LINE
  8
0
  6
CONTINUOUS
 62
     7
 10
-254.8519326086677
 20
136.0
 11
-257.1198818010988
 21
136.0
  0
POLYLINE
  8
0
  6
CONTINUOUS
 62
     7
 66
     1
  0
VERTEX
  8
0
  6
CONTINUOUS
 62
     7
 10
-257.552894502991
 20
136.25
  0
VERTEX
  8
0
  6
CONTINUOUS
 62
     7
 10
-257.5415775240052
 20
136.2313501958266
  0
VERTEX
  8
0
  6
CONTINUOUS
 62
     7
 10
-257.5294578232433
 20
136.2132117818245
  0
VERTEX
  8
0
  6
CONTINUOUS
 62
     7
 10
-257.5165584712444
 20
136.1956192854956
  0
VERTEX
  8
0
  6
CONTINUOUS
 62
     7
 10
-257.5029040226583
 20
136.1786061951567
  0
VERTEX
  8
0
  6
CONTINUOUS
 62
     7
 10
-257.4885204695039
 20
136.1622048961922
  0
VERTEX
  8
0
  6
CONTINUOUS
 62
     7
 10
-257.4734351916921
 20
136.1464466094067
  0
VERTEX
  8
0
  6
CONTINUOUS
 62
     7
 10
-257.4576769049066
 20
136.1313613315949
  0
VERTEX
  8
0
  6
CONTINUOUS
 62
     7
 10
-257.4412756059421
 20
136.1169777784405
  0
VERTEX
  8
0
  6
CONTINUOUS
 62
     7
 10
-257.4242625156032
 20
136.1033233298544
  0
VERTEX
  8
0
  6
CONTINUOUS
 62
     7
 10
-257.4066700192743
 20
136.0904239778555
  0
VERTEX
  8
0
  6
CONTINUOUS
 62
     7
 10
-257.3885316052722
 20
136.0783042770935
  0
VERTEX
  8
0
  6
CONTINUOUS
 62
     7
 10
-257.3698818010988
 20
136.0669872981078
  0
VERTEX
  8
0
  6
CONTINUOUS
 62
     7
 10
-257.3507561077163
 20
136.0564945834109
  0
VERTEX
  8
0
  6
CONTINUOUS
 62
     7
 10
-257.3311909319692
 20
136.0468461064817
  0
VERTEX
  8
0
  6
CONTINUOUS
 62
     7
 10
-257.3112235172813
 20
136.0380602337443
  0
VERTEX
  8
0
  6
CONTINUOUS
 62
     7
 10
-257.2908918727617
 20
136.030153689607
  0
VERTEX
  8
0
  6
CONTINUOUS
 62
     7
 10
-257.2702347008509
 20
136.0231415246259
  0
VERTEX
  8
0
  6
CONTINUOUS
 62
     7
 10
-257.2492913236501
 20
136.0170370868555
  0
VERTEX
  8
0
  6
CONTINUOUS
 62
     7
 10
-257.2281016080678
 20
136.01185199644
  0
VERTEX
  8
0
  6
CONTINUOUS
 62
     7
 10
-257.2067058899323
 20
136.0075961234939
  0
VERTEX
  8
0
  6
CONTINUOUS
 62
     7
 10
-257.1851448972088
 20
136.0042775693131
  0
VERTEX
  8
0
  6
CONTINUOUS
 62
     7
 10
-257.1634596724726
 20
136.0019026509541
  0
VERTEX
  8
0
  6
CONTINUOUS
 62
     7
 10
-257.1416914947815
 20
136.000475889209
  0
VERTEX
  8
0
  6
CONTINUOUS
 62
     7
 10
-257.1198818010988
 20
136.0
  0
SEQEND
  8
0
  6
CONTINUOUS
 62
     7
  0
LINE
  8
0
  6
CONTINUOUS
 62
     7
 10
-254.4189199067754
 20
136.25
 11
-254.1707351846714
 21
136.4645843495937
  0
LINE
  8
0
  6
CONTINUOUS
 62
     7
 10
-257.8010792250951
 20
136.4645843495937
 11
-257.552894502991
 21
136.25
  0
LINE
  8
0
  6
CONTINUOUS
 62
     7
 10
-264.9859072048832
 20
136.0
 11
-264.9859072048832
 21
136.4645843495937
  0
LINE
  8
0
  6
CONTINUOUS
 62
     7
 10
-264.9859072048832
 20
136.4645843495937
 11
-262.1707351846713
 21
136.4645843495937
  0
POLYLINE
  8
0
  6
CONTINUOUS
 62
     7
 66
     1
  0
VERTEX
  8
0
  6
CONTINUOUS
 62
     7
 10
-262.8519326086677
 20
136.0
  0
VERTEX
  8
0
  6
CONTINUOUS
 62
     7
 10
-262.8301229149851
 20
136.000475889209
  0
VERTEX
  8
0
  6
CONTINUOUS
 62
     7
 10
-262.8083547372938
 20
136.0019026509541
  0
VERTEX
  8
0
  6
CONTINUOUS
 62
     7
 10
-262.7866695125577
 20
136.0042775693131
  0
VERTEX
  8
0
  6
CONTINUOUS
 62
     7
 10
-262.7651085198342
 20
136.0075961234939
  0
VERTEX
  8
0
  6
CONTINUOUS
 62
     7
 10
-262.7437128016986
 20
136.01185199644
  0
VERTEX
  8
0
  6
CONTINUOUS
 62
     7
 10
-262.7225230861164
 20
136.0170370868555
  0
VERTEX
  8
0
  6
CONTINUOUS
 62
     7
 10
-262.7015797089156
 20
136.0231415246259
  0
VERTEX
  8
0
  6
CONTINUOUS
 62
     7
 10
-262.6809225370048
 20
136.030153689607
  0
VERTEX
  8
0
  6
CONTINUOUS
 62
     7
 10
-262.6605908924852
 20
136.0380602337443
  0
VERTEX
  8
0
  6
CONTINUOUS
 62
     7
 10
-262.6406234777973
 20
136.0468461064817
  0
VERTEX
  8
0
  6
CONTINUOUS
 62
     7
 10
-262.6210583020502
 20
136.0564945834109
  0
VERTEX
  8
0
  6
CONTINUOUS
 62
     7
 10
-262.6019326086677
 20
136.0669872981078
  0
VERTEX
  8
0
  6
CONTINUOUS
 62
     7
 10
-262.5832828044943
 20
136.0783042770935
  0
VERTEX
  8
0
  6
CONTINUOUS
 62
     7
 10
-262.5651443904922
 20
136.0904239778555
  0
VERTEX
  8
0
  6
CONTINUOUS
 62
     7
 10
-262.5475518941633
 20
136.1033233298544
  0
VERTEX
  8
0
  6
CONTINUOUS
 62
     7
 10
-262.5305388038244
 20
136.1169777784405
  0
VERTEX
  8
0
  6
CONTINUOUS
 62
     7
 10
-262.5141375048598
 20
136.1313613315949
  0
VERTEX
  8
0
  6
CONTINUOUS
 62
     7
 10
-262.4983792180744
 20
136.1464466094067
  0
VERTEX
  8
0
  6
CONTINUOUS
 62
     7
 10
-262.4832939402626
 20
136.1622048961922
  0
VERTEX
  8
0
  6
CONTINUOUS
 62
     7
 10
-262.4689103871082
 20
136.1786061951567
  0
VERTEX
  8
0
  6
CONTINUOUS
 62
     7
 10
-262.4552559385221
 20
136.1956192854956
  0
VERTEX
  8
0
  6
CONTINUOUS
 62
     7
 10
-262.4423565865232
 20
136.2132117818245
  0
VERTEX
  8
0
  6
CONTINUOUS
 62
     7
 10
-262.4302368857612
 20
136.2313501958266
  0
VERTEX
  8
0
  6
CONTINUOUS
 62
     7
 10
-262.4189199067754
 20
136.25
  0
SEQEND
  8
0
  6
CONTINUOUS
 62
     7
  0
LINE
  8
0
  6
CONTINUOUS
 62
     7
 10
-262.8519326086677
 20
136.0
 11
-264.9859072048832
 21
136.0
  0
LINE
  8
0
  6
CONTINUOUS
 62
     7
 10
-262.4189199067754
 20
136.25
 11
-262.1707351846713
 21
136.4645843495937
  0
LINE
  8
0
  6
CONTINUOUS
 62
     7
 10
-264.9859072048832
 20
136.4645843495937
 11
-264.9859072048832
 21
136.9257769899796
  0
LINE
  8
0
  6
CONTINUOUS
 62
     7
 10
-250.578566844467
 20
136.9257769899796
 11
-251.3773759296922
 21
136.4645843495937
  0
LINE
  8
0
  6
CONTINUOUS
 62
     7
 10
-262.1707351846713
 20
136.4645843495937
 11
-261.8010792250951
 21
136.4645843495937
  0
LINE
  8
0
  6
CONTINUOUS
 62
     7
 10
-254.1707351846714
 20
136.4645843495937
 11
-253.8010792250951
 21
136.4645843495937
  0
LINE
  8
0
  6
CONTINUOUS
 62
     7
 10
-258.1707351846713
 20
136.4645843495937
 11
-257.8010792250951
 21
136.4645843495937
  0
ARC
  8
0
  6
CONTINUOUS
 62
     7
 10
-249.9859680695529
 20
140.7320859478023
 40
3.000060864875443
 50
300.0006711154058
 51
359.9993288845938
  0
LINE
  8
0
  6
CONTINUOUS
 62
     7
 10
-248.4859072048833
 20
138.1339745962156
 11
-250.578566844467
 21
136.9257769899796
  0
LINE
  8
0
  6
CONTINUOUS
 62
     7
 10
-264.9859072048832
 20
141.7
 11
-264.9859072048832
 21
136.9257769899796
  0
LINE
  8
0
  6
CONTINUOUS
 62
     7
 10
-246.9859072048833
 20
144.2468249009625
 11
-246.9859072048833
 21
140.7320508075689
  0
LINE
  8
0
  6
CONTINUOUS
 62
     7
 10
-270.4868152010578
 20
136.7520344900889
 11
-270.4859140588534
 21
136.75
  0
LINE
  8
0
  6
CONTINUOUS
 62
     7
 10
-270.1720573015796
 20
136.8607744775227
 11
-270.2476706670479
 21
136.8104075082216
  0
LINE
  8
0
  6
CONTINUOUS
 62
     7
 10
-272.4845010799161
 20
157.4968999416753
 11
-272.485900350913
 21
157.5
  0
LINE
  8
0
  6
CONTINUOUS
 62
     7
 10
-272.7999111170413
 20
157.3891013455184
 11
-272.7233562006687
 21
157.4400184207065
  0
LINE
  8
0
  6
CONTINUOUS
 62
     7
 10
-271.9873133298504
 20
132.5031000583247
 11
-271.9859140588535
 21
132.5
  0
LINE
  8
0
  6
CONTINUOUS
 62
     7
 10
-271.6719010577871
 20
132.6109004580732
 11
-271.7484655517731
 21
132.5599776170046
  0
LINE
  8
0
  6
CONTINUOUS
 62
     7
 10
-262.9859072048832
 20
142.2
 11
-262.9859072048832
 21
143.25
  0
ARC
  8
0
  6
CONTINUOUS
 62
     7
 10
-267.4859072048832
 20
141.2
 40
0.5000000000000004
 50
90.00000000000001
 51
180.0
  0
ARC
  8
0
  6
CONTINUOUS
 62
     7
 10
-263.4859072048832
 20
142.2
 40
0.5000000000000004
 50
270.0
 51
0.0
  0
LINE
  8
0
  6
CONTINUOUS
 62
     7
 10
-263.4859072048832
 20
141.7
 11
-267.4859072048832
 21
141.7
  0
LINE
  8
0
  6
CONTINUOUS
 62
     7
 10
-271.6719050394805
 20
157.3891027819694
 11
-271.9873139732848
 21
157.4968970896325
  0
LINE
  8
0
  6
CONTINUOUS
 62
     7
 10
-271.9866861177213
 20
132.5009436904673
 11
-271.7484646191891
 21
132.5599781197751
  0
LINE
  8
0
  6
CONTINUOUS
 62
     7
 10
-272.485900350913
 20
132.5
 11
-271.9859140588535
 21
132.5
  0
LINE
  8
0
  6
CONTINUOUS
 62
     7
 10
-271.9859140588535
 20
157.5
 11
-272.485900350913
 21
157.5
  0
LINE
  8
0
  6
CONTINUOUS
 62
     7
 10
-272.7999086172125
 20
132.6108966135174
 11
-272.4845004364818
 21
132.5031029103675
  0
LINE
  8
0
  6
CONTINUOUS
 62
     7
 10
-272.4851282920453
 20
157.4990563095327
 11
-272.6872335986473
 21
157.4575948063848
  0
LINE
  8
0
  6
CONTINUOUS
 62
     7
 10
-272.6872335986473
 20
157.4575948063848
 11
-272.7233550861915
 21
157.4400190326843
  0
LINE
  8
0
  6
CONTINUOUS
 62
     7
 10
-271.4859072048832
 20
136.75
 11
-270.4859140588534
 21
136.75
  0
LINE
  8
0
  6
CONTINUOUS
 62
     7
 10
-270.4859140588534
 20
153.25
 11
-271.4859072048832
 21
153.25
  0
LINE
  8
0
  6
CONTINUOUS
 62
     7
 10
-270.1720537512632
 20
153.1392226571135
 11
-270.4868154323722
 21
153.2479644651808
  0
LINE
  8
0
  6
CONTINUOUS
 62
     7
 10
-270.4864147509613
 20
136.7506280198744
 11
-270.2476737780935
 21
136.8104057932251
  0
LINE
  8
0
  6
CONTINUOUS
 62
     7
 10
-269.9859072048832
 20
137.6
 11
-268.468457456532
 21
137.6529905128775
  0
LINE
  8
0
  6
CONTINUOUS
 62
     7
 10
-268.468457456532
 20
152.3470094871225
 11
-269.9859072048832
 21
152.4
  0
ARC
  8
0
  6
CONTINUOUS
 62
     7
 10
-268.4859072048832
 20
138.152685926387
 40
0.5000000000000072
 50
271.9999999999998
 51
0.0000000000000568
  0
ARC
  8
0
  6
CONTINUOUS
 62
     7
 10
-268.4859072048832
 20
151.8473140736129
 40
0.5000000000000004
 50
0.0000000000000035
 51
88.00000000000027
  0
LINE
  8
0
  6
CONTINUOUS
 62
     7
 10
-270.2476894481514
 20
153.1896026792147
 11
-270.2591589102885
 21
153.1956120571578
  0
LINE
  8
0
  6
CONTINUOUS
 62
     7
 10
-270.3079984546873
 20
153.2171804992128
 11
-270.4864147509613
 21
153.2493719801256
  0
LINE
  8
0
  6
CONTINUOUS
 62
     7
 10
-272.7780202095126
 20
157.4056919305868
 11
-272.7797488477286
 21
157.4044505793615
  0
LINE
  8
0
  6
CONTINUOUS
 62
     7
 10
-272.7797488477286
 20
157.4044505793615
 11
-272.7999086177678
 21
157.3891033860369
  0
LINE
  8
0
  6
CONTINUOUS
 62
     7
 10
-272.7233547377139
 20
132.5599807799309
 11
-272.6873747262675
 21
132.5424669462402
  0
LINE
  8
0
  6
CONTINUOUS
 62
     7
 10
-272.6873747262675
 20
132.5424669462402
 11
-272.4851282920453
 21
132.5009436904673
  0
LINE
  8
0
  6
CONTINUOUS
 62
     7
 10
-271.7484596668689
 20
157.4400192172817
 11
-271.759371646114
 21
157.4457134419006
  0
LINE
  8
0
  6
CONTINUOUS
 62
     7
 10
-271.784373900246
 20
157.4575042513866
 11
-271.9866861177213
 21
157.4990563095327
  0
ENDBLK
  8
0
  0
ENDSEC
  0
SECTION
  2
ENTITIES
  0
INSERT
  8
0
  6
CONTINUOUS
 62
     7
  2
D_FRAME_VIEW_1900
 10
0.0
 20
0.0
 30
0.0
  0
INSERT
  8
0
  6
CONTINUOUS
 62
     7
  2
D_FRAME_VIEW_1507
 10
0.0
 20
0.0
 30
0.0
  0
LINE
  8
0
  6
CENTER
 62
     1
 10
-205.0
 20
130.5
 11
-205.0
 21
159.5
  0
LINE
  8
0
  6
CENTER
 62
     1
 10
-219.5
 20
145.0
 11
-190.5
 21
145.0
  0
LINE
  8
0
  6
CENTER
 62
     1
 10
-275.0
 20
145.0
 11
-240.0
 21
145.0
  0
TEXT
  8
0
  6
CONTINUOUS
 62
     7
 10
-221.9439664874328
 20
118.3284200325122
 40
3.0
  1
CDPF16-C
  0
LINE
  8
0
  6
CONTINUOUS
 62
     2
 10
-221.859090909091
 20
117.7704545454545
 11
-208.1409090909091
 21
117.7704545454545
  0
ENDSEC
  0
EOF
