  0
SECTION
  2
HEADER
  9
$ACADVER
  1
AC1004
  9
$INSBASE
 10
0.0
 20
0.0
  9
$EXTMIN
 10
-280.0
 20
137.7704545454546
  9
$EXTMAX
 10
-182.0
 20
183.0
  9
$LIMMIN
 10
0.0
 20
0.0
  9
$LIMMAX
 10
12.0
 20
9.0
  9
$ORTHOMODE
 70
     0
  9
$REGENMODE
 70
     1
  9
$FILLMODE
 70
     1
  9
$QTEXTMODE
 70
     0
  9
$DRAGMODE
 70
     2
  9
$LTSCALE
 40
1.0
  9
$OSMODE
 70
    37
  9
$ATTMODE
 70
     1
  9
$TEXTSIZE
 40
0.2
  9
$TRACEWID
 40
0.05
  9
$TEXTSTYLE
  7
STANDARD
  9
$CLAYER
  8
0
  9
$CELTYPE
  6
BYLAYER
  9
$CECOLOR
 62
   256
  9
$DIMSCALE
 40
1.0
  9
$DIMASZ
 40
3.0
  9
$DIMEXO
 40
0.0625
  9
$DIMDLI
 40
0.38
  9
$DIMRND
 40
0.0
  9
$DIMDLE
 40
0.0
  9
$DIMEXE
 40
1.5
  9
$DIMTP
 40
0.0
  9
$DIMTM
 40
0.0
  9
$DIMTXT
 40
3.0
  9
$DIMCEN
 40
0.09
  9
$DIMTSZ
 40
0.0
  9
$DIMTOL
 70
     0
  9
$DIMLIM
 70
     0
  9
$DIMTIH
 70
     1
  9
$DIMTOH
 70
     1
  9
$DIMSE1
 70
     0
  9
$DIMSE2
 70
     0
  9
$DIMTAD
 70
     1
  9
$DIMZIN
 70
     0
  9
$DIMBLK
  1

  9
$DIMASO
 70
     1
  9
$DIMSHO
 70
     1
  9
$DIMPOST
  1

  9
$DIMAPOST
  1

  9
$DIMALT
 70
     0
  9
$DIMALTD
 70
     2
  9
$DIMALTF
 40
25.4
  9
$DIMLFAC
 40
1.0
  9
$DIMTOFL
 70
     0
  9
$DIMTVP
 40
0.0
  9
$DIMTIX
 70
     0
  9
$DIMSOXD
 70
     0
  9
$DIMSAH
 70
     0
  9
$DIMBLK1
  1

  9
$DIMBLK2
  1

  9
$LUNITS
 70
     2
  9
$LUPREC
 70
     4
  9
$SKETCHINC
 40
0.1
  9
$FILLETRAD
 40
0.5
  9
$AUNITS
 70
     0
  9
$AUPREC
 70
     0
  9
$MENU
  1
.
  9
$ELEVATION
 40
0.0
  9
$THICKNESS
 40
0.0
  9
$LIMCHECK
 70
     0
  9
$CHAMFERA
 40
0.0
  9
$CHAMFERB
 40
0.0
  9
$SKPOLY
 70
     0
  9
$TDCREATE
 40
2460053.322763623
  9
$TDUPDATE
 40
2460053.322763796
  9
$TDINDWG
 40
0.0000000116
  9
$TDUSRTIMER
 40
0.0000000116
  9
$USRTIMER
 70
     1
  9
$ANGBASE
 50
0.0
  9
$ANGDIR
 70
     0
  9
$PDMODE
 70
     0
  9
$PDSIZE
 40
0.0
  9
$PLINEWID
 40
0.0
  9
$COORDS
 70
     1
  9
$SPLFRAME
 70
     0
  9
$SPLINETYPE
 70
     6
  9
$SPLINESEGS
 70
     8
  9
$ATTDIA
 70
     0
  9
$ATTREQ
 70
     1
  9
$SURFTAB1
 70
     6
  9
$SURFTAB2
 70
     6
  9
$SURFTYPE
 70
     6
  9
$SURFU
 70
     6
  9
$SURFV
 70
     6
  9
$UCSNAME
  2

  9
$UCSORG
 10
0.0
 20
0.0
 30
0.0
  9
$UCSXDIR
 10
1.0
 20
0.0
 30
0.0
  9
$UCSYDIR
 10
0.0
 20
1.0
 30
0.0
  9
$USERI1
 70
     0
  9
$USERI2
 70
     0
  9
$USERI3
 70
     0
  9
$USERI4
 70
     0
  9
$USERI5
 70
     0
  9
$USERR1
 40
0.0
  9
$USERR2
 40
0.0
  9
$USERR3
 40
0.0
  9
$USERR4
 40
0.0
  9
$USERR5
 40
0.0
  9
$WORLDVIEW
 70
     1
  0
ENDSEC
  0
SECTION
  2
TABLES
  0
TABLE
  2
LTYPE
 70
     2
  0
LTYPE
  2
CONTINUOUS
 70
     0
  3
Solid line
 72
    65
 73
     0
 40
0.0
  0
LTYPE
  2
CENTER
 70
     0
  3

 72
    65
 73
     0
 40
0.0
  0
ENDTAB
  0
TABLE
  2
LAYER
 70
     1
  0
LAYER
  2
0
 70
     0
 62
     7
  6
CONTINUOUS
  0
ENDTAB
  0
TABLE
  2
STYLE
 70
     2
  0
STYLE
  2
STANDARD
 70
     0
 40
0.0
 41
1.0
 50
0.0
 71
     0
 42
0.2
  3
txt
  4

  0
STYLE
  2
ＭＳ_ゴシック
 70
     0
 40
0.0
 41
1.0
 50
0.0
 71
     0
 42
0.2
  3
ＭＳ ゴシック.shx
  4

  0
ENDTAB
  0
TABLE
  2
VIEW
 70
     0
  0
ENDTAB
  0
ENDSEC
  0
SECTION
  2
BLOCKS
  0
BLOCK
  8
0
  2
D_FRAME_VIEW_1787
 70
     0
 10
0.0
 20
0.0
  0
ARC
  8
0
  6
CONTINUOUS
 62
     7
 10
-199.0000000000001
 20
170.9000000000001
 40
4.999999999999884
 50
127.5139517676945
 51
164.1220046384133
  0
ARC
  8
0
  6
CONTINUOUS
 62
     7
 10
-197.4558337292471
 20
170.9741412546558
 40
8.136974190355138
 50
151.4258143199912
 51
170.8509354494407
  0
LINE
  8
0
  6
CONTINUOUS
 62
     7
 10
-200.2999885769193
 20
164.2526179606495
 11
-200.0603905640362
 21
164.0109198840795
  0
LINE
  8
0
  6
CONTINUOUS
 62
     7
 10
-204.4994253485746
 20
164.2892658901514
 11
-200.2999885769193
 21
164.2526179606495
  0
ARC
  8
0
  6
CONTINUOUS
 62
     7
 10
-204.4950620808254
 20
164.7892468516835
 40
0.5000000000000023
 50
182.6843743664059
 51
269.5000000000001
  0
ARC
  8
0
  6
CONTINUOUS
 62
     7
 10
-200.0
 20
165.0
 40
4.999999999999992
 50
177.3156256335942
 51
182.6843743664059
  0
LINE
  8
0
  6
CONTINUOUS
 62
     7
 10
-204.3280499694079
 20
165.7122296801252
 11
-204.4994253485746
 21
165.7107341098486
  0
ARC
  8
0
  6
CONTINUOUS
 62
     7
 10
-204.3324132371571
 20
166.2122106416573
 40
0.4999999999999956
 50
270.4999999999999
 51
41.3190962766364
  0
ARC
  8
0
  6
CONTINUOUS
 62
     7
 10
-199.0
 20
170.9
 40
4.99999999999998
 50
164.1220046384123
 51
259.1684673130483
  0
ARC
  8
0
  6
CONTINUOUS
 62
     7
 10
-195.5049379191746
 20
165.2107531483165
 40
0.5000000000000023
 50
2.684374366405887
 51
89.50000000000004
  0
ARC
  8
0
  6
CONTINUOUS
 62
     7
 10
-195.5049379191746
 20
164.7892468516835
 40
0.5000000000000016
 50
270.5000000000001
 51
357.3156256335942
  0
LINE
  8
0
  6
CONTINUOUS
 62
     7
 10
-195.6719500305921
 20
164.2877703198748
 11
-195.5005746514254
 21
164.2892658901514
  0
ARC
  8
0
  6
CONTINUOUS
 62
     7
 10
-201.0
 20
159.1
 40
4.999999999999996
 50
344.1220046384125
 51
79.16846731304838
  0
ARC
  8
0
  6
CONTINUOUS
 62
     7
 10
-204.4950620808254
 20
165.2107531483165
 40
0.5000000000000016
 50
90.49999999999997
 51
177.3156256335942
  0
LINE
  8
0
  6
CONTINUOUS
 62
     7
 10
-195.5005746514254
 20
165.7107341098486
 11
-199.7000114230808
 21
165.7473820393505
  0
ARC
  8
0
  6
CONTINUOUS
 62
     7
 10
-200.0
 20
165.0
 40
4.999999999999992
 50
357.315625633594
 51
2.684374366405905
  0
LINE
  8
0
  6
CONTINUOUS
 62
     7
 10
-199.7000114230808
 20
165.7473820393505
 11
-199.9396094359638
 21
165.9890801159205
  0
ARC
  8
0
  6
CONTINUOUS
 62
     7
 10
-195.6675867628429
 20
163.7877893583427
 40
0.4999999999999956
 50
90.4999999999999
 51
221.3190962766364
  0
ARC
  8
0
  6
CONTINUOUS
 62
     7
 10
-201.0
 20
159.1
 40
6.599999999999993
 50
0.0
 51
41.31909627663645
  0
LINE
  8
0
  6
CONTINUOUS
 62
     7
 10
-194.5107106012011
 20
157.7320508075689
 11
-194.4
 21
159.1
  0
ARC
  8
0
  6
CONTINUOUS
 62
     7
 10
-199.0
 20
170.9
 40
6.599999999999993
 50
180.0
 51
221.3190962766364
  0
LINE
  8
0
  6
CONTINUOUS
 62
     7
 10
-205.4892893987989
 20
172.2679491924311
 11
-205.6
 21
170.9
  0
ARC
  8
0
  6
CONTINUOUS
 62
     7
 10
-200.9999999999997
 20
159.0999999999998
 40
4.999999999999694
 50
307.5139517676938
 51
344.1220046384137
  0
ARC
  8
0
  6
CONTINUOUS
 62
     7
 10
-202.5441662707543
 20
159.0258587453446
 40
8.136974190356602
 50
331.4258143199935
 51
350.8509354494395
  0
LINE
  8
0
  6
CONTINUOUS
 62
     7
 10
-205.7361669551709
 20
171.8295454545444
 11
-205.7533886301502
 21
171.6948232304987
  0
LINE
  8
0
  6
CONTINUOUS
 62
     7
 10
-205.7533878158491
 20
171.6948289179023
 11
-205.7702128991617
 21
171.5357808584913
  0
LINE
  8
0
  6
CONTINUOUS
 62
     7
 10
-205.7763773666317
 20
170.3336875553177
 11
-205.6543219038457
 21
169.5000000000001
  0
LINE
  8
0
  6
CONTINUOUS
 62
     7
 10
-205.7671448145624
 20
171.5676459082036
 11
-205.7703033714171
 21
171.5348167129009
  0
LINE
  8
0
  6
CONTINUOUS
 62
     7
 10
-205.7976456126949
 20
171.0789249122101
 11
-205.7763763391659
 21
170.3336752610074
  0
LINE
  8
0
  6
CONTINUOUS
 62
     7
 10
-205.6941252058596
 20
169.704722739999
 11
-205.6899949968481
 21
169.6818181818186
  0
LINE
  8
0
  6
CONTINUOUS
 62
     7
 10
-205.7702128991617
 20
171.5357808584913
 11
-205.7976007434323
 21
171.0806215183431
  0
ARC
  8
0
  6
CONTINUOUS
 62
     7
 10
-199.9504448941602
 20
154.8
 40
3.0
 50
270.0
 51
291.248534868425
  0
LINE
  8
0
  6
CONTINUOUS
 62
     7
 10
-199.9504448941602
 20
151.8
 11
-200.5
 21
151.8
  0
POLYLINE
  8
0
  6
CONTINUOUS
 62
     7
 66
     1
  0
VERTEX
  8
0
  6
CONTINUOUS
 62
     7
 10
-201.0
 20
152.3
  0
VERTEX
  8
0
  6
CONTINUOUS
 62
     7
 10
-200.9993977281026
 20
152.2754661628363
  0
VERTEX
  8
0
  6
CONTINUOUS
 62
     7
 10
-200.9975923633361
 20
152.2509914298352
  0
VERTEX
  8
0
  6
CONTINUOUS
 62
     7
 10
-200.9945882549824
 20
152.2266347627723
  0
VERTEX
  8
0
  6
CONTINUOUS
 62
     7
 10
-200.9903926402016
 20
152.2024548389919
  0
VERTEX
  8
0
  6
CONTINUOUS
 62
     7
 10
-200.9850156265973
 20
152.1785099100484
  0
VERTEX
  8
0
  6
CONTINUOUS
 62
     7
 10
-200.9784701678661
 20
152.1548576613728
  0
VERTEX
  8
0
  6
CONTINUOUS
 62
     7
 10
-200.9707720325915
 20
152.1315550733039
  0
VERTEX
  8
0
  6
CONTINUOUS
 62
     7
 10
-200.9619397662557
 20
152.1086582838174
  0
VERTEX
  8
0
  6
CONTINUOUS
 62
     7
 10
-200.9519946465617
 20
152.0862224532849
  0
VERTEX
  8
0
  6
CONTINUOUS
 62
     7
 10
-200.9409606321742
 20
152.064301631587
  0
VERTEX
  8
0
  6
CONTINUOUS
 62
     7
 10
-200.9288643050001
 20
152.0429486279034
  0
VERTEX
  8
0
  6
CONTINUOUS
 62
     7
 10
-200.9157348061513
 20
152.0222148834902
  0
VERTEX
  8
0
  6
CONTINUOUS
 62
     7
 10
-200.9016037657403
 20
152.0021503477538
  0
VERTEX
  8
0
  6
CONTINUOUS
 62
     7
 10
-200.8865052266814
 20
151.9828033579182
  0
VERTEX
  8
0
  6
CONTINUOUS
 62
     7
 10
-200.8704755626775
 20
151.9642205225765
  0
VERTEX
  8
0
  6
CONTINUOUS
 62
     7
 10
-200.8535533905933
 20
151.9464466094067
  0
VERTEX
  8
0
  6
CONTINUOUS
 62
     7
 10
-200.8357794774235
 20
151.9295244373225
  0
VERTEX
  8
0
  6
CONTINUOUS
 62
     7
 10
-200.8171966420818
 20
151.9134947733186
  0
VERTEX
  8
0
  6
CONTINUOUS
 62
     7
 10
-200.7978496522462
 20
151.8983962342597
  0
VERTEX
  8
0
  6
CONTINUOUS
 62
     7
 10
-200.7777851165098
 20
151.8842651938487
  0
VERTEX
  8
0
  6
CONTINUOUS
 62
     7
 10
-200.7570513720966
 20
151.8711356949999
  0
VERTEX
  8
0
  6
CONTINUOUS
 62
     7
 10
-200.735698368413
 20
151.8590393678258
  0
VERTEX
  8
0
  6
CONTINUOUS
 62
     7
 10
-200.7137775467152
 20
151.8480053534383
  0
VERTEX
  8
0
  6
CONTINUOUS
 62
     7
 10
-200.6913417161825
 20
151.8380602337444
  0
VERTEX
  8
0
  6
CONTINUOUS
 62
     7
 10
-200.6684449266961
 20
151.8292279674085
  0
VERTEX
  8
0
  6
CONTINUOUS
 62
     7
 10
-200.6451423386272
 20
151.8215298321339
  0
VERTEX
  8
0
  6
CONTINUOUS
 62
     7
 10
-200.6214900899516
 20
151.8149843734027
  0
VERTEX
  8
0
  6
CONTINUOUS
 62
     7
 10
-200.5975451610081
 20
151.8096073597984
  0
VERTEX
  8
0
  6
CONTINUOUS
 62
     7
 10
-200.5733652372277
 20
151.8054117450176
  0
VERTEX
  8
0
  6
CONTINUOUS
 62
     7
 10
-200.5490085701648
 20
151.8024076366639
  0
VERTEX
  8
0
  6
CONTINUOUS
 62
     7
 10
-200.5245338371637
 20
151.8006022718974
  0
VERTEX
  8
0
  6
CONTINUOUS
 62
     7
 10
-200.5
 20
151.8
  0
SEQEND
  8
0
  6
CONTINUOUS
 62
     7
  0
LINE
  8
0
  6
CONTINUOUS
 62
     7
 10
-201.0
 20
152.3
 11
-201.0
 21
153.6227744249483
  0
POLYLINE
  8
0
  6
CONTINUOUS
 62
     7
 66
     1
  0
VERTEX
  8
0
  6
CONTINUOUS
 62
     7
 10
-200.5454545454546
 20
154.1207040226803
  0
VERTEX
  8
0
  6
CONTINUOUS
 62
     7
 10
-200.5684232829234
 20
154.11807055289
  0
VERTEX
  8
0
  6
CONTINUOUS
 62
     7
 10
-200.5912457319433
 20
154.1143781438136
  0
VERTEX
  8
0
  6
CONTINUOUS
 62
     7
 10
-200.6138730982948
 20
154.1096346897931
  0
VERTEX
  8
0
  6
CONTINUOUS
 62
     7
 10
-200.6362570048441
 20
154.1038503322966
  0
VERTEX
  8
0
  6
CONTINUOUS
 62
     7
 10
-200.6583495949721
 20
154.0970374382355
  0
VERTEX
  8
0
  6
CONTINUOUS
 62
     7
 10
-200.6801036348922
 20
154.0892105735246
  0
VERTEX
  8
0
  6
CONTINUOUS
 62
     7
 10
-200.7014726146357
 20
154.08038647194
  0
VERTEX
  8
0
  6
CONTINUOUS
 62
     7
 10
-200.7224108474892
 20
154.0705839993426
  0
VERTEX
  8
0
  6
CONTINUOUS
 62
     7
 10
-200.7428735676731
 20
154.0598241133428
  0
VERTEX
  8
0
  6
CONTINUOUS
 62
     7
 10
-200.7628170260501
 20
154.0481298184938
  0
VERTEX
  8
0
  6
CONTINUOUS
 62
     7
 10
-200.7821985836606
 20
154.0355261171072
  0
VERTEX
  8
0
  6
CONTINUOUS
 62
     7
 10
-200.8009768028845
 20
154.022039955799
  0
VERTEX
  8
0
  6
CONTINUOUS
 62
     7
 10
-200.8191115360345
 20
154.0077001678777
  0
VERTEX
  8
0
  6
CONTINUOUS
 62
     7
 10
-200.8365640111917
 20
153.9925374116988
  0
VERTEX
  8
0
  6
CONTINUOUS
 62
     7
 10
-200.8532969150992
 20
153.9765841051176
  0
VERTEX
  8
0
  6
CONTINUOUS
 62
     7
 10
-200.869274472938
 20
153.95987435618
  0
VERTEX
  8
0
  6
CONTINUOUS
 62
     7
 10
-200.8844625248133
 20
153.9424438901998
  0
VERTEX
  8
0
  6
CONTINUOUS
 62
     7
 10
-200.8988285987878
 20
153.9243299733785
  0
VERTEX
  8
0
  6
CONTINUOUS
 62
     7
 10
-200.9123419803065
 20
153.9055713331297
  0
VERTEX
  8
0
  6
CONTINUOUS
 62
     7
 10
-200.9249737778644
 20
153.8862080752812
  0
VERTEX
  8
0
  6
CONTINUOUS
 62
     7
 10
-200.9366969847761
 20
153.8662815983283
  0
VERTEX
  8
0
  6
CONTINUOUS
 62
     7
 10
-200.947486536916
 20
153.8458345049243
  0
VERTEX
  8
0
  6
CONTINUOUS
 62
     7
 10
-200.9573193663053
 20
153.8249105107967
  0
VERTEX
  8
0
  6
CONTINUOUS
 62
     7
 10
-200.9661744504309
 20
153.8035543512828
  0
VERTEX
  8
0
  6
CONTINUOUS
 62
     7
 10
-200.9740328571913
 20
153.7818116856864
  0
VERTEX
  8
0
  6
CONTINUOUS
 62
     7
 10
-200.9808777853739
 20
153.759728999658
  0
VERTEX
  8
0
  6
CONTINUOUS
 62
     7
 10
-200.9866946005752
 20
153.7373535058095
  0
VERTEX
  8
0
  6
CONTINUOUS
 62
     7
 10
-200.9914708664893
 20
153.7147330427734
  0
VERTEX
  8
0
  6
CONTINUOUS
 62
     7
 10
-200.9951963714967
 20
153.6919159729244
  0
VERTEX
  8
0
  6
CONTINUOUS
 62
     7
 10
-200.9978631504965
 20
153.6689510789813
  0
VERTEX
  8
0
  6
CONTINUOUS
 62
     7
 10
-200.999465501936
 20
153.6458874597095
  0
VERTEX
  8
0
  6
CONTINUOUS
 62
     7
 10
-201.0
 20
153.6227744249483
  0
SEQEND
  8
0
  6
CONTINUOUS
 62
     7
  0
ARC
  8
0
  6
CONTINUOUS
 62
     7
 10
-201.0
 20
159.1
 40
5.000000000000005
 50
275.2159085704541
 51
307.5139517676947
  0
ARC
  8
0
  6
CONTINUOUS
 62
     7
 10
-201.3881443638839
 20
158.2818705973922
 40
6.76665628519822
 50
291.9096917286925
 51
332.2763791948171
  0
ARC
  8
0
  6
CONTINUOUS
 62
     7
 10
-200.0495551058398
 20
175.2
 40
3.000000000000002
 50
90.0
 51
111.248534868425
  0
LINE
  8
0
  6
CONTINUOUS
 62
     7
 10
-200.0495551058398
 20
178.2
 11
-199.5
 21
178.2
  0
POLYLINE
  8
0
  6
CONTINUOUS
 62
     7
 66
     1
  0
VERTEX
  8
0
  6
CONTINUOUS
 62
     7
 10
-199.0
 20
177.7
  0
VERTEX
  8
0
  6
CONTINUOUS
 62
     7
 10
-199.0006022718974
 20
177.7245338371637
  0
VERTEX
  8
0
  6
CONTINUOUS
 62
     7
 10
-199.0024076366639
 20
177.7490085701648
  0
VERTEX
  8
0
  6
CONTINUOUS
 62
     7
 10
-199.0054117450176
 20
177.7733652372277
  0
VERTEX
  8
0
  6
CONTINUOUS
 62
     7
 10
-199.0096073597984
 20
177.7975451610081
  0
VERTEX
  8
0
  6
CONTINUOUS
 62
     7
 10
-199.0149843734027
 20
177.8214900899516
  0
VERTEX
  8
0
  6
CONTINUOUS
 62
     7
 10
-199.0215298321339
 20
177.8451423386273
  0
VERTEX
  8
0
  6
CONTINUOUS
 62
     7
 10
-199.0292279674085
 20
177.8684449266961
  0
VERTEX
  8
0
  6
CONTINUOUS
 62
     7
 10
-199.0380602337444
 20
177.8913417161825
  0
VERTEX
  8
0
  6
CONTINUOUS
 62
     7
 10
-199.0480053534383
 20
177.9137775467151
  0
VERTEX
  8
0
  6
CONTINUOUS
 62
     7
 10
-199.0590393678258
 20
177.935698368413
  0
VERTEX
  8
0
  6
CONTINUOUS
 62
     7
 10
-199.0711356949999
 20
177.9570513720966
  0
VERTEX
  8
0
  6
CONTINUOUS
 62
     7
 10
-199.0842651938487
 20
177.9777851165098
  0
VERTEX
  8
0
  6
CONTINUOUS
 62
     7
 10
-199.0983962342597
 20
177.9978496522462
  0
VERTEX
  8
0
  6
CONTINUOUS
 62
     7
 10
-199.1134947733186
 20
178.0171966420818
  0
VERTEX
  8
0
  6
CONTINUOUS
 62
     7
 10
-199.1295244373225
 20
178.0357794774235
  0
VERTEX
  8
0
  6
CONTINUOUS
 62
     7
 10
-199.1464466094067
 20
178.0535533905933
  0
VERTEX
  8
0
  6
CONTINUOUS
 62
     7
 10
-199.1642205225765
 20
178.0704755626775
  0
VERTEX
  8
0
  6
CONTINUOUS
 62
     7
 10
-199.1828033579182
 20
178.0865052266814
  0
VERTEX
  8
0
  6
CONTINUOUS
 62
     7
 10
-199.2021503477538
 20
178.1016037657403
  0
VERTEX
  8
0
  6
CONTINUOUS
 62
     7
 10
-199.2222148834902
 20
178.1157348061513
  0
VERTEX
  8
0
  6
CONTINUOUS
 62
     7
 10
-199.2429486279034
 20
178.1288643050001
  0
VERTEX
  8
0
  6
CONTINUOUS
 62
     7
 10
-199.264301631587
 20
178.1409606321742
  0
VERTEX
  8
0
  6
CONTINUOUS
 62
     7
 10
-199.2862224532849
 20
178.1519946465617
  0
VERTEX
  8
0
  6
CONTINUOUS
 62
     7
 10
-199.3086582838175
 20
178.1619397662557
  0
VERTEX
  8
0
  6
CONTINUOUS
 62
     7
 10
-199.3315550733039
 20
178.1707720325915
  0
VERTEX
  8
0
  6
CONTINUOUS
 62
     7
 10
-199.3548576613728
 20
178.1784701678661
  0
VERTEX
  8
0
  6
CONTINUOUS
 62
     7
 10
-199.3785099100484
 20
178.1850156265973
  0
VERTEX
  8
0
  6
CONTINUOUS
 62
     7
 10
-199.4024548389919
 20
178.1903926402016
  0
VERTEX
  8
0
  6
CONTINUOUS
 62
     7
 10
-199.4266347627723
 20
178.1945882549824
  0
VERTEX
  8
0
  6
CONTINUOUS
 62
     7
 10
-199.4509914298352
 20
178.1975923633361
  0
VERTEX
  8
0
  6
CONTINUOUS
 62
     7
 10
-199.4754661628363
 20
178.1993977281026
  0
VERTEX
  8
0
  6
CONTINUOUS
 62
     7
 10
-199.5
 20
178.2
  0
SEQEND
  8
0
  6
CONTINUOUS
 62
     7
  0
LINE
  8
0
  6
CONTINUOUS
 62
     7
 10
-199.0
 20
177.7
 11
-199.0
 21
176.3772255750517
  0
POLYLINE
  8
0
  6
CONTINUOUS
 62
     7
 66
     1
  0
VERTEX
  8
0
  6
CONTINUOUS
 62
     7
 10
-199.4545454545455
 20
175.8792959773197
  0
VERTEX
  8
0
  6
CONTINUOUS
 62
     7
 10
-199.4315767170766
 20
175.88192944711
  0
VERTEX
  8
0
  6
CONTINUOUS
 62
     7
 10
-199.4087542680567
 20
175.8856218561864
  0
VERTEX
  8
0
  6
CONTINUOUS
 62
     7
 10
-199.3861269017052
 20
175.8903653102069
  0
VERTEX
  8
0
  6
CONTINUOUS
 62
     7
 10
-199.363742995156
 20
175.8961496677034
  0
VERTEX
  8
0
  6
CONTINUOUS
 62
     7
 10
-199.341650405028
 20
175.9029625617646
  0
VERTEX
  8
0
  6
CONTINUOUS
 62
     7
 10
-199.3198963651078
 20
175.9107894264754
  0
VERTEX
  8
0
  6
CONTINUOUS
 62
     7
 10
-199.2985273853643
 20
175.91961352806
  0
VERTEX
  8
0
  6
CONTINUOUS
 62
     7
 10
-199.2775891525108
 20
175.9294160006575
  0
VERTEX
  8
0
  6
CONTINUOUS
 62
     7
 10
-199.2571264323269
 20
175.9401758866572
  0
VERTEX
  8
0
  6
CONTINUOUS
 62
     7
 10
-199.2371829739499
 20
175.9518701815062
  0
VERTEX
  8
0
  6
CONTINUOUS
 62
     7
 10
-199.2178014163394
 20
175.9644738828929
  0
VERTEX
  8
0
  6
CONTINUOUS
 62
     7
 10
-199.1990231971155
 20
175.977960044201
  0
VERTEX
  8
0
  6
CONTINUOUS
 62
     7
 10
-199.1808884639655
 20
175.9922998321223
  0
VERTEX
  8
0
  6
CONTINUOUS
 62
     7
 10
-199.1634359888084
 20
176.0074625883013
  0
VERTEX
  8
0
  6
CONTINUOUS
 62
     7
 10
-199.1467030849009
 20
176.0234158948824
  0
VERTEX
  8
0
  6
CONTINUOUS
 62
     7
 10
-199.130725527062
 20
176.04012564382
  0
VERTEX
  8
0
  6
CONTINUOUS
 62
     7
 10
-199.1155374751867
 20
176.0575561098002
  0
VERTEX
  8
0
  6
CONTINUOUS
 62
     7
 10
-199.1011714012122
 20
176.0756700266216
  0
VERTEX
  8
0
  6
CONTINUOUS
 62
     7
 10
-199.0876580196935
 20
176.0944286668703
  0
VERTEX
  8
0
  6
CONTINUOUS
 62
     7
 10
-199.0750262221356
 20
176.1137919247188
  0
VERTEX
  8
0
  6
CONTINUOUS
 62
     7
 10
-199.0633030152239
 20
176.1337184016717
  0
VERTEX
  8
0
  6
CONTINUOUS
 62
     7
 10
-199.052513463084
 20
176.1541654950757
  0
VERTEX
  8
0
  6
CONTINUOUS
 62
     7
 10
-199.0426806336947
 20
176.1750894892033
  0
VERTEX
  8
0
  6
CONTINUOUS
 62
     7
 10
-199.0338255495692
 20
176.1964456487172
  0
VERTEX
  8
0
  6
CONTINUOUS
 62
     7
 10
-199.0259671428087
 20
176.2181883143136
  0
VERTEX
  8
0
  6
CONTINUOUS
 62
     7
 10
-199.0191222146262
 20
176.240271000342
  0
VERTEX
  8
0
  6
CONTINUOUS
 62
     7
 10
-199.0133053994249
 20
176.2626464941905
  0
VERTEX
  8
0
  6
CONTINUOUS
 62
     7
 10
-199.0085291335107
 20
176.2852669572266
  0
VERTEX
  8
0
  6
CONTINUOUS
 62
     7
 10
-199.0048036285033
 20
176.3080840270756
  0
VERTEX
  8
0
  6
CONTINUOUS
 62
     7
 10
-199.0021368495035
 20
176.3310489210187
  0
VERTEX
  8
0
  6
CONTINUOUS
 62
     7
 10
-199.0005344980641
 20
176.3541125402905
  0
VERTEX
  8
0
  6
CONTINUOUS
 62
     7
 10
-199.0
 20
176.3772255750517
  0
SEQEND
  8
0
  6
CONTINUOUS
 62
     7
  0
ARC
  8
0
  6
CONTINUOUS
 62
     7
 10
-199.0
 20
170.9
 40
5.000000000000001
 50
95.21590857045419
 51
127.5139517676945
  0
ARC
  8
0
  6
CONTINUOUS
 62
     7
 10
-198.611855636116
 20
171.7181294026077
 40
6.76665628519832
 50
111.9096917286932
 51
152.2763791948171
  0
LINE
  8
0
  6
CONTINUOUS
 62
     7
 10
-205.7983453869305
 20
170.75
 11
-205.7929715743493
 21
170.5909090909091
  0
LINE
  8
0
  6
CONTINUOUS
 62
     7
 10
-205.689994996848
 20
169.6818181818182
 11
-205.6543253567744
 21
169.5000164121714
  0
POLYLINE
  8
0
  6
CONTINUOUS
 62
     7
 10
0.0
 20
0.0
 30
0.0
 66
     1
 70
     8
  0
VERTEX
  8
0
  6
CONTINUOUS
 62
     7
 10
-205.6543253567744
 20
169.5000164121714
 30
0.0
 70
    32
  0
VERTEX
  8
0
  6
CONTINUOUS
 62
     7
 10
-205.6543225418564
 20
169.5000030325239
 30
0.0
 70
    32
  0
VERTEX
  8
0
  6
CONTINUOUS
 62
     7
 10
-205.6543219620677
 20
169.5000002767345
 30
0.0
 70
    32
  0
VERTEX
  8
0
  6
CONTINUOUS
 62
     7
 10
-205.6543219143063
 20
169.5000000497205
 30
0.0
 70
    32
  0
VERTEX
  8
0
  6
CONTINUOUS
 62
     7
 10
-205.6543219038457
 20
169.5
 30
0.0
 70
    32
  0
VERTEX
  8
0
  6
CONTINUOUS
 62
     7
 10
-205.6543219038457
 20
169.5
 30
0.0
 70
    32
  0
VERTEX
  8
0
  6
CONTINUOUS
 62
     7
 10
-205.6543219038457
 20
169.5
 30
0.0
 70
    32
  0
VERTEX
  8
0
  6
CONTINUOUS
 62
     7
 10
-205.6543219038457
 20
169.5
 30
0.0
 70
    32
  0
VERTEX
  8
0
  6
CONTINUOUS
 62
     7
 10
-205.6543219038457
 20
169.5
 30
0.0
 70
    32
  0
VERTEX
  8
0
  6
CONTINUOUS
 62
     7
 10
-205.6543219038457
 20
169.5
 30
0.0
 70
    32
  0
SEQEND
  8
0
  6
CONTINUOUS
 62
     7
  0
LINE
  8
0
  6
CONTINUOUS
 62
     7
 10
-205.689994996848
 20
169.6818181818182
 11
-205.6692492591254
 21
169.5729301807911
  0
LINE
  8
0
  6
CONTINUOUS
 62
     7
 10
-205.6692492604374
 20
169.5729301818836
 11
-205.6543219038457
 21
169.5
  0
POLYLINE
  8
0
  6
CONTINUOUS
 62
     7
 10
0.0
 20
0.0
 30
0.0
 66
     1
 70
     9
  0
VERTEX
  8
0
  6
CONTINUOUS
 62
     7
 10
-205.6543219038457
 20
169.5
 30
0.0
 70
    32
  0
VERTEX
  8
0
  6
CONTINUOUS
 62
     7
 10
-205.6543219038457
 20
169.5
 30
0.0
 70
    32
  0
VERTEX
  8
0
  6
CONTINUOUS
 62
     7
 10
-205.6543219038457
 20
169.5
 30
0.0
 70
    32
  0
VERTEX
  8
0
  6
CONTINUOUS
 62
     7
 10
-205.6543219038457
 20
169.5
 30
0.0
 70
    32
  0
SEQEND
  8
0
  6
CONTINUOUS
 62
     7
  0
LINE
  8
0
  6
CONTINUOUS
 62
     7
 10
-194.5789906380406
 20
156.8615543844824
 11
-194.7008126449754
 21
156.8615543844825
  0
LINE
  8
0
  6
CONTINUOUS
 62
     7
 10
-194.6189511255543
 20
156.7500605833479
 11
-194.732337237761
 21
156.7500605833479
  0
LINE
  8
0
  6
CONTINUOUS
 62
     7
 10
-194.5789906380406
 20
156.8615543844824
 11
-194.6189511255543
 21
156.7500605833479
  0
ARC
  8
0
  6
CONTINUOUS
 62
     7
 10
-201.0
 20
159.1
 40
6.8
 50
332.8782792487648
 51
339.7828360179358
  0
LINE
  8
0
  6
CONTINUOUS
 62
     7
 10
-194.2311374663094
 20
159.75
 11
-194.4320855669398
 21
159.75
  0
ARC
  8
0
  6
CONTINUOUS
 62
     7
 10
-201.0
 20
159.1
 40
6.800000000000002
 50
344.3816263063495
 51
5.485177292593106
  0
LINE
  8
0
  6
CONTINUOUS
 62
     7
 10
-194.5507897924423
 20
156.9441503534029
 11
-194.5205284506793
 21
157.0368838031891
  0
LINE
  8
0
  6
CONTINUOUS
 62
     7
 10
-194.5507897924423
 20
156.9441503534029
 11
-194.6785420474307
 21
156.9441503534029
  0
LINE
  8
0
  6
CONTINUOUS
 62
     7
 10
-194.5205284506793
 20
157.0368838031891
 11
-194.6546232320792
 21
157.0368838031891
  0
ARC
  8
0
  6
CONTINUOUS
 62
     7
 10
-201.0
 20
159.1
 40
6.8
 50
340.0485453579979
 51
340.8239821284167
  0
ARC
  8
0
  6
CONTINUOUS
 62
     7
 10
-201.0
 20
159.1
 40
6.8
 50
340.8239821284167
 51
341.5161878446909
  0
LINE
  8
0
  6
CONTINUOUS
 62
     7
 10
-194.4791271874655
 20
157.1717319266376
 11
-194.6218645228776
 21
157.1717319266376
  0
ARC
  8
0
  6
CONTINUOUS
 62
     7
 10
-201.0
 20
159.1
 40
6.800000000000002
 50
342.3381036869393
 51
343.526680090481
  0
LINE
  8
0
  6
CONTINUOUS
 62
     7
 10
-194.4672464796867
 20
157.2123741253008
 11
-194.6124565746549
 21
157.2123741253008
  0
LINE
  8
0
  6
CONTINUOUS
 62
     7
 10
-194.4791271874655
 20
157.1717319266376
 11
-194.4672464796867
 21
157.2123741253008
  0
LINE
  8
0
  6
CONTINUOUS
 62
     7
 10
-194.4670536084808
 20
157.2130417478025
 11
-194.6123038193276
 21
157.2130417478025
  0
ARC
  8
0
  6
CONTINUOUS
 62
     7
 10
-201.0
 20
159.1
 40
6.800000000000002
 50
343.2881622030538
 51
343.8893127372439
  0
LINE
  8
0
  6
CONTINUOUS
 62
     7
 10
-194.4608186578364
 20
157.2347634535269
 11
-194.6073652341665
 21
157.2347634535269
  0
LINE
  8
0
  6
CONTINUOUS
 62
     7
 10
-194.4608186578364
 20
157.2347634535269
 11
-194.4670536084808
 21
157.2130417478025
  0
LINE
  8
0
  6
CONTINUOUS
 62
     7
 10
-194.2443079555089
 20
159.875
 11
-194.2311374663094
 21
159.75
  0
LINE
  8
0
  6
CONTINUOUS
 62
     7
 10
-205.7361669551707
 20
171.8295454545455
 11
-205.7468381073794
 21
171.7486315766064
  0
LINE
  8
0
  6
CONTINUOUS
 62
     7
 10
-205.7468381073794
 20
171.7486315766064
 11
-205.7492123870628
 21
171.729537313397
  0
LINE
  8
0
  6
CONTINUOUS
 62
     7
 10
-205.7492123870628
 20
171.729537313397
 11
-205.758764970438
 21
171.6477272727273
  0
POLYLINE
  8
0
  6
CONTINUOUS
 62
     7
 10
0.0
 20
0.0
 30
0.0
 66
     1
 70
     9
  0
VERTEX
  8
0
  6
CONTINUOUS
 62
     7
 10
-205.758764970438
 20
171.6477272727273
 30
0.0
 70
    32
  0
VERTEX
  8
0
  6
CONTINUOUS
 62
     7
 10
-205.758764970438
 20
171.6477272727273
 30
0.0
 70
    32
  0
VERTEX
  8
0
  6
CONTINUOUS
 62
     7
 10
-205.758764970438
 20
171.6477272727273
 30
0.0
 70
    32
  0
VERTEX
  8
0
  6
CONTINUOUS
 62
     7
 10
-205.758764970438
 20
171.6477272727273
 30
0.0
 70
    32
  0
SEQEND
  8
0
  6
CONTINUOUS
 62
     7
  0
LINE
  8
0
  6
CONTINUOUS
 62
     7
 10
-205.7361669551707
 20
171.8295454545455
 11
-205.5491407385212
 21
171.8295454545455
  0
LINE
  8
0
  6
CONTINUOUS
 62
     7
 10
-205.6938851045017
 20
169.7033788370037
 11
-205.6543224628495
 21
169.5000026569967
  0
LINE
  8
0
  6
CONTINUOUS
 62
     7
 10
-194.4708346628379
 20
161.0
 11
-194.6793987627758
 21
161.0
  0
ARC
  8
0
  6
CONTINUOUS
 62
     7
 10
-201.0
 20
159.1
 40
6.799999999999987
 50
6.544253726666057
 51
16.22510013469815
  0
LINE
  8
0
  6
CONTINUOUS
 62
     7
 10
-205.7995284940832
 20
170.8194055458089
 11
-205.798376779991
 21
170.7514296217986
  0
LINE
  8
0
  6
CONTINUOUS
 62
     7
 10
-205.798376779991
 20
170.7514296217986
 11
-205.7963700093152
 21
170.6778408307524
  0
LINE
  8
0
  6
CONTINUOUS
 62
     7
 10
-205.7963700093152
 20
170.6778408307524
 11
-205.7948874801404
 21
170.6363636363636
  0
LINE
  8
0
  6
CONTINUOUS
 62
     7
 10
-194.4510812981967
 20
157.269245008973
 11
-194.4530545845814
 21
157.2622008467928
  0
LINE
  8
0
  6
CONTINUOUS
 62
     7
 10
-194.4564917666438
 20
157.25
 11
-194.6039374612188
 21
157.25
  0
LINE
  8
0
  6
CONTINUOUS
 62
     7
 10
-205.7361669551707
 20
171.8295454545455
 11
-205.7362921389473
 21
171.8286378297037
  0
LINE
  8
0
  6
CONTINUOUS
 62
     7
 10
-205.7896133493134
 20
170.5242998977564
 11
-205.786123905625
 21
170.465727898501
  0
LINE
  8
0
  6
CONTINUOUS
 62
     7
 10
-205.6578689950235
 20
169.5169669399811
 11
-205.6543219038457
 21
169.5
  0
LINE
  8
0
  6
CONTINUOUS
 62
     7
 10
-205.7702128991617
 20
171.5357808584913
 11
-205.7858838343265
 21
171.3379276047778
  0
LINE
  8
0
  6
CONTINUOUS
 62
     7
 10
-205.7858838343265
 20
171.3379276047778
 11
-205.7952663472705
 21
171.1536834043718
  0
LINE
  8
0
  6
CONTINUOUS
 62
     7
 10
-205.7952663472705
 20
171.1536834043718
 11
-205.7976006544784
 21
171.0806248826872
  0
LINE
  8
0
  6
CONTINUOUS
 62
     7
 10
-200.0571187255933
 20
167.25
 11
-197.5
 21
167.25
  0
LINE
  8
0
  6
CONTINUOUS
 62
     7
 10
-200.0571187255933
 20
167.25
 11
-200.1258330249214
 21
166.75
  0
ARC
  8
0
  6
CONTINUOUS
 62
     7
 10
-197.5
 20
166.75
 40
0.5000000000000004
 50
0.0
 51
90.0
  0
ARC
  8
0
  6
CONTINUOUS
 62
     7
 10
-199.0
 20
170.9
 40
3.799999999999999
 50
223.173551107259
 51
253.8478434869012
  0
LINE
  8
0
  6
CONTINUOUS
 62
     7
 10
-201.7712812921102
 20
168.3
 11
-201.9799328851503
 21
167.8
  0
LINE
  8
0
  6
CONTINUOUS
 62
     7
 10
-197.0
 20
166.75
 11
-197.0
 21
165.7238193966277
  0
LINE
  8
0
  6
CONTINUOUS
 62
     7
 10
-203.2708313008125
 20
168.3
 11
-201.7712812921102
 21
168.3
  0
LINE
  8
0
  6
CONTINUOUS
 62
     7
 10
-203.4387958364023
 20
168.6013132449514
 11
-203.3162483709815
 21
168.8
  0
LINE
  8
0
  6
CONTINUOUS
 62
     7
 10
-201.7712812921102
 20
168.3
 11
-201.5455844122716
 21
168.8
  0
LINE
  8
0
  6
CONTINUOUS
 62
     7
 10
-200.0571187255933
 20
167.25
 11
-199.9836157786492
 21
167.75
  0
LINE
  8
0
  6
CONTINUOUS
 62
     7
 10
-196.5
 20
166.2194750019252
 11
-197.0
 21
165.7238193966277
  0
ARC
  8
0
  6
CONTINUOUS
 62
     7
 10
-199.9981258244149
 20
165.0
 40
10.25000034268624
 50
269.9895236731808
 51
279.5358286396559
  0
ARC
  8
0
  6
CONTINUOUS
 62
     7
 10
-199.9981258244149
 20
165.0
 40
10.25000034268624
 50
299.8829444164192
 51
90.01047632681917
  0
ARC
  8
0
  6
CONTINUOUS
 62
     7
 10
-200.0018741755852
 20
165.0
 40
10.25000034268624
 50
89.98952367318049
 51
99.53582863965575
  0
ARC
  8
0
  6
CONTINUOUS
 62
     7
 10
-200.0018741755852
 20
165.0
 40
10.25000034268624
 50
119.4446327787109
 51
270.0104763268195
  0
ARC
  8
0
  6
CONTINUOUS
 62
     7
 10
-200.0
 20
165.0
 40
11.45
 50
290.8226533416374
 51
84.98961842195098
  0
ARC
  8
0
  6
CONTINUOUS
 62
     7
 10
-200.0
 20
165.0
 40
11.45
 50
110.8226533416373
 51
264.989618421951
  0
LINE
  8
0
  6
CONTINUOUS
 62
     7
 10
-200.0
 20
154.75
 11
-200.0
 21
154.2010205144337
  0
LINE
  8
0
  6
CONTINUOUS
 62
     7
 10
-200.0
 20
175.7989794855663
 11
-200.0
 21
175.25
  0
LINE
  8
0
  6
CONTINUOUS
 62
     7
 10
-200.0
 20
180.4999997789087
 11
-200.0
 21
181.0
  0
ARC
  8
0
  6
CONTINUOUS
 62
     7
 10
-200.0
 20
165.0
 40
16.0
 50
270.0
 51
90.0
  0
LINE
  8
0
  6
CONTINUOUS
 62
     7
 10
-200.0
 20
149.0
 11
-200.0
 21
149.5000002210913
  0
ARC
  8
0
  6
CONTINUOUS
 62
     7
 10
-200.0
 20
165.0
 40
16.0
 50
90.0
 51
270.0
  0
LINE
  8
0
  6
CONTINUOUS
 62
     7
 10
-200.0
 20
151.8
 11
-200.0
 21
149.5000002210913
  0
LINE
  8
0
  6
CONTINUOUS
 62
     7
 10
-200.0
 20
180.4999997789087
 11
-200.0
 21
178.2
  0
LINE
  8
0
  6
CONTINUOUS
 62
     7
 10
-205.5491407385212
 20
171.8295454545455
 11
-205.736191677308
 21
171.8295454545455
  0
LINE
  8
0
  6
CONTINUOUS
 62
     7
 10
-205.6543608801038
 20
169.5
 11
-205.4498120245366
 21
169.5
  0
LINE
  8
0
  6
CONTINUOUS
 62
     7
 10
-205.5756584007814
 20
170.3336875553182
 11
-205.7763267057793
 21
170.3336875553182
  0
LINE
  8
0
  6
CONTINUOUS
 62
     7
 10
-205.7976559292572
 20
171.07886191071
 11
-205.5981283261935
 21
171.07886191071
  0
LINE
  8
0
  6
CONTINUOUS
 62
     7
 10
-194.6021745694319
 20
157.2622008467928
 11
-194.4530541271179
 21
157.2622008467928
  0
ENDBLK
  8
0
  0
BLOCK
  8
0
  2
D_FRAME_VIEW_1506
 70
     0
 10
0.0
 20
0.0
  0
LINE
  8
0
  6
CONTINUOUS
 62
     7
 10
-276.7487887859406
 20
149.0598033374696
 11
-276.6718556135755
 21
149.1109371157756
  0
LINE
  8
0
  6
CONTINUOUS
 62
     7
 10
-276.9866874689122
 20
180.999273483126
 11
-276.9877234564628
 21
180.9960231318881
  0
LINE
  8
0
  6
CONTINUOUS
 62
     7
 10
-276.9859140634792
 20
181.0
 11
-276.9866874689122
 21
180.999273483126
  0
LINE
  8
0
  6
CONTINUOUS
 62
     7
 10
-276.9859140634792
 20
148.9999999999995
 11
-276.7487887859406
 21
149.0598033374696
  0
LINE
  8
0
  6
CONTINUOUS
 62
     7
 10
-276.9869088212031
 20
149.0012019111401
 11
-276.9859140634792
 21
149.0
  0
LINE
  8
0
  6
CONTINUOUS
 62
     7
 10
-276.4859072095089
 20
180.4999997789087
 11
-276.6718551543352
 21
180.8890625135272
  0
LINE
  8
0
  6
CONTINUOUS
 62
     7
 10
-277.4849055978149
 20
180.9987980888599
 11
-277.4859003555387
 21
181.0
  0
LINE
  8
0
  6
CONTINUOUS
 62
     7
 10
-277.4859003555387
 20
149.0
 11
-277.4849055978149
 21
149.0012019111401
  0
LINE
  8
0
  6
CONTINUOUS
 62
     7
 10
-277.7230256330766
 20
180.9401966625308
 11
-277.7999588054423
 21
180.8890628842244
  0
LINE
  8
0
  6
CONTINUOUS
 62
     7
 10
-277.4851269501058
 20
149.000726516874
 11
-277.4840909625551
 21
149.0039768681119
  0
LINE
  8
0
  6
CONTINUOUS
 62
     7
 10
-277.4859003555387
 20
149.0
 11
-277.4851269501058
 21
149.000726516874
  0
LINE
  8
0
  6
CONTINUOUS
 62
     7
 10
-277.4859003555388
 20
181.0000000000005
 11
-277.7230256330766
 21
180.9401966625308
  0
LINE
  8
0
  6
CONTINUOUS
 62
     7
 10
-277.9859072095089
 20
149.5000002210913
 11
-277.7999592646826
 21
149.1109374864729
  0
ARC
  8
0
  6
CONTINUOUS
 62
     7
 10
816.8685834997312
 20
165.0
 40
1093.414443316925
 50
179.4
 51
180.6
  0
LINE
  8
0
  6
CONTINUOUS
 62
     7
 10
-276.4859072095089
 20
153.55
 11
-276.4859072095089
 21
149.5000002210913
  0
LINE
  8
0
  6
CONTINUOUS
 62
     7
 10
-276.4859072095089
 20
180.4999997789087
 11
-276.4859072095089
 21
176.45
  0
LINE
  8
0
  6
CONTINUOUS
 62
     7
 10
-277.9859072095089
 20
180.4999997789087
 11
-277.9859072095089
 21
149.5000002210913
  0
LINE
  8
0
  6
CONTINUOUS
 62
     7
 10
-275.4859140634792
 20
153.55
 11
-275.4866187345278
 21
153.5508648311618
  0
LINE
  8
0
  6
CONTINUOUS
 62
     7
 10
-275.4859140634792
 20
176.45
 11
-275.4866187345278
 21
176.4491351688382
  0
LINE
  8
0
  6
CONTINUOUS
 62
     7
 10
-275.4871902736588
 20
176.4471631244557
 11
-275.4864593844029
 21
176.4494820877111
  0
LINE
  8
0
  6
CONTINUOUS
 62
     7
 10
-275.4864593844029
 20
176.4494820877111
 11
-275.4859140634792
 21
176.45
  0
LINE
  8
0
  6
CONTINUOUS
 62
     7
 10
-275.2483212477175
 20
153.6100555242683
 11
-275.1719257942693
 21
153.6608805107842
  0
LINE
  8
0
  6
CONTINUOUS
 62
     7
 10
-274.9859072095089
 20
175.9499996870398
 11
-275.1719253200871
 21
176.3391191065985
  0
LINE
  8
0
  6
CONTINUOUS
 62
     7
 10
-275.4859140634792
 20
153.5499999999995
 11
-275.2847543955561
 21
153.5922491366976
  0
ARC
  8
0
  6
CONTINUOUS
 62
     7
 10
703.6022394432147
 20
165.0
 40
978.6418258327265
 50
179.3998902741072
 51
180.6001097258927
  0
LINE
  8
0
  6
CONTINUOUS
 62
     7
 10
-274.9859072095089
 20
154.75
 11
-274.9859072095089
 21
154.0500003129602
  0
LINE
  8
0
  6
CONTINUOUS
 62
     7
 10
-274.9859072095089
 20
175.9499996870398
 11
-274.9859072095089
 21
175.25
  0
LINE
  8
0
  6
CONTINUOUS
 62
     7
 10
-272.9859072095089
 20
174.697314073613
 11
-272.9859072095089
 21
155.3026859263871
  0
ARC
  8
0
  6
CONTINUOUS
 62
     7
 10
-272.4859072095089
 20
170.4
 40
0.5000000000000004
 50
180.0
 51
270.0
  0
LINE
  8
0
  6
CONTINUOUS
 62
     7
 10
-269.9859072095089
 20
170.9
 11
-269.9859072095089
 21
177.9960514110457
  0
LINE
  8
0
  6
CONTINUOUS
 62
     7
 10
-253.485907209509
 20
174.8660254037844
 11
-258.9072712830974
 21
177.9960514110457
  0
ARC
  8
0
  6
CONTINUOUS
 62
     7
 10
-254.9859072095089
 20
172.2679491924312
 40
2.99999999999998
 50
359.9999999999998
 51
60.00000000000028
  0
LINE
  8
0
  6
CONTINUOUS
 62
     7
 10
-251.985907209509
 20
170.9
 11
-251.985907209509
 21
172.2679491924311
  0
LINE
  8
0
  6
CONTINUOUS
 62
     7
 10
-269.9382856416482
 20
166.5423366528082
 11
-269.9350464077846
 21
167.0049180327869
  0
LINE
  8
0
  6
CONTINUOUS
 62
     7
 10
-269.9859072095089
 20
169.2770491803279
 11
-269.9859072095089
 21
170.9
  0
LINE
  8
0
  6
CONTINUOUS
 62
     7
 10
-251.985907209509
 20
166.5423366528082
 11
-251.985907209509
 21
170.9
  0
LINE
  8
0
  6
CONTINUOUS
 62
     7
 10
-272.4859072095089
 20
169.9
 11
-269.9859072095089
 21
169.9
  0
LINE
  8
0
  6
CONTINUOUS
 62
     7
 10
-269.9292304494999
 20
164.7658298352039
 11
-269.9292304494999
 21
165.2341701647961
  0
LINE
  8
0
  6
CONTINUOUS
 62
     7
 10
-251.985907209509
 20
165.2341701647961
 11
-251.985907209509
 21
164.7658298352039
  0
LINE
  8
0
  6
CONTINUOUS
 62
     7
 10
-269.9350464077846
 20
167.0049180327869
 11
-269.9385689356504
 21
166.8
  0
LINE
  8
0
  6
CONTINUOUS
 62
     7
 10
-269.935046587948
 20
165.7122296801252
 11
-269.9382856416482
 21
166.5423366528082
  0
LINE
  8
0
  6
CONTINUOUS
 62
     7
 10
-269.9335510176714
 20
165.7107341098486
 11
-269.935046587948
 21
165.7122296801252
  0
LINE
  8
0
  6
CONTINUOUS
 62
     7
 10
-269.9292304494999
 20
165.2341701647961
 11
-269.9335510176714
 21
165.7107341098486
  0
LINE
  8
0
  6
CONTINUOUS
 62
     7
 10
-269.9335510176714
 20
164.2892658901514
 11
-269.9292304494999
 21
164.7658298352039
  0
LINE
  8
0
  6
CONTINUOUS
 62
     7
 10
-269.9701989471733
 20
164.2526179606495
 11
-269.9335510176714
 21
164.2892658901514
  0
LINE
  8
0
  6
CONTINUOUS
 62
     7
 10
-269.9722898873546
 20
164.0109198840795
 11
-269.9701989471733
 21
164.2526179606495
  0
LINE
  8
0
  6
CONTINUOUS
 62
     7
 10
-269.9728169078228
 20
163.9989794855663
 11
-269.9722898873546
 21
164.0109198840795
  0
LINE
  8
0
  6
CONTINUOUS
 62
     7
 10
-269.9728169078228
 20
164.8131427428343
 11
-269.9728169078228
 21
163.9989794855664
  0
LINE
  8
0
  6
CONTINUOUS
 62
     7
 10
-269.9859072095089
 20
165.1868572571657
 11
-269.9859072095089
 21
164.8131427428343
  0
LINE
  8
0
  6
CONTINUOUS
 62
     7
 10
-269.9728169078228
 20
165.1868572571657
 11
-269.9457423389554
 21
166.8
  0
LINE
  8
0
  6
CONTINUOUS
 62
     7
 10
-251.985907209509
 20
165.7107341098486
 11
-251.985907209509
 21
165.2341701647961
  0
LINE
  8
0
  6
CONTINUOUS
 62
     7
 10
-251.985907209509
 20
164.7658298352039
 11
-251.985907209509
 21
164.2892658901514
  0
ARC
  8
0
  6
CONTINUOUS
 62
     7
 10
-272.4859072095089
 20
166.3
 40
0.5000000000000004
 50
90.0
 51
180.0
  0
LINE
  8
0
  6
CONTINUOUS
 62
     7
 10
-251.985907209509
 20
165.7122296801252
 11
-251.985907209509
 21
165.7107341098486
  0
LINE
  8
0
  6
CONTINUOUS
 62
     7
 10
-269.9701989471733
 20
164.2526179606495
 11
-251.985907209509
 21
164.2526179606495
  0
LINE
  8
0
  6
CONTINUOUS
 62
     7
 10
-251.985907209509
 20
164.2892658901514
 11
-251.985907209509
 21
164.2526179606495
  0
LINE
  8
0
  6
CONTINUOUS
 62
     7
 10
-269.9385689356504
 20
166.8
 11
-272.4859072095089
 21
166.8
  0
LINE
  8
0
  6
CONTINUOUS
 62
     7
 10
-251.985907209509
 20
165.7122296801252
 11
-251.985907209509
 21
166.5423366528082
  0
LINE
  8
0
  6
CONTINUOUS
 62
     7
 10
-269.9859072095089
 20
166.8
 11
-269.9859072095089
 21
165.1868572571657
  0
LINE
  8
0
  6
CONTINUOUS
 62
     7
 10
-269.9728169078228
 20
165.1868572571657
 11
-269.9859072095089
 21
165.1868572571657
  0
POLYLINE
  8
0
  6
CONTINUOUS
 62
     7
 66
     1
  0
VERTEX
  8
0
  6
CONTINUOUS
 62
     7
 10
-272.9859072095089
 20
165.25
  0
VERTEX
  8
0
  6
CONTINUOUS
 62
     7
 10
-272.985819833848
 20
165.2593470865224
  0
VERTEX
  8
0
  6
CONTINUOUS
 62
     7
 10
-272.9846570988683
 20
165.2853284899175
  0
VERTEX
  8
0
  6
CONTINUOUS
 62
     7
 10
-272.9821458044224
 20
165.3112148423045
  0
VERTEX
  8
0
  6
CONTINUOUS
 62
     7
 10
-272.9782413777785
 20
165.3372158292366
  0
VERTEX
  8
0
  6
CONTINUOUS
 62
     7
 10
-272.9729759422785
 20
165.3629780932671
  0
VERTEX
  8
0
  6
CONTINUOUS
 62
     7
 10
-272.9678696841825
 20
165.3830809645856
  0
VERTEX
  8
0
  6
CONTINUOUS
 62
     7
 10
-272.9619282567896
 20
165.4029740637046
  0
VERTEX
  8
0
  6
CONTINUOUS
 62
     7
 10
-272.9551675191726
 20
165.4226068723159
  0
VERTEX
  8
0
  6
CONTINUOUS
 62
     7
 10
-272.9476033304048
 20
165.441928872111
  0
VERTEX
  8
0
  6
CONTINUOUS
 62
     7
 10
-272.9389878507851
 20
165.4614617975357
  0
VERTEX
  8
0
  6
CONTINUOUS
 62
     7
 10
-272.9295358716991
 20
165.4806303037175
  0
VERTEX
  8
0
  6
CONTINUOUS
 62
     7
 10
-272.9192735835618
 20
165.4993827299043
  0
VERTEX
  8
0
  6
CONTINUOUS
 62
     7
 10
-272.9082271767885
 20
165.5176674153441
  0
VERTEX
  8
0
  6
CONTINUOUS
 62
     7
 10
-272.896821970672
 20
165.5348638961806
  0
VERTEX
  8
0
  6
CONTINUOUS
 62
     7
 10
-272.8847035314434
 20
165.5515934575743
  0
VERTEX
  8
0
  6
CONTINUOUS
 62
     7
 10
-272.871903011788
 20
165.5678138161853
  0
VERTEX
  8
0
  6
CONTINUOUS
 62
     7
 10
-272.8584515643913
 20
165.5834826886742
  0
VERTEX
  8
0
  6
CONTINUOUS
 62
     7
 10
-272.8439457497092
 20
165.599007973615
  0
VERTEX
  8
0
  6
CONTINUOUS
 62
     7
 10
-272.8287753142172
 20
165.6139205882088
  0
VERTEX
  8
0
  6
CONTINUOUS
 62
     7
 10
-272.812981657634
 20
165.6281804706018
  0
VERTEX
  8
0
  6
CONTINUOUS
 62
     7
 10
-272.7966061796785
 20
165.6417475589402
  0
VERTEX
  8
0
  6
CONTINUOUS
 62
     7
 10
-272.7801959702835
 20
165.6542183598284
  0
VERTEX
  8
0
  6
CONTINUOUS
 62
     7
 10
-272.7632666372241
 20
165.6660154164585
  0
VERTEX
  8
0
  6
CONTINUOUS
 62
     7
 10
-272.7458617668339
 20
165.6771088691586
  0
VERTEX
  8
0
  6
CONTINUOUS
 62
     7
 10
-272.7280249454464
 20
165.6874688582569
  0
VERTEX
  8
0
  6
CONTINUOUS
 62
     7
 10
-272.7092379834122
 20
165.697349418017
  0
VERTEX
  8
0
  6
CONTINUOUS
 62
     7
 10
-272.6900264725215
 20
165.7064340177648
  0
VERTEX
  8
0
  6
CONTINUOUS
 62
     7
 10
-272.6704430653957
 20
165.7146984560635
  0
VERTEX
  8
0
  6
CONTINUOUS
 62
     7
 10
-272.6505404146561
 20
165.722118531476
  0
VERTEX
  8
0
  6
CONTINUOUS
 62
     7
 10
-272.6309049709336
 20
165.7285122464329
  0
VERTEX
  8
0
  6
CONTINUOUS
 62
     7
 10
-272.6110018003208
 20
165.7340954009783
  0
VERTEX
  8
0
  6
CONTINUOUS
 62
     7
 10
-272.590882618099
 20
165.7388542572738
  0
VERTEX
  8
0
  6
CONTINUOUS
 62
     7
 10
-272.5705991395492
 20
165.7427750774807
  0
VERTEX
  8
0
  6
CONTINUOUS
 62
     7
 10
-272.5495720559108
 20
165.7459283159054
  0
VERTEX
  8
0
  6
CONTINUOUS
 62
     7
 10
-272.5284088639613
 20
165.7481869558791
  0
VERTEX
  8
0
  6
CONTINUOUS
 62
     7
 10
-272.5071678272957
 20
165.7495458872834
  0
VERTEX
  8
0
  6
CONTINUOUS
 62
     7
 10
-272.4859072095089
 20
165.75
  0
SEQEND
  8
0
  6
CONTINUOUS
 62
     7
  0
LINE
  8
0
  6
CONTINUOUS
 62
     7
 10
-272.4859072095089
 20
165.75
 11
-269.9859072095089
 21
165.75
  0
POLYLINE
  8
0
  6
CONTINUOUS
 62
     7
 66
     1
  0
VERTEX
  8
0
  6
CONTINUOUS
 62
     7
 10
-267.1571070906934
 20
177.865021421269
  0
VERTEX
  8
0
  6
CONTINUOUS
 62
     7
 10
-267.1474790993972
 20
177.8546512365121
  0
VERTEX
  8
0
  6
CONTINUOUS
 62
     7
 10
-267.1274646820348
 20
177.8348337023604
  0
VERTEX
  8
0
  6
CONTINUOUS
 62
     7
 10
-267.1039364102879
 20
177.8141795398739
  0
VERTEX
  8
0
  6
CONTINUOUS
 62
     7
 10
-267.0857590154394
 20
177.7998667790206
  0
VERTEX
  8
0
  6
CONTINUOUS
 62
     7
 10
-267.0652187697318
 20
177.7852668864043
  0
VERTEX
  8
0
  6
CONTINUOUS
 62
     7
 10
-267.0418437581748
 20
177.7704694620204
  0
VERTEX
  8
0
  6
CONTINUOUS
 62
     7
 10
-267.0219232722172
 20
177.759204846038
  0
VERTEX
  8
0
  6
CONTINUOUS
 62
     7
 10
-266.9996172730761
 20
177.7479734424504
  0
VERTEX
  8
0
  6
CONTINUOUS
 62
     7
 10
-266.9872243751603
 20
177.7423138693071
  0
VERTEX
  8
0
  6
CONTINUOUS
 62
     7
 10
-266.9739873531972
 20
177.7367124592114
  0
VERTEX
  8
0
  6
CONTINUOUS
 62
     7
 10
-266.9598091473806
 20
177.7312104973555
  0
VERTEX
  8
0
  6
CONTINUOUS
 62
     7
 10
-266.9445926979045
 20
177.7258492689316
  0
VERTEX
  8
0
  6
CONTINUOUS
 62
     7
 10
-266.9339184646335
 20
177.7224087431008
  0
VERTEX
  8
0
  6
CONTINUOUS
 62
     7
 10
-266.9226784370509
 20
177.719069248949
  0
VERTEX
  8
0
  6
CONTINUOUS
 62
     7
 10
-266.9108378960262
 20
177.7158591903523
  0
VERTEX
  8
0
  6
CONTINUOUS
 62
     7
 10
-266.9012796559471
 20
177.713492494666
  0
VERTEX
  8
0
  6
CONTINUOUS
 62
     7
 10
-266.8912997020072
 20
177.7112331198315
  0
VERTEX
  8
0
  6
CONTINUOUS
 62
     7
 10
-266.8808955703381
 20
177.7091053288498
  0
VERTEX
  8
0
  6
CONTINUOUS
 62
     7
 10
-266.8700647970712
 20
177.7071333847219
  0
VERTEX
  8
0
  6
CONTINUOUS
 62
     7
 10
-266.8622857236417
 20
177.7058682241831
  0
VERTEX
  8
0
  6
CONTINUOUS
 62
     7
 10
-266.8542879240971
 20
177.704698106221
  0
VERTEX
  8
0
  6
CONTINUOUS
 62
     7
 10
-266.8460853144099
 20
177.7036346147305
  0
VERTEX
  8
0
  6
CONTINUOUS
 62
     7
 10
-266.839638227333
 20
177.7028956885283
  0
VERTEX
  8
0
  6
CONTINUOUS
 62
     7
 10
-266.8330713996464
 20
177.702229936796
  0
VERTEX
  8
0
  6
CONTINUOUS
 62
     7
 10
-266.826400531229
 20
177.7016426924286
  0
VERTEX
  8
0
  6
CONTINUOUS
 62
     7
 10
-266.8196413219596
 20
177.7011392883207
  0
VERTEX
  8
0
  6
CONTINUOUS
 62
     7
 10
-266.8144119883195
 20
177.7008132556137
  0
VERTEX
  8
0
  6
CONTINUOUS
 62
     7
 10
-266.8091384911005
 20
177.7005400561368
  0
VERTEX
  8
0
  6
CONTINUOUS
 62
     7
 10
-266.8038316029712
 20
177.7003213871707
  0
VERTEX
  8
0
  6
CONTINUOUS
 62
     7
 10
-266.798422381713
 20
177.7001567453136
  0
VERTEX
  8
0
  6
CONTINUOUS
 62
     7
 10
-266.7929906714085
 20
177.7000502692791
  0
VERTEX
  8
0
  6
CONTINUOUS
 62
     7
 10
-266.7875495785977
 20
177.7000026973835
  0
VERTEX
  8
0
  6
CONTINUOUS
 62
     7
 10
-266.7812634666062
 20
177.7000219262135
  0
VERTEX
  8
0
  6
CONTINUOUS
 62
     7
 10
-266.7749807954174
 20
177.7001200425864
  0
VERTEX
  8
0
  6
CONTINUOUS
 62
     7
 10
-266.7687215412812
 20
177.7002957949598
  0
VERTEX
  8
0
  6
CONTINUOUS
 62
     7
 10
-266.7625056804471
 20
177.7005479317917
  0
VERTEX
  8
0
  6
CONTINUOUS
 62
     7
 10
-266.7561267944735
 20
177.7008879463679
  0
VERTEX
  8
0
  6
CONTINUOUS
 62
     7
 10
-266.7498060999645
 20
177.7013054984199
  0
VERTEX
  8
0
  6
CONTINUOUS
 62
     7
 10
-266.7435596934357
 20
177.7017968227349
  0
VERTEX
  8
0
  6
CONTINUOUS
 62
     7
 10
-266.7374036714024
 20
177.7023581540996
  0
VERTEX
  8
0
  6
CONTINUOUS
 62
     7
 10
-266.7317996305167
 20
177.7029362993283
  0
VERTEX
  8
0
  6
CONTINUOUS
 62
     7
 10
-266.7262769759819
 20
177.7035685463469
  0
VERTEX
  8
0
  6
CONTINUOUS
 62
     7
 10
-266.7208430818141
 20
177.7042514152443
  0
VERTEX
  8
0
  6
CONTINUOUS
 62
     7
 10
-266.7127757419397
 20
177.7053771512304
  0
VERTEX
  8
0
  6
CONTINUOUS
 62
     7
 10
-266.7049207547517
 20
177.706602397507
  0
VERTEX
  8
0
  6
CONTINUOUS
 62
     7
 10
-266.696337830119
 20
177.7080880190877
  0
VERTEX
  8
0
  6
CONTINUOUS
 62
     7
 10
-266.6880179318744
 20
177.7096758081138
  0
VERTEX
  8
0
  6
CONTINUOUS
 62
     7
 10
-266.6799628518493
 20
177.7113530295027
  0
VERTEX
  8
0
  6
CONTINUOUS
 62
     7
 10
-266.672174381875
 20
177.713106948172
  0
VERTEX
  8
0
  6
CONTINUOUS
 62
     7
 10
-266.6619327618937
 20
177.7156130812939
  0
VERTEX
  8
0
  6
CONTINUOUS
 62
     7
 10
-266.6521287875448
 20
177.7182286037062
  0
VERTEX
  8
0
  6
CONTINUOUS
 62
     7
 10
-266.6427454013973
 20
177.7209335153674
  0
VERTEX
  8
0
  6
CONTINUOUS
 62
     7
 10
-266.6319957602221
 20
177.7242779932564
  0
VERTEX
  8
0
  6
CONTINUOUS
 62
     7
 10
-266.6217652798589
 20
177.7277104416441
  0
VERTEX
  8
0
  6
CONTINUOUS
 62
     7
 10
-266.6119621659529
 20
177.7312321975743
  0
VERTEX
  8
0
  6
CONTINUOUS
 62
     7
 10
-266.6026062034004
 20
177.7348110693927
  0
VERTEX
  8
0
  6
CONTINUOUS
 62
     7
 10
-266.5871690333431
 20
177.74119041777
  0
VERTEX
  8
0
  6
CONTINUOUS
 62
     7
 10
-266.5728449020796
 20
177.7476644364166
  0
VERTEX
  8
0
  6
CONTINUOUS
 62
     7
 10
-266.559513564596
 20
177.7541907161767
  0
VERTEX
  8
0
  6
CONTINUOUS
 62
     7
 10
-266.5409143900215
 20
177.7641324176276
  0
VERTEX
  8
0
  6
CONTINUOUS
 62
     7
 10
-266.524027090107
 20
177.7740671378468
  0
VERTEX
  8
0
  6
CONTINUOUS
 62
     7
 10
-266.4996122183588
 20
177.7900518921064
  0
VERTEX
  8
0
  6
CONTINUOUS
 62
     7
 10
-266.4783281998974
 20
177.8057711170846
  0
VERTEX
  8
0
  6
CONTINUOUS
 62
     7
 10
-266.4596324555072
 20
177.8211269541111
  0
VERTEX
  8
0
  6
CONTINUOUS
 62
     7
 10
-266.4352066305577
 20
177.8436028201517
  0
VERTEX
  8
0
  6
CONTINUOUS
 62
     7
 10
-266.4147073283244
 20
177.865021421269
  0
SEQEND
  8
0
  6
CONTINUOUS
 62
     7
  0
POLYLINE
  8
0
  6
CONTINUOUS
 62
     7
 66
     1
  0
VERTEX
  8
0
  6
CONTINUOUS
 62
     7
 10
-263.2571070906934
 20
177.865021421269
  0
VERTEX
  8
0
  6
CONTINUOUS
 62
     7
 10
-263.2474790993971
 20
177.8546512365121
  0
VERTEX
  8
0
  6
CONTINUOUS
 62
     7
 10
-263.2274646820348
 20
177.8348337023604
  0
VERTEX
  8
0
  6
CONTINUOUS
 62
     7
 10
-263.2039364102879
 20
177.8141795398739
  0
VERTEX
  8
0
  6
CONTINUOUS
 62
     7
 10
-263.1857590154394
 20
177.7998667790206
  0
VERTEX
  8
0
  6
CONTINUOUS
 62
     7
 10
-263.1652187697317
 20
177.7852668864043
  0
VERTEX
  8
0
  6
CONTINUOUS
 62
     7
 10
-263.1418437581747
 20
177.7704694620204
  0
VERTEX
  8
0
  6
CONTINUOUS
 62
     7
 10
-263.1219232722171
 20
177.759204846038
  0
VERTEX
  8
0
  6
CONTINUOUS
 62
     7
 10
-263.0996172730761
 20
177.7479734424504
  0
VERTEX
  8
0
  6
CONTINUOUS
 62
     7
 10
-263.0872243751604
 20
177.7423138693071
  0
VERTEX
  8
0
  6
CONTINUOUS
 62
     7
 10
-263.0739873531972
 20
177.7367124592114
  0
VERTEX
  8
0
  6
CONTINUOUS
 62
     7
 10
-263.0598091473805
 20
177.7312104973555
  0
VERTEX
  8
0
  6
CONTINUOUS
 62
     7
 10
-263.0445926979044
 20
177.7258492689316
  0
VERTEX
  8
0
  6
CONTINUOUS
 62
     7
 10
-263.0339184646335
 20
177.7224087431008
  0
VERTEX
  8
0
  6
CONTINUOUS
 62
     7
 10
-263.022678437051
 20
177.719069248949
  0
VERTEX
  8
0
  6
CONTINUOUS
 62
     7
 10
-263.0108378960263
 20
177.7158591903523
  0
VERTEX
  8
0
  6
CONTINUOUS
 62
     7
 10
-263.0012796559471
 20
177.713492494666
  0
VERTEX
  8
0
  6
CONTINUOUS
 62
     7
 10
-262.9912997020072
 20
177.7112331198315
  0
VERTEX
  8
0
  6
CONTINUOUS
 62
     7
 10
-262.980895570338
 20
177.7091053288498
  0
VERTEX
  8
0
  6
CONTINUOUS
 62
     7
 10
-262.9700647970711
 20
177.7071333847219
  0
VERTEX
  8
0
  6
CONTINUOUS
 62
     7
 10
-262.9622857236417
 20
177.7058682241831
  0
VERTEX
  8
0
  6
CONTINUOUS
 62
     7
 10
-262.9542879240971
 20
177.704698106221
  0
VERTEX
  8
0
  6
CONTINUOUS
 62
     7
 10
-262.9460853144099
 20
177.7036346147305
  0
VERTEX
  8
0
  6
CONTINUOUS
 62
     7
 10
-262.939638227333
 20
177.7028956885283
  0
VERTEX
  8
0
  6
CONTINUOUS
 62
     7
 10
-262.9330713996464
 20
177.702229936796
  0
VERTEX
  8
0
  6
CONTINUOUS
 62
     7
 10
-262.926400531229
 20
177.7016426924286
  0
VERTEX
  8
0
  6
CONTINUOUS
 62
     7
 10
-262.9196413219596
 20
177.7011392883207
  0
VERTEX
  8
0
  6
CONTINUOUS
 62
     7
 10
-262.9144119883196
 20
177.7008132556137
  0
VERTEX
  8
0
  6
CONTINUOUS
 62
     7
 10
-262.9091384911005
 20
177.7005400561368
  0
VERTEX
  8
0
  6
CONTINUOUS
 62
     7
 10
-262.9038316029711
 20
177.7003213871707
  0
VERTEX
  8
0
  6
CONTINUOUS
 62
     7
 10
-262.8984223817131
 20
177.7001567453136
  0
VERTEX
  8
0
  6
CONTINUOUS
 62
     7
 10
-262.8929906714085
 20
177.7000502692791
  0
VERTEX
  8
0
  6
CONTINUOUS
 62
     7
 10
-262.8875495785977
 20
177.7000026973835
  0
VERTEX
  8
0
  6
CONTINUOUS
 62
     7
 10
-262.8812634666062
 20
177.7000219262135
  0
VERTEX
  8
0
  6
CONTINUOUS
 62
     7
 10
-262.8749807954175
 20
177.7001200425864
  0
VERTEX
  8
0
  6
CONTINUOUS
 62
     7
 10
-262.8687215412812
 20
177.7002957949598
  0
VERTEX
  8
0
  6
CONTINUOUS
 62
     7
 10
-262.8625056804471
 20
177.7005479317917
  0
VERTEX
  8
0
  6
CONTINUOUS
 62
     7
 10
-262.8561267944735
 20
177.7008879463679
  0
VERTEX
  8
0
  6
CONTINUOUS
 62
     7
 10
-262.8498060999646
 20
177.7013054984199
  0
VERTEX
  8
0
  6
CONTINUOUS
 62
     7
 10
-262.8435596934357
 20
177.7017968227349
  0
VERTEX
  8
0
  6
CONTINUOUS
 62
     7
 10
-262.8374036714024
 20
177.7023581540996
  0
VERTEX
  8
0
  6
CONTINUOUS
 62
     7
 10
-262.8317996305167
 20
177.7029362993283
  0
VERTEX
  8
0
  6
CONTINUOUS
 62
     7
 10
-262.8262769759819
 20
177.7035685463469
  0
VERTEX
  8
0
  6
CONTINUOUS
 62
     7
 10
-262.820843081814
 20
177.7042514152443
  0
VERTEX
  8
0
  6
CONTINUOUS
 62
     7
 10
-262.8127757419397
 20
177.7053771512304
  0
VERTEX
  8
0
  6
CONTINUOUS
 62
     7
 10
-262.8049207547517
 20
177.706602397507
  0
VERTEX
  8
0
  6
CONTINUOUS
 62
     7
 10
-262.7963378301189
 20
177.7080880190877
  0
VERTEX
  8
0
  6
CONTINUOUS
 62
     7
 10
-262.7880179318744
 20
177.7096758081138
  0
VERTEX
  8
0
  6
CONTINUOUS
 62
     7
 10
-262.7799628518492
 20
177.7113530295027
  0
VERTEX
  8
0
  6
CONTINUOUS
 62
     7
 10
-262.772174381875
 20
177.713106948172
  0
VERTEX
  8
0
  6
CONTINUOUS
 62
     7
 10
-262.7619327618937
 20
177.7156130812939
  0
VERTEX
  8
0
  6
CONTINUOUS
 62
     7
 10
-262.7521287875448
 20
177.7182286037062
  0
VERTEX
  8
0
  6
CONTINUOUS
 62
     7
 10
-262.7427454013973
 20
177.7209335153674
  0
VERTEX
  8
0
  6
CONTINUOUS
 62
     7
 10
-262.7319957602221
 20
177.7242779932564
  0
VERTEX
  8
0
  6
CONTINUOUS
 62
     7
 10
-262.7217652798589
 20
177.7277104416441
  0
VERTEX
  8
0
  6
CONTINUOUS
 62
     7
 10
-262.7119621659529
 20
177.7312321975743
  0
VERTEX
  8
0
  6
CONTINUOUS
 62
     7
 10
-262.7026062034004
 20
177.7348110693927
  0
VERTEX
  8
0
  6
CONTINUOUS
 62
     7
 10
-262.6871690333431
 20
177.74119041777
  0
VERTEX
  8
0
  6
CONTINUOUS
 62
     7
 10
-262.6728449020796
 20
177.7476644364166
  0
VERTEX
  8
0
  6
CONTINUOUS
 62
     7
 10
-262.659513564596
 20
177.7541907161767
  0
VERTEX
  8
0
  6
CONTINUOUS
 62
     7
 10
-262.6409143900215
 20
177.7641324176276
  0
VERTEX
  8
0
  6
CONTINUOUS
 62
     7
 10
-262.624027090107
 20
177.7740671378468
  0
VERTEX
  8
0
  6
CONTINUOUS
 62
     7
 10
-262.5996122183587
 20
177.7900518921064
  0
VERTEX
  8
0
  6
CONTINUOUS
 62
     7
 10
-262.5783281998974
 20
177.8057711170846
  0
VERTEX
  8
0
  6
CONTINUOUS
 62
     7
 10
-262.5596324555072
 20
177.8211269541111
  0
VERTEX
  8
0
  6
CONTINUOUS
 62
     7
 10
-262.5352066305577
 20
177.8436028201517
  0
VERTEX
  8
0
  6
CONTINUOUS
 62
     7
 10
-262.5147073283245
 20
177.865021421269
  0
SEQEND
  8
0
  6
CONTINUOUS
 62
     7
  0
ARC
  8
0
  6
CONTINUOUS
 62
     7
 10
-262.0198818057245
 20
177.7
 40
0.5000000000000004
 50
90.0
 51
145.5778032688326
  0
ARC
  8
0
  6
CONTINUOUS
 62
     7
 10
-262.0198818057245
 20
177.7
 40
0.4999999999999998
 50
145.5778032688326
 51
149.9999999999999
  0
LINE
  8
0
  6
CONTINUOUS
 62
     7
 10
-262.5147073283245
 20
177.865021421269
 11
-262.4528945076167
 21
177.95
  0
LINE
  8
0
  6
CONTINUOUS
 62
     7
 10
-262.0198818057245
 20
178.2
 11
-259.2605206012982
 21
178.2
  0
LINE
  8
0
  6
CONTINUOUS
 62
     7
 10
-259.2605206012981
 20
178.2
 11
-258.9072712830974
 21
177.9960514110457
  0
LINE
  8
0
  6
CONTINUOUS
 62
     7
 10
-265.9198818057245
 20
178.2
 11
-263.7519326132934
 21
178.2
  0
ARC
  8
0
  6
CONTINUOUS
 62
     7
 10
-265.9198818057245
 20
177.7
 40
0.5000000000000004
 50
90.0
 51
149.9999999999999
  0
LINE
  8
0
  6
CONTINUOUS
 62
     7
 10
-266.4147073283244
 20
177.865021421269
 11
-266.3677779871329
 21
177.9258322531822
  0
LINE
  8
0
  6
CONTINUOUS
 62
     7
 10
-266.3677779871329
 20
177.9258322531822
 11
-266.3528945076167
 21
177.95
  0
ARC
  8
0
  6
CONTINUOUS
 62
     7
 10
-263.7519326132934
 20
177.7
 40
0.4999999999999998
 50
30.00000000000027
 51
90.0
  0
LINE
  8
0
  6
CONTINUOUS
 62
     7
 10
-263.3189199114012
 20
177.95
 11
-263.2571070906934
 21
177.865021421269
  0
ARC
  8
0
  6
CONTINUOUS
 62
     7
 10
-267.6519326132934
 20
177.7
 40
0.4999999999999998
 50
30.00000000000027
 51
90.0
  0
LINE
  8
0
  6
CONTINUOUS
 62
     7
 10
-267.2189199114011
 20
177.95
 11
-267.1571070906934
 21
177.865021421269
  0
LINE
  8
0
  6
CONTINUOUS
 62
     7
 10
-269.9859072095089
 20
178.2
 11
-267.6519326132934
 21
178.2
  0
LINE
  8
0
  6
CONTINUOUS
 62
     7
 10
-269.9859072095089
 20
177.9960514110457
 11
-269.9859072095089
 21
178.2
  0
LINE
  8
0
  6
CONTINUOUS
 62
     7
 10
-269.9859072095089
 20
152.3
 11
-269.9859072095089
 21
153.6227744249483
  0
LINE
  8
0
  6
CONTINUOUS
 62
     7
 10
-258.3944951975138
 20
152.3
 11
-256.1033826865506
 21
153.6227744249483
  0
LINE
  8
0
  6
CONTINUOUS
 62
     7
 10
-269.9859072095089
 20
153.6227744249483
 11
-269.9859072095089
 21
154.1207040226803
  0
LINE
  8
0
  6
CONTINUOUS
 62
     7
 10
-255.2409433246864
 20
154.1207040226803
 11
-256.1033826865506
 21
153.6227744249483
  0
LINE
  8
0
  6
CONTINUOUS
 62
     7
 10
-269.9859072095089
 20
151.8
 11
-269.9859072095089
 21
152.3
  0
LINE
  8
0
  6
CONTINUOUS
 62
     7
 10
-267.6519326132934
 20
151.8
 11
-269.9859072095089
 21
151.8
  0
ARC
  8
0
  6
CONTINUOUS
 62
     7
 10
-267.6519326132934
 20
152.3
 40
0.5000000000000004
 50
269.9999999999998
 51
330.0
  0
ARC
  8
0
  6
CONTINUOUS
 62
     7
 10
-265.9198818057245
 20
152.3
 40
0.5000000000000004
 50
210.0
 51
270.0000000000002
  0
ARC
  8
0
  6
CONTINUOUS
 62
     7
 10
-262.0198818057245
 20
152.3
 40
0.5000000000000004
 50
209.9999999999998
 51
269.9999999999995
  0
LINE
  8
0
  6
CONTINUOUS
 62
     7
 10
-263.7519326132934
 20
151.8
 11
-265.9198818057245
 21
151.8
  0
ARC
  8
0
  6
CONTINUOUS
 62
     7
 10
-266.7859072095089
 20
151.8
 40
0.5000000000000004
 50
90.0
 51
150.0
  0
ARC
  8
0
  6
CONTINUOUS
 62
     7
 10
-266.7859072095089
 20
151.8
 40
0.5000000000000007
 50
30.00000000000044
 51
90.0
  0
ARC
  8
0
  6
CONTINUOUS
 62
     7
 10
-262.885907209509
 20
151.8
 40
0.5000000000000004
 50
90.0
 51
150.0
  0
ARC
  8
0
  6
CONTINUOUS
 62
     7
 10
-262.885907209509
 20
151.8
 40
0.5000000000000007
 50
30.00000000000044
 51
90.0
  0
LINE
  8
0
  6
CONTINUOUS
 62
     7
 10
-258.3944951975138
 20
152.3
 11
-259.2605206012982
 21
151.8
  0
LINE
  8
0
  6
CONTINUOUS
 62
     7
 10
-259.2605206012982
 20
151.8
 11
-262.0198818057245
 21
151.8
  0
ARC
  8
0
  6
CONTINUOUS
 62
     7
 10
-263.7519326132934
 20
152.3
 40
0.5000000000000004
 50
270.0
 51
330.0
  0
LINE
  8
0
  6
CONTINUOUS
 62
     7
 10
-269.9728169078228
 20
163.9989794855663
 11
-269.9859072095089
 21
163.9989794855663
  0
LINE
  8
0
  6
CONTINUOUS
 62
     7
 10
-251.985907209509
 20
164.0109198840795
 11
-269.9722898873546
 21
164.0109198840795
  0
ARC
  8
0
  6
CONTINUOUS
 62
     7
 10
-254.9859072095089
 20
157.7320508075689
 40
2.999999999999984
 50
299.9999999999998
 51
0.0000000000001705
  0
LINE
  8
0
  6
CONTINUOUS
 62
     7
 10
-253.485907209509
 20
155.1339745962156
 11
-255.2409433246865
 21
154.1207040226803
  0
LINE
  8
0
  6
CONTINUOUS
 62
     7
 10
-269.9859072095089
 20
163.9989794855663
 11
-269.9859072095089
 21
154.1207040226803
  0
LINE
  8
0
  6
CONTINUOUS
 62
     7
 10
-251.985907209509
 20
164.0109198840795
 11
-251.985907209509
 21
157.7320508075689
  0
LINE
  8
0
  6
CONTINUOUS
 62
     7
 10
-251.985907209509
 20
164.2526179606495
 11
-251.985907209509
 21
164.0109198840795
  0
LINE
  8
0
  6
CONTINUOUS
 62
     7
 10
-275.4871902736588
 20
153.5528368755443
 11
-275.4859140634792
 21
153.55
  0
LINE
  8
0
  6
CONTINUOUS
 62
     7
 10
-275.1719257942693
 20
153.6608805107842
 11
-274.985907209509
 21
154.0500003129603
  0
LINE
  8
0
  6
CONTINUOUS
 62
     7
 10
-275.2483208418626
 20
176.3899442565546
 11
-275.2847388912787
 21
176.4077440497788
  0
LINE
  8
0
  6
CONTINUOUS
 62
     7
 10
-275.2847388912787
 20
176.4077440497788
 11
-275.324703976566
 21
176.4232990501217
  0
LINE
  8
0
  6
CONTINUOUS
 62
     7
 10
-275.324703976566
 20
176.4232990501217
 11
-275.4859140634792
 21
176.4500000000005
  0
LINE
  8
0
  6
CONTINUOUS
 62
     7
 10
-276.7487885365146
 20
180.940196528173
 11
-276.9859140634791
 21
181.0000000000005
  0
LINE
  8
0
  6
CONTINUOUS
 62
     7
 10
-276.6718556135755
 20
149.1109371157756
 11
-276.4859072095089
 21
149.5000002210913
  0
LINE
  8
0
  6
CONTINUOUS
 62
     7
 10
-277.7230258825036
 20
149.0598034718272
 11
-277.4859003555387
 21
148.9999999999995
  0
LINE
  8
0
  6
CONTINUOUS
 62
     7
 10
-277.7999588054424
 20
180.8890628842245
 11
-277.985907209509
 21
180.4999997789087
  0
LINE
  8
0
  6
CONTINUOUS
 62
     7
 10
-269.9728169078228
 20
164.8131427428343
 11
-269.9859072095089
 21
164.8131427428343
  0
LINE
  8
0
  6
CONTINUOUS
 62
     7
 10
-269.9859072095089
 20
163.9989794855663
 11
-269.9859072095089
 21
164.8131427428343
  0
LINE
  8
0
  6
CONTINUOUS
 62
     7
 10
-269.9859072095089
 20
164.0638694583963
 11
-269.9880136948377
 21
163.6359496775001
  0
LINE
  8
0
  6
CONTINUOUS
 62
     7
 10
-269.9859072095089
 20
163.773328578219
 11
-269.9880136948377
 21
163.6359496775001
  0
ARC
  8
0
  6
CONTINUOUS
 62
     7
 10
-272.4859072095089
 20
159.6
 40
0.5000000000000004
 50
90.0
 51
180.0
  0
LINE
  8
0
  6
CONTINUOUS
 62
     7
 10
-269.9859072095089
 20
160.1
 11
-272.4859072095089
 21
160.1
  0
LINE
  8
0
  6
CONTINUOUS
 62
     7
 10
-276.6718581145217
 20
180.8890649253544
 11
-276.9877245419099
 21
180.9960183584503
  0
LINE
  8
0
  6
CONTINUOUS
 62
     7
 10
-276.9869096003442
 20
149.0012037947352
 11
-276.7487909383053
 21
149.0598021747159
  0
LINE
  8
0
  6
CONTINUOUS
 62
     7
 10
-277.4859003555387
 20
149.0
 11
-276.9859140634792
 21
149.0
  0
LINE
  8
0
  6
CONTINUOUS
 62
     7
 10
-276.9859140634792
 20
181.0
 11
-277.4859003555387
 21
181.0
  0
LINE
  8
0
  6
CONTINUOUS
 62
     7
 10
-277.7999563044963
 20
149.1109350746456
 11
-277.484089877108
 21
149.0039816415497
  0
LINE
  8
0
  6
CONTINUOUS
 62
     7
 10
-277.4849048186738
 20
180.9987962052649
 11
-277.723023480712
 21
180.9401978252844
  0
LINE
  8
0
  6
CONTINUOUS
 62
     7
 10
-276.4859072095089
 20
153.55
 11
-275.4859140634792
 21
153.55
  0
LINE
  8
0
  6
CONTINUOUS
 62
     7
 10
-275.4859140634792
 20
176.45
 11
-276.485907209509
 21
176.45
  0
LINE
  8
0
  6
CONTINUOUS
 62
     7
 10
-275.1719277262332
 20
176.3391210718835
 11
-275.4871908088221
 21
176.4471607444431
  0
LINE
  8
0
  6
CONTINUOUS
 62
     7
 10
-275.486619078884
 20
153.5508656766457
 11
-275.2483221636984
 21
153.6100550197034
  0
LINE
  8
0
  6
CONTINUOUS
 62
     7
 10
-274.9859072095089
 20
154.75
 11
-273.4684574611577
 21
154.8029905128775
  0
LINE
  8
0
  6
CONTINUOUS
 62
     7
 10
-273.4684574611577
 20
175.1970094871225
 11
-274.9859072095089
 21
175.25
  0
ARC
  8
0
  6
CONTINUOUS
 62
     7
 10
-273.4859072095089
 20
155.3026859263871
 40
0.5000000000000002
 50
271.9999999999965
 51
0.0
  0
ARC
  8
0
  6
CONTINUOUS
 62
     7
 10
-273.4859072095089
 20
174.697314073613
 40
0.5000000000000004
 50
0.0
 51
88.00000000000344
  0
LINE
  8
0
  6
CONTINUOUS
 62
     7
 10
-275.2483218529387
 20
176.3899448130171
 11
-275.2847668068702
 21
176.4076826333942
  0
LINE
  8
0
  6
CONTINUOUS
 62
     7
 10
-275.2847668068702
 20
176.4076826333942
 11
-275.4248166048958
 21
176.4457002740067
  0
LINE
  8
0
  6
CONTINUOUS
 62
     7
 10
-275.4248166048958
 20
176.4457002740067
 11
-275.4747440799524
 21
176.4490749121741
  0
LINE
  8
0
  6
CONTINUOUS
 62
     7
 10
-275.4747440799525
 20
176.4490749121741
 11
-275.4866190788841
 21
176.4491343233543
  0
LINE
  8
0
  6
CONTINUOUS
 62
     7
 10
-276.7602089140436
 20
149.0545013075349
 11
-276.6718580550683
 21
149.1109351223087
  0
LINE
  8
0
  6
CONTINUOUS
 62
     7
 10
-276.7487906708888
 20
180.9401976818941
 11
-276.9748231505601
 21
180.9987657278535
  0
LINE
  8
0
  6
CONTINUOUS
 62
     7
 10
-276.9748231505601
 20
180.9987657278535
 11
-276.9869096003442
 21
180.9987962052648
  0
LINE
  8
0
  6
CONTINUOUS
 62
     7
 10
-277.7230237481295
 20
149.0598023181061
 11
-277.4969912684578
 21
149.0012342721465
  0
LINE
  8
0
  6
CONTINUOUS
 62
     7
 10
-277.4969912684578
 20
149.0012342721466
 11
-277.4849048186737
 21
149.0012037947352
  0
ENDBLK
  8
0
  0
ENDSEC
  0
SECTION
  2
ENTITIES
  0
INSERT
  8
0
  6
CONTINUOUS
 62
     7
  2
D_FRAME_VIEW_1787
 10
0.0
 20
0.0
 30
0.0
  0
INSERT
  8
0
  6
CONTINUOUS
 62
     7
  2
D_FRAME_VIEW_1506
 10
0.0
 20
0.0
 30
0.0
  0
LINE
  8
0
  6
CENTER
 62
     1
 10
-200.0
 20
147.0
 11
-200.0
 21
183.0
  0
LINE
  8
0
  6
CENTER
 62
     1
 10
-218.0
 20
165.0
 11
-182.0
 21
165.0
  0
LINE
  8
0
  6
CENTER
 62
     1
 10
-280.0
 20
165.0
 11
-250.0
 21
165.0
  0
TEXT
  8
0
  6
CONTINUOUS
 62
     7
 10
-236.9439664874328
 20
138.3284200325122
 40
3.0
  1
CDPF22-C
  0
LINE
  8
0
  6
CONTINUOUS
 62
     2
 10
-236.8590909090909
 20
137.7704545454546
 11
-223.1409090909091
 21
137.7704545454546
  0
ENDSEC
  0
EOF
