  0
SECTION
  2
HEADER
  9
$ACADVER
  1
AC1004
  9
$INSBASE
 10
0.0
 20
0.0
  9
$EXTMIN
 10
-784.6666666666669
 20
453.3556927597849
  9
$EXTMAX
 10
-320.5000000000001
 20
597.1666666666667
  9
$LIMMIN
 10
0.0
 20
0.0
  9
$LIMMAX
 10
12.0
 20
9.0
  9
$ORTHOMODE
 70
     0
  9
$REGENMODE
 70
     1
  9
$FILLMODE
 70
     1
  9
$QTEXTMODE
 70
     0
  9
$DRAGMODE
 70
     2
  9
$LTSCALE
 40
1.0
  9
$OSMODE
 70
    37
  9
$ATTMODE
 70
     1
  9
$TEXTSIZE
 40
0.2
  9
$TRACEWID
 40
0.05
  9
$TEXTSTYLE
  7
STANDARD
  9
$CLAYER
  8
0
  9
$CELTYPE
  6
BYLAYER
  9
$CECOLOR
 62
   256
  9
$DIMSCALE
 40
1.0
  9
$DIMASZ
 40
3.0
  9
$DIMEXO
 40
0.0625
  9
$DIMDLI
 40
0.38
  9
$DIMRND
 40
0.0
  9
$DIMDLE
 40
0.0
  9
$DIMEXE
 40
1.5
  9
$DIMTP
 40
0.0
  9
$DIMTM
 40
0.0
  9
$DIMTXT
 40
3.0
  9
$DIMCEN
 40
0.09
  9
$DIMTSZ
 40
0.0
  9
$DIMTOL
 70
     0
  9
$DIMLIM
 70
     0
  9
$DIMTIH
 70
     1
  9
$DIMTOH
 70
     1
  9
$DIMSE1
 70
     0
  9
$DIMSE2
 70
     0
  9
$DIMTAD
 70
     1
  9
$DIMZIN
 70
     0
  9
$DIMBLK
  1

  9
$DIMASO
 70
     1
  9
$DIMSHO
 70
     1
  9
$DIMPOST
  1

  9
$DIMAPOST
  1

  9
$DIMALT
 70
     0
  9
$DIMALTD
 70
     2
  9
$DIMALTF
 40
25.4
  9
$DIMLFAC
 40
1.0
  9
$DIMTOFL
 70
     0
  9
$DIMTVP
 40
0.0
  9
$DIMTIX
 70
     0
  9
$DIMSOXD
 70
     0
  9
$DIMSAH
 70
     0
  9
$DIMBLK1
  1

  9
$DIMBLK2
  1

  9
$LUNITS
 70
     2
  9
$LUPREC
 70
     4
  9
$SKETCHINC
 40
0.1
  9
$FILLETRAD
 40
0.5
  9
$AUNITS
 70
     0
  9
$AUPREC
 70
     0
  9
$MENU
  1
.
  9
$ELEVATION
 40
0.0
  9
$THICKNESS
 40
0.0
  9
$LIMCHECK
 70
     0
  9
$CHAMFERA
 40
0.0
  9
$CHAMFERB
 40
0.0
  9
$SKPOLY
 70
     0
  9
$TDCREATE
 40
2459171.692090475
  9
$TDUPDATE
 40
2459171.692090648
  9
$TDINDWG
 40
0.0000000116
  9
$TDUSRTIMER
 40
0.0000000116
  9
$USRTIMER
 70
     1
  9
$ANGBASE
 50
0.0
  9
$ANGDIR
 70
     0
  9
$PDMODE
 70
     0
  9
$PDSIZE
 40
0.0
  9
$PLINEWID
 40
0.0
  9
$COORDS
 70
     1
  9
$SPLFRAME
 70
     0
  9
$SPLINETYPE
 70
     6
  9
$SPLINESEGS
 70
     8
  9
$ATTDIA
 70
     0
  9
$ATTREQ
 70
     1
  9
$SURFTAB1
 70
     6
  9
$SURFTAB2
 70
     6
  9
$SURFTYPE
 70
     6
  9
$SURFU
 70
     6
  9
$SURFV
 70
     6
  9
$UCSNAME
  2

  9
$UCSORG
 10
0.0
 20
0.0
 30
0.0
  9
$UCSXDIR
 10
1.0
 20
0.0
 30
0.0
  9
$UCSYDIR
 10
0.0
 20
1.0
 30
0.0
  9
$USERI1
 70
     0
  9
$USERI2
 70
     0
  9
$USERI3
 70
     0
  9
$USERI4
 70
     0
  9
$USERI5
 70
     0
  9
$USERR1
 40
0.0
  9
$USERR2
 40
0.0
  9
$USERR3
 40
0.0
  9
$USERR4
 40
0.0
  9
$USERR5
 40
0.0
  9
$WORLDVIEW
 70
     1
  0
ENDSEC
  0
SECTION
  2
TABLES
  0
TABLE
  2
LTYPE
 70
     1
  0
LTYPE
  2
CONTINUOUS
 70
     0
  3
Solid line
 72
    65
 73
     0
 40
0.0
  0
ENDTAB
  0
TABLE
  2
LAYER
 70
     2
  0
LAYER
  2
0
 70
     0
 62
     7
  6
CONTINUOUS
  0
LAYER
  2
1
 70
     0
 62
     7
  6
CONTINUOUS
  0
ENDTAB
  0
TABLE
  2
STYLE
 70
     2
  0
STYLE
  2
STANDARD
 70
     0
 40
0.0
 41
1.0
 50
0.0
 71
     0
 42
0.2
  3
txt
  4

  0
STYLE
  2
ＭＳ_ゴシック
 70
     0
 40
0.0
 41
1.0
 50
0.0
 71
     0
 42
0.2
  3
ＭＳ ゴシック.shx
  4

  0
ENDTAB
  0
TABLE
  2
VIEW
 70
     0
  0
ENDTAB
  0
ENDSEC
  0
SECTION
  2
BLOCKS
  0
ENDSEC
  0
SECTION
  2
ENTITIES
  0
ARC
  8
1
  6
CONTINUOUS
 62
     7
 10
-749.2495900872477
 20
593.6866666666667
 40
3.479999999999928
 50
90.0
 51
135.0
  0
ARC
  8
1
  6
CONTINUOUS
 62
     7
 10
-704.0837432460855
 20
484.6466666666668
 40
3.479999999999928
 50
270.0
 51
315.0
  0
ARC
  8
1
  6
CONTINUOUS
 62
     7
 10
-672.1466666666666
 20
561.7495900872478
 40
3.479999999999928
 50
0.0
 51
45.0
  0
ARC
  8
1
  6
CONTINUOUS
 62
     7
 10
-749.2495900872477
 20
484.6466666666668
 40
3.48000000000015
 50
224.9999999999998
 51
270.0
  0
LINE
  8
1
  6
CONTINUOUS
 62
     7
 10
-784.6666666666669
 20
561.7495900872478
 11
-784.6666666666669
 21
516.5837432460855
  0
LINE
  8
1
  6
CONTINUOUS
 62
     7
 10
-751.710321685777
 20
596.1473982651959
 11
-783.6473982651959
 21
564.210321685777
  0
LINE
  8
1
  6
CONTINUOUS
 62
     7
 10
-749.2495900872477
 20
481.1666666666667
 11
-704.0837432460854
 21
481.1666666666667
  0
LINE
  8
1
  6
CONTINUOUS
 62
     7
 10
-669.6859350681374
 20
564.210321685777
 11
-701.6230116475564
 21
596.1473982651959
  0
ARC
  8
1
  6
CONTINUOUS
 62
     7
 10
-672.1466666666666
 20
516.5837432460855
 40
3.479999999999928
 50
314.9999999999998
 51
0.0
  0
LINE
  8
1
  6
CONTINUOUS
 62
     7
 10
-783.6473982651959
 20
514.1230116475565
 11
-751.710321685777
 21
482.1859350681376
  0
LINE
  8
1
  6
CONTINUOUS
 62
     7
 10
-701.6230116475564
 20
482.1859350681376
 11
-669.6859350681374
 21
514.1230116475565
  0
ARC
  8
1
  6
CONTINUOUS
 62
     7
 10
-781.1866666666667
 20
516.5837432460855
 40
3.479999999999928
 50
180.0
 51
225.0
  0
CIRCLE
  8
0
  6
CONTINUOUS
 62
     7
 10
-726.6666666666667
 20
539.1666666666666
 40
32.00000000000003
  0
LINE
  8
1
  6
CONTINUOUS
 62
     7
 10
-668.6666666666667
 20
516.5837432460855
 11
-668.6666666666667
 21
561.7495900872478
  0
ARC
  8
1
  6
CONTINUOUS
 62
     7
 10
-704.0837432460855
 20
593.6866666666667
 40
3.479999999999928
 50
44.99999999999986
 51
90.0
  0
ARC
  8
1
  6
CONTINUOUS
 62
     7
 10
-781.1866666666667
 20
561.7495900872478
 40
3.479999999999928
 50
134.9999999999998
 51
180.0
  0
LINE
  8
1
  6
CONTINUOUS
 62
     7
 10
-704.0837432460855
 20
597.1666666666667
 11
-749.2495900872478
 21
597.1666666666667
  0
ARC
  8
1
  6
CONTINUOUS
 62
     7
 10
-610.0200000000001
 20
577.0139866666667
 40
3.480000000000039
 50
180.0
 51
270.0
  0
LINE
  8
1
  6
CONTINUOUS
 62
     7
 10
-321.4807800000001
 20
572.1947666666666
 11
-322.8200000000001
 21
573.5339866666667
  0
LINE
  8
1
  6
CONTINUOUS
 62
     7
 10
-600.74
 20
573.5339866666667
 11
-610.02
 21
573.5339866666667
  0
LINE
  8
1
  6
CONTINUOUS
 62
     7
 10
-320.5000000000001
 20
571.2139866666666
 11
-320.5000000000001
 21
507.1193466666667
  0
LINE
  8
1
  6
CONTINUOUS
 62
     7
 10
-322.8200000000001
 20
504.7993466666667
 11
-321.4807800000001
 21
506.1385666666668
  0
LINE
  8
1
  6
CONTINUOUS
 62
     7
 10
-610.0200000000001
 20
504.7993466666667
 11
-600.7400000000001
 21
504.7993466666667
  0
LINE
  8
1
  6
CONTINUOUS
 62
     7
 10
-322.8200000000001
 20
504.7993466666667
 11
-322.8200000000001
 21
573.5339866666668
  0
LINE
  8
1
  6
CONTINUOUS
 62
     7
 10
-321.4807800000001
 20
506.1385666666668
 11
-320.5000000000001
 21
507.1193466666667
  0
LINE
  8
1
  6
CONTINUOUS
 62
     7
 10
-320.5000000000001
 20
571.2139866666666
 11
-321.4807800000001
 21
572.1947666666666
  0
ARC
  8
1
  6
CONTINUOUS
 62
     7
 10
-610.0200000000001
 20
501.3193466666668
 40
3.480000000000039
 50
90.0
 51
180.0
  0
TEXT
  8
1
  6
CONTINUOUS
 62
     7
 10
-473.3667208536536
 20
453.0136582468426
 40
3.0
  1
CDSL-70
  0
LINE
  8
1
  6
CONTINUOUS
 62
     7
 10
-426.220000001703
 20
584.1666666666406
 11
-426.220000001703
 21
494.1666666666924
  0
LINE
  8
1
  6
CONTINUOUS
 62
     7
 10
-415.8068661252249
 20
535.5898662651748
 11
-415.8311291642021
 21
535.5810379394487
  0
LINE
  8
1
  6
CONTINUOUS
 62
     7
 10
-415.4398844636299
 20
536.0091510596255
 11
-415.4471706680054
 21
535.9830722190136
  0
LINE
  8
1
  6
CONTINUOUS
 62
     7
 10
-415.4200000017062
 20
541.825820176221
 11
-415.4200000017062
 21
536.5075131571137
  0
LINE
  8
1
  6
CONTINUOUS
 62
     7
 10
-415.880756502725
 20
535.5666160683732
 11
-415.9059756394292
 21
535.5610695714329
  0
LINE
  8
1
  6
CONTINUOUS
 62
     7
 10
-415.9370925417719
 20
542.7775102256551
 11
-415.9131854801373
 21
542.7736347569543
  0
LINE
  8
1
  6
CONTINUOUS
 62
     7
 10
-415.6944224926874
 20
535.6482284604854
 11
-415.7170035204364
 21
535.6339612985141
  0
LINE
  8
1
  6
CONTINUOUS
 62
     7
 10
-415.9131854801373
 20
542.7736347569543
 11
-415.888766978899
 21
542.768605711991
  0
LINE
  8
1
  6
CONTINUOUS
 62
     7
 10
-415.888766978899
 20
542.7686057119909
 11
-415.8645639259709
 21
542.7625314958608
  0
LINE
  8
1
  6
CONTINUOUS
 62
     7
 10
-415.8406421049058
 20
542.7554321549374
 11
-415.8170672992557
 21
542.7473277355937
  0
LINE
  8
1
  6
CONTINUOUS
 62
     7
 10
-423.8606570144842
 20
568.606363596579
 11
-423.826210612182
 21
568.4845965993385
  0
LINE
  8
1
  6
CONTINUOUS
 62
     7
 10
-415.4248947677916
 20
536.0881110680086
 11
-415.4286890639495
 21
536.0620934790809
  0
LINE
  8
1
  6
CONTINUOUS
 62
     7
 10
-415.5424653718428
 20
535.7929217922496
 11
-415.5590618388721
 21
535.7714765683364
  0
LINE
  8
1
  6
CONTINUOUS
 62
     7
 10
-415.9853273399276
 20
542.7822657420905
 11
-415.9611609143901
 21
542.7803894093748
  0
LINE
  8
1
  6
CONTINUOUS
 62
     7
 10
-415.8170672992555
 20
542.7473277355937
 11
-415.794521349355
 21
542.738499502228
  0
LINE
  8
1
  6
CONTINUOUS
 62
     7
 10
-423.8262106121821
 20
568.4845965993386
 11
-423.8200000038282
 21
568.4121102441388
  0
LINE
  8
1
  6
CONTINUOUS
 62
     7
 10
-423.8200000017037
 20
568.4121102441261
 11
-423.8200000017037
 21
541.9593590052426
  0
LINE
  8
1
  6
CONTINUOUS
 62
     7
 10
-415.4337186007725
 20
536.03551553722
 11
-415.43988446363
 21
536.0091510596255
  0
LINE
  8
1
  6
CONTINUOUS
 62
     7
 10
-415.4647757550621
 20
535.9327124864903
 11
-415.4750244243947
 21
535.908457740743
  0
LINE
  8
1
  6
CONTINUOUS
 62
     7
 10
-415.5590618388721
 20
535.7714765683365
 11
-415.5757753357386
 21
535.7517159871547
  0
LINE
  8
1
  6
CONTINUOUS
 62
     7
 10
-415.6724841049949
 20
535.6635063524129
 11
-415.6944224926874
 21
535.6482284604854
  0
ARC
  8
1
  6
CONTINUOUS
 62
     7
 10
-425.4484152800809
 20
567.908638888439
 40
1.734299881312351
 50
23.72261407671743
 51
51.45432451278549
  0
LINE
  8
1
  6
CONTINUOUS
 62
     7
 10
-423.8200000017037
 20
536.3739743280966
 11
-423.8200000017037
 21
509.9212230892149
  0
LINE
  8
1
  6
CONTINUOUS
 62
     7
 10
-423.8200000045292
 20
541.9593590052384
 11
-423.8262106128856
 21
541.9440865432442
  0
ARC
  8
1
  6
CONTINUOUS
 62
     7
 10
-425.4484152800809
 20
510.4246944448943
 40
1.734299881312351
 50
308.5456754872132
 51
336.2773859232845
  0
LINE
  8
1
  6
CONTINUOUS
 62
     7
 10
-415.8557834838425
 20
535.5732800324466
 11
-415.8807565027252
 21
535.5666160683733
  0
LINE
  8
1
  6
CONTINUOUS
 62
     7
 10
-415.4200000041851
 20
542.166500138067
 11
-415.4200000043087
 21
541.8258201762226
  0
LINE
  8
1
  6
CONTINUOUS
 62
     7
 10
-415.9059756394293
 20
535.561069571433
 11
-415.9315513680132
 21
535.556629229983
  0
LINE
  8
1
  6
CONTINUOUS
 62
     7
 10
-415.4221786402276
 20
536.1142848474783
 11
-415.4248947677917
 21
536.0881110680086
  0
LINE
  8
1
  6
CONTINUOUS
 62
     7
 10
-424.367706558921
 20
541.3841938438775
 11
-423.8262106128856
 21
541.9440865432442
  0
LINE
  8
1
  6
CONTINUOUS
 62
     7
 10
-423.8262106128857
 20
536.3892467900889
 11
-423.8200000045294
 21
536.373974328095
  0
LINE
  8
1
  6
CONTINUOUS
 62
     7
 10
-415.4200000041851
 20
536.1668331952662
 11
-415.4205454595833
 21
536.1405478717957
  0
LINE
  8
1
  6
CONTINUOUS
 62
     7
 10
-415.4205454595833
 20
536.1405478717957
 11
-415.4221786402275
 21
536.1142848474783
  0
LINE
  8
1
  6
CONTINUOUS
 62
     7
 10
-415.9572992770039
 20
535.5533338667869
 11
-415.9833793119544
 21
535.551179356536
  0
LINE
  8
1
  6
CONTINUOUS
 62
     7
 10
-423.8200000041882
 20
542.8993642855036
 11
-416.0095285603199
 21
542.783132657779
  0
LINE
  8
1
  6
CONTINUOUS
 62
     7
 10
-415.9833793119544
 20
535.551179356536
 11
-416.0095285603197
 21
535.5502006755545
  0
LINE
  8
1
  6
CONTINUOUS
 62
     7
 10
-416.0095285603199
 20
542.783132657779
 11
-415.9853273399275
 21
542.7822657420905
  0
LINE
  8
1
  6
CONTINUOUS
 62
     7
 10
-415.9611609143899
 20
542.780389409375
 11
-415.9370925417717
 21
542.7775102256551
  0
LINE
  8
1
  6
CONTINUOUS
 62
     7
 10
-415.8645639259707
 20
542.7625314958608
 11
-415.8406421049056
 21
542.7554321549372
  0
LINE
  8
1
  6
CONTINUOUS
 62
     7
 10
-423.820000003828
 20
509.9212230891941
 11
-423.8262106121819
 21
509.848736733995
  0
LINE
  8
1
  6
CONTINUOUS
 62
     7
 10
-415.4471706680053
 20
535.9830722190136
 11
-415.4555612293823
 21
535.9573511881006
  0
LINE
  8
1
  6
CONTINUOUS
 62
     7
 10
-415.5757753357384
 20
535.7517159871547
 11
-415.5933300788683
 21
535.732661783907
  0
LINE
  8
1
  6
CONTINUOUS
 62
     7
 10
-423.8200000041882
 20
535.4339690478298
 11
-416.0095285603199
 21
535.5502006755544
  0
LINE
  8
1
  6
CONTINUOUS
 62
     7
 10
-415.4862821646316
 20
535.8846517522475
 11
-415.498523903024
 21
535.8613593223936
  0
LINE
  8
1
  6
CONTINUOUS
 62
     7
 10
-415.7387353676419
 20
535.6215264640725
 11
-415.7609961447723
 21
535.6100102982001
  0
LINE
  8
1
  6
CONTINUOUS
 62
     7
 10
-415.6116807290036
 20
535.7143680779117
 11
-415.6307819468864
 21
535.696888988487
  0
LINE
  8
1
  6
CONTINUOUS
 62
     7
 10
-424.367706558921
 20
536.9491394894559
 11
-423.8262106128856
 21
536.389246790089
  0
LINE
  8
1
  6
CONTINUOUS
 62
     7
 10
-415.5933300788685
 20
535.732661783907
 11
-415.6116807290038
 21
535.7143680779117
  0
LINE
  8
1
  6
CONTINUOUS
 62
     7
 10
-415.7837262609318
 20
535.5994458741496
 11
-415.8068661252248
 21
535.5898662651748
  0
LINE
  8
1
  6
CONTINUOUS
 62
     7
 10
-415.831129164202
 20
535.5810379394487
 11
-415.8557834838423
 21
535.5732800324466
  0
LINE
  8
1
  6
CONTINUOUS
 62
     7
 10
-415.4286890639497
 20
536.062093479081
 11
-415.4337186007726
 21
536.0355155372201
  0
LINE
  8
1
  6
CONTINUOUS
 62
     7
 10
-415.7609961447722
 20
535.6100102982
 11
-415.7837262609319
 21
535.5994458741496
  0
LINE
  8
1
  6
CONTINUOUS
 62
     7
 10
-415.4750244243946
 20
535.908457740743
 11
-415.4862821646316
 21
535.8846517522476
  0
LINE
  8
1
  6
CONTINUOUS
 62
     7
 10
-415.6512500316357
 20
535.6797436398842
 11
-415.672484104995
 21
535.6635063524129
  0
LINE
  8
1
  6
CONTINUOUS
 62
     7
 10
-415.5121568860592
 20
535.8379308285084
 11
-415.526817214952
 21
535.8150957653835
  0
LINE
  8
1
  6
CONTINUOUS
 62
     7
 10
-423.8606570144842
 20
509.7269697367543
 11
-423.826210612182
 21
509.8487367339948
  0
LINE
  8
1
  6
CONTINUOUS
 62
     7
 10
-415.7170035204364
 20
535.6339612985141
 11
-415.7387353676419
 21
535.6215264640725
  0
LINE
  8
1
  6
CONTINUOUS
 62
     7
 10
-415.4555612293823
 20
535.9573511881006
 11
-415.464775755062
 21
535.9327124864903
  0
LINE
  8
1
  6
CONTINUOUS
 62
     7
 10
-415.4200000043088
 20
536.5075131571107
 11
-415.4200000041852
 21
536.1668331952662
  0
LINE
  8
1
  6
CONTINUOUS
 62
     7
 10
-415.4985239030241
 20
535.8613593223936
 11
-415.5121568860592
 21
535.8379308285085
  0
LINE
  8
1
  6
CONTINUOUS
 62
     7
 10
-415.5268172149518
 20
535.8150957653836
 11
-415.5424653718427
 21
535.7929217922496
  0
LINE
  8
1
  6
CONTINUOUS
 62
     7
 10
-415.9315513680132
 20
535.5566292299828
 11
-415.957299277004
 21
535.5533338667869
  0
LINE
  8
1
  6
CONTINUOUS
 62
     7
 10
-415.6307819468864
 20
535.696888988487
 11
-415.6512500316356
 21
535.6797436398842
  0
LINE
  8
1
  6
CONTINUOUS
 62
     7
 10
-415.4873556656397
 20
514.1128608317518
 11
-415.4747740784668
 21
514.092658000738
  0
LINE
  8
1
  6
CONTINUOUS
 62
     7
 10
-415.5446337364962
 20
542.5433248576556
 11
-415.5299402191735
 21
542.5228353866404
  0
LINE
  8
1
  6
CONTINUOUS
 62
     7
 10
-415.7160084939834
 20
514.3007985594825
 11
-415.6922814739006
 21
514.2894632604796
  0
LINE
  8
1
  6
CONTINUOUS
 62
     7
 10
-415.6922814739007
 20
514.2894632604796
 11
-415.6693279434087
 21
514.2773013167816
  0
LINE
  8
1
  6
CONTINUOUS
 62
     7
 10
-415.6693279434086
 20
514.2773013167816
 11
-415.6472271110838
 21
514.2643521459048
  0
LINE
  8
1
  6
CONTINUOUS
 62
     7
 10
-415.6049723319574
 20
514.2356536739932
 11
-415.5851702272813
 21
514.2201430194744
  0
LINE
  8
1
  6
CONTINUOUS
 62
     7
 10
-415.5317395806938
 20
514.1696435199958
 11
-415.51610862317
 21
514.1516762132862
  0
LINE
  8
1
  6
CONTINUOUS
 62
     7
 10
-415.5030837912871
 20
542.4800733398025
 11
-415.4909456177697
 21
542.4578347349227
  0
LINE
  8
1
  6
CONTINUOUS
 62
     7
 10
-415.7505805675123
 20
542.7180850130226
 11
-415.7292951513825
 21
542.7065561739051
  0
LINE
  8
1
  6
CONTINUOUS
 62
     7
 10
-415.6472271116517
 20
542.650343392899
 11
-415.6285227774925
 21
542.6344522226018
  0
LINE
  8
1
  6
CONTINUOUS
 62
     7
 10
-415.8705899806442
 20
514.3493865235044
 11
-415.8435857801342
 21
514.343729091366
  0
LINE
  8
1
  6
CONTINUOUS
 62
     7
 10
-415.6285227774926
 20
542.6344522226017
 11
-415.6104676566902
 21
542.6178020647397
  0
LINE
  8
1
  6
CONTINUOUS
 62
     7
 10
-415.420485755542
 20
542.1913326222248
 11
-415.4200000041852
 21
542.166500138067
  0
LINE
  8
1
  6
CONTINUOUS
 62
     7
 10
-415.4747740784667
 20
514.092658000738
 11
-415.463432455028
 21
514.0720172348736
  0
LINE
  8
1
  6
CONTINUOUS
 62
     7
 10
-415.4634324550281
 20
514.0720172348736
 11
-415.4533633223284
 21
514.0510076531441
  0
LINE
  8
1
  6
CONTINUOUS
 62
     7
 10
-415.4276995430656
 20
542.2651325176384
 11
-415.4243632391318
 21
542.2408566034377
  0
LINE
  8
1
  6
CONTINUOUS
 62
     7
 10
-415.4445992073722
 20
514.0296983745353
 11
-415.4371726371641
 21
514.0081585180327
  0
LINE
  8
1
  6
CONTINUOUS
 62
     7
 10
-415.4371726371641
 20
514.0081585180327
 11
-415.4310161264103
 21
513.9861232245712
  0
LINE
  8
1
  6
CONTINUOUS
 62
     7
 10
-415.6472271110839
 20
514.2643521459049
 11
-415.6256766967774
 21
514.2504088866457
  0
LINE
  8
1
  6
CONTINUOUS
 62
     7
 10
-415.5484976409919
 20
514.1870814309485
 11
-415.5317395806937
 21
514.1696435199958
  0
LINE
  8
1
  6
CONTINUOUS
 62
     7
 10
-415.4262109936778
 20
513.9638561881156
 11
-415.4227668529651
 21
513.9414302504873
  0
LINE
  8
1
  6
CONTINUOUS
 62
     7
 10
-415.4319720884595
 20
542.2892714828873
 11
-415.4276995430656
 21
542.2651325176384
  0
LINE
  8
1
  6
CONTINUOUS
 62
     7
 10
-415.9535545510237
 20
514.3602953247074
 11
-415.9256706006448
 21
514.3576839690862
  0
LINE
  8
1
  6
CONTINUOUS
 62
     7
 10
-415.4310161264104
 20
513.9861232245712
 11
-415.4262109936778
 21
513.9638561881156
  0
LINE
  8
1
  6
CONTINUOUS
 62
     7
 10
-415.7292951513824
 20
542.7065561739051
 11
-415.7079220142852
 21
542.6938030767201
  0
LINE
  8
1
  6
CONTINUOUS
 62
     7
 10
-415.4909456177697
 20
542.4578347349226
 11
-415.4797197320048
 21
542.4351248871309
  0
LINE
  8
1
  6
CONTINUOUS
 62
     7
 10
-415.4533633223284
 20
514.0510076531442
 11
-415.4445992073722
 21
514.0296983745353
  0
LINE
  8
1
  6
CONTINUOUS
 62
     7
 10
-415.7723408694719
 20
542.7287423585839
 11
-415.7505805675123
 21
542.7180850130226
  0
LINE
  8
1
  6
CONTINUOUS
 62
     7
 10
-415.593102519883
 20
542.6004377942476
 11
-415.5764681377099
 21
542.5824042860597
  0
LINE
  8
1
  6
CONTINUOUS
 62
     7
 10
-415.4243632391318
 20
542.2408566034377
 11
-415.4219411146648
 21
542.216136930335
  0
LINE
  8
1
  6
CONTINUOUS
 62
     7
 10
-415.9256706006448
 20
514.3576839690862
 11
-415.8979836656664
 21
514.3540429257148
  0
LINE
  8
1
  6
CONTINUOUS
 62
     7
 10
-423.8200000019426
 20
577.987627093805
 11
-416.0095285580751
 21
577.8617030654742
  0
LINE
  8
1
  6
CONTINUOUS
 62
     7
 10
-415.5601545759345
 20
542.5631989019603
 11
-415.5446337364961
 21
542.5433248576558
  0
LINE
  8
1
  6
CONTINUOUS
 62
     7
 10
-415.7910384060114
 20
514.3294504131541
 11
-415.7654661686154
 21
514.3208315533362
  0
LINE
  8
1
  6
CONTINUOUS
 62
     7
 10
-415.566326593407
 20
514.203933434617
 11
-415.5484976409919
 21
514.1870814309485
  0
LINE
  8
1
  6
CONTINUOUS
 62
     7
 10
-415.6870853134763
 20
542.680156472515
 11
-415.6668365216877
 21
542.6656565237536
  0
LINE
  8
1
  6
CONTINUOUS
 62
     7
 10
-415.6104676566902
 20
542.6178020647397
 11
-415.593102519883
 21
542.6004377942476
  0
LINE
  8
1
  6
CONTINUOUS
 62
     7
 10
-415.7079220142853
 20
542.6938030767201
 11
-415.6870853134762
 21
542.680156472515
  0
LINE
  8
1
  6
CONTINUOUS
 62
     7
 10
-415.7945213493551
 20
542.738499502228
 11
-415.7723408694719
 21
542.7287423585839
  0
LINE
  8
1
  6
CONTINUOUS
 62
     7
 10
-415.5764681377098
 20
542.5824042860598
 11
-415.5601545759345
 21
542.5631989019603
  0
LINE
  8
1
  6
CONTINUOUS
 62
     7
 10
-415.5161086237445
 20
542.5017837224091
 11
-415.5030837912869
 21
542.4800733398025
  0
LINE
  8
1
  6
CONTINUOUS
 62
     7
 10
-415.4797197320047
 20
542.4351248871309
 11
-415.4694317628034
 21
542.4120007757887
  0
LINE
  8
1
  6
CONTINUOUS
 62
     7
 10
-415.4598476894978
 20
542.3878331964195
 11
-415.4512645241369
 21
542.3632714127519
  0
LINE
  8
1
  6
CONTINUOUS
 62
     7
 10
-415.8979836656663
 20
514.3540429257148
 11
-415.8705899806442
 21
514.3493865235044
  0
LINE
  8
1
  6
CONTINUOUS
 62
     7
 10
-415.7654661686155
 20
514.3208315533362
 11
-415.7404297950806
 21
514.3112677962736
  0
LINE
  8
1
  6
CONTINUOUS
 62
     7
 10
-415.4512645241372
 20
542.3632714127519
 11
-415.4437001968456
 21
542.3383790024275
  0
LINE
  8
1
  6
CONTINUOUS
 62
     7
 10
-415.420000001898
 20
577.9040638271993
 11
-416.009528558075
 21
577.8617030654742
  0
LINE
  8
1
  6
CONTINUOUS
 62
     7
 10
-416.0095285597583
 20
514.3623716570556
 11
-415.9815392822468
 21
514.3618626636676
  0
LINE
  8
1
  6
CONTINUOUS
 62
     7
 10
-415.8435857801342
 20
514.343729091366
 11
-415.8170672986922
 21
514.3370849582102
  0
LINE
  8
1
  6
CONTINUOUS
 62
     7
 10
-415.6668365216877
 20
542.6656565237537
 11
-415.6472271116517
 21
542.650343392899
  0
LINE
  8
1
  6
CONTINUOUS
 62
     7
 10
-423.8200000019426
 20
500.3457062395282
 11
-416.0095285580751
 21
500.4716302678593
  0
LINE
  8
1
  6
CONTINUOUS
 62
     7
 10
-415.421941114665
 20
542.2161369303349
 11
-415.4204857555422
 21
542.1913326222248
  0
LINE
  8
1
  6
CONTINUOUS
 62
     7
 10
-415.9815392822467
 20
514.3618626636676
 11
-415.9535545510236
 21
514.3602953247074
  0
LINE
  8
1
  6
CONTINUOUS
 62
     7
 10
-415.8170672986924
 20
514.3370849582102
 11
-415.7910384060115
 21
514.3294504131541
  0
LINE
  8
1
  6
CONTINUOUS
 62
     7
 10
-415.5299402191733
 20
542.5228353866404
 11
-415.5161086237446
 21
542.5017837224091
  0
LINE
  8
1
  6
CONTINUOUS
 62
     7
 10
-415.7404297950805
 20
514.3112677962737
 11
-415.7160084939835
 21
514.3007985594826
  0
LINE
  8
1
  6
CONTINUOUS
 62
     7
 10
-415.4437001968455
 20
542.3383790024275
 11
-415.4371726377477
 21
542.3132195430868
  0
LINE
  8
1
  6
CONTINUOUS
 62
     7
 10
-415.6256766967775
 20
514.2504088866457
 11
-415.6049723319575
 21
514.2356536739933
  0
LINE
  8
1
  6
CONTINUOUS
 62
     7
 10
-415.5161086231699
 20
514.1516762132862
 11
-415.5011446895423
 21
514.1325566089298
  0
LINE
  8
1
  6
CONTINUOUS
 62
     7
 10
-416.009528558075
 20
500.4716302678592
 11
-415.4200000018981
 21
500.4292695061342
  0
LINE
  8
1
  6
CONTINUOUS
 62
     7
 10
-415.4371726377476
 20
542.3132195430868
 11
-415.4319720884594
 21
542.2892714828873
  0
LINE
  8
1
  6
CONTINUOUS
 62
     7
 10
-415.5851702272814
 20
514.2201430194746
 11
-415.5663265934071
 21
514.203933434617
  0
LINE
  8
1
  6
CONTINUOUS
 62
     7
 10
-415.5011446895423
 20
514.1325566089298
 11
-415.4873556656397
 21
514.1128608317518
  0
LINE
  8
1
  6
CONTINUOUS
 62
     7
 10
-415.4694317628035
 20
542.4120007757887
 11
-415.4598476894981
 21
542.3878331964195
  0
LINE
  8
1
  6
CONTINUOUS
 62
     7
 10
-424.0329848634622
 20
494.5412156022119
 11
-424.0096148214753
 21
494.5634338852855
  0
LINE
  8
1
  6
CONTINUOUS
 62
     7
 10
-415.5590618383001
 20
564.1360184431092
 11
-415.5784952963006
 21
564.1187184926952
  0
LINE
  8
1
  6
CONTINUOUS
 62
     7
 10
-415.4200000017062
 20
569.8046437705491
 11
-415.4200000017062
 21
566.0440328129046
  0
LINE
  8
1
  6
CONTINUOUS
 62
     7
 10
-423.9870366218142
 20
494.5871521956952
 11
-423.9664700548594
 21
494.611004843198
  0
LINE
  8
1
  6
CONTINUOUS
 62
     7
 10
-423.8200000036293
 20
563.9778152384723
 11
-416.0095285597582
 21
563.9709616762776
  0
LINE
  8
1
  6
CONTINUOUS
 62
     7
 10
-423.9467444750064
 20
494.6362666085897
 11
-423.9279782620221
 21
494.6629175267195
  0
LINE
  8
1
  6
CONTINUOUS
 62
     7
 10
-424.1826467605025
 20
494.4399934712108
 11
-424.1482696284635
 21
494.4580319821177
  0
LINE
  8
1
  6
CONTINUOUS
 62
     7
 10
-415.4382700598281
 20
564.3218382374039
 11
-415.4462177513014
 21
564.2994170432514
  0
LINE
  8
1
  6
CONTINUOUS
 62
     7
 10
-415.9059756388673
 20
563.9780806987417
 11
-415.931643368199
 21
563.9749576315314
  0
LINE
  8
1
  6
CONTINUOUS
 62
     7
 10
-415.4462177513013
 20
564.2994170432514
 11
-415.4555612288017
 21
564.2773805564366
  0
LINE
  8
1
  6
CONTINUOUS
 62
     7
 10
-415.4555612288017
 20
564.2773805564366
 11
-415.4663284705855
 21
564.2557082046823
  0
LINE
  8
1
  6
CONTINUOUS
 62
     7
 10
-415.9316433681989
 20
563.9749576315314
 11
-415.9575105286089
 21
563.9727261378866
  0
LINE
  8
1
  6
CONTINUOUS
 62
     7
 10
-415.4266227904743
 20
564.3675176592762
 11
-415.4317333432597
 21
564.3445648667824
  0
LINE
  8
1
  6
CONTINUOUS
 62
     7
 10
-415.4200000035949
 20
513.8963930389951
 11
-415.4200000036668
 21
512.2893005204177
  0
LINE
  8
1
  6
CONTINUOUS
 62
     7
 10
-415.794807528698
 20
564.0027551145577
 11
-415.8220001038919
 21
563.9949826117097
  0
LINE
  8
1
  6
CONTINUOUS
 62
     7
 10
-415.4663284705856
 20
564.2557082046823
 11
-415.4785147088285
 21
564.2344014525357
  0
LINE
  8
1
  6
CONTINUOUS
 62
     7
 10
-424.2422891812259
 20
494.4147214200135
 11
-424.2122740561501
 21
494.426527757821
  0
LINE
  8
1
  6
CONTINUOUS
 62
     7
 10
-415.5404959071741
 20
564.1543543012781
 11
-415.5590618383001
 21
564.1360184431092
  0
LINE
  8
1
  6
CONTINUOUS
 62
     7
 10
-415.5784952963005
 20
564.1187184926953
 11
-415.5991041242834
 21
564.1021320205148
  0
LINE
  8
1
  6
CONTINUOUS
 62
     7
 10
-415.4229535903496
 20
564.3906173427741
 11
-415.4266227904743
 21
564.3675176592762
  0
LINE
  8
1
  6
CONTINUOUS
 62
     7
 10
-415.8496578333829
 20
563.9882577769978
 11
-415.8776824380738
 21
563.9826130071118
  0
LINE
  8
1
  6
CONTINUOUS
 62
     7
 10
-424.2726187064959
 20
494.4045705473754
 11
-424.242289181226
 21
494.4147214200134
  0
LINE
  8
1
  6
CONTINUOUS
 62
     7
 10
-424.2122740561501
 20
494.426527757821
 11
-424.1826467605024
 21
494.4399934712108
  0
LINE
  8
1
  6
CONTINUOUS
 62
     7
 10
-424.0817045297779
 20
494.501271394431
 11
-424.0570477616159
 21
494.520495415564
  0
LINE
  8
1
  6
CONTINUOUS
 62
     7
 10
-424.3677065579875
 20
505.9322212989494
 11
-423.9829015265399
 21
505.8017978292228
  0
LINE
  8
1
  6
CONTINUOUS
 62
     7
 10
-424.0096148214752
 20
494.5634338852856
 11
-423.9870366218143
 21
494.5871521956952
  0
LINE
  8
1
  6
CONTINUOUS
 62
     7
 10
-423.9279782620224
 20
494.6629175267196
 11
-423.9142491485649
 21
494.6843858467126
  0
LINE
  8
1
  6
CONTINUOUS
 62
     7
 10
-423.9142491485647
 20
494.6843858467125
 11
-423.9011815238338
 21
494.706709639337
  0
LINE
  8
1
  6
CONTINUOUS
 62
     7
 10
-415.4207409317639
 20
564.4137846451652
 11
-415.4229535903496
 21
564.390617342774
  0
LINE
  8
1
  6
CONTINUOUS
 62
     7
 10
-423.8200000036293
 20
514.355518094861
 11
-416.0095285597582
 21
514.3623716570556
  0
LINE
  8
1
  6
CONTINUOUS
 62
     7
 10
-415.6435307137326
 20
564.071343263072
 11
-415.6671898869662
 21
564.0572628539188
  0
LINE
  8
1
  6
CONTINUOUS
 62
     7
 10
-415.6208090281329
 20
564.086319964622
 11
-415.6435307137326
 21
564.0713432630719
  0
LINE
  8
1
  6
CONTINUOUS
 62
     7
 10
-415.7170035198708
 20
564.0320346650217
 11
-415.7422109575903
 21
564.0213135379034
  0
LINE
  8
1
  6
CONTINUOUS
 62
     7
 10
-415.983498474371
 20
563.9713921690533
 11
-416.0095285597583
 21
563.9709616762776
  0
LINE
  8
1
  6
CONTINUOUS
 62
     7
 10
-415.4200000034261
 20
569.8046437705549
 11
-415.4314673243376
 21
569.9819368275964
  0
LINE
  8
1
  6
CONTINUOUS
 62
     7
 10
-415.957510528609
 20
563.9727261378866
 11
-415.9834984743711
 21
563.9713921690533
  0
LINE
  8
1
  6
CONTINUOUS
 62
     7
 10
-423.9664700548594
 20
494.611004843198
 11
-423.9467444750065
 21
494.6362666085898
  0
LINE
  8
1
  6
CONTINUOUS
 62
     7
 10
-415.7422109575902
 20
564.0213135379034
 11
-415.7681783868984
 21
564.0115428888522
  0
LINE
  8
1
  6
CONTINUOUS
 62
     7
 10
-411.220000001703
 20
576.8198613275952
 11
-411.220000001703
 21
501.513472005738
  0
LINE
  8
1
  6
CONTINUOUS
 62
     7
 10
-415.4200000036669
 20
566.0440328129157
 11
-415.420000003595
 21
564.4369402943382
  0
LINE
  8
1
  6
CONTINUOUS
 62
     7
 10
-415.4785147088284
 20
564.2344014525357
 11
-415.4920722575694
 21
564.2135364930591
  0
LINE
  8
1
  6
CONTINUOUS
 62
     7
 10
-415.5231105427032
 20
564.1734367243678
 11
-415.5404959071741
 21
564.1543543012781
  0
LINE
  8
1
  6
CONTINUOUS
 62
     7
 10
-415.6671898869662
 20
564.0572628539188
 11
-415.6917072537177
 21
564.0441396752171
  0
LINE
  8
1
  6
CONTINUOUS
 62
     7
 10
-415.5069534308481
 20
564.1931895193158
 11
-415.5231105427033
 21
564.1734367243678
  0
LINE
  8
1
  6
CONTINUOUS
 62
     7
 10
-415.7681783868984
 20
564.0115428888522
 11
-415.7948075286981
 21
564.0027551145578
  0
LINE
  8
1
  6
CONTINUOUS
 62
     7
 10
-415.4317333432597
 20
564.3445648667824
 11
-415.4382700598281
 21
564.3218382374039
  0
LINE
  8
1
  6
CONTINUOUS
 62
     7
 10
-415.4920722575694
 20
564.2135364930592
 11
-415.506953430848
 21
564.1931895193159
  0
LINE
  8
1
  6
CONTINUOUS
 62
     7
 10
-415.6917072537177
 20
564.0441396752171
 11
-415.7170035198708
 21
564.0320346650217
  0
LINE
  8
1
  6
CONTINUOUS
 62
     7
 10
-424.3677065579875
 20
572.4011120343839
 11
-423.9829015265399
 21
572.5315355041105
  0
LINE
  8
1
  6
CONTINUOUS
 62
     7
 10
-415.877682438074
 20
563.9826130071119
 11
-415.9059756388673
 21
563.9780806987418
  0
LINE
  8
1
  6
CONTINUOUS
 62
     7
 10
-424.3677065561969
 20
494.3835904668985
 11
-424.363918544897
 21
494.384123482467
  0
LINE
  8
1
  6
CONTINUOUS
 62
     7
 10
-415.822000103892
 20
563.9949826117097
 11
-415.8496578333829
 21
563.9882577769978
  0
LINE
  8
1
  6
CONTINUOUS
 62
     7
 10
-424.3639185448969
 20
494.3841234824671
 11
-424.3332895200094
 21
494.3893426670789
  0
LINE
  8
1
  6
CONTINUOUS
 62
     7
 10
-424.1482696284634
 20
494.4580319821177
 11
-424.1145713933055
 21
494.4784529791909
  0
LINE
  8
1
  6
CONTINUOUS
 62
     7
 10
-415.422766852965
 20
513.9414302504873
 11
-415.4206933182711
 21
513.9189182535068
  0
LINE
  8
1
  6
CONTINUOUS
 62
     7
 10
-415.4200000017062
 20
512.2893005204296
 11
-415.4200000017062
 21
508.5286895627853
  0
LINE
  8
1
  6
CONTINUOUS
 62
     7
 10
-415.4206933182712
 20
513.9189182535068
 11
-415.420000003595
 21
513.8963930389951
  0
LINE
  8
1
  6
CONTINUOUS
 62
     7
 10
-424.3332895200095
 20
494.3893426670789
 11
-424.3028353417973
 21
494.3961596670682
  0
LINE
  8
1
  6
CONTINUOUS
 62
     7
 10
-424.1145713933055
 20
494.4784529791909
 11
-424.0817045297779
 21
494.501271394431
  0
LINE
  8
1
  6
CONTINUOUS
 62
     7
 10
-415.4200000035949
 20
564.4369402943382
 11
-415.4207409317638
 21
564.4137846451653
  0
LINE
  8
1
  6
CONTINUOUS
 62
     7
 10
-424.3028353417971
 20
494.3961596670682
 11
-424.2726187064957
 21
494.4045705473754
  0
LINE
  8
1
  6
CONTINUOUS
 62
     7
 10
-415.5991041242836
 20
564.1021320205147
 11
-415.620809028133
 21
564.086319964622
  0
LINE
  8
1
  6
CONTINUOUS
 62
     7
 10
-424.057047761616
 20
494.520495415564
 11
-424.0329848634622
 21
494.5412156022119
  0
LINE
  8
1
  6
CONTINUOUS
 62
     7
 10
-423.8200000018825
 20
495.014671383216
 11
-423.8262106102321
 21
494.9274326586005
  0
LINE
  8
1
  6
CONTINUOUS
 62
     7
 10
-423.8402049994928
 20
583.4753204333119
 11
-423.8347117008908
 21
583.4525348882279
  0
LINE
  8
1
  6
CONTINUOUS
 62
     7
 10
-423.8686984817609
 20
494.7735323413842
 11
-423.8606570125275
 21
494.7937840623916
  0
LINE
  8
1
  6
CONTINUOUS
 62
     7
 10
-423.8532326470973
 20
583.5188207135662
 11
-423.8464679520811
 21
583.4976531053469
  0
LINE
  8
1
  6
CONTINUOUS
 62
     7
 10
-423.9011815238339
 20
494.7067096393371
 11
-423.8888463247384
 21
494.7298568045404
  0
LINE
  8
1
  6
CONTINUOUS
 62
     7
 10
-424.0817045297779
 20
583.8320619389024
 11
-424.0570477616159
 21
583.8128379177693
  0
LINE
  8
1
  6
CONTINUOUS
 62
     7
 10
-423.8300321924214
 20
583.4293703440499
 11
-423.8262106102321
 21
583.4059006747327
  0
LINE
  8
1
  6
CONTINUOUS
 62
     7
 10
-423.8402049994928
 20
494.8580129000213
 11
-423.8347117008908
 21
494.8807984451054
  0
LINE
  8
1
  6
CONTINUOUS
 62
     7
 10
-424.2726187064959
 20
583.9287627859578
 11
-424.242289181226
 21
583.9186119133199
  0
LINE
  8
1
  6
CONTINUOUS
 62
     7
 10
-415.420000001898
 20
500.4292695061342
 11
-415.4200000018763
 21
498.497177432218
  0
LINE
  8
1
  6
CONTINUOUS
 62
     7
 10
-423.9467444750064
 20
583.6970667247436
 11
-423.9279782620221
 21
583.6704158066134
  0
LINE
  8
1
  6
CONTINUOUS
 62
     7
 10
-423.8606570125275
 20
583.5395492709418
 11
-423.8532326470971
 21
583.5188207135662
  0
LINE
  8
1
  6
CONTINUOUS
 62
     7
 10
-423.8464679520811
 20
583.4976531053469
 11
-423.8402049994929
 21
583.4753204333119
  0
LINE
  8
1
  6
CONTINUOUS
 62
     7
 10
-426.220000001703
 20
494.1666666666798
 11
-418.7062393278136
 21
494.8240355460921
  0
LINE
  8
1
  6
CONTINUOUS
 62
     7
 10
-415.4200000018763
 20
579.8361559011154
 11
-415.420000001898
 21
577.9040638271991
  0
LINE
  8
1
  6
CONTINUOUS
 62
     7
 10
-418.7062393278137
 20
583.5092977872412
 11
-426.2200000017031
 21
584.1666666666533
  0
LINE
  8
1
  6
CONTINUOUS
 62
     7
 10
-423.8888463247384
 20
494.7298568045404
 11
-423.8773144881864
 21
494.7537952422692
  0
LINE
  8
1
  6
CONTINUOUS
 62
     7
 10
-423.8464679520811
 20
494.8356802279865
 11
-423.8402049994929
 21
494.8580129000214
  0
LINE
  8
1
  6
CONTINUOUS
 62
     7
 10
-415.3990571139817
 20
578.0196785617933
 11
-415.4200000017062
 21
578.0200441212581
  0
LINE
  8
1
  6
CONTINUOUS
 62
     7
 10
-423.9870366218142
 20
583.7461811376381
 11
-423.9664700548594
 21
583.7223284901354
  0
LINE
  8
1
  6
CONTINUOUS
 62
     7
 10
-424.2422891812259
 20
583.9186119133199
 11
-424.2122740561501
 21
583.9068055755123
  0
LINE
  8
1
  6
CONTINUOUS
 62
     7
 10
-418.7204969658568
 20
572.1974525217248
 11
-423.9829565154074
 21
572.5315390239223
  0
LINE
  8
1
  6
CONTINUOUS
 62
     7
 10
-424.2122740561501
 20
583.9068055755123
 11
-424.1826467605024
 21
583.8933398621225
  0
LINE
  8
1
  6
CONTINUOUS
 62
     7
 10
-424.3332895200086
 20
583.9439906662544
 11
-424.3028353417967
 21
583.9371736662652
  0
LINE
  8
1
  6
CONTINUOUS
 62
     7
 10
-423.8262106102321
 20
583.4059006747328
 11
-423.8200000018824
 21
583.3186619501174
  0
LINE
  8
1
  6
CONTINUOUS
 62
     7
 10
-423.8888463247384
 20
583.6034765287928
 11
-423.8773144881864
 21
583.5795380910641
  0
LINE
  8
1
  6
CONTINUOUS
 62
     7
 10
-424.0329848634622
 20
583.7921177311214
 11
-424.0096148214753
 21
583.7698994480478
  0
LINE
  8
1
  6
CONTINUOUS
 62
     7
 10
-424.1145713933055
 20
583.8548803541424
 11
-424.0817045297779
 21
583.8320619389024
  0
LINE
  8
1
  6
CONTINUOUS
 62
     7
 10
-423.8200000017037
 20
505.8077013856237
 11
-423.8200000017037
 21
495.0146713832337
  0
LINE
  8
1
  6
CONTINUOUS
 62
     7
 10
-423.8686984817609
 20
583.5598009919493
 11
-423.8606570125275
 21
583.5395492709418
  0
LINE
  8
1
  6
CONTINUOUS
 62
     7
 10
-423.8532326470973
 20
494.8145126197671
 11
-423.8464679520811
 21
494.8356802279865
  0
ARC
  8
1
  6
CONTINUOUS
 62
     7
 10
-418.714825179198
 20
509.8892503381873
 40
3.753375869066877
 50
269.9129567766294
 51
326.7633124012203
  0
LINE
  8
1
  6
CONTINUOUS
 62
     7
 10
-423.9279782620224
 20
583.6704158066135
 11
-423.9142491485649
 21
583.6489474866208
  0
ARC
  8
1
  6
CONTINUOUS
 62
     7
 10
-412.4200000017026
 20
501.5134720057276
 40
1.20000000000009
 50
270.9999999999854
 51
359.9999999999914
  0
LINE
  8
1
  6
CONTINUOUS
 62
     7
 10
-423.8300321924214
 20
494.9039629892834
 11
-423.8262106102321
 21
494.9274326586004
  0
LINE
  8
1
  6
CONTINUOUS
 62
     7
 10
-424.0096148214752
 20
583.7698994480478
 11
-423.9870366218143
 21
583.7461811376381
  0
LINE
  8
1
  6
CONTINUOUS
 62
     7
 10
-423.9011815238339
 20
583.6266236939962
 11
-423.8888463247384
 21
583.6034765287928
  0
LINE
  8
1
  6
CONTINUOUS
 62
     7
 10
-423.9829565154073
 20
505.8017943094111
 11
-418.7204969658565
 21
506.1358808116086
  0
LINE
  8
1
  6
CONTINUOUS
 62
     7
 10
-415.5754508319286
 20
507.8320291244622
 11
-415.5048204407959
 21
508.019322241215
  0
LINE
  8
1
  6
CONTINUOUS
 62
     7
 10
-415.5048204407959
 20
508.0193222412149
 11
-415.453786857045
 21
508.2247834631007
  0
LINE
  8
1
  6
CONTINUOUS
 62
     7
 10
-423.8347117008908
 20
583.4525348882279
 11
-423.8300321924215
 21
583.4293703440499
  0
LINE
  8
1
  6
CONTINUOUS
 62
     7
 10
-424.3639185448974
 20
583.9492098508662
 11
-424.3332895200087
 21
583.9439906662544
  0
LINE
  8
1
  6
CONTINUOUS
 62
     7
 10
-415.4200000017062
 20
500.3132892120753
 11
-415.3990571139817
 21
500.3136547715401
  0
ARC
  8
1
  6
CONTINUOUS
 62
     7
 10
-418.5693308133364
 20
568.8727590955948
 40
3.328131625990105
 50
19.4675471117165
 51
92.60383377698491
  0
LINE
  8
1
  6
CONTINUOUS
 62
     7
 10
-423.8773144881863
 20
494.7537952422692
 11
-423.868698481761
 21
494.7735323413842
  0
ARC
  8
1
  6
CONTINUOUS
 62
     7
 10
-412.4200000017026
 20
576.8198613276056
 40
1.20000000000009
 50
0.0000000000087465
 51
89.0000000000146
  0
LINE
  8
1
  6
CONTINUOUS
 62
     7
 10
-423.9142491485647
 20
583.6489474866207
 11
-423.9011815238338
 21
583.6266236939962
  0
LINE
  8
1
  6
CONTINUOUS
 62
     7
 10
-415.4538109167628
 20
508.2246757377249
 11
-415.4200000034263
 21
508.5286895627785
  0
LINE
  8
1
  6
CONTINUOUS
 62
     7
 10
-423.8347117008908
 20
494.8807984451054
 11
-423.8300321924215
 21
494.9039629892834
  0
LINE
  8
1
  6
CONTINUOUS
 62
     7
 10
-415.4200000017062
 20
579.9229968741004
 11
-415.4200000017062
 21
579.8361559011038
  0
LINE
  8
1
  6
CONTINUOUS
 62
     7
 10
-424.3028353417967
 20
583.9371736662652
 11
-424.2726187064958
 21
583.9287627859578
  0
LINE
  8
1
  6
CONTINUOUS
 62
     7
 10
-424.1826467605025
 20
583.8933398621224
 11
-424.1482696284635
 21
583.8753013512155
  0
LINE
  8
1
  6
CONTINUOUS
 62
     7
 10
-424.1482696284634
 20
583.8753013512156
 11
-424.1145713933055
 21
583.8548803541424
  0
LINE
  8
1
  6
CONTINUOUS
 62
     7
 10
-423.9664700548594
 20
583.7223284901354
 11
-423.9467444750065
 21
583.6970667247438
  0
LINE
  8
1
  6
CONTINUOUS
 62
     7
 10
-423.8200000017037
 20
583.3186619501047
 11
-423.8200000017037
 21
572.5235409049412
  0
LINE
  8
1
  6
CONTINUOUS
 62
     7
 10
-424.057047761616
 20
583.8128379177693
 11
-424.0329848634622
 21
583.7921177311215
  0
LINE
  8
1
  6
CONTINUOUS
 62
     7
 10
-423.8773144881863
 20
583.5795380910641
 11
-423.868698481761
 21
583.5598009919493
  0
LINE
  8
1
  6
CONTINUOUS
 62
     7
 10
-423.8606570125275
 20
494.7937840623915
 11
-423.8532326470971
 21
494.814512619767
  0
LINE
  8
1
  6
CONTINUOUS
 62
     7
 10
-424.3677065561969
 20
583.9497428664347
 11
-424.3639185448973
 21
583.9492098508662
  0
LINE
  8
1
  6
CONTINUOUS
 62
     7
 10
-415.4200000017062
 20
498.4971774322295
 11
-415.4200000017062
 21
498.410336459233
  0
ARC
  8
1
  6
CONTINUOUS
 62
     7
 10
-419.0200000017051
 20
579.9229968741117
 40
3.600000000000048
 50
0.0000000000031806
 51
85.00000000000026
  0
ARC
  8
1
  6
CONTINUOUS
 62
     7
 10
-419.0200000017051
 20
498.4103364592215
 40
3.600000000000048
 50
274.9999999999997
 51
359.9999999999968
  0
LINE
  8
0
  6
CONTINUOUS
 62
     7
 10
-415.4200000018968
 20
578.0196785617934
 11
-412.3990571139781
 21
578.0196785617934
  0
LINE
  8
1
  6
CONTINUOUS
 62
     7
 10
-322.8200000000001
 20
573.5339866666667
 11
-411.220000001703
 21
573.5339866666667
  0
LINE
  8
1
  6
CONTINUOUS
 62
     7
 10
-613.5
 20
481.1666666666667
 11
-619.4999999999999
 21
481.1666666666667
  0
LINE
  8
0
  6
CONTINUOUS
 62
     7
 10
-415.4200000018968
 20
500.3136547715399
 11
-412.3990571139781
 21
500.3136547715399
  0
LINE
  8
1
  6
CONTINUOUS
 62
     7
 10
-619.5
 20
597.1666666666667
 11
-613.5
 21
597.1666666666667
  0
LINE
  8
1
  6
CONTINUOUS
 62
     7
 10
-613.5
 20
597.1666666666667
 11
-613.5
 21
481.1666666666667
  0
LINE
  8
1
  6
CONTINUOUS
 62
     7
 10
-600.74
 20
504.7993466666667
 11
-426.220000001703
 21
504.7993466666667
  0
LINE
  8
1
  6
CONTINUOUS
 62
     7
 10
-411.220000001703
 20
504.7993466666667
 11
-322.8200000000001
 21
504.7993466666667
  0
LINE
  8
1
  6
CONTINUOUS
 62
     7
 10
-619.5
 20
481.1666666666667
 11
-619.5
 21
597.1666666666667
  0
LINE
  8
1
  6
CONTINUOUS
 62
     7
 10
-426.220000001703
 20
573.5339866666667
 11
-600.74
 21
573.5339866666667
  0
ENDSEC
  0
EOF
