  0
SECTION
  2
HEADER
  9
$ACADVER
  1
AC1004
  9
$INSBASE
 10
0.0
 20
0.0
  9
$EXTMIN
 10
21.4949232518523
 20
46.67045454545454
  9
$EXTMAX
 10
170.0
 20
222.0
  9
$LIMMIN
 10
0.0
 20
0.0
  9
$LIMMAX
 10
12.0
 20
9.0
  9
$ORTHOMODE
 70
     0
  9
$REGENMODE
 70
     1
  9
$FILLMODE
 70
     1
  9
$QTEXTMODE
 70
     0
  9
$DRAGMODE
 70
     2
  9
$LTSCALE
 40
1.0
  9
$OSMODE
 70
    37
  9
$ATTMODE
 70
     1
  9
$TEXTSIZE
 40
0.2
  9
$TRACEWID
 40
0.05
  9
$TEXTSTYLE
  7
STANDARD
  9
$CLAYER
  8
0
  9
$CELTYPE
  6
BYLAYER
  9
$CECOLOR
 62
   256
  9
$DIMSCALE
 40
1.0
  9
$DIMASZ
 40
3.0
  9
$DIMEXO
 40
0.0625
  9
$DIMDLI
 40
0.38
  9
$DIMRND
 40
0.0
  9
$DIMDLE
 40
0.0
  9
$DIMEXE
 40
1.5
  9
$DIMTP
 40
0.0
  9
$DIMTM
 40
0.0
  9
$DIMTXT
 40
3.0
  9
$DIMCEN
 40
0.09
  9
$DIMTSZ
 40
0.0
  9
$DIMTOL
 70
     0
  9
$DIMLIM
 70
     0
  9
$DIMTIH
 70
     1
  9
$DIMTOH
 70
     1
  9
$DIMSE1
 70
     0
  9
$DIMSE2
 70
     0
  9
$DIMTAD
 70
     1
  9
$DIMZIN
 70
     0
  9
$DIMBLK
  1

  9
$DIMASO
 70
     1
  9
$DIMSHO
 70
     1
  9
$DIMPOST
  1

  9
$DIMAPOST
  1

  9
$DIMALT
 70
     0
  9
$DIMALTD
 70
     2
  9
$DIMALTF
 40
25.4
  9
$DIMLFAC
 40
1.0
  9
$DIMTOFL
 70
     0
  9
$DIMTVP
 40
0.0
  9
$DIMTIX
 70
     0
  9
$DIMSOXD
 70
     0
  9
$DIMSAH
 70
     0
  9
$DIMBLK1
  1

  9
$DIMBLK2
  1

  9
$LUNITS
 70
     2
  9
$LUPREC
 70
     4
  9
$SKETCHINC
 40
0.1
  9
$FILLETRAD
 40
0.5
  9
$AUNITS
 70
     0
  9
$AUPREC
 70
     0
  9
$MENU
  1
.
  9
$ELEVATION
 40
0.0
  9
$THICKNESS
 40
0.0
  9
$LIMCHECK
 70
     0
  9
$CHAMFERA
 40
0.0
  9
$CHAMFERB
 40
0.0
  9
$SKPOLY
 70
     0
  9
$TDCREATE
 40
2460052.451081308
  9
$TDUPDATE
 40
2460052.451081724
  9
$TDINDWG
 40
0.0000000116
  9
$TDUSRTIMER
 40
0.0000000116
  9
$USRTIMER
 70
     1
  9
$ANGBASE
 50
0.0
  9
$ANGDIR
 70
     0
  9
$PDMODE
 70
     0
  9
$PDSIZE
 40
0.0
  9
$PLINEWID
 40
0.0
  9
$COORDS
 70
     1
  9
$SPLFRAME
 70
     0
  9
$SPLINETYPE
 70
     6
  9
$SPLINESEGS
 70
     8
  9
$ATTDIA
 70
     0
  9
$ATTREQ
 70
     1
  9
$SURFTAB1
 70
     6
  9
$SURFTAB2
 70
     6
  9
$SURFTYPE
 70
     6
  9
$SURFU
 70
     6
  9
$SURFV
 70
     6
  9
$UCSNAME
  2

  9
$UCSORG
 10
0.0
 20
0.0
 30
0.0
  9
$UCSXDIR
 10
1.0
 20
0.0
 30
0.0
  9
$UCSYDIR
 10
0.0
 20
1.0
 30
0.0
  9
$USERI1
 70
     0
  9
$USERI2
 70
     0
  9
$USERI3
 70
     0
  9
$USERI4
 70
     0
  9
$USERI5
 70
     0
  9
$USERR1
 40
0.0
  9
$USERR2
 40
0.0
  9
$USERR3
 40
0.0
  9
$USERR4
 40
0.0
  9
$USERR5
 40
0.0
  9
$WORLDVIEW
 70
     1
  0
ENDSEC
  0
SECTION
  2
TABLES
  0
TABLE
  2
LTYPE
 70
     2
  0
LTYPE
  2
CONTINUOUS
 70
     0
  3
Solid line
 72
    65
 73
     0
 40
0.0
  0
LTYPE
  2
CENTER
 70
     0
  3

 72
    65
 73
     0
 40
0.0
  0
ENDTAB
  0
TABLE
  2
LAYER
 70
     1
  0
LAYER
  2
0
 70
     0
 62
     7
  6
CONTINUOUS
  0
ENDTAB
  0
TABLE
  2
STYLE
 70
     2
  0
STYLE
  2
STANDARD
 70
     0
 40
0.0
 41
1.0
 50
0.0
 71
     0
 42
0.2
  3
txt
  4

  0
STYLE
  2
ＭＳ_ゴシック
 70
     0
 40
0.0
 41
1.0
 50
0.0
 71
     0
 42
0.2
  3
ＭＳ ゴシック.shx
  4

  0
ENDTAB
  0
TABLE
  2
VIEW
 70
     0
  0
ENDTAB
  0
ENDSEC
  0
SECTION
  2
BLOCKS
  0
BLOCK
  8
0
  2
D_FRAME_VIEW_3199
 70
     0
 10
0.0
 20
0.0
  0
ENDBLK
  8
0
  0
BLOCK
  8
0
  2
D_FRAME_VIEW_4306
 70
     0
 10
0.0
 20
0.0
  0
ENDBLK
  8
0
  0
BLOCK
  8
0
  2
D_FRAME_VIEW_3810
 70
     0
 10
0.0
 20
0.0
  0
ENDBLK
  8
0
  0
ENDSEC
  0
SECTION
  2
ENTITIES
  0
TEXT
  8
0
  6
CONTINUOUS
 62
     7
 10
88.45830623983994
 20
46.32842003251219
 40
3.0
  1
CNVHP-16BGS
  0
LINE
  8
0
  6
CONTINUOUS
 62
     7
 10
141.5822043982103
 20
132.5074296091659
 11
141.5822043982103
 21
133.709511137183
  0
LINE
  8
0
  6
CONTINUOUS
 62
     7
 10
141.3947454577505
 20
133.2980280408099
 11
141.3947454577505
 21
133.5750085715844
  0
LINE
  8
0
  6
CONTINUOUS
 62
     7
 10
146.234899477344
 20
132.5470397607371
 11
146.0876697268723
 21
132.0975623370231
  0
LINE
  8
0
  6
CONTINUOUS
 62
     7
 10
138.353073667792
 20
138.4468009266837
 11
138.4107248998894
 21
135.1718174374129
  0
LINE
  8
0
  6
CONTINUOUS
 62
     7
 10
141.5892751001107
 20
135.1718174374129
 11
141.646926332208
 21
138.4468009266837
  0
LINE
  8
0
  6
CONTINUOUS
 62
     7
 10
142.5685225786311
 20
133.3985896518261
 11
142.5685225786311
 21
133.1216091210517
  0
LINE
  8
0
  6
CONTINUOUS
 62
     7
 10
145.6052702519124
 20
132.7192262725057
 11
145.6468128011853
 21
132.622988506486
  0
LINE
  8
0
  6
CONTINUOUS
 62
     7
 10
142.8207034530886
 20
138.2703820069255
 11
142.7630522209912
 21
134.9953985176546
  0
ARC
  8
0
  6
CONTINUOUS
 62
     7
 10
135.3287416463116
 20
133.7815857519211
 40
1.976419426583377
 50
185.7819574370864
 51
212.1610414253546
  0
LINE
  8
0
  6
CONTINUOUS
 62
     7
 10
137.8869168917786
 20
139.2232384631427
 11
137.9169581962789
 21
139.3717986665918
  0
LINE
  8
0
  6
CONTINUOUS
 62
     7
 10
138.0337658138559
 20
139.0882730905656
 11
137.9909880800583
 21
139.2305807446526
  0
LINE
  8
0
  6
CONTINUOUS
 62
     7
 10
133.9123302731277
 20
131.8205818062486
 11
133.9123302731277
 21
132.0975623370231
  0
LINE
  8
0
  6
CONTINUOUS
 62
     7
 10
133.765100522656
 20
132.5470397607371
 11
133.6555933006023
 21
132.7295361508916
  0
LINE
  8
0
  6
CONTINUOUS
 62
     7
 10
137.9169581962789
 20
139.3717986665918
 11
137.9909880800583
 21
139.2305807446526
  0
LINE
  8
0
  6
CONTINUOUS
 62
     7
 10
142.0090119199417
 20
139.2305807446526
 11
141.9662341861441
 21
139.0882730905656
  0
LINE
  8
0
  6
CONTINUOUS
 62
     7
 10
137.2369477790088
 20
134.9953985176546
 11
137.1792965469114
 21
138.2703820069255
  0
ARC
  8
0
  6
CONTINUOUS
 62
     7
 10
129.5025824610188
 20
138.1272147669534
 40
8.856259363560916
 50
2.068019214868912
 51
15.38669688942571
  0
LINE
  8
0
  6
CONTINUOUS
 62
     7
 10
138.6052545422495
 20
133.5750085715844
 11
138.6052545422495
 21
133.2980280408099
  0
LINE
  8
0
  6
CONTINUOUS
 62
     7
 10
141.7958477921355
 20
134.6323654913454
 11
141.7696095456047
 21
134.5450793501763
  0
LINE
  8
0
  6
CONTINUOUS
 62
     7
 10
147.0790692789216
 20
137.991503686572
 11
147.1363112816302
 21
137.9175367637126
  0
LINE
  8
0
  6
CONTINUOUS
 62
     7
 10
142.0090119199417
 20
139.2305807446526
 11
142.0830215688945
 21
139.3718009048072
  0
LINE
  8
0
  6
CONTINUOUS
 62
     7
 10
138.2041522078646
 20
134.6323654913454
 11
138.1376417673262
 21
138.4115607981521
  0
LINE
  8
0
  6
CONTINUOUS
 62
     7
 10
148.702881211214
 20
130.5504103082803
 11
148.7350359711515
 21
130.4613939589295
  0
LINE
  8
0
  6
CONTINUOUS
 62
     7
 10
142.0830215688945
 20
139.3718009048072
 11
142.1130831082214
 21
139.2232384631427
  0
LINE
  8
0
  6
CONTINUOUS
 62
     7
 10
138.1376417673262
 20
138.4115607981521
 11
138.0337658138559
 21
139.0882730905656
  0
ARC
  8
0
  6
CONTINUOUS
 62
     7
 10
151.6711946598618
 20
137.9507958471952
 40
8.85625936356097
 50
164.6133031105744
 51
177.9319807851309
  0
LINE
  8
0
  6
CONTINUOUS
 62
     7
 10
141.5822043982103
 20
132.5074296091659
 11
141.7696095456047
 21
133.1308657878032
  0
LINE
  8
0
  6
CONTINUOUS
 62
     7
 10
141.5197247708057
 20
133.7137937037234
 11
141.5641354384677
 21
133.7986156642251
  0
ARC
  8
0
  6
CONTINUOUS
 62
     7
 10
150.4979118344387
 20
138.1271388875552
 40
8.856756075446441
 50
164.6136782758228
 51
177.9316056198828
  0
ARC
  8
0
  6
CONTINUOUS
 62
     7
 10
144.6358372534335
 20
133.7937625097399
 40
2.012905187670327
 50
328.0822253710818
 51
353.9747757664775
  0
LINE
  8
0
  6
CONTINUOUS
 62
     7
 10
133.9123302731277
 20
132.0975623370231
 11
133.765100522656
 21
132.5470397607371
  0
LINE
  8
0
  6
CONTINUOUS
 62
     7
 10
138.6052545422495
 20
133.2980280408099
 11
138.2041522078646
 21
134.6323654913454
  0
LINE
  8
0
  6
CONTINUOUS
 62
     7
 10
141.5197247708057
 20
133.7137937037234
 11
141.3947454577505
 21
133.2980280408099
  0
LINE
  8
0
  6
CONTINUOUS
 62
     7
 10
146.3444066993977
 20
132.7295361508916
 11
146.234899477344
 21
132.5470397607371
  0
LINE
  8
0
  6
CONTINUOUS
 62
     7
 10
146.0876697268723
 20
132.0975623370231
 11
146.0876697268723
 21
131.8205818062486
  0
LINE
  8
0
  6
CONTINUOUS
 62
     7
 10
132.9208887555446
 20
137.9914842568416
 11
133.1465635315525
 21
137.8985531021988
  0
LINE
  8
0
  6
CONTINUOUS
 62
     7
 10
141.9662341861441
 20
139.0882730905656
 11
141.8623582326738
 21
138.4115607981521
  0
LINE
  8
0
  6
CONTINUOUS
 62
     7
 10
132.604447139666
 20
105.6197770494414
 11
129.6020967645707
 21
105.9081927445981
  0
LINE
  8
0
  6
CONTINUOUS
 62
     7
 10
133.3265556415669
 20
130.8896344936289
 11
133.4124222140155
 21
130.8119204878982
  0
LINE
  8
0
  6
CONTINUOUS
 62
     7
 10
150.3979032354294
 20
105.9081927445981
 11
147.395552860334
 21
105.6197770494414
  0
LINE
  8
0
  6
CONTINUOUS
 62
     7
 10
148.1492628246296
 20
129.7528331499024
 11
147.9516496326081
 21
130.1246002687928
  0
LINE
  8
0
  6
CONTINUOUS
 62
     7
 10
125.0
 20
103.5204776302863
 11
155.0
 21
103.5204776302863
  0
LINE
  8
0
  6
CONTINUOUS
 62
     7
 10
135.6681233964923
 20
131.90027275686
 11
135.6479179190889
 21
131.9738534355829
  0
LINE
  8
0
  6
CONTINUOUS
 62
     7
 10
137.2440184809091
 20
132.6659000678673
 11
137.4114357170836
 21
132.1910963489247
  0
LINE
  8
0
  6
CONTINUOUS
 62
     7
 10
110.3073441983864
 20
68.56351319540882
 11
110.0
 21
66.82047763028633
  0
LINE
  8
0
  6
CONTINUOUS
 62
     7
 10
141.5641354384677
 20
133.7986156642251
 11
141.5822043982103
 21
133.709511137183
  0
LINE
  8
0
  6
CONTINUOUS
 62
     7
 10
132.604447139666
 20
105.6197770494414
 11
135.490510400459
 21
105.1368141362968
  0
LINE
  8
0
  6
CONTINUOUS
 62
     7
 10
137.2440184809091
 20
132.3310106894076
 11
137.2440184809091
 21
133.0831297097133
  0
LINE
  8
0
  6
CONTINUOUS
 62
     7
 10
144.509489599541
 20
105.1368141362968
 11
147.395552860334
 21
105.6197770494414
  0
LINE
  8
0
  6
CONTINUOUS
 62
     7
 10
129.6020967645707
 20
105.9081927445981
 11
129.3537915455296
 21
105.9804087479311
  0
LINE
  8
0
  6
CONTINUOUS
 62
     7
 10
149.638629449764
 20
130.5228333677481
 11
149.0741146288738
 21
130.273402857634
  0
LINE
  8
0
  6
CONTINUOUS
 62
     7
 10
149.0741146288738
 20
130.273402857634
 11
149.0741146288738
 21
128.8591892952609
  0
LINE
  8
0
  6
CONTINUOUS
 62
     7
 10
135.6479179190889
 20
132.6284663699211
 11
135.6479179190889
 21
131.9738534355829
  0
ARC
  8
0
  6
CONTINUOUS
 62
     7
 10
140.0000000000001
 20
126.6852306614968
 40
22.01521635578177
 50
258.1801523898205
 51
281.8198476101793
  0
LINE
  8
0
  6
CONTINUOUS
 62
     7
 10
135.9236924673496
 20
131.8452860247862
 11
135.6681233964923
 21
131.90027275686
  0
LINE
  8
0
  6
CONTINUOUS
 62
     7
 10
145.983364067137
 20
132.5365447084822
 11
145.983364067137
 21
131.1223311461091
  0
LINE
  8
0
  6
CONTINUOUS
 62
     7
 10
142.0316836787031
 20
134.4114727635169
 11
141.8580355010362
 21
133.7151085231969
  0
LINE
  8
0
  6
CONTINUOUS
 62
     7
 10
146.5277221349962
 20
133.107211010783
 11
145.983364067137
 21
132.5365447084822
  0
LINE
  8
0
  6
CONTINUOUS
 62
     7
 10
140.0
 20
133.3704343026975
 11
140.0
 21
132.6279721824516
  0
LINE
  8
0
  6
CONTINUOUS
 62
     7
 10
150.6461766755902
 20
105.9803736433478
 11
150.3979032354294
 21
105.9081927445981
  0
LINE
  8
0
  6
CONTINUOUS
 62
     7
 10
170.0
 20
66.82047763028633
 11
169.6926558016136
 21
68.56351319540882
  0
LINE
  8
0
  6
CONTINUOUS
 62
     7
 10
153.25
 20
102.8204776302864
 11
153.25
 21
103.5204776302864
  0
ARC
  8
0
  6
CONTINUOUS
 62
     7
 10
153.5795000000001
 20
70.3161332355864
 40
0.4999999999999474
 50
262.4415590318829
 51
269.4994267598874
  0
LINE
  8
0
  6
CONTINUOUS
 62
     7
 10
127.2
 20
114.705361342791
 11
127.2
 21
111.1866209342512
  0
LINE
  8
0
  6
CONTINUOUS
 62
     7
 10
126.75
 20
103.5204776302864
 11
126.75
 21
102.8204776302864
  0
ARC
  8
0
  6
CONTINUOUS
 62
     7
 10
145.1304119384251
 20
131.1728173572323
 40
5.72028647901363
 50
323.9289151124937
 51
341.4125738535557
  0
ARC
  8
0
  6
CONTINUOUS
 62
     7
 10
168.7078480486001
 20
68.38986501778635
 40
0.9999999999999365
 50
9.999999997477742
 51
88.00000000042357
  0
LINE
  8
0
  6
CONTINUOUS
 62
     7
 10
144.524115414382
 20
132.5646175822064
 11
144.524115414382
 21
132.2532258714879
  0
LINE
  8
0
  6
CONTINUOUS
 62
     7
 10
128.8692322355934
 20
106.557235283142
 11
125.3705904774487
 21
105.6197770494414
  0
ARC
  8
0
  6
CONTINUOUS
 62
     7
 10
141.5
 20
108.4150656529071
 40
0.4999999999999933
 50
94.2763865769191
 51
170.6022325465619
  0
LINE
  8
0
  6
CONTINUOUS
 62
     7
 10
154.2
 20
119.1929433399072
 11
154.2
 21
131.2137586200785
  0
ARC
  8
0
  6
CONTINUOUS
 62
     7
 10
137.5658411729056
 20
133.4911992374837
 40
9.252450389106418
 50
223.3568599000635
 51
240.5423630691351
  0
LINE
  8
0
  6
CONTINUOUS
 62
     7
 10
125.8
 20
131.2137586200785
 11
125.8
 21
119.1929433399072
  0
ARC
  8
0
  6
CONTINUOUS
 62
     7
 10
139.6239319643103
 20
137.4884640973099
 40
13.75888155173803
 50
245.7148219897397
 51
259.3967684451645
  0
ARC
  8
0
  6
CONTINUOUS
 62
     7
 10
142.5295498729631
 20
133.3693236929293
 40
9.0994491735071
 50
299.3119012074839
 51
316.7888121535327
  0
ARC
  8
0
  6
CONTINUOUS
 62
     7
 10
141.1555058815378
 20
123.4002848001701
 40
14.48985552434571
 50
271.2158001158804
 51
325.7481050280599
  0
ARC
  8
0
  6
CONTINUOUS
 62
     7
 10
146.0822122714196
 20
119.2794795804859
 40
8.12297949955265
 50
330.2191511413712
 51
355.3543046920788
  0
LINE
  8
0
  6
CONTINUOUS
 62
     7
 10
158.5484799323715
 20
98.82047763028635
 11
158.5484799323715
 21
102.8204776302863
  0
ARC
  8
0
  6
CONTINUOUS
 62
     7
 10
126.4204999999999
 20
70.3161332355864
 40
0.4999999999999482
 50
270.5005732401127
 51
277.5584409681167
  0
ARC
  8
0
  6
CONTINUOUS
 62
     7
 10
140.4177860865277
 20
137.3557001409618
 40
13.62071828215204
 50
280.5334490563157
 51
294.3548886577648
  0
LINE
  8
0
  6
CONTINUOUS
 62
     7
 10
154.1785045351207
 20
118.6215680888045
 11
154.1999995292097
 21
119.1902682676094
  0
ARC
  8
0
  6
CONTINUOUS
 62
     7
 10
135.7484751742709
 20
119.8676546647441
 40
9.971147459070176
 50
183.8645554330832
 51
248.980646452573
  0
ARC
  8
0
  6
CONTINUOUS
 62
     7
 10
139.6359851483647
 20
126.4143711920929
 40
17.52348356671932
 50
244.7896741458428
 51
261.5950248485802
  0
LINE
  8
0
  6
CONTINUOUS
 62
     7
 10
125.0
 20
105.1368141362968
 11
125.0
 21
103.5204776302863
  0
ARC
  8
0
  6
CONTINUOUS
 62
     7
 10
140.0000000200398
 20
139.4742018122913
 40
15.78156418363855
 50
263.6830117555483
 51
276.316943580414
  0
ARC
  8
0
  6
CONTINUOUS
 62
     7
 10
154.5
 20
105.1368141362968
 40
0.5000000000000004
 50
0.0000000000011421
 51
74.99999999999926
  0
ARC
  8
0
  6
CONTINUOUS
 62
     7
 10
144.3231764828436
 20
130.5747334876451
 40
9.897716067187492
 50
3.723504631856671
 51
68.26307419211128
  0
ARC
  8
0
  6
CONTINUOUS
 62
     7
 10
140.1193375294902
 20
123.5077152433824
 40
18.06505196224629
 50
64.17554582594394
 51
128.7365642942873
  0
ARC
  8
0
  6
CONTINUOUS
 62
     7
 10
134.5053067913245
 20
131.0074520868507
 40
8.70775107112813
 50
130.8015757601555
 51
178.6424049472564
  0
LINE
  8
0
  6
CONTINUOUS
 62
     7
 10
121.4515200676285
 20
102.8204776302864
 11
121.4515200676285
 21
98.82047763028635
  0
ARC
  8
0
  6
CONTINUOUS
 62
     7
 10
125.5
 20
105.1368141362968
 40
0.4999999999999986
 50
105.0000000000007
 51
179.9999999999989
  0
LINE
  8
0
  6
CONTINUOUS
 62
     7
 10
154.6294095225513
 20
105.6197770494414
 11
151.1296488648675
 21
106.55753509137
  0
ARC
  8
0
  6
CONTINUOUS
 62
     7
 10
137.0
 20
108.5846916699819
 40
0.5000000000000012
 50
7.904896051655727
 51
81.35577403670351
  0
ARC
  8
0
  6
CONTINUOUS
 62
     7
 10
111.2921519514
 20
68.38986501778635
 40
0.9999999999999213
 50
91.99999999957645
 51
170.0000000025221
  0
ARC
  8
0
  6
CONTINUOUS
 62
     7
 10
134.9797220989729
 20
131.2297324229878
 40
5.842847784323884
 50
198.7720703041736
 51
215.886442296322
  0
LINE
  8
0
  6
CONTINUOUS
 62
     7
 10
155.0
 20
103.5204776302863
 11
155.0
 21
105.1368141362968
  0
LINE
  8
0
  6
CONTINUOUS
 62
     7
 10
62.15172776555598
 20
207.520882069313
 11
59.76277260038722
 21
208.5104196986272
  0
LINE
  8
0
  6
CONTINUOUS
 62
     7
 10
76.5530610784857
 20
202.2029038642975
 11
76.46701269598677
 21
202.8930466266887
  0
CIRCLE
  8
0
  6
CONTINUOUS
 62
     7
 10
53.49494434331958
 20
165.0279000167108
 40
0.5996277980254027
  0
ARC
  8
0
  6
CONTINUOUS
 62
     7
 10
53.49492325185233
 20
190.0
 40
17.5
 50
170.55194056867
 51
189.44805943133
  0
LINE
  8
0
  6
CONTINUOUS
 62
     7
 10
47.22707390331745
 20
208.5104196986272
 11
44.83811873814871
 21
207.520882069313
  0
LINE
  8
0
  6
CONTINUOUS
 62
     7
 10
59.38008916802213
 20
208.5104196986272
 11
56.36760839574345
 21
207.2626093063612
  0
LINE
  8
0
  6
CONTINUOUS
 62
     7
 10
75.63137560760275
 20
202.6846688134884
 11
75.71742399010166
 21
201.9945260510972
  0
LINE
  8
0
  6
CONTINUOUS
 62
     7
 10
73.66762834894863
 20
200.9394313757832
 11
73.41986190632012
 21
201.5463327356076
  0
LINE
  8
0
  6
CONTINUOUS
 62
     7
 10
72.9477254905745
 20
200.3028260431709
 11
72.6850149834852
 21
200.9463327356077
  0
LINE
  8
0
  6
CONTINUOUS
 62
     7
 10
70.46423755713465
 20
198.1184755726259
 11
70.88931208680695
 21
197.6817173182919
  0
LINE
  8
0
  6
CONTINUOUS
 62
     7
 10
34.98450355322513
 20
183.7321506514651
 11
35.97404118253929
 21
181.3431954862964
  0
ARC
  8
0
  6
CONTINUOUS
 62
     7
 10
53.49492325185233
 20
190.0
 40
17.5
 50
215.5519405686699
 51
234.4480594313299
  0
ARC
  8
0
  6
CONTINUOUS
 62
     7
 10
135.0054468475626
 20
111.3853597807922
 40
7.820134960091403
 50
185.8175804194288
 51
223.7174099296388
  0
ARC
  8
0
  6
CONTINUOUS
 62
     7
 10
45.02946045433122
 20
172.9410576969426
 40
0.499999999999999
 50
202.5000000000004
 51
247.5000000000001
  0
LINE
  8
0
  6
CONTINUOUS
 62
     7
 10
39.25712000489111
 20
200.1752129560428
 11
36.24463923261239
 21
198.9274025637768
  0
ARC
  8
0
  6
CONTINUOUS
 62
     7
 10
47.41841561949997
 20
171.9515200676285
 40
0.4999999999999952
 50
247.5
 51
292.4999999999999
  0
ARC
  8
0
  6
CONTINUOUS
 62
     7
 10
35.4464433194808
 20
196.0765076323523
 40
0.5000000000000054
 50
157.5
 51
202.5
  0
ARC
  8
0
  6
CONTINUOUS
 62
     7
 10
53.49492325185233
 20
190.0
 40
30.00000000000003
 50
26.57705790652096
 51
333.4136187471112
  0
ARC
  8
0
  6
CONTINUOUS
 62
     7
 10
45.02946045433125
 20
207.0589423030574
 40
0.4999999999999952
 50
112.5
 51
157.4999999999999
  0
ARC
  8
0
  6
CONTINUOUS
 62
     7
 10
53.49492325185233
 20
190.0
 40
17.5
 50
80.5519405686699
 51
99.44805943132997
  0
ARC
  8
0
  6
CONTINUOUS
 62
     7
 10
145.0257222112352
 20
111.3677033699498
 40
7.78541550199439
 50
316.216201923191
 51
355.2574656916887
  0
CIRCLE
  8
0
  6
CONTINUOUS
 62
     7
 10
53.49494435839225
 20
214.9720603578465
 40
0.5996267550712026
  0
LINE
  8
0
  6
CONTINUOUS
 62
     7
 10
47.60975733568252
 20
171.4895803013728
 11
50.6222381079612
 21
172.7373906936388
  0
LINE
  8
0
  6
CONTINUOUS
 62
     7
 10
44.83811873814868
 20
172.479117930687
 11
47.22707390331743
 21
171.4895803013728
  0
ARC
  8
0
  6
CONTINUOUS
 62
     7
 10
36.43598094879493
 20
181.5345372024789
 40
0.499999999999999
 50
202.4999999999999
 51
247.5000000000002
  0
ARC
  8
0
  6
CONTINUOUS
 62
     7
 10
53.49492325185233
 20
190.0
 40
17.5
 50
125.5519405686699
 51
144.4480594313299
  0
ARC
  8
0
  6
CONTINUOUS
 62
     7
 10
61.9603860493734
 20
172.9410576969426
 40
0.5000000000000209
 50
292.4999999999998
 51
337.4999999999997
  0
LINE
  8
0
  6
CONTINUOUS
 62
     7
 10
62.42232581562905
 20
172.74971598076
 11
63.67013620789505
 21
175.7621967530388
  0
ARC
  8
0
  6
CONTINUOUS
 62
     7
 10
53.49492325185233
 20
190.0
 40
17.5
 50
53.79393352115598
 51
54.44805943132993
  0
LINE
  8
0
  6
CONTINUOUS
 62
     7
 10
59.7627726003872
 20
171.4895803013728
 11
62.15172776555595
 21
172.479117930687
  0
ARC
  8
0
  6
CONTINUOUS
 62
     7
 10
47.4184156195
 20
208.0484799323715
 40
0.4999999999999926
 50
67.50000000000031
 51
112.5000000000002
  0
ARC
  8
0
  6
CONTINUOUS
 62
     7
 10
35.44644331948078
 20
183.9234923676477
 40
0.499999999999999
 50
157.5000000000004
 51
202.5
  0
ARC
  8
0
  6
CONTINUOUS
 62
     7
 10
36.43598094879494
 20
198.4654627975211
 40
0.4999999999999952
 50
112.5000000000004
 51
157.5
  0
ARC
  8
0
  6
CONTINUOUS
 62
     7
 10
53.49492325185233
 20
190.0
 40
17.5
 50
305.5519405686699
 51
306.1965335059245
  0
ARC
  8
0
  6
CONTINUOUS
 62
     7
 10
61.96038604937343
 20
207.0589423030574
 40
0.4999999999999926
 50
22.50000000000042
 51
67.5000000000001
  0
LINE
  8
0
  6
CONTINUOUS
 62
     7
 10
34.98450355322515
 20
195.8851659161698
 11
36.23231394549116
 21
192.8726851438911
  0
LINE
  8
0
  6
CONTINUOUS
 62
     7
 10
36.23231394549115
 20
187.1273148561089
 11
34.98450355322513
 21
184.1148340838302
  0
ARC
  8
0
  6
CONTINUOUS
 62
     7
 10
59.57143088420465
 20
171.9515200676285
 40
0.4999999999999926
 50
247.5000000000004
 51
292.5000000000002
  0
LINE
  8
0
  6
CONTINUOUS
 62
     7
 10
56.3676083957434
 20
172.7373906936388
 11
59.38008916802211
 21
171.4895803013728
  0
LINE
  8
0
  6
CONTINUOUS
 62
     7
 10
63.6701362078951
 20
204.2378032469612
 11
62.42232581562907
 21
207.2502840192399
  0
ARC
  8
0
  6
CONTINUOUS
 62
     7
 10
53.49492325185233
 20
190.0
 40
17.5
 50
260.5519405686699
 51
279.4480594313299
  0
LINE
  8
0
  6
CONTINUOUS
 62
     7
 10
50.62223810796125
 20
207.2626093063612
 11
47.60975733568254
 21
208.5104196986272
  0
LINE
  8
0
  6
CONTINUOUS
 62
     7
 10
36.24463923261239
 20
181.0725974362233
 11
39.25712000489107
 21
179.8247870439573
  0
LINE
  8
0
  6
CONTINUOUS
 62
     7
 10
35.9740411825393
 20
198.6568045137037
 11
34.98450355322515
 21
196.2678493485349
  0
LINE
  8
0
  6
CONTINUOUS
 62
     7
 10
43.31971029580957
 20
175.7621967530388
 11
44.56752068807558
 21
172.7497159807601
  0
ARC
  8
0
  6
CONTINUOUS
 62
     7
 10
59.57143088420468
 20
208.0484799323715
 40
0.4999999999999926
 50
67.50000000000013
 51
112.5
  0
LINE
  8
0
  6
CONTINUOUS
 62
     7
 10
44.56752068807561
 20
207.25028401924
 11
43.3197102958096
 21
204.2378032469612
  0
LINE
  8
0
  6
CONTINUOUS
 62
     7
 10
78.82045642041768
 20
202.8930466266887
 11
78.73440803791877
 21
202.2029038642974
  0
LINE
  8
0
  6
CONTINUOUS
 62
     7
 10
81.86760721008436
 20
201.5463327356076
 11
81.61984076745583
 21
200.9394313757832
  0
LINE
  8
0
  6
CONTINUOUS
 62
     7
 10
68.75001346311645
 20
193.286860229102
 11
69.26395276751047
 21
193.1323698828692
  0
LINE
  8
0
  6
CONTINUOUS
 62
     7
 10
85.32198388460277
 20
182.852344820624
 11
84.89690935493046
 21
183.2891030749581
  0
LINE
  8
0
  6
CONTINUOUS
 62
     7
 10
78.79447545712769
 20
177.3153311865116
 11
79.65609350880172
 21
177.3153311865116
  0
LINE
  8
0
  6
CONTINUOUS
 62
     7
 10
69.26649117797709
 20
188.1010776865444
 11
69.51130935311018
 21
188.2637210182074
  0
LINE
  8
0
  6
CONTINUOUS
 62
     7
 10
84.8232315592698
 20
198.1184755726259
 11
84.3981570295975
 21
197.6817173182919
  0
LINE
  8
0
  6
CONTINUOUS
 62
     7
 10
69.68734043432299
 20
192.9075639484816
 11
69.63161727622489
 21
192.8612650029175
  0
LINE
  8
0
  6
CONTINUOUS
 62
     7
 10
69.63161727622489
 20
192.8612650029175
 11
69.30731395500372
 21
192.8207034530886
  0
LINE
  8
0
  6
CONTINUOUS
 62
     7
 10
69.68734274653777
 20
187.092424222687
 11
69.26395276751047
 21
186.8676301171308
  0
LINE
  8
0
  6
CONTINUOUS
 62
     7
 10
69.26395276751047
 20
186.8676301171308
 11
68.75001346311645
 21
186.713139770898
  0
LINE
  8
0
  6
CONTINUOUS
 62
     7
 10
84.89690935493046
 20
196.710896925042
 11
85.32198388460274
 21
197.147655179376
  0
LINE
  8
0
  6
CONTINUOUS
 62
     7
 10
86.71387457304624
 20
187.8869168917786
 11
86.19993526865223
 21
188.0414072380114
  0
LINE
  8
0
  6
CONTINUOUS
 62
     7
 10
73.66762834894863
 20
179.0605686242168
 11
73.41986190632011
 21
178.4536672643924
  0
LINE
  8
0
  6
CONTINUOUS
 62
     7
 10
75.63137560760275
 20
177.3153311865117
 11
75.71742399010166
 21
178.0054739489029
  0
LINE
  8
0
  6
CONTINUOUS
 62
     7
 10
69.08753384775224
 20
191.9585927619886
 11
68.57359454335821
 21
192.1130831082214
  0
LINE
  8
0
  6
CONTINUOUS
 62
     7
 10
79.57004512630279
 20
178.0054739489029
 11
79.65609350880172
 21
177.3153311865116
  0
LINE
  8
0
  6
CONTINUOUS
 62
     7
 10
86.02351634889399
 20
186.8676301171308
 11
86.53745565328802
 21
186.713139770898
  0
LINE
  8
0
  6
CONTINUOUS
 62
     7
 10
84.3981570295975
 20
182.3182826817081
 11
84.8232315592698
 21
181.8815244273741
  0
LINE
  8
0
  6
CONTINUOUS
 62
     7
 10
79.57004512630279
 20
201.9945260510972
 11
79.6560935088017
 21
202.6846688134883
  0
LINE
  8
0
  6
CONTINUOUS
 62
     7
 10
78.79447545712767
 20
202.6846688134884
 11
79.6560935088017
 21
202.6846688134883
  0
LINE
  8
0
  6
CONTINUOUS
 62
     7
 10
72.68501498348516
 20
179.0536672643924
 11
72.9477254905745
 21
179.6971739568291
  0
LINE
  8
0
  6
CONTINUOUS
 62
     7
 10
86.19993526865223
 20
191.9585927619886
 11
86.71387457304625
 21
192.1130831082214
  0
LINE
  8
0
  6
CONTINUOUS
 62
     7
 10
70.39055976147401
 20
196.710896925042
 11
69.96548523180171
 21
197.147655179376
  0
LINE
  8
0
  6
CONTINUOUS
 62
     7
 10
81.86760721008434
 20
178.4536672643924
 11
81.61984076745583
 21
179.0605686242168
  0
LINE
  8
0
  6
CONTINUOUS
 62
     7
 10
86.53745565328802
 20
193.286860229102
 11
86.02351634889399
 21
193.1323698828692
  0
LINE
  8
0
  6
CONTINUOUS
 62
     7
 10
82.33974362582997
 20
200.3028260431709
 11
82.6024541329193
 21
200.9463327356076
  0
LINE
  8
0
  6
CONTINUOUS
 62
     7
 10
82.6024541329193
 20
200.9463327356076
 11
81.62265823580603
 21
200.9463327356076
  0
LINE
  8
0
  6
CONTINUOUS
 62
     7
 10
85.32198388460274
 20
197.147655179376
 11
83.66224725546209
 21
197.147655179376
  0
LINE
  8
0
  6
CONTINUOUS
 62
     7
 10
69.96548523180172
 20
182.852344820624
 11
70.39055976147401
 21
183.2891030749581
  0
LINE
  8
0
  6
CONTINUOUS
 62
     7
 10
86.71387457304625
 20
192.1130831082214
 11
84.94610762007989
 21
192.1130831082214
  0
LINE
  8
0
  6
CONTINUOUS
 62
     7
 10
76.5530610784857
 20
177.7970961357025
 11
76.46701269598677
 21
177.1069533733113
  0
LINE
  8
0
  6
CONTINUOUS
 62
     7
 10
83.66193939833492
 20
182.852344820624
 11
85.32198388460277
 21
182.852344820624
  0
LINE
  8
0
  6
CONTINUOUS
 62
     7
 10
81.62265823580603
 20
179.0536672643924
 11
82.60245413291933
 21
179.0536672643924
  0
LINE
  8
0
  6
CONTINUOUS
 62
     7
 10
69.26395276751047
 20
193.1323698828692
 11
69.68734043432299
 21
192.9075639484816
  0
LINE
  8
0
  6
CONTINUOUS
 62
     7
 10
69.3073139550037
 20
192.8207034530886
 11
68.67093590886121
 21
192.8080152765976
  0
LINE
  8
0
  6
CONTINUOUS
 62
     7
 10
68.66871507637936
 20
187.1920290030314
 11
69.3073139550037
 21
187.1792965469114
  0
LINE
  8
0
  6
CONTINUOUS
 62
     7
 10
84.94610762007989
 20
187.8869168917786
 11
86.71387457304624
 21
187.8869168917786
  0
LINE
  8
0
  6
CONTINUOUS
 62
     7
 10
82.60245413291933
 20
179.0536672643924
 11
82.33974362582997
 21
179.6971739568291
  0
LINE
  8
0
  6
CONTINUOUS
 62
     7
 10
69.30731395500372
 20
187.1792965469114
 11
69.68734274653777
 21
187.092424222687
  0
LINE
  8
0
  6
CONTINUOUS
 62
     7
 10
69.51131023631228
 20
191.7362866002394
 11
69.08753384775224
 21
191.9585927619886
  0
LINE
  8
0
  6
CONTINUOUS
 62
     7
 10
70.88931208680695
 20
182.3182826817081
 11
70.46423755713467
 21
181.8815244273741
  0
LINE
  8
0
  6
CONTINUOUS
 62
     7
 10
78.82045642041768
 20
177.1069533733113
 11
78.73440803791877
 21
177.7970961357025
  0
LINE
  8
0
  6
CONTINUOUS
 62
     7
 10
77.63507119644832
 20
198.7644879343584
 11
80.81630352225729
 21
199.0046256166573
  0
LINE
  8
0
  6
CONTINUOUS
 62
     7
 10
70.32640715605149
 20
183.223187217745
 11
70.75339885524336
 21
183.1993920139402
  0
LINE
  8
0
  6
CONTINUOUS
 62
     7
 10
73.52711113446045
 20
180.2463378684667
 11
73.13801833969823
 21
180.361370550236
  0
LINE
  8
0
  6
CONTINUOUS
 62
     7
 10
73.0699113471232
 20
180.361370550236
 11
73.13801833969823
 21
180.361370550236
  0
LINE
  8
0
  6
CONTINUOUS
 62
     7
 10
73.07006580385966
 20
199.638629449764
 11
73.13801833969823
 21
199.638629449764
  0
LINE
  8
0
  6
CONTINUOUS
 62
     7
 10
73.13801833969823
 20
199.638629449764
 11
73.5271322653031
 21
199.7536772314392
  0
LINE
  8
0
  6
CONTINUOUS
 62
     7
 10
74.97484076845451
 20
200.5153086790907
 11
78.32495316857704
 21
200.5153086790907
  0
LINE
  8
0
  6
CONTINUOUS
 62
     7
 10
76.19136165992514
 20
180.4843555993506
 11
76.71507720708692
 21
180.4843555993506
  0
LINE
  8
0
  6
CONTINUOUS
 62
     7
 10
76.07762161836449
 20
182.045796525406
 11
76.2901486759382
 21
181.5252136778153
  0
LINE
  8
0
  6
CONTINUOUS
 62
     7
 10
75.78548974602731
 20
199.638629449764
 11
80.02813043314659
 21
199.638629449764
  0
LINE
  8
0
  6
CONTINUOUS
 62
     7
 10
71.15750293046268
 20
196.9838484323506
 11
71.0670552103862
 21
196.8889846217739
  0
LINE
  8
0
  6
CONTINUOUS
 62
     7
 10
71.0670599044174
 20
196.8889816202512
 11
70.75339885524338
 21
196.8006079860598
  0
LINE
  8
0
  6
CONTINUOUS
 62
     7
 10
75.81505834827308
 20
179.2763135077091
 11
77.48931608019302
 21
179.2763135077091
  0
LINE
  8
0
  6
CONTINUOUS
 62
     7
 10
75.8172064203349
 20
200.723686492291
 11
77.48931608019302
 21
200.723686492291
  0
LINE
  8
0
  6
CONTINUOUS
 62
     7
 10
75.78548974602731
 20
180.361370550236
 11
80.02813043314659
 21
180.361370550236
  0
LINE
  8
0
  6
CONTINUOUS
 62
     7
 10
74.9821815878496
 20
181.2649640288486
 11
75.12060987019753
 21
180.9258853711262
  0
LINE
  8
0
  6
CONTINUOUS
 62
     7
 10
76.29014867593821
 20
181.5252136778153
 11
76.27327946521747
 21
181.2971187887861
  0
LINE
  8
0
  6
CONTINUOUS
 62
     7
 10
74.97154920901312
 20
179.4846913209094
 11
78.32495316857704
 21
179.4846913209094
  0
LINE
  8
0
  6
CONTINUOUS
 62
     7
 10
76.89113449809793
 20
181.6675278644783
 11
76.74934720250107
 21
181.828872566181
  0
LINE
  8
0
  6
CONTINUOUS
 62
     7
 10
80.81630352225729
 20
180.9953743833427
 11
77.63507119644832
 21
181.2355120656416
  0
LINE
  8
0
  6
CONTINUOUS
 62
     7
 10
80.02813043314659
 20
180.361370550236
 11
80.16462425740362
 21
180.3512026222935
  0
ARC
  8
0
  6
CONTINUOUS
 62
     7
 10
79.62944286610251
 20
178.2820641953393
 40
2.137230205544919
 50
21.36196126260609
 51
75.49829194311006
  0
LINE
  8
0
  6
CONTINUOUS
 62
     7
 10
76.74934720250107
 20
181.828872566181
 11
76.35460214913894
 21
182.045796525406
  0
ARC
  8
0
  6
CONTINUOUS
 62
     7
 10
80.32358887486998
 20
178.8994622160985
 40
2.168230615298562
 50
21.5867227772447
 51
73.49734740199267
  0
LINE
  8
0
  6
CONTINUOUS
 62
     7
 10
80.93949588770734
 20
180.9783760076386
 11
80.81630352225729
 21
180.9953743833427
  0
LINE
  8
0
  6
CONTINUOUS
 62
     7
 10
80.81630352225729
 20
199.0046256166573
 11
80.95635114652009
 21
199.0250920867559
  0
ARC
  8
0
  6
CONTINUOUS
 62
     7
 10
80.3219758669456
 20
201.0996862423769
 40
2.169417642103937
 50
287.0027326340278
 51
338.4498627728373
  0
LINE
  8
0
  6
CONTINUOUS
 62
     7
 10
76.75969528983003
 20
180.3750640633286
 11
76.94114762660992
 21
180.3613700696977
  0
LINE
  8
0
  6
CONTINUOUS
 62
     7
 10
76.71507720708692
 20
180.4843555993506
 11
76.75969528983003
 21
180.3750640633286
  0
LINE
  8
0
  6
CONTINUOUS
 62
     7
 10
74.9821815878496
 20
181.2649640288486
 11
76.18426311586673
 21
181.2649640288486
  0
LINE
  8
0
  6
CONTINUOUS
 62
     7
 10
76.35460214913894
 20
197.954203474594
 11
76.74934720250107
 21
198.171127433819
  0
LINE
  8
0
  6
CONTINUOUS
 62
     7
 10
83.62142225913597
 20
183.1465635315525
 11
83.71437090362794
 21
182.9209265285596
  0
ARC
  8
0
  6
CONTINUOUS
 62
     7
 10
82.67867325840777
 20
198.9860678062784
 40
3.177573589823311
 50
276.6367415829327
 51
314.2740590092995
  0
LINE
  8
0
  6
CONTINUOUS
 62
     7
 10
79.80409680769918
 20
195.6668023182924
 11
83.04591858895598
 21
195.8297875928099
  0
LINE
  8
0
  6
CONTINUOUS
 62
     7
 10
82.54716626362304
 20
196.8006079860598
 11
79.30534448236624
 21
196.6376227115423
  0
LINE
  8
0
  6
CONTINUOUS
 62
     7
 10
78.31918381929322
 20
195.1168493336224
 11
78.76866124300724
 21
195.264079084094
  0
LINE
  8
0
  6
CONTINUOUS
 62
     7
 10
83.62142225913597
 20
196.8534364684475
 11
83.50372089126503
 21
196.7324999258518
  0
ARC
  8
0
  6
CONTINUOUS
 62
     7
 10
83.67488614400732
 20
201.6632398802088
 40
8.848265748202575
 50
272.0619758242701
 51
285.3927402800243
  0
LINE
  8
0
  6
CONTINUOUS
 62
     7
 10
83.64040844502676
 20
197.136310499596
 11
83.71435375497873
 21
197.0791105080175
  0
LINE
  8
0
  6
CONTINUOUS
 62
     7
 10
79.07362809739021
 20
183.8233758091384
 11
79.14582167178145
 21
183.7491979007382
  0
LINE
  8
0
  6
CONTINUOUS
 62
     7
 10
78.46201404111228
 20
183.8233758091384
 11
79.07362809739023
 21
183.8233758091384
  0
LINE
  8
0
  6
CONTINUOUS
 62
     7
 10
78.76866124300726
 20
184.735920915906
 11
78.31918381929322
 21
184.8831506663776
  0
LINE
  8
0
  6
CONTINUOUS
 62
     7
 10
83.04591858895598
 20
184.1702124071901
 11
79.80409680769918
 21
184.3331976817076
  0
LINE
  8
0
  6
CONTINUOUS
 62
     7
 10
78.23029876610305
 20
188.4177956017897
 11
78.8537349447404
 21
188.2303904543953
  0
LINE
  8
0
  6
CONTINUOUS
 62
     7
 10
79.43666286066058
 20
188.4802752291943
 11
79.52148482116225
 21
188.4358645615324
  0
ARC
  8
0
  6
CONTINUOUS
 62
     7
 10
83.67358912473422
 20
178.3283110446813
 40
8.856756075445885
 50
74.61367827582234
 51
87.9316056198831
  0
LINE
  8
0
  6
CONTINUOUS
 62
     7
 10
79.02089719774709
 20
188.6052545422495
 11
79.43666286066058
 21
188.4802752291943
  0
LINE
  8
0
  6
CONTINUOUS
 62
     7
 10
78.95115763316177
 20
184.6264136938522
 11
78.76866124300726
 21
184.735920915906
  0
LINE
  8
0
  6
CONTINUOUS
 62
     7
 10
79.29787772852154
 20
188.6052545422495
 11
79.02089719774709
 21
188.6052545422495
  0
LINE
  8
0
  6
CONTINUOUS
 62
     7
 10
84.16967008362091
 20
188.353073667792
 11
80.89468659435006
 21
188.4107248998893
  0
LINE
  8
0
  6
CONTINUOUS
 62
     7
 10
78.76866124300724
 20
195.264079084094
 11
78.95115763316177
 21
195.3735863061478
  0
LINE
  8
0
  6
CONTINUOUS
 62
     7
 10
76.75969528983003
 20
199.6249359366714
 11
76.07762161836449
 21
197.954203474594
  0
LINE
  8
0
  6
CONTINUOUS
 62
     7
 10
77.14377613540607
 20
184.3531871988148
 11
78.34585766342319
 21
184.3531871988148
  0
LINE
  8
0
  6
CONTINUOUS
 62
     7
 10
76.94114762660989
 20
199.6386299303023
 11
76.75969528983003
 21
199.6249359366714
  0
LINE
  8
0
  6
CONTINUOUS
 62
     7
 10
76.74934720250107
 20
198.171127433819
 11
76.89113449809793
 21
198.3324721355217
  0
ARC
  8
0
  6
CONTINUOUS
 62
     7
 10
80.01538399201074
 20
186.3349831398185
 40
2.012905187672361
 50
238.0822253710949
 51
263.9747757664633
  0
LINE
  8
0
  6
CONTINUOUS
 62
     7
 10
78.04220328851876
 20
195.1168493336224
 11
78.31918381929322
 21
195.1168493336224
  0
LINE
  8
0
  6
CONTINUOUS
 62
     7
 10
78.23029876610305
 20
188.4177956017897
 11
79.43238029412018
 21
188.4177956017897
  0
ARC
  8
0
  6
CONTINUOUS
 62
     7
 10
82.67244773479437
 20
181.0008539226146
 40
3.19128715139505
 50
45.80982655150434
 51
83.2793728562646
  0
ARC
  8
0
  6
CONTINUOUS
 62
     7
 10
83.85008392389067
 20
179.5025824610191
 40
8.856259363560634
 50
74.61330311057412
 51
87.9319807851313
  0
LINE
  8
0
  6
CONTINUOUS
 62
     7
 10
84.95344990158979
 20
187.9909880800583
 11
85.09466998374842
 21
187.9169777200748
  0
LINE
  8
0
  6
CONTINUOUS
 62
     7
 10
83.50372089126503
 20
183.2675000741482
 11
83.62142225913597
 21
183.1465635315525
  0
LINE
  8
0
  6
CONTINUOUS
 62
     7
 10
82.88675934334294
 20
196.4388331614794
 11
79.14582167178145
 21
196.2508020992618
  0
LINE
  8
0
  6
CONTINUOUS
 62
     7
 10
78.38607929120204
 20
184.5298227858408
 11
78.44209542944283
 21
184.3947297480875
  0
ARC
  8
0
  6
CONTINUOUS
 62
     7
 10
80.00320723419165
 20
193.7004379604373
 40
1.976419426584554
 50
95.78195743709512
 51
122.161041425347
  0
LINE
  8
0
  6
CONTINUOUS
 62
     7
 10
80.26794850711347
 20
188.2303904543953
 11
80.35523464828255
 21
188.2041522078645
  0
LINE
  8
0
  6
CONTINUOUS
 62
     7
 10
84.81114224750274
 20
188.0337658138559
 11
84.95344990158979
 21
187.9909880800583
  0
ARC
  8
0
  6
CONTINUOUS
 62
     7
 10
82.17869028708753
 20
199.9594734795559
 40
3.180283910484101
 50
276.6533812376451
 51
314.2574193545869
  0
LINE
  8
0
  6
CONTINUOUS
 62
     7
 10
79.14582167178145
 20
196.2508020992618
 11
78.04220328851876
 21
195.1168493336224
  0
LINE
  8
0
  6
CONTINUOUS
 62
     7
 10
79.14582167178145
 20
183.7491979007382
 11
82.88675934334294
 21
183.5611668385206
  0
LINE
  8
0
  6
CONTINUOUS
 62
     7
 10
79.30534448236624
 20
183.3623772884577
 11
82.54716626362304
 21
183.1993920139402
  0
LINE
  8
0
  6
CONTINUOUS
 62
     7
 10
78.04220328851876
 20
184.8831506663776
 11
78.38607929120204
 21
184.5298227858408
  0
LINE
  8
0
  6
CONTINUOUS
 62
     7
 10
78.31918381929322
 20
184.8831506663776
 11
78.04220328851876
 21
184.8831506663776
  0
ARC
  8
0
  6
CONTINUOUS
 62
     7
 10
82.17315505033942
 20
180.0288983697328
 40
3.192477773708235
 50
45.81707360380897
 51
83.27212580396048
  0
LINE
  8
0
  6
CONTINUOUS
 62
     7
 10
77.14377613540607
 20
184.3531871988148
 11
77.47132431489773
 21
184.016635932863
  0
ARC
  8
0
  6
CONTINUOUS
 62
     7
 10
79.50607311507639
 20
185.3334488635805
 40
1.98126604428756
 50
237.871803197148
 51
264.18519794041
  0
LINE
  8
0
  6
CONTINUOUS
 62
     7
 10
84.13442995508926
 20
188.1376417673262
 11
84.81114224750274
 21
188.0337658138559
  0
LINE
  8
0
  6
CONTINUOUS
 62
     7
 10
76.27327946521747
 20
181.2971187887861
 11
76.18426311586671
 21
181.2649640288486
  0
LINE
  8
0
  6
CONTINUOUS
 62
     7
 10
83.99325116386268
 20
192.8207034530886
 11
80.71826767459181
 21
192.7630522209912
  0
LINE
  8
0
  6
CONTINUOUS
 62
     7
 10
78.2699089176743
 20
183.765100522656
 11
78.45240530782883
 21
183.6555933006023
  0
LINE
  8
0
  6
CONTINUOUS
 62
     7
 10
79.52148482116225
 20
188.4358645615324
 11
79.43238029412018
 21
188.4177956017897
  0
LINE
  8
0
  6
CONTINUOUS
 62
     7
 10
80.35523464828253
 20
191.7958477921355
 11
79.02089719774709
 21
191.3947454577505
  0
LINE
  8
0
  6
CONTINUOUS
 62
     7
 10
85.09466805160005
 20
192.0830397576291
 11
84.95344990158979
 21
192.0090119199417
  0
LINE
  8
0
  6
CONTINUOUS
 62
     7
 10
77.82043149396027
 20
196.0876697268723
 11
77.54345096318582
 21
196.0876697268723
  0
LINE
  8
0
  6
CONTINUOUS
 62
     7
 10
78.45240530782883
 20
196.3444066993977
 11
78.2699089176743
 21
196.234899477344
  0
LINE
  8
0
  6
CONTINUOUS
 62
     7
 10
83.71435375497873
 20
197.0791105080175
 11
83.62142225913597
 21
196.8534364684475
  0
LINE
  8
0
  6
CONTINUOUS
 62
     7
 10
83.71437090362794
 20
182.9209265285596
 11
83.64052593832282
 21
182.8637259401954
  0
LINE
  8
0
  6
CONTINUOUS
 62
     7
 10
78.0538798463448
 20
192.7559815190909
 11
78.80599886665043
 21
192.7559815190909
  0
LINE
  8
0
  6
CONTINUOUS
 62
     7
 10
85.09466998374842
 20
187.9169777200748
 11
84.94610762007989
 21
187.8869168917786
  0
LINE
  8
0
  6
CONTINUOUS
 62
     7
 10
78.84447827798884
 20
187.4314774213689
 11
79.1214588087633
 21
187.4314774213689
  0
ARC
  8
0
  6
CONTINUOUS
 62
     7
 10
83.85000804449247
 20
200.4979118344382
 40
8.856756075445885
 50
272.0683943801169
 51
285.3863217241777
  0
LINE
  8
0
  6
CONTINUOUS
 62
     7
 10
78.44209542944283
 20
184.3947297480875
 11
78.34585766342319
 21
184.3531871988147
  0
LINE
  8
0
  6
CONTINUOUS
 62
     7
 10
84.13442995508926
 20
191.8623582326738
 11
80.35523464828253
 21
191.7958477921355
  0
LINE
  8
0
  6
CONTINUOUS
 62
     7
 10
84.81114224750274
 20
191.9662341861441
 11
84.13442995508926
 21
191.8623582326738
  0
LINE
  8
0
  6
CONTINUOUS
 62
     7
 10
84.94610762007989
 20
192.1130831082214
 11
85.09466805160005
 21
192.0830397576291
  0
LINE
  8
0
  6
CONTINUOUS
 62
     7
 10
84.95344990158979
 20
192.0090119199417
 11
84.81114224750274
 21
191.9662341861441
  0
ARC
  8
0
  6
CONTINUOUS
 62
     7
 10
79.51663166667706
 20
194.6358372534336
 40
2.012905187670186
 50
96.02522423352221
 51
121.9177746289192
  0
LINE
  8
0
  6
CONTINUOUS
 62
     7
 10
77.82043149396027
 20
183.9123302731277
 11
78.2699089176743
 21
183.765100522656
  0
LINE
  8
0
  6
CONTINUOUS
 62
     7
 10
80.89468659435006
 20
191.5892751001107
 11
84.16967008362091
 21
191.646926332208
  0
LINE
  8
0
  6
CONTINUOUS
 62
     7
 10
80.71826767459181
 20
187.2369477790088
 11
83.99325116386268
 21
187.1792965469114
  0
LINE
  8
0
  6
CONTINUOUS
 62
     7
 10
78.2699089176743
 20
196.234899477344
 11
77.82043149396027
 21
196.0876697268723
  0
LINE
  8
0
  6
CONTINUOUS
 62
     7
 10
79.02089719774709
 20
191.3947454577505
 11
79.29787772852154
 21
191.3947454577505
  0
LINE
  8
0
  6
CONTINUOUS
 62
     7
 10
77.54345096318582
 20
183.9123302731277
 11
77.82043149396027
 21
183.9123302731277
  0
LINE
  8
0
  6
CONTINUOUS
 62
     7
 10
47.07461303506932
 20
69.82047763028633
 11
47.07461303506932
 21
98.82047763028632
  0
LINE
  8
0
  6
CONTINUOUS
 62
     7
 10
59.9152334686353
 20
69.82047763028633
 11
59.9152334686353
 21
98.82047763028633
  0
LINE
  8
0
  6
CONTINUOUS
 62
     7
 10
66.89571148416671
 20
141.2546749129274
 11
66.94812293038221
 21
141.2022634667119
  0
LINE
  8
0
  6
CONTINUOUS
 62
     7
 10
68.99492325185233
 20
69.82047763028633
 11
68.99492325185233
 21
98.82047763028633
  0
LINE
  8
0
  6
CONTINUOUS
 62
     7
 10
54.09447261928366
 20
69.51965304809791
 11
53.92631137341035
 21
69.53534210195433
  0
LINE
  8
0
  6
CONTINUOUS
 62
     7
 10
50.6222381079612
 20
98.82047763028633
 11
50.62223810796119
 21
102.8204776302863
  0
LINE
  8
0
  6
CONTINUOUS
 62
     7
 10
37.99492325185234
 20
69.82047763028632
 11
37.99492325185233
 21
98.82047763028632
  0
LINE
  8
0
  6
CONTINUOUS
 62
     7
 10
83.49492325185236
 20
66.82047763028633
 11
23.4949232518523
 21
66.8204776302863
  0
LINE
  8
0
  6
CONTINUOUS
 62
     7
 10
43.31971029580956
 20
102.8204776302863
 11
43.31971029580956
 21
98.82047763028632
  0
LINE
  8
0
  6
CONTINUOUS
 62
     7
 10
56.3676083957434
 20
102.8204776302863
 11
56.3676083957434
 21
98.82047763028633
  0
LINE
  8
0
  6
CONTINUOUS
 62
     7
 10
63.67013620789505
 20
98.82047763028633
 11
63.67013620789505
 21
102.8204776302863
  0
LINE
  8
0
  6
CONTINUOUS
 62
     7
 10
67.73272649881355
 20
102.8204776302863
 11
67.73272649881355
 21
98.82047763028633
  0
LINE
  8
0
  6
CONTINUOUS
 62
     7
 10
39.25712000489106
 20
98.82047763028633
 11
39.25712000489106
 21
102.8204776302863
  0
LINE
  8
0
  6
CONTINUOUS
 62
     7
 10
23.8022674502387
 20
68.56351319540879
 11
23.4949232518523
 21
66.8204776302863
  0
LINE
  8
0
  6
CONTINUOUS
 62
     7
 10
68.49492325184634
 20
104.6701204965435
 11
67.80102347349316
 21
105.1368141362968
  0
ARC
  8
0
  6
CONTINUOUS
 62
     7
 10
83.84949461674904
 20
120.4182941690442
 40
2.977997565447231
 50
315.0533019118791
 51
0.5008963713599996
  0
LINE
  8
0
  6
CONTINUOUS
 62
     7
 10
83.49492325185236
 20
66.82047763028633
 11
83.18757905346595
 21
68.56351319540882
  0
ARC
  8
0
  6
CONTINUOUS
 62
     7
 10
82.20277130045238
 20
68.38986501778635
 40
0.9999999999999228
 50
9.999999997478291
 51
88.00000000042341
  0
LINE
  8
0
  6
CONTINUOUS
 62
     7
 10
35.9949232518523
 20
69.7818612402864
 11
24.75217570655727
 21
69.3892558448056
  0
ARC
  8
0
  6
CONTINUOUS
 62
     7
 10
67.07442325185241
 20
70.31613323558639
 40
0.4999999999999474
 50
262.4415590318848
 51
269.499426759887
  0
LINE
  8
0
  6
CONTINUOUS
 62
     7
 10
60.76536344651125
 20
106.1060027075363
 11
58.63852538996007
 21
106.668948698468
  0
ARC
  8
0
  6
CONTINUOUS
 62
     7
 10
39.91542325185225
 20
70.31613323558639
 40
0.4999999999999317
 50
270.5005732401128
 51
277.5584409681152
  0
LINE
  8
0
  6
CONTINUOUS
 62
     7
 10
86.76622167935373
 20
121.3841647177404
 11
86.97754406986466
 21
121.1728423272295
  0
LINE
  8
0
  6
CONTINUOUS
 62
     7
 10
72.04340318422386
 20
98.82047763028633
 11
72.04340318422386
 21
102.8204776302863
  0
LINE
  8
0
  6
CONTINUOUS
 62
     7
 10
34.94644331948077
 20
102.8204776302863
 11
34.94644331948077
 21
98.82047763028633
  0
ARC
  8
0
  6
CONTINUOUS
 62
     7
 10
67.60281826535325
 20
140.5475681317409
 40
0.9999999999999966
 50
45.00000000000001
 51
134.9999999999998
  0
ARC
  8
0
  6
CONTINUOUS
 62
     7
 10
24.78707520325228
 20
68.38986501778632
 40
0.9999999999999354
 50
91.99999999957653
 51
170.0000000025222
  0
ARC
  8
0
  6
CONTINUOUS
 62
     7
 10
86.27043728867811
 20
121.8799491084161
 40
0.9999999999999966
 50
315.0000000000004
 51
45.0
  0
LINE
  8
0
  6
CONTINUOUS
 62
     7
 10
75.16863272271404
 20
107.5259095516644
 11
85.95721495585171
 21
118.3144917848021
  0
LINE
  8
0
  6
CONTINUOUS
 62
     7
 10
38.4949232518523
 20
103.5204776302863
 11
68.49492325185234
 21
103.5204776302863
  0
LINE
  8
0
  6
CONTINUOUS
 62
     7
 10
82.23767079714753
 20
69.38925584480562
 11
70.9949232518525
 21
69.78186124028643
  0
ARC
  8
0
  6
CONTINUOUS
 62
     7
 10
65.90416977956383
 20
101.7003608889335
 40
3.925208893484196
 50
61.1021777570537
 51
86.88684013725674
  0
LINE
  8
0
  6
CONTINUOUS
 62
     7
 10
54.89092043596523
 20
127.8036530637254
 11
54.85986692804371
 21
127.8435053318689
  0
ARC
  8
0
  6
CONTINUOUS
 62
     7
 10
61.34492325185233
 20
104.5204776302864
 40
17.2
 50
140.0767461649314
 51
169.3428806669688
  0
ARC
  8
0
  6
CONTINUOUS
 62
     7
 10
83.97754406986465
 20
120.2941626707892
 40
2.999999999999999
 50
315.0
 51
359.9999999999999
  0
LINE
  8
0
  6
CONTINUOUS
 62
     7
 10
150.1752129560427
 20
98.82047763028635
 11
150.1752129560427
 21
102.8204776302864
  0
ARC
  8
0
  6
CONTINUOUS
 62
     7
 10
43.45876873976429
 20
107.8858122005353
 40
0.999999999999998
 50
285.0000000000002
 51
349.3442026189326
  0
LINE
  8
0
  6
CONTINUOUS
 62
     7
 10
86.97754406986466
 20
120.2941626707891
 11
86.97754406986466
 21
121.1728423272295
  0
ARC
  8
0
  6
CONTINUOUS
 62
     7
 10
47.38731698357122
 20
116.2005986596096
 40
1.000000000000004
 50
320.0764507278163
 51
14.99999999999994
  0
LINE
  8
0
  6
CONTINUOUS
 62
     7
 10
55.15773891647001
 20
127.5368033579085
 11
54.94560688211405
 21
127.3246713235525
  0
LINE
  8
0
  6
CONTINUOUS
 62
     7
 10
142.8726851438911
 20
102.8204776302864
 11
142.8726851438911
 21
98.82047763028635
  0
LINE
  8
0
  6
CONTINUOUS
 62
     7
 10
40.24492325185232
 20
103.5204776302864
 11
40.24492325185232
 21
102.8204776302863
  0
LINE
  8
0
  6
CONTINUOUS
 62
     7
 10
75.31028218028662
 20
107.3842600940919
 11
86.0988644134243
 21
118.1728423272295
  0
LINE
  8
0
  6
CONTINUOUS
 62
     7
 10
137.1273148561089
 20
98.82047763028635
 11
137.1273148561089
 21
102.8204776302864
  0
ARC
  8
0
  6
CONTINUOUS
 62
     7
 10
38.99492325185231
 20
105.1368141362968
 40
0.5000000000000022
 50
105.0
 51
179.9999999999987
  0
LINE
  8
0
  6
CONTINUOUS
 62
     7
 10
66.74492325185233
 20
102.8204776302863
 11
66.74492325185233
 21
103.5204776302864
  0
LINE
  8
0
  6
CONTINUOUS
 62
     7
 10
38.49492325185231
 20
105.1368141362968
 11
38.49492325185231
 21
103.5204776302862
  0
LINE
  8
0
  6
CONTINUOUS
 62
     7
 10
129.8247870439573
 20
102.8204776302864
 11
129.8247870439573
 21
98.82047763028635
  0
LINE
  8
0
  6
CONTINUOUS
 62
     7
 10
154.2378032469612
 20
102.8204776302863
 11
154.2378032469612
 21
98.82047763028635
  0
LINE
  8
0
  6
CONTINUOUS
 62
     7
 10
127.7970961357026
 20
133.0115388809816
 11
127.1069533733113
 21
133.0975872634805
  0
LINE
  8
0
  6
CONTINUOUS
 62
     7
 10
124.5
 20
69.82047763028635
 11
124.5
 21
98.82047763028633
  0
LINE
  8
0
  6
CONTINUOUS
 62
     7
 10
150.3028260431709
 20
136.6168744688928
 11
150.9463327356077
 21
136.8795849759821
  0
LINE
  8
0
  6
CONTINUOUS
 62
     7
 10
133.5796897832171
 20
69.82047763028635
 11
133.5796897832171
 21
98.82047763028635
  0
LINE
  8
0
  6
CONTINUOUS
 62
     7
 10
152.8930466266887
 20
130.7441435390496
 11
152.2029038642975
 21
130.8301919215485
  0
LINE
  8
0
  6
CONTINUOUS
 62
     7
 10
150.9394313757832
 20
135.8969716105187
 11
151.5463327356076
 21
136.1447380531472
  0
LINE
  8
0
  6
CONTINUOUS
 62
     7
 10
137.8869168917786
 20
140.9910054161091
 11
138.0414072380114
 21
140.4770661117151
  0
LINE
  8
0
  6
CONTINUOUS
 62
     7
 10
127.3153311865117
 20
133.9332243518645
 11
128.0054739489029
 21
133.8471759693656
  0
LINE
  8
0
  6
CONTINUOUS
 62
     7
 10
128.4536672643924
 20
127.696992749383
 11
129.0605686242168
 21
127.9447591920114
  0
LINE
  8
0
  6
CONTINUOUS
 62
     7
 10
143.286860229102
 20
140.8145864963508
 11
143.1323698828692
 21
140.3006471919568
  0
LINE
  8
0
  6
CONTINUOUS
 62
     7
 10
136.8676301171308
 20
140.3006471919568
 11
136.713139770898
 21
140.8145864963508
  0
LINE
  8
0
  6
CONTINUOUS
 62
     7
 10
132.852344820624
 20
139.5991147276656
 11
133.2891030749581
 21
139.1740401979933
  0
LINE
  8
0
  6
CONTINUOUS
 62
     7
 10
152.6846688134884
 20
133.9332243518645
 11
151.9945260510972
 21
133.8471759693656
  0
LINE
  8
0
  6
CONTINUOUS
 62
     7
 10
125.7621967530388
 20
98.82047763028635
 11
125.7621967530388
 21
102.8204776302863
  0
LINE
  8
0
  6
CONTINUOUS
 62
     7
 10
146.420310216783
 20
69.82047763028635
 11
146.420310216783
 21
98.82047763028635
  0
LINE
  8
0
  6
CONTINUOUS
 62
     7
 10
146.710896925042
 20
139.1740401979933
 11
147.147655179376
 21
139.5991147276656
  0
LINE
  8
0
  6
CONTINUOUS
 62
     7
 10
141.9585927619886
 20
140.4770661117151
 11
142.1130831082214
 21
140.9910054161091
  0
LINE
  8
0
  6
CONTINUOUS
 62
     7
 10
155.5
 20
69.82047763028635
 11
155.5
 21
98.82047763028635
  0
LINE
  8
0
  6
CONTINUOUS
 62
     7
 10
129.0536672643924
 20
136.8795849759821
 11
129.6971739568291
 21
136.6168744688928
  0
LINE
  8
0
  6
CONTINUOUS
 62
     7
 10
129.0605686242168
 20
135.8969716105187
 11
128.4536672643924
 21
136.1447380531472
  0
LINE
  8
0
  6
CONTINUOUS
 62
     7
 10
127.1069533733113
 20
130.7441435390496
 11
127.7970961357026
 21
130.8301919215485
  0
LINE
  8
0
  6
CONTINUOUS
 62
     7
 10
128.0054739489029
 20
129.9945548331645
 11
127.3153311865116
 21
129.9085064506656
  0
LINE
  8
0
  6
CONTINUOUS
 62
     7
 10
148.1184755726259
 20
139.1003624023326
 11
147.6817173182919
 21
138.6752878726603
  0
LINE
  8
0
  6
CONTINUOUS
 62
     7
 10
132.3182826817082
 20
138.6752878726603
 11
131.881524427374
 21
139.1003624023326
  0
LINE
  8
0
  6
CONTINUOUS
 62
     7
 10
152.2029038642975
 20
133.0115388809816
 11
152.8930466266887
 21
133.0975872634805
  0
LINE
  8
0
  6
CONTINUOUS
 62
     7
 10
129.0536672643924
 20
126.962145826548
 11
129.6971739568291
 21
127.2248563336373
  0
LINE
  8
0
  6
CONTINUOUS
 62
     7
 10
133.223187217745
 20
124.6035379991143
 11
133.1993920139402
 21
125.0305296983062
  0
LINE
  8
0
  6
CONTINUOUS
 62
     7
 10
130.361370550236
 20
127.4151491827611
 11
130.2463178026832
 21
127.8042700571768
  0
LINE
  8
0
  6
CONTINUOUS
 62
     7
 10
129.0536672643924
 20
135.8997890788688
 11
129.0536672643924
 21
136.8795849759821
  0
LINE
  8
0
  6
CONTINUOUS
 62
     7
 10
137.1792965469114
 20
123.5844447980665
 11
137.0924331723983
 21
123.9644718405944
  0
LINE
  8
0
  6
CONTINUOUS
 62
     7
 10
142.9075729978423
 20
123.9644730466986
 11
142.8207034530886
 21
123.5844447980665
  0
LINE
  8
0
  6
CONTINUOUS
 62
     7
 10
151.9945260510972
 20
129.9945548331645
 11
152.6846688134883
 21
129.9085064506656
  0
LINE
  8
0
  6
CONTINUOUS
 62
     7
 10
146.710896925042
 20
124.6676906045368
 11
147.147655179376
 21
124.2426160748645
  0
LINE
  8
0
  6
CONTINUOUS
 62
     7
 10
150.9463327356077
 20
136.8795849759821
 11
150.9463327356077
 21
135.8997890788689
  0
LINE
  8
0
  6
CONTINUOUS
 62
     7
 10
149.638629449764
 20
127.3471961917818
 11
149.638629449764
 21
127.4151491827611
  0
LINE
  8
0
  6
CONTINUOUS
 62
     7
 10
152.6846688134884
 20
133.0716063001905
 11
152.6846688134884
 21
133.9332243518645
  0
LINE
  8
0
  6
CONTINUOUS
 62
     7
 10
130.361370550236
 20
127.347072130119
 11
130.361370550236
 21
127.4151491827611
  0
LINE
  8
0
  6
CONTINUOUS
 62
     7
 10
137.0924331723983
 20
123.9644718405944
 11
136.8676301171308
 21
123.5410836105733
  0
LINE
  8
0
  6
CONTINUOUS
 62
     7
 10
149.7536645183388
 20
127.8042453177609
 11
149.638629449764
 21
127.4151491827611
  0
LINE
  8
0
  6
CONTINUOUS
 62
     7
 10
150.3028260431709
 20
127.2248563336373
 11
150.9463327356077
 21
126.962145826548
  0
LINE
  8
0
  6
CONTINUOUS
 62
     7
 10
142.1130831082214
 20
140.9910054161091
 11
142.1130831082214
 21
139.2232384631427
  0
LINE
  8
0
  6
CONTINUOUS
 62
     7
 10
141.9585927619886
 20
123.364664690815
 11
142.1130831082214
 21
122.850725386421
  0
LINE
  8
0
  6
CONTINUOUS
 62
     7
 10
151.5463327356076
 20
127.696992749383
 11
150.9394313757832
 21
127.9447591920114
  0
LINE
  8
0
  6
CONTINUOUS
 62
     7
 10
148.118475572626
 20
124.7413684001975
 11
147.6817173182919
 21
125.1664429298698
  0
LINE
  8
0
  6
CONTINUOUS
 62
     7
 10
132.852344820624
 20
124.2426160748645
 11
133.2891030749581
 21
124.6676906045368
  0
LINE
  8
0
  6
CONTINUOUS
 62
     7
 10
137.8869168917786
 20
139.2232384631427
 11
137.8869168917786
 21
140.9910054161091
  0
LINE
  8
0
  6
CONTINUOUS
 62
     7
 10
141.7362755956744
 20
123.7884398030374
 11
141.9585927619886
 21
123.364664690815
  0
LINE
  8
0
  6
CONTINUOUS
 62
     7
 10
127.3153311865117
 20
133.0716063001905
 11
127.3153311865117
 21
133.9332243518645
  0
LINE
  8
0
  6
CONTINUOUS
 62
     7
 10
136.8676301171308
 20
123.5410836105733
 11
136.713139770898
 21
123.0271443061793
  0
LINE
  8
0
  6
CONTINUOUS
 62
     7
 10
132.3182826817082
 20
125.1664429298698
 11
131.8815244273741
 21
124.7413684001975
  0
LINE
  8
0
  6
CONTINUOUS
 62
     7
 10
142.8207034530886
 20
123.5844447980665
 11
142.8079709969687
 21
122.9458459194422
  0
LINE
  8
0
  6
CONTINUOUS
 62
     7
 10
132.852344820624
 20
137.9390702413978
 11
132.852344820624
 21
139.5991147276656
  0
LINE
  8
0
  6
CONTINUOUS
 62
     7
 10
138.0414072380114
 20
123.364664690815
 11
138.2637102039604
 21
123.78844144932
  0
LINE
  8
0
  6
CONTINUOUS
 62
     7
 10
143.1323698828692
 20
123.5410836105733
 11
142.9075729978423
 21
123.9644730466986
  0
LINE
  8
0
  6
CONTINUOUS
 62
     7
 10
143.286860229102
 20
123.0271443061793
 11
143.1323698828692
 21
123.5410836105733
  0
LINE
  8
0
  6
CONTINUOUS
 62
     7
 10
137.8869168917786
 20
122.850725386421
 11
138.0414072380114
 21
123.364664690815
  0
LINE
  8
0
  6
CONTINUOUS
 62
     7
 10
147.147655179376
 20
139.5991147276656
 11
147.147655179376
 21
137.9393693560249
  0
LINE
  8
0
  6
CONTINUOUS
 62
     7
 10
137.1919847234024
 20
122.948066751924
 11
137.1792965469114
 21
123.5844447980665
  0
LINE
  8
0
  6
CONTINUOUS
 62
     7
 10
146.8006079860598
 20
125.0305296983062
 11
146.776812782255
 21
124.6035379991143
  0
LINE
  8
0
  6
CONTINUOUS
 62
     7
 10
130.361370550236
 20
130.0626205890901
 11
130.361370550236
 21
134.3052612762094
  0
ARC
  8
0
  6
CONTINUOUS
 62
     7
 10
130.0288983697328
 20
136.4502858934023
 40
3.192477773708205
 50
6.727874196039066
 51
44.18292639619114
  0
LINE
  8
0
  6
CONTINUOUS
 62
     7
 10
149.6386299303023
 20
131.2182784696726
 11
149.6249359366714
 21
131.0368261328929
  0
LINE
  8
0
  6
CONTINUOUS
 62
     7
 10
148.171127433819
 20
131.0264780455639
 11
148.3324721355217
 21
131.1682653411607
  0
LINE
  8
0
  6
CONTINUOUS
 62
     7
 10
146.8006079860598
 20
136.8242971066859
 11
146.6376227115423
 21
133.5824753254291
  0
LINE
  8
0
  6
CONTINUOUS
 62
     7
 10
134.8831506663776
 20
132.596314662356
 11
134.8831506663776
 21
132.3193341315816
  0
ARC
  8
0
  6
CONTINUOUS
 62
     7
 10
136.3349831398185
 20
134.2925148350736
 40
2.012905187672332
 50
186.0252242335364
 51
211.9177746289056
  0
LINE
  8
0
  6
CONTINUOUS
 62
     7
 10
133.7491979007382
 20
133.4229525148443
 11
133.5611668385206
 21
137.1638901864058
  0
ARC
  8
0
  6
CONTINUOUS
 62
     7
 10
131.0093973216181
 20
136.9536454099178
 40
3.182327974411811
 50
6.665910662852979
 51
44.24488992937786
  0
ARC
  8
0
  6
CONTINUOUS
 62
     7
 10
128.9640553343629
 20
134.6772957813369
 40
2.073506305712088
 50
11.57749750539472
 51
69.29449659076363
  0
LINE
  8
0
  6
CONTINUOUS
 62
     7
 10
149.638629449764
 20
134.3052612762094
 11
149.6471031910064
 21
134.4295783590593
  0
ARC
  8
0
  6
CONTINUOUS
 62
     7
 10
151.6868295047403
 20
133.9359695340559
 40
2.098602655830726
 50
110.8633805095633
 51
166.3960966000733
  0
LINE
  8
0
  6
CONTINUOUS
 62
     7
 10
149.0046256166573
 20
135.0934343653201
 11
149.0250920867559
 21
135.2334819895829
  0
ARC
  8
0
  6
CONTINUOUS
 62
     7
 10
151.0996862423769
 20
134.5991067100084
 40
2.169417642103944
 50
111.5501372271626
 51
162.9972673659715
  0
LINE
  8
0
  6
CONTINUOUS
 62
     7
 10
131.828872566181
 20
131.0264780455639
 11
132.045796525406
 21
130.6317329922018
  0
LINE
  8
0
  6
CONTINUOUS
 62
     7
 10
132.8637193957805
 20
137.9176356992982
 11
132.9208887555446
 21
137.9914842568416
  0
LINE
  8
0
  6
CONTINUOUS
 62
     7
 10
147.954203474594
 20
130.6317329922018
 11
148.171127433819
 21
131.0264780455639
  0
LINE
  8
0
  6
CONTINUOUS
 62
     7
 10
150.7236864922909
 20
130.0921934162903
 11
150.7236864922909
 21
131.7664469232558
  0
LINE
  8
0
  6
CONTINUOUS
 62
     7
 10
130.9953743833427
 20
135.0934343653201
 11
131.2355120656416
 21
131.9122020395112
  0
LINE
  8
0
  6
CONTINUOUS
 62
     7
 10
149.638629449764
 20
130.0626205890901
 11
149.638629449764
 21
134.3052612762094
  0
ARC
  8
0
  6
CONTINUOUS
 62
     7
 10
149.9594729422043
 20
136.4558213859407
 40
3.180283347114865
 50
135.7425771898002
 51
173.3466222179682
  0
LINE
  8
0
  6
CONTINUOUS
 62
     7
 10
148.4747863221847
 20
130.567279519001
 11
147.954203474594
 21
130.3547524614273
  0
LINE
  8
0
  6
CONTINUOUS
 62
     7
 10
130.3750640633287
 20
131.0368261328929
 11
130.3613700696978
 21
131.2182784696726
  0
LINE
  8
0
  6
CONTINUOUS
 62
     7
 10
149.5156444006494
 20
130.468492502988
 11
149.5156444006494
 21
130.9922080501497
  0
LINE
  8
0
  6
CONTINUOUS
 62
     7
 10
148.7350359711514
 20
129.2593124309124
 11
148.7350359711514
 21
130.4613939589296
  0
LINE
  8
0
  6
CONTINUOUS
 62
     7
 10
148.4747863221847
 20
130.567279519001
 11
148.702881211214
 21
130.5504103082803
  0
LINE
  8
0
  6
CONTINUOUS
 62
     7
 10
148.7644879343584
 20
131.9122020395112
 11
149.0046256166573
 21
135.0934343653201
  0
LINE
  8
0
  6
CONTINUOUS
 62
     7
 10
133.3623772884577
 20
133.5824753254291
 11
133.1993920139402
 21
136.8242971066859
  0
LINE
  8
0
  6
CONTINUOUS
 62
     7
 10
133.2675000741482
 20
137.7808517343279
 11
133.1465635315525
 21
137.8985531021988
  0
LINE
  8
0
  6
CONTINUOUS
 62
     7
 10
134.1702124071901
 20
137.3230494320188
 11
134.3331976817076
 21
134.081227650762
  0
LINE
  8
0
  6
CONTINUOUS
 62
     7
 10
148.7350359711514
 20
129.2593124309124
 11
149.0741146288738
 21
129.3977407132604
  0
LINE
  8
0
  6
CONTINUOUS
 62
     7
 10
132.045796525406
 20
130.3547524614273
 11
130.3750640633287
 21
131.0368261328929
  0
LINE
  8
0
  6
CONTINUOUS
 62
     7
 10
149.6249359366714
 20
131.0368261328929
 11
149.5156444006494
 21
130.9922080501497
  0
LINE
  8
0
  6
CONTINUOUS
 62
     7
 10
134.6264136938522
 20
133.2282884762246
 11
134.735920915906
 21
133.0457920860701
  0
LINE
  8
0
  6
CONTINUOUS
 62
     7
 10
131.6675278644783
 20
131.1682653411607
 11
131.828872566181
 21
131.0264780455639
  0
LINE
  8
0
  6
CONTINUOUS
 62
     7
 10
129.2763135077091
 20
130.0943369553148
 11
129.2763135077091
 21
131.7664469232558
  0
LINE
  8
0
  6
CONTINUOUS
 62
     7
 10
150.5153086790907
 20
129.248680052076
 11
150.5153086790907
 21
132.6020840116399
  0
LINE
  8
0
  6
CONTINUOUS
 62
     7
 10
134.735920915906
 20
133.0457920860701
 11
134.8831506663776
 21
132.596314662356
  0
LINE
  8
0
  6
CONTINUOUS
 62
     7
 10
134.8831506663776
 20
132.3193341315816
 11
133.7491979007382
 21
133.4229525148443
  0
LINE
  8
0
  6
CONTINUOUS
 62
     7
 10
146.8534364684475
 20
137.8985531021988
 11
147.0790692789216
 21
137.991503686572
  0
LINE
  8
0
  6
CONTINUOUS
 62
     7
 10
129.4846913209094
 20
129.2519716115173
 11
129.4846913209094
 21
132.6020840116399
  0
LINE
  8
0
  6
CONTINUOUS
 62
     7
 10
145.6468128011852
 20
131.4209069784689
 11
145.983364067137
 21
131.7484551579605
  0
LINE
  8
0
  6
CONTINUOUS
 62
     7
 10
146.4388331614794
 20
137.1638901864058
 11
146.2508020992618
 21
133.4229525148443
  0
LINE
  8
0
  6
CONTINUOUS
 62
     7
 10
146.2508020992618
 20
133.4229525148443
 11
146.1766241908617
 21
133.3507589404531
  0
LINE
  8
0
  6
CONTINUOUS
 62
     7
 10
145.6468128011852
 20
131.4209069784689
 11
145.6468128011852
 21
132.622988506486
  0
LINE
  8
0
  6
CONTINUOUS
 62
     7
 10
145.4701772141592
 20
132.6632101342649
 11
145.6052702519124
 21
132.7192262725057
  0
LINE
  8
0
  6
CONTINUOUS
 62
     7
 10
146.1766241908617
 20
132.7391448841751
 11
146.1766241908617
 21
133.3507589404531
  0
LINE
  8
0
  6
CONTINUOUS
 62
     7
 10
146.8534364684475
 20
137.8985531021988
 11
146.7324999258518
 21
137.7808517343279
  0
LINE
  8
0
  6
CONTINUOUS
 62
     7
 10
145.1168493336224
 20
132.3193341315816
 11
145.1168493336224
 21
132.596314662356
  0
ARC
  8
0
  6
CONTINUOUS
 62
     7
 10
143.7004379604372
 20
134.2803380772545
 40
1.976419426584694
 50
327.8389585746542
 51
354.2180425629045
  0
LINE
  8
0
  6
CONTINUOUS
 62
     7
 10
145.6668023182924
 20
134.081227650762
 11
145.8297875928099
 21
137.3230494320188
  0
LINE
  8
0
  6
CONTINUOUS
 62
     7
 10
145.4701772141592
 20
132.6632101342649
 11
145.1168493336224
 21
132.3193341315816
  0
ARC
  8
0
  6
CONTINUOUS
 62
     7
 10
128.3283110446812
 20
137.950719967797
 40
8.856756075445942
 50
2.068394380117081
 51
15.38632172417771
  0
LINE
  8
0
  6
CONTINUOUS
 62
     7
 10
145.264079084094
 20
133.0457920860701
 11
145.3735863061478
 21
133.2282884762246
  0
ARC
  8
0
  6
CONTINUOUS
 62
     7
 10
148.9860678062785
 20
136.9558041014706
 40
3.177573589823397
 50
135.725940990701
 51
173.3632584170671
  0
LINE
  8
0
  6
CONTINUOUS
 62
     7
 10
145.1168493336224
 20
132.596314662356
 11
145.264079084094
 21
133.0457920860701
  0
LINE
  8
0
  6
CONTINUOUS
 62
     7
 10
141.8580355010362
 20
138.4115607981521
 11
141.8580355010362
 21
132.3008949608238
  0
LINE
  8
0
  6
CONTINUOUS
 62
     7
 10
137.4114357170835
 20
133.3985896518261
 11
137.4114357170836
 21
132.1910963489247
  0
LINE
  8
0
  6
CONTINUOUS
 62
     7
 10
132.0483503673919
 20
130.6317329922018
 11
132.0483503673919
 21
129.9124682344368
  0
LINE
  8
0
  6
CONTINUOUS
 62
     7
 10
137.4687534662467
 20
133.4056406593568
 11
137.1704207273354
 21
134.9828144909993
  0
LINE
  8
0
  6
CONTINUOUS
 62
     7
 10
147.9516496326081
 20
130.6317329922018
 11
147.9516496326081
 21
130.1246002687928
  0
LINE
  8
0
  6
CONTINUOUS
 62
     7
 10
133.4124222140155
 20
131.5066502909289
 11
133.4124222140155
 21
130.8119204878982
  0
LINE
  8
0
  6
CONTINUOUS
 62
     7
 10
138.4315563078238
 20
135.1740802370466
 11
138.6052545422495
 21
133.5750085715844
  0
LINE
  8
0
  6
CONTINUOUS
 62
     7
 10
122.4999999999999
 20
69.78186124028643
 11
111.2572524547049
 21
69.38925584480565
  0
LINE
  8
0
  6
CONTINUOUS
 62
     7
 10
142.8295792726647
 20
134.9828144909993
 11
142.5312465337533
 21
133.4056406593569
  0
LINE
  8
0
  6
CONTINUOUS
 62
     7
 10
157.4999999999998
 20
69.78186124028643
 11
146.420818536965
 21
69.87865864700146
  0
LINE
  8
0
  6
CONTINUOUS
 62
     7
 10
141.0
 20
120.5501001330965
 11
141.0
 21
107.4068023047796
  0
LINE
  8
0
  6
CONTINUOUS
 62
     7
 10
141.4076318069176
 20
133.5735440418572
 11
141.5892751001107
 21
135.1718174374129
  0
LINE
  8
0
  6
CONTINUOUS
 62
     7
 10
150.7999999817826
 20
130.8606168387029
 11
150.696874710346
 21
129.6372289133485
  0
LINE
  8
0
  6
CONTINUOUS
 62
     7
 10
133.579181463035
 20
69.87865864700146
 11
122.4999999999999
 21
69.78186124028643
  0
LINE
  8
0
  6
CONTINUOUS
 62
     7
 10
168.7427475452952
 20
69.38925584480563
 11
157.5000000000001
 21
69.78186124028639
  0
LINE
  8
0
  6
CONTINUOUS
 62
     7
 10
129.3031911522612
 20
129.6369252109913
 11
129.2000000182175
 21
130.8597936202676
  0
LINE
  8
0
  6
CONTINUOUS
 62
     7
 10
137.5
 20
107.5259095516645
 11
137.5
 21
120.7508515863268
  0
LINE
  8
0
  6
CONTINUOUS
 62
     7
 10
157.5000000000001
 20
69.82047763028635
 11
122.4999999999999
 21
69.82047763028635
  0
LINE
  8
0
  6
CONTINUOUS
 62
     7
 10
158.5484799323715
 20
98.82047763028635
 11
121.4515200676285
 21
98.82047763028635
  0
LINE
  8
0
  6
CONTINUOUS
 62
     7
 10
63.89571148416668
 20
140.3759952564871
 11
47.8084252542474
 21
124.2887090265678
  0
LINE
  8
0
  6
CONTINUOUS
 62
     7
 10
121.4515200676285
 20
102.8204776302864
 11
158.5484799323715
 21
102.8204776302728
  0
LINE
  8
0
  6
CONTINUOUS
 62
     7
 10
170.0
 20
66.82047763028633
 11
110.0
 21
66.82047763028633
  0
LINE
  8
0
  6
CONTINUOUS
 62
     7
 10
47.03195315209219
 20
121.3909874069491
 11
48.35353782420009
 21
116.4583824204917
  0
LINE
  8
0
  6
CONTINUOUS
 62
     7
 10
68.49492325185233
 20
103.5204776302862
 11
68.49492325185233
 21
104.6714515743766
  0
LINE
  8
0
  6
CONTINUOUS
 62
     7
 10
68.49457633955763
 20
104.6697735842448
 11
73.25967251484563
 21
109.4348697595328
  0
LINE
  8
0
  6
CONTINUOUS
 62
     7
 10
47.45027500153665
 20
119.8293394429751
 11
47.54471799367737
 21
119.7348964508343
  0
LINE
  8
0
  6
CONTINUOUS
 62
     7
 10
66.94812293038221
 20
141.2546749129275
 11
66.01703182772633
 21
141.2546749129275
  0
LINE
  8
0
  6
CONTINUOUS
 62
     7
 10
86.8273783822432
 20
120.4443283584106
 11
86.82049230754603
 21
121.3845621844017
  0
LINE
  8
0
  6
CONTINUOUS
 62
     7
 10
43.7182839238441
 20
106.920072904123
 11
38.86551372930104
 21
105.6197770494414
  0
LINE
  8
0
  6
CONTINUOUS
 62
     7
 10
47.07410471488728
 20
69.87865864700144
 11
35.99492325185246
 21
69.78186124028642
  0
LINE
  8
0
  6
CONTINUOUS
 62
     7
 10
70.9949232518528
 20
69.78186124028642
 11
59.91574178881733
 21
69.87865864700144
  0
LINE
  8
0
  6
CONTINUOUS
 62
     7
 10
55.07606404822894
 20
127.1942141574372
 11
52.89499721667307
 21
129.3752809889935
  0
LINE
  8
0
  6
CONTINUOUS
 62
     7
 10
66.11734064585889
 20
105.6197770494414
 11
60.75854501749994
 21
106.0131073211158
  0
LINE
  8
0
  6
CONTINUOUS
 62
     7
 10
58.62970626392305
 20
106.647785100241
 11
55.78755837634844
 21
107.8321423237908
  0
LINE
  8
0
  6
CONTINUOUS
 62
     7
 10
68.30992504653979
 20
141.2546749129275
 11
86.97754406986466
 21
122.5870558896026
  0
LINE
  8
0
  6
CONTINUOUS
 62
     7
 10
70.9949232518524
 20
69.82047763028633
 11
35.99492325185226
 21
69.82047763028633
  0
LINE
  8
0
  6
CONTINUOUS
 62
     7
 10
73.40666355422395
 20
109.3009365945955
 11
73.3526459594536
 21
109.3420427708899
  0
LINE
  8
0
  6
CONTINUOUS
 62
     7
 10
79.09330345963465
 20
190.0
 11
78.35084133938878
 21
190.0
  0
LINE
  8
0
  6
CONTINUOUS
 62
     7
 10
47.54460677193729
 20
191.8441286257293
 11
47.6497821270015
 21
192.0199671502598
  0
LINE
  8
0
  6
CONTINUOUS
 62
     7
 10
75.47570230683954
 20
181.8507371753704
 11
75.84746942572995
 21
182.0483503673919
  0
LINE
  8
0
  6
CONTINUOUS
 62
     7
 10
78.83012714374618
 20
183.4722330546152
 11
78.25941386541938
 21
184.016635932863
  0
LINE
  8
0
  6
CONTINUOUS
 62
     7
 10
47.54454934300885
 20
188.1558206094679
 11
47.42056264409781
 21
188.25
  0
LINE
  8
0
  6
CONTINUOUS
 62
     7
 10
78.25941386541938
 20
184.016635932863
 11
76.84520030304628
 21
184.016635932863
  0
LINE
  8
0
  6
CONTINUOUS
 62
     7
 10
77.56815518172341
 20
194.0763075326504
 11
77.62314202158308
 21
194.3318766713755
  0
LINE
  8
0
  6
CONTINUOUS
 62
     7
 10
76.61250365056604
 20
196.6734443584331
 11
76.53478964483537
 21
196.5875777859845
  0
LINE
  8
0
  6
CONTINUOUS
 62
     7
 10
76.24570252468523
 20
180.361370550236
 11
75.99627201457118
 21
180.9258853711262
  0
LINE
  8
0
  6
CONTINUOUS
 62
     7
 10
75.99627201457118
 20
180.9258853711262
 11
74.58205845219808
 21
180.9258853711262
  0
LINE
  8
0
  6
CONTINUOUS
 62
     7
 10
78.38876922480445
 20
192.7559815190909
 11
77.91396550586185
 21
192.5885642829165
  0
LINE
  8
0
  6
CONTINUOUS
 62
     7
 10
47.64971582330156
 20
187.9801606801659
 11
47.54471799367735
 21
188.1557216621129
  0
LINE
  8
0
  6
CONTINUOUS
 62
     7
 10
78.35133552685832
 20
194.3520820809111
 11
77.6967225925201
 21
194.3520820809111
  0
LINE
  8
0
  6
CONTINUOUS
 62
     7
 10
80.13434192045408
 20
187.9683163212969
 11
79.43797768013405
 21
188.1419644989638
  0
LINE
  8
0
  6
CONTINUOUS
 62
     7
 10
76.93662777701567
 20
204.2
 11
64.91581249684437
 21
204.2
  0
ARC
  8
0
  6
CONTINUOUS
 62
     7
 10
83.07856463931871
 20
189.5822124413089
 40
13.62071339733389
 50
190.5334806798045
 51
204.3549263916289
  0
ARC
  8
0
  6
CONTINUOUS
 62
     7
 10
79.21406885105938
 20
192.4341584255577
 40
9.252450995578243
 50
133.356860815726
 51
150.5423716514156
  0
ARC
  8
0
  6
CONTINUOUS
 62
     7
 10
76.89568654334361
 20
184.8695886116195
 40
5.720286989667246
 50
233.9288581260099
 51
251.4126173966305
  0
ARC
  8
0
  6
CONTINUOUS
 62
     7
 10
76.95260042723798
 20
195.0202806763233
 40
5.842844800187847
 50
108.7720861268695
 51
125.8863299745383
  0
ARC
  8
0
  6
CONTINUOUS
 62
     7
 10
69.12315396056717
 20
188.8444941216579
 40
14.48985552893454
 50
181.2158000497074
 51
235.7481050238637
  0
ARC
  8
0
  6
CONTINUOUS
 62
     7
 10
65.00234873742322
 20
183.9177877285809
 40
8.122979499553137
 50
240.2191511413723
 51
265.3543046920776
  0
ARC
  8
0
  6
CONTINUOUS
 62
     7
 10
76.27359306482745
 20
185.7250675475468
 40
9.947189595706572
 50
273.821911438429
 51
338.7466551799343
  0
ARC
  8
0
  6
CONTINUOUS
 62
     7
 10
69.26938875135399
 20
189.876888836198
 40
18.02917715056553
 50
334.5146407499016
 51
39.17097861038837
  0
ARC
  8
0
  6
CONTINUOUS
 62
     7
 10
76.7427465742298
 20
195.5325591889872
 40
8.669525036896575
 50
41.39083585348242
 51
88.74334112959332
  0
ARC
  8
0
  6
CONTINUOUS
 62
     7
 10
54.3075608269191
 20
193.0
 40
0.5000000000000012
 50
277.9048960516564
 51
351.3557740367036
  0
LINE
  8
0
  6
CONTINUOUS
 62
     7
 10
78.28748673914359
 20
185.475884585618
 11
77.97609502842509
 21
185.475884585618
  0
ARC
  8
0
  6
CONTINUOUS
 62
     7
 10
85.19707086991427
 20
190.0000000134623
 40
15.7815640848699
 50
173.6830484694826
 51
186.3169815348242
  0
ARC
  8
0
  6
CONTINUOUS
 62
     7
 10
54.13793480984427
 20
188.5
 40
0.500000000000001
 50
4.276386576919038
 51
80.60224298606558
  0
LINE
  8
0
  6
CONTINUOUS
 62
     7
 10
60.42823049972816
 20
202.8
 11
56.90949009118832
 21
202.8
  0
ARC
  8
0
  6
CONTINUOUS
 62
     7
 10
83.21133739134193
 20
190.3760667655448
 40
13.75888587927446
 50
155.7148514211103
 51
169.3968023359608
  0
ARC
  8
0
  6
CONTINUOUS
 62
     7
 10
59.99727487466435
 20
188.5896325268957
 40
12.31985425273106
 50
183.6194142506528
 51
240.7873192075966
  0
ARC
  8
0
  6
CONTINUOUS
 62
     7
 10
56.94488648551607
 20
184.3811799751606
 40
7.182898223195359
 50
245.6607341188863
 51
266.1851273159487
  0
ARC
  8
0
  6
CONTINUOUS
 62
     7
 10
47.20583963759976
 20
192.25
 40
0.5000000000000019
 50
332.6624596865842
 51
352.8431045737073
  0
ARC
  8
0
  6
CONTINUOUS
 62
     7
 10
47.20583963759975
 20
187.75
 40
0.5000000000000083
 50
7.156895426288258
 51
27.38716405423628
  0
LINE
  8
0
  6
CONTINUOUS
 62
     7
 10
77.62314202158308
 20
194.3318766713755
 11
77.6967225925201
 21
194.3520820809111
  0
ARC
  8
0
  6
CONTINUOUS
 62
     7
 10
79.09219263837893
 20
187.470449925991
 40
9.099448882424666
 50
209.311905904073
 51
226.7888120735684
  0
LINE
  8
0
  6
CONTINUOUS
 62
     7
 10
64.91581249684438
 20
175.8
 11
76.93662777701567
 21
175.8
  0
LINE
  8
0
  6
CONTINUOUS
 62
     7
 10
64.34443724574162
 20
175.8214954648793
 11
64.91313742454658
 21
175.8000004707903
  0
ARC
  8
0
  6
CONTINUOUS
 62
     7
 10
65.59052382168129
 20
194.251524825729
 40
9.971147459070204
 50
93.86455543308332
 51
158.9806464525729
  0
ARC
  8
0
  6
CONTINUOUS
 62
     7
 10
72.13723546216322
 20
190.3640167080696
 40
17.52347835459109
 50
154.7896728317209
 51
171.5949457907119
  0
ARC
  8
0
  6
CONTINUOUS
 62
     7
 10
66.26871648908438
 20
189.9999998550283
 40
19.33723345148936
 50
174.514982378531
 51
185.4850493036693
  0
LINE
  8
0
  6
CENTER
 62
     1
 10
53.49492325185233
 20
158.0
 11
53.49492325185233
 21
222.0
  0
LINE
  8
0
  6
CENTER
 62
     1
 10
53.49492325185233
 20
60.0
 11
53.49492325185232
 21
144.0
  0
LINE
  8
0
  6
CENTER
 62
     1
 10
79.83612974574805
 20
136.163870254252
 11
53.49492325185233
 21
109.8226637603561
  0
LINE
  8
0
  6
CONTINUOUS
 62
     7
 10
77.6967225925201
 20
185.6041543361577
 11
78.35133552685832
 21
185.6041543361577
  0
LINE
  8
0
  6
CONTINUOUS
 62
     7
 10
75.80659188961415
 20
181.9165175971835
 11
76.14136898572613
 21
181.9165175971835
  0
ARC
  8
0
  6
CONTINUOUS
 62
     7
 10
57.7784341196628
 20
193.4049667620051
 40
9.481944058260318
 50
98.78561697616446
 51
163.4098295368557
  0
ARC
  8
0
  6
CONTINUOUS
 62
     7
 10
63.79756421856676
 20
190.2174811763891
 40
16.21575598386344
 50
158.6832577329444
 51
173.0200019830951
  0
LINE
  8
0
  6
CENTER
 62
     1
 10
140.0
 20
60.0
 11
140.0
 21
144.0
  0
LINE
  8
0
  6
CENTER
 62
     1
 10
21.4949232518523
 20
190.0
 11
85.49492325185237
 21
190.0
  0
LINE
  8
0
  6
CONTINUOUS
 62
     7
 10
55.78755837634844
 20
107.8321423237908
 11
48.1542185039616
 21
115.5588336904769
  0
LINE
  8
0
  6
CONTINUOUS
 62
     7
 10
56.46696315736988
 20
177.2007995872383
 11
60.42732441703442
 21
177.1936329334755
  0
LINE
  8
0
  6
CONTINUOUS
 62
     7
 10
75.31028218028668
 20
107.3842600940919
 11
53.10712925102901
 21
129.5874130233495
  0
LINE
  8
0
  6
CONTINUOUS
 62
     7
 10
70.75339884807605
 20
196.8006081146725
 11
70.32640715605149
 21
196.776812782255
  0
LINE
  8
0
  6
CONTINUOUS
 62
     7
 10
56.91271982806037
 20
202.8073527892153
 11
56.33018326750269
 21
202.7756568429541
  0
LINE
  8
0
  6
CONTINUOUS
 62
     7
 10
79.128509816294
 20
187.4687534662466
 11
80.70568364793654
 21
187.1704207273355
  0
LINE
  8
0
  6
CONTINUOUS
 62
     7
 10
76.58348599564009
 20
179.2000000182175
 11
75.35991340307038
 21
179.3031419626182
  0
LINE
  8
0
  6
CONTINUOUS
 62
     7
 10
80.70568364793651
 20
192.8295792726647
 11
79.12850981629401
 21
192.5312465337533
  0
LINE
  8
0
  6
CONTINUOUS
 62
     7
 10
77.22951944786608
 20
196.5875777859846
 11
76.53478964483537
 21
196.5875777859845
  0
LINE
  8
0
  6
CONTINUOUS
 62
     7
 10
84.13442995508926
 20
188.1419644989638
 11
78.02376411776096
 21
188.1419644989638
  0
LINE
  8
0
  6
CONTINUOUS
 62
     7
 10
79.1214588087633
 20
192.5885642829165
 11
77.91396550586185
 21
192.5885642829165
  0
LINE
  8
0
  6
CONTINUOUS
 62
     7
 10
75.35995350807926
 20
200.6968223574056
 11
76.58266277720473
 21
200.7999999817826
  0
LINE
  8
0
  6
CONTINUOUS
 62
     7
 10
76.35460214913894
 20
182.0483503673919
 11
75.84746942572995
 21
182.0483503673919
  0
LINE
  8
0
  6
CONTINUOUS
 62
     7
 10
47.01088261421391
 20
191.75
 11
53.17631023688714
 21
191.75
  0
LINE
  8
0
  6
CONTINUOUS
 62
     7
 10
54.66067843938927
 20
188.25
 11
47.01089142333495
 21
188.25
  0
LINE
  8
0
  6
CONTINUOUS
 62
     7
 10
76.35460214913894
 20
197.9516496326081
 11
75.63533739137397
 21
197.9516496326081
  0
LINE
  8
0
  6
CONTINUOUS
 62
     7
 10
66.27296929003366
 20
189.0
 11
53.12967146171675
 21
189.0
  0
LINE
  8
0
  6
CONTINUOUS
 62
     7
 10
80.89468659435006
 20
188.4107248998893
 11
79.29641319879435
 21
188.5923681930824
  0
LINE
  8
0
  6
CONTINUOUS
 62
     7
 10
53.24877870860163
 20
192.5
 11
66.47372074326402
 21
192.5
  0
LINE
  8
0
  6
CONTINUOUS
 62
     7
 10
79.29787772852154
 20
191.3947454577505
 11
80.89694939398373
 21
191.5684436921762
  0
LINE
  8
0
  6
CONTINUOUS
 62
     7
 10
152.7991172299024
 20
110.7239899201333
 11
152.8067643435897
 21
114.7044537865191
  0
LINE
  8
0
  6
CONTINUOUS
 62
     7
 10
127.1929792140108
 20
111.1869219082233
 11
127.2255882862059
 21
110.5926987187178
  0
LINE
  8
0
  6
CONTINUOUS
 62
     7
 10
144.3958456638423
 20
131.9738534355829
 11
144.3958456638423
 21
132.6284663699211
  0
LINE
  8
0
  6
CONTINUOUS
 62
     7
 10
148.0834824028165
 20
130.083722732677
 11
148.0834824028165
 21
130.418499828789
  0
LINE
  8
0
  6
CONTINUOUS
 62
     7
 10
68.58568223237324
 20
187.8536562106535
 11
69.26649117797709
 21
188.1010776865444
  0
INSERT
  8
0
  6
CONTINUOUS
 62
     7
  2
D_FRAME_VIEW_3199
 10
0.0
 20
0.0
 30
0.0
  0
INSERT
  8
0
  6
CONTINUOUS
 62
     7
  2
D_FRAME_VIEW_4306
 10
0.0
 20
0.0
 30
0.0
  0
INSERT
  8
0
  6
CONTINUOUS
 62
     7
  2
D_FRAME_VIEW_3810
 10
0.0
 20
0.0
 30
0.0
  0
LINE
  8
0
  6
CONTINUOUS
 62
     7
 10
72.04340318422386
 20
98.82047763028633
 11
34.94644331948078
 21
98.82047763028633
  0
ARC
  8
0
  6
CONTINUOUS
 62
     7
 10
139.4437305571636
 20
137.9209601463758
 40
16.71152578700507
 50
261.9402283758236
 51
262.4728823466313
  0
ARC
  8
0
  6
CONTINUOUS
 62
     7
 10
140.0
 20
142.1308481764861
 40
20.95800584925654
 50
262.4728823466313
 51
270.0000000000001
  0
ARC
  8
0
  6
CONTINUOUS
 62
     7
 10
140.0
 20
142.1308481764861
 40
20.95800584925654
 50
269.9999999999999
 51
273.9648647729563
  0
ARC
  8
0
  6
CONTINUOUS
 62
     7
 10
145.4433818986564
 20
126.6175645423659
 40
5.35661810134358
 50
24.17069928945585
 51
34.87586367804606
  0
ARC
  8
0
  6
CONTINUOUS
 62
     7
 10
140.8321844780103
 20
123.4036356603213
 40
10.97733696204231
 50
34.87586367804502
 51
37.0947139929638
  0
ARC
  8
0
  6
CONTINUOUS
 62
     7
 10
132.5370307017365
 20
137.0547847069195
 40
1.029931469720715
 50
6.08102118814314
 51
44.82682546031595
  0
ARC
  8
0
  6
CONTINUOUS
 62
     7
 10
134.5566181013437
 20
126.6175645423659
 40
5.356618101343718
 50
145.1241363219546
 51
155.8181530302816
  0
ARC
  8
0
  6
CONTINUOUS
 62
     7
 10
139.1678155219897
 20
123.4036356603214
 40
10.97733696204224
 50
142.9052860070364
 51
145.124136321955
  0
ARC
  8
0
  6
CONTINUOUS
 62
     7
 10
138.9982964616546
 20
135.7894835000228
 40
13.21346115801431
 50
217.5044874026111
 51
221.5938222376385
  0
ARC
  8
0
  6
CONTINUOUS
 62
     7
 10
147.4969315850666
 20
137.0386190400158
 40
1.065488213973105
 50
135.844126277779
 51
173.2480270737591
  0
ARC
  8
0
  6
CONTINUOUS
 62
     7
 10
142.7638267364157
 20
126.342820152471
 40
6.435245344967573
 50
51.69304626319541
 51
58.75110375543653
  0
ARC
  8
0
  6
CONTINUOUS
 62
     7
 10
140.735866830092
 20
123.7756181698167
 40
9.70681185069552
 50
42.34752622739392
 51
51.69304626319536
  0
ARC
  8
0
  6
CONTINUOUS
 62
     7
 10
140.8052155365932
 20
122.0935772006069
 40
10.6215899308652
 50
42.10235727326677
 51
45.42702622799033
  0
ARC
  8
0
  6
CONTINUOUS
 62
     7
 10
127.7513358253622
 20
131.455944177791
 40
1.55626761406807
 50
11.50874974692641
 51
88.31503876208991
  0
ARC
  8
0
  6
CONTINUOUS
 62
     7
 10
147.2834573807501
 20
125.0551662130953
 40
0.4834775029033886
 50
128.2839478337835
 51
182.9208803032117
  0
ARC
  8
0
  6
CONTINUOUS
 62
     7
 10
128.3478615676056
 20
133.9871364062461
 40
2.038485186608514
 50
8.978245837297607
 51
69.5355696413614
  0
ARC
  8
0
  6
CONTINUOUS
 62
     7
 10
139.9999999999999
 20
130.5561398006621
 40
23.17187970657025
 50
263.8046315874068
 51
270.0000000000001
  0
ARC
  8
0
  6
CONTINUOUS
 62
     7
 10
140.0000000000001
 20
130.5561398006621
 40
23.17187970657025
 50
269.9999999999999
 51
272.4735127074937
  0
ARC
  8
0
  6
CONTINUOUS
 62
     7
 10
148.5413931993866
 20
130.083722732677
 40
0.4310412023108279
 50
180.0
 51
216.0720702343036
  0
ARC
  8
0
  6
CONTINUOUS
 62
     7
 10
149.1294889224454
 20
130.5121305483893
 40
1.158633008231876
 50
216.0720702343035
 51
224.3670828714952
  0
ARC
  8
0
  6
CONTINUOUS
 62
     7
 10
132.711194612385
 20
125.0527572942165
 40
0.4887031500872502
 50
357.3931272214872
 51
51.38813402209325
  0
ARC
  8
0
  6
CONTINUOUS
 62
     7
 10
141.5906604865535
 20
118.8994012640135
 40
22.49364107056547
 50
112.8868789902908
 51
112.9401171884994
  0
ARC
  8
0
  6
CONTINUOUS
 62
     7
 10
136.2377227671816
 20
131.5468678024567
 40
8.760019841315199
 50
112.9401171884972
 51
119.9726067277895
  0
ARC
  8
0
  6
CONTINUOUS
 62
     7
 10
127.9454922963087
 20
132.2746857618834
 40
1.573633772920292
 50
12.00824103507923
 51
87.81554747393736
  0
ARC
  8
0
  6
CONTINUOUS
 62
     7
 10
133.874803006081
 20
124.2077945168117
 40
0.7446803480838532
 50
82.99494376928561
 51
141.8607245137043
  0
ARC
  8
0
  6
CONTINUOUS
 62
     7
 10
132.3372439734864
 20
132.0545876211176
 40
1.110894617240024
 50
187.363971762338
 51
232.9248532327451
  0
ARC
  8
0
  6
CONTINUOUS
 62
     7
 10
66.01703182772634
 20
138.2546749129275
 40
3.000000000000003
 50
89.54024515227128
 51
135.0000000000002
  0
ARC
  8
0
  6
CONTINUOUS
 62
     7
 10
146.5522189520864
 20
131.9208654012651
 40
6.447781047913631
 50
10.51326857554653
 51
18.16721196884143
  0
ARC
  8
0
  6
CONTINUOUS
 62
     7
 10
136.2377227671822
 20
132.2948630000741
 40
8.760019841316069
 50
240.0273932722102
 51
247.0598828115013
  0
ARC
  8
0
  6
CONTINUOUS
 62
     7
 10
141.5906604865553
 20
144.9423295385224
 40
22.49364107057152
 50
247.0598828115021
 51
247.1131210097108
  0
ARC
  8
0
  6
CONTINUOUS
 62
     7
 10
129.5742924530409
 20
127.2064704428106
 40
0.8994345165148036
 50
41.65466683248436
 51
124.8313738564521
  0
ARC
  8
0
  6
CONTINUOUS
 62
     7
 10
149.7897240471437
 20
126.417662584767
 40
0.9564702852376247
 50
57.55745037357888
 51
131.0896010846714
  0
ARC
  8
0
  6
CONTINUOUS
 62
     7
 10
151.8998896873925
 20
129.6118019399622
 40
1.25550457531439
 50
76.03385495634033
 51
158.2236280118615
  0
ARC
  8
0
  6
CONTINUOUS
 62
     7
 10
141.0017035383455
 20
135.7894835000227
 40
13.21346115801417
 50
318.4061777623617
 51
322.4955125973891
  0
ARC
  8
0
  6
CONTINUOUS
 62
     7
 10
152.0239287325468
 20
132.3110147615645
 40
1.536442571015698
 50
91.09652806252103
 51
169.0796834284609
  0
LINE
  8
0
  6
CONTINUOUS
 62
     7
 10
34.94644331948077
 20
102.8204776302863
 11
72.04340318422385
 21
102.8204776302863
  0
ARC
  8
0
  6
CONTINUOUS
 62
     7
 10
136.9297850431618
 20
120.8342325171562
 40
0.5762789920064826
 50
351.6807598816466
 51
72.60783014954734
  0
ARC
  8
0
  6
CONTINUOUS
 62
     7
 10
147.6403317458389
 20
132.0676097553267
 40
1.134847432178293
 50
307.5820777680597
 51
352.1290972368583
  0
ARC
  8
0
  6
CONTINUOUS
 62
     7
 10
141.0017035383456
 20
128.0522473025075
 40
13.2134611580141
 50
37.50448740261076
 51
41.59382223763765
  0
ARC
  8
0
  6
CONTINUOUS
 62
     7
 10
139.2641331699078
 20
123.7756181698169
 40
9.706811850695217
 50
128.3069537368044
 51
137.6524737726063
  0
ARC
  8
0
  6
CONTINUOUS
 62
     7
 10
137.2361732635841
 20
126.3428201524713
 40
6.435245344967239
 50
121.248896244563
 51
128.3069537368044
  0
ARC
  8
0
  6
CONTINUOUS
 62
     7
 10
53.49492325185233
 20
190.0
 40
15.00000000000002
 50
60.59320165306008
 51
299.3966411761286
  0
ARC
  8
0
  6
CONTINUOUS
 62
     7
 10
140.5092607575268
 20
125.7804696377552
 40
15.29928417120001
 50
79.53246147638595
 51
82.47288234663242
  0
ARC
  8
0
  6
CONTINUOUS
 62
     7
 10
140.0
 20
121.9263467932873
 40
19.18690676340286
 50
82.47288234663087
 51
83.6752824010774
  0
ARC
  8
0
  6
CONTINUOUS
 62
     7
 10
141.6186577149772
 20
120.6255538736665
 40
0.623242035863141
 50
105.7982446842141
 51
186.9536581086434
  0
LINE
  8
0
  6
CONTINUOUS
 62
     7
 10
52.89533084382263
 20
69.51970467020433
 11
54.09391621503706
 21
69.51970495932244
  0
ARC
  8
0
  6
CONTINUOUS
 62
     7
 10
139.4907392424736
 20
138.0612611647761
 40
15.29928417120125
 50
259.5324614763855
 51
262.4728823466316
  0
ARC
  8
0
  6
CONTINUOUS
 62
     7
 10
140.0
 20
141.9153840092428
 40
19.18690676340286
 50
262.4728823466309
 51
263.6752824010774
  0
ARC
  8
0
  6
CONTINUOUS
 62
     7
 10
147.1175762335251
 20
124.7406071965897
 40
0.7068176817681975
 50
37.04693127748138
 51
100.9004752484546
  0
ARC
  8
0
  6
CONTINUOUS
 62
     7
 10
132.8730605353855
 20
124.7648931672511
 40
0.6848508441916217
 50
77.93870204447566
 51
144.1028753764625
  0
ARC
  8
0
  6
CONTINUOUS
 62
     7
 10
150.4311588020086
 20
127.1604891504016
 40
0.9345696910440491
 50
57.05338812291651
 51
136.462729262679
  0
ARC
  8
0
  6
CONTINUOUS
 62
     7
 10
146.1413134551086
 20
124.2468230428171
 40
0.7082053612683175
 50
36.46084710077172
 51
98.68661747551243
  0
ARC
  8
0
  6
CONTINUOUS
 62
     7
 10
138.409339513445
 20
144.9423295385214
 40
22.49364107057055
 50
292.8868789902895
 51
292.9401171884979
  0
ARC
  8
0
  6
CONTINUOUS
 62
     7
 10
143.7622772328179
 20
132.2948630000741
 40
8.76001984131603
 50
292.9401171884986
 51
299.97260672779
  0
ARC
  8
0
  6
CONTINUOUS
 62
     7
 10
133.4477810479136
 20
131.9208654012651
 40
6.447781047913631
 50
161.8327880311586
 51
169.4867314244537
  0
ARC
  8
0
  6
CONTINUOUS
 62
     7
 10
151.6529643495524
 20
128.8235819363374
 40
1.219771257681437
 50
73.73853537621711
 51
154.4820940115887
  0
ARC
  8
0
  6
CONTINUOUS
 62
     7
 10
152.262885606177
 20
131.439048567425
 40
1.573633882320912
 50
92.18445562735259
 51
167.9917558636308
  0
ARC
  8
0
  6
CONTINUOUS
 62
     7
 10
140.0
 20
121.9263467932844
 40
19.18690676340579
 50
96.32471759892158
 51
97.52711765336795
  0
ARC
  8
0
  6
CONTINUOUS
 62
     7
 10
139.4907392424743
 20
125.7804696377518
 40
15.29928417120356
 50
97.52711765336996
 51
100.467538523616
  0
ARC
  8
0
  6
CONTINUOUS
 62
     7
 10
138.9982964616545
 20
128.0522473025074
 40
13.21346115801417
 50
138.406177762362
 51
142.495512597389
  0
ARC
  8
0
  6
CONTINUOUS
 62
     7
 10
128.1174332194751
 20
129.6456270318562
 40
1.227114430333109
 50
20.60752064186352
 51
105.1323194883922
  0
ARC
  8
0
  6
CONTINUOUS
 62
     7
 10
143.7622772328183
 20
131.5468678024566
 40
8.760019841315355
 50
60.02739327221078
 51
67.0598828115023
  0
ARC
  8
0
  6
CONTINUOUS
 62
     7
 10
138.4093395134461
 20
118.8994012640116
 40
22.49364107056741
 50
67.05988281150147
 51
67.1131210097102
  0
ARC
  8
0
  6
CONTINUOUS
 62
     7
 10
133.4477810479136
 20
131.9208654012651
 40
6.447781047913631
 50
190.5132685755465
 51
198.1672119688419
  0
ARC
  8
0
  6
CONTINUOUS
 62
     7
 10
146.5522189520864
 20
131.9208654012651
 40
6.447781047913631
 50
341.8327880311583
 51
349.4867314244534
  0
ARC
  8
0
  6
CONTINUOUS
 62
     7
 10
140.0
 20
141.9153840092428
 40
19.18690676340286
 50
276.3247175989226
 51
277.5271176533691
  0
ARC
  8
0
  6
CONTINUOUS
 62
     7
 10
140.5092607575265
 20
138.0612611647759
 40
15.29928417120104
 50
277.5271176533682
 51
280.4675385236144
  0
ARC
  8
0
  6
CONTINUOUS
 62
     7
 10
49.92974559780703
 20
122.1673886830081
 40
3.000000000000009
 50
134.844368160658
 51
196.417434042615
  0
ARC
  8
0
  6
CONTINUOUS
 62
     7
 10
128.2918911688963
 20
128.7004095587704
 40
1.325460982128632
 50
29.29379839013142
 51
102.4794102893328
  0
ARC
  8
0
  6
CONTINUOUS
 62
     7
 10
136.9033564314499
 20
125.9561823589068
 40
7.210170177083251
 50
112.9401171884988
 51
119.1078404277618
  0
ARC
  8
0
  6
CONTINUOUS
 62
     7
 10
141.3092359389341
 20
115.5463445157217
 40
18.51399688116347
 50
111.7376962472073
 51
112.9401171884974
  0
ARC
  8
0
  6
CONTINUOUS
 62
     7
 10
73.77511645944459
 20
188.9982964616545
 40
13.21346115801418
 50
307.5044874026108
 51
311.5938222376382
  0
ARC
  8
0
  6
CONTINUOUS
 62
     7
 10
69.96966846788725
 20
196.1412960707503
 40
0.7082334461368258
 50
351.3171088313862
 51
53.53844457453329
  0
ARC
  8
0
  6
CONTINUOUS
 62
     7
 10
140.0
 20
118.0377535282844
 40
15.79230018218432
 50
82.4728823466304
 51
83.24099595395495
  0
ARC
  8
0
  6
CONTINUOUS
 62
     7
 10
140.4191607773489
 20
121.2099931002681
 40
12.59248774091108
 50
80.10567700407239
 51
82.47288234663216
  0
ARC
  8
0
  6
CONTINUOUS
 62
     7
 10
69.89346431906517
 20
183.8901465868786
 40
0.7799725521359487
 50
309.5925856592172
 51
5.554792441071243
  0
ARC
  8
0
  6
CONTINUOUS
 62
     7
 10
76.27900895760109
 20
190.0
 40
23.17187970657206
 50
173.8046315874073
 51
180.0
  0
ARC
  8
0
  6
CONTINUOUS
 62
     7
 10
76.27900895760109
 20
190.0
 40
23.17187970657206
 50
180.0
 51
182.4735127074936
  0
ARC
  8
0
  6
CONTINUOUS
 62
     7
 10
70.51702157892227
 20
197.1381788853156
 40
0.6588127582123819
 50
346.4522641669495
 51
55.5912472031984
  0
ARC
  8
0
  6
CONTINUOUS
 62
     7
 10
70.48769444788884
 20
182.8731103821283
 40
0.6849310221064399
 50
305.8992793207945
 51
12.04977314215279
  0
ARC
  8
0
  6
CONTINUOUS
 62
     7
 10
72.14049828550561
 20
199.789720300415
 40
0.9565005299802338
 50
318.9159836911804
 51
32.44166393990633
  0
ARC
  8
0
  6
CONTINUOUS
 62
     7
 10
140.2702386137368
 20
132.6881107626801
 40
0.2768493402308654
 50
192.5460922303248
 51
276.1712385868868
  0
ARC
  8
0
  6
CONTINUOUS
 62
     7
 10
77.64373455820223
 20
196.5522189520863
 40
6.447781047913742
 50
71.83278803115866
 51
79.4867314244535
  0
ARC
  8
0
  6
CONTINUOUS
 62
     7
 10
72.88336017840352
 20
179.5688409700161
 40
0.9345679969025535
 50
327.0533374659527
 51
46.4630712921026
  0
ARC
  8
0
  6
CONTINUOUS
 62
     7
 10
67.64921595022449
 20
190.0
 40
19.18690676340286
 50
6.324717598922544
 51
7.527117653369169
  0
ARC
  8
0
  6
CONTINUOUS
 62
     7
 10
71.50333879469137
 20
190.5092607575265
 40
15.29928417120103
 50
7.527117653368116
 51
10.46753852361425
  0
ARC
  8
0
  6
CONTINUOUS
 62
     7
 10
139.5906326987579
 20
120.2674174624004
 40
12.29827073762033
 50
101.0077306909411
 51
104.4648752314128
  0
ARC
  8
0
  6
CONTINUOUS
 62
     7
 10
140.9862927146785
 20
121.0406966921611
 40
13.01017714019883
 50
48.45620281808417
 51
49.14650105215373
  0
ARC
  8
0
  6
CONTINUOUS
 62
     7
 10
140.8244790661766
 20
121.6656273081143
 40
10.87569495313487
 50
41.08795386570989
 51
47.83207985937412
  0
ARC
  8
0
  6
CONTINUOUS
 62
     7
 10
83.78413032171328
 20
190.5092607575265
 40
15.29928417120125
 50
169.5324614763856
 51
172.4728823466316
  0
ARC
  8
0
  6
CONTINUOUS
 62
     7
 10
87.63825316617995
 20
190.0
 40
19.18690676340286
 50
172.4728823466309
 51
173.6752824010775
  0
ARC
  8
0
  6
CONTINUOUS
 62
     7
 10
70.77563661611863
 20
182.7112484783291
 40
0.4886498023816552
 50
38.59855612714921
 51
92.60835068781664
  0
ARC
  8
0
  6
CONTINUOUS
 62
     7
 10
136.9033564314494
 20
124.5419687965344
 40
7.210170177082363
 50
112.9401171884973
 51
119.1078404277612
  0
ARC
  8
0
  6
CONTINUOUS
 62
     7
 10
141.3092359389323
 20
114.1321309533543
 40
18.51399688115747
 50
106.9708118364785
 51
112.9401171884991
  0
ARC
  8
0
  6
CONTINUOUS
 62
     7
 10
139.5808392226511
 20
119.795779537895
 40
12.59248774091113
 50
106.8835729876557
 51
106.9708118364788
  0
ARC
  8
0
  6
CONTINUOUS
 62
     7
 10
64.62227042094584
 20
188.409339513445
 40
22.49364107057055
 50
22.88687899028953
 51
22.94011718849803
  0
ARC
  8
0
  6
CONTINUOUS
 62
     7
 10
77.26973695939311
 20
193.7622772328178
 40
8.760019841316158
 50
22.94011718849885
 51
29.97260672779007
  0
ARC
  8
0
  6
CONTINUOUS
 62
     7
 10
136.9033564314499
 20
124.5419687965337
 40
7.210170177083156
 50
119.1078404277616
 51
128.3069537368041
  0
ARC
  8
0
  6
CONTINUOUS
 62
     7
 10
139.1755209338229
 20
121.6656273081149
 40
10.87569495313414
 50
128.3069537368042
 51
130.8345729326941
  0
ARC
  8
0
  6
CONTINUOUS
 62
     7
 10
140.0
 20
116.6235399659085
 40
15.79230018218711
 50
82.47288234663188
 51
83.24099595395624
  0
ARC
  8
0
  6
CONTINUOUS
 62
     7
 10
140.4191607773483
 20
119.7957795378932
 40
12.59248774091302
 50
73.0291881635212
 51
82.47288234663063
  0
ARC
  8
0
  6
CONTINUOUS
 62
     7
 10
138.6907640610671
 20
114.1321309533527
 40
18.51399688115917
 50
71.31023421272003
 51
73.0291881635212
  0
ARC
  8
0
  6
CONTINUOUS
 62
     7
 10
140.0
 20
117.169295637426
 40
15.42332120596632
 50
84.11048793486765
 51
86.9200424333764
  0
ARC
  8
0
  6
CONTINUOUS
 62
     7
 10
140.0
 20
116.6235399659085
 40
15.79230018218711
 50
83.24099595395624
 51
88.91150096460112
  0
ARC
  8
0
  6
CONTINUOUS
 62
     7
 10
143.0966435685503
 20
124.541968796534
 40
7.210170177082785
 50
66.31355539019177
 51
67.05988281150184
  0
ARC
  8
0
  6
CONTINUOUS
 62
     7
 10
138.6907640610672
 20
114.1321309533529
 40
18.51399688115896
 50
67.05988281150108
 51
71.31023421272008
  0
ARC
  8
0
  6
CONTINUOUS
 62
     7
 10
140.8244790661769
 20
123.0798408704878
 40
10.87569495313445
 50
34.87586367804488
 51
41.08795386570955
  0
ARC
  8
0
  6
CONTINUOUS
 62
     7
 10
145.3929802144096
 20
126.2640111517727
 40
5.307019785590394
 50
25.29571610235047
 51
34.87586367804624
  0
ARC
  8
0
  6
CONTINUOUS
 62
     7
 10
139.098466815489
 20
122.7822548628909
 40
11.89211504221257
 50
136.6887414350033
 51
136.9159483430336
  0
ARC
  8
0
  6
CONTINUOUS
 62
     7
 10
134.6070197855904
 20
126.2640111517727
 40
5.307019785590394
 50
145.1241363219538
 51
154.7227601965448
  0
ARC
  8
0
  6
CONTINUOUS
 62
     7
 10
139.1755209338233
 20
123.0798408704876
 40
10.87569495313465
 50
136.1117112558438
 51
145.1241363219547
  0
ARC
  8
0
  6
CONTINUOUS
 62
     7
 10
143.0966435685502
 20
125.9561823589069
 40
7.210170177083095
 50
64.57398498068648
 51
66.31355539019137
  0
ARC
  8
0
  6
CONTINUOUS
 62
     7
 10
140.0
 20
115.0090408061597
 40
18.89172358242766
 50
84.28789729424624
 51
84.62406433248911
  0
ARC
  8
0
  6
CONTINUOUS
 62
     7
 10
131.3479036082564
 20
130.1079025582177
 40
1.287370009147091
 50
135.456589219933
 51
137.2997112837249
  0
ARC
  8
0
  6
CONTINUOUS
 62
     7
 10
140.3741107872592
 20
122.1067353468618
 40
11.23908952576901
 50
73.0291881635211
 51
78.73290251998998
  0
ARC
  8
0
  6
CONTINUOUS
 62
     7
 10
138.8314763348754
 20
117.0517966569149
 40
16.52417478646285
 50
67.6239083339442
 51
73.02918816352104
  0
ARC
  8
0
  6
CONTINUOUS
 62
     7
 10
144.7314366322827
 20
132.0432260539685
 40
0.3856454794600881
 50
190.3631794600182
 51
253.8912346297587
  0
ARC
  8
0
  6
CONTINUOUS
 62
     7
 10
140.4583346817736
 20
120.737654964612
 40
13.76935575408189
 50
80.62848030337776
 51
82.47288234663097
  0
ARC
  8
0
  6
CONTINUOUS
 62
     7
 10
140.0
 20
117.2689444045918
 40
17.26821608706348
 50
82.47288234663124
 51
83.24099595395572
  0
ARC
  8
0
  6
CONTINUOUS
 62
     7
 10
136.9757079166965
 20
124.9027144486424
 40
7.041708257058041
 50
120.8353440127109
 51
126.3090779803268
  0
ARC
  8
0
  6
CONTINUOUS
 62
     7
 10
140.431041202311
 20
133.2037415954566
 40
0.4310412023109667
 50
180.0
 51
216.0720702342906
  0
ARC
  8
0
  6
CONTINUOUS
 62
     7
 10
141.0191369253701
 20
133.6321494111695
 40
1.158633008232643
 50
216.0720702343114
 51
229.3006331506801
  0
ARC
  8
0
  6
CONTINUOUS
 62
     7
 10
140.7113519373139
 20
133.2743083520874
 40
0.686635314977938
 50
229.3006331506805
 51
257.6997835508654
  0
ARC
  8
0
  6
CONTINUOUS
 62
     7
 10
140.9
 20
134.139510789568
 40
1.572165297179323
 50
257.6997835508727
 51
270.0
  0
ARC
  8
0
  6
CONTINUOUS
 62
     7
 10
140.9
 20
134.139510789568
 40
1.572165297179323
 50
270.0
 51
282.3002164491273
  0
ARC
  8
0
  6
CONTINUOUS
 62
     7
 10
141.0886480626861
 20
133.2743083520875
 40
0.6866353149779981
 50
282.3002164491358
 51
310.6993668493182
  0
ARC
  8
0
  6
CONTINUOUS
 62
     7
 10
140.78086307463
 20
133.6321494111693
 40
1.15863300823239
 50
310.699366849318
 51
323.9279297656896
  0
ARC
  8
0
  6
CONTINUOUS
 62
     7
 10
141.368958797689
 20
133.2037415954566
 40
0.4310412023109667
 50
323.9279297657095
 51
0.0
  0
ARC
  8
0
  6
CONTINUOUS
 62
     7
 10
141.368958797689
 20
133.2037415954566
 40
0.4310412023109667
 50
0.0
 51
36.07207023429058
  0
ARC
  8
0
  6
CONTINUOUS
 62
     7
 10
140.7808630746298
 20
132.7753337797437
 40
1.158633008232643
 50
36.07207023431138
 51
49.30063315068011
  0
ARC
  8
0
  6
CONTINUOUS
 62
     7
 10
141.0886480626861
 20
133.1331748388258
 40
0.686635314977938
 50
49.30063315068049
 51
77.6997835508654
  0
ARC
  8
0
  6
CONTINUOUS
 62
     7
 10
140.9
 20
132.2679724013452
 40
1.572165297179323
 50
77.6997835508727
 51
90.00000000000004
  0
ARC
  8
0
  6
CONTINUOUS
 62
     7
 10
140.9
 20
132.2679724013452
 40
1.572165297179323
 50
90.0
 51
102.3002164491273
  0
ARC
  8
0
  6
CONTINUOUS
 62
     7
 10
140.7113519373139
 20
133.1331748388257
 40
0.6866353149779981
 50
102.3002164491359
 51
130.6993668493182
  0
ARC
  8
0
  6
CONTINUOUS
 62
     7
 10
141.0191369253699
 20
132.7753337797439
 40
1.15863300823239
 50
130.699366849318
 51
143.9279297656896
  0
ARC
  8
0
  6
CONTINUOUS
 62
     7
 10
140.431041202311
 20
133.2037415954566
 40
0.4310412023109667
 50
143.9279297657094
 51
180.0
  0
ARC
  8
0
  6
CONTINUOUS
 62
     7
 10
139.5808392226518
 20
121.2099931002659
 40
12.59248774091341
 50
97.5271176533695
 51
99.92724594834158
  0
ARC
  8
0
  6
CONTINUOUS
 62
     7
 10
140.0
 20
118.0377535282816
 40
15.79230018218711
 50
95.56550952955048
 51
97.52711765336818
  0
ARC
  8
0
  6
CONTINUOUS
 62
     7
 10
83.64382930331298
 20
190.5562694428364
 40
16.71152578700507
 50
171.9402283758236
 51
172.4728823466313
  0
ARC
  8
0
  6
CONTINUOUS
 62
     7
 10
87.85371733342326
 20
190.0
 40
20.95800584925654
 50
172.4728823466313
 51
180.0000000000001
  0
ARC
  8
0
  6
CONTINUOUS
 62
     7
 10
87.85371733342326
 20
190.0
 40
20.95800584925654
 50
179.9999999999999
 51
183.9648647729562
  0
ARC
  8
0
  6
CONTINUOUS
 62
     7
 10
77.64373455820223
 20
196.5522189520863
 40
6.447781047913742
 50
100.5132685755462
 51
108.1672119688414
  0
ARC
  8
0
  6
CONTINUOUS
 62
     7
 10
78.01773215701128
 20
193.7622772328179
 40
8.76001984131608
 50
150.02739327221
 51
157.0598828115013
  0
ARC
  8
0
  6
CONTINUOUS
 62
     7
 10
90.66519869545952
 20
188.4093395134447
 40
22.49364107057152
 50
157.0598828115021
 51
157.1131210097107
  0
ARC
  8
0
  6
CONTINUOUS
 62
     7
 10
81.5123526569602
 20
191.0017035383453
 40
13.21346115801459
 50
127.5044874026113
 51
131.5938222376379
  0
ARC
  8
0
  6
CONTINUOUS
 62
     7
 10
138.7213536858086
 20
114.7360971158164
 40
18.08142686057121
 50
67.45785006078837
 51
69.70100723934127
  0
ARC
  8
0
  6
CONTINUOUS
 62
     7
 10
132.1940830943702
 20
131.9653608686862
 40
1.572165297179323
 50
266.0755337882771
 51
270.0
  0
ARC
  8
0
  6
CONTINUOUS
 62
     7
 10
132.1940830943702
 20
131.9653608686862
 40
1.572165297179323
 50
270.0
 51
282.3002164491273
  0
ARC
  8
0
  6
CONTINUOUS
 62
     7
 10
132.3827311570563
 20
131.1001584312056
 40
0.6866353149779981
 50
282.3002164491358
 51
308.9392082501181
  0
ARC
  8
0
  6
CONTINUOUS
 62
     7
 10
139.5808392226511
 20
119.795779537895
 40
12.59248774091113
 50
99.92724594834041
 51
106.8835729876556
  0
ARC
  8
0
  6
CONTINUOUS
 62
     7
 10
143.0966435685502
 20
124.5419687965338
 40
7.210170177083074
 50
51.69304626319564
 51
66.31355539019131
  0
ARC
  8
0
  6
CONTINUOUS
 62
     7
 10
140.8244790661767
 20
121.6656273081144
 40
10.87569495313478
 50
47.83207985937417
 51
51.6930462631957
  0
ARC
  8
0
  6
CONTINUOUS
 62
     7
 10
140.8244790661767
 20
121.6656273081144
 40
10.87569495313478
 50
34.87586367804522
 51
41.08795386570978
  0
ARC
  8
0
  6
CONTINUOUS
 62
     7
 10
145.3929802144096
 20
124.8497975893996
 40
5.307019785590394
 50
34.47323549609575
 51
34.87586367804613
  0
ARC
  8
0
  6
CONTINUOUS
 62
     7
 10
136.0316183466884
 20
132.8414838573754
 40
0.6866353149778205
 50
235.6626398153886
 51
257.699783550873
  0
ARC
  8
0
  6
CONTINUOUS
 62
     7
 10
136.2202664093747
 20
133.7066862948559
 40
1.572165297179212
 50
257.6997835508728
 51
270.0
  0
ARC
  8
0
  6
CONTINUOUS
 62
     7
 10
136.2202664093747
 20
133.7066862948559
 40
1.572165297179212
 50
270.0
 51
281.0423187218072
  0
ARC
  8
0
  6
CONTINUOUS
 62
     7
 10
66.35041195373739
 20
188.3843331307505
 40
0.6205183801088945
 50
15.582513286812
 51
97.169389506046
  0
ARC
  8
0
  6
CONTINUOUS
 62
     7
 10
144.955156616693
 20
132.2532258714879
 40
0.4310412023109667
 50
180.0
 51
216.0720702342906
  0
ARC
  8
0
  6
CONTINUOUS
 62
     7
 10
145.5432523397519
 20
132.6816336872006
 40
1.158633008232351
 50
216.0720702343101
 51
229.3006331506822
  0
ARC
  8
0
  6
CONTINUOUS
 62
     7
 10
145.2354673516957
 20
132.3237926281186
 40
0.6866353149777633
 50
229.3006331506832
 51
249.0172979496796
  0
ARC
  8
0
  6
CONTINUOUS
 62
     7
 10
140.0
 20
117.2689444045918
 40
17.26821608706348
 50
95.78311524893928
 51
97.5271176533688
  0
ARC
  8
0
  6
CONTINUOUS
 62
     7
 10
139.5416653182265
 20
120.7376549646118
 40
13.76935575408211
 50
97.5271176533691
 51
99.37067748415447
  0
ARC
  8
0
  6
CONTINUOUS
 62
     7
 10
141.1685236651246
 20
117.0517966569151
 40
16.52417478646266
 50
106.9708118364788
 51
112.3760916660559
  0
ARC
  8
0
  6
CONTINUOUS
 62
     7
 10
139.6258892127408
 20
122.1067353468616
 40
11.23908952576919
 50
101.2670974800104
 51
106.9708118364789
  0
ARC
  8
0
  6
CONTINUOUS
 62
     7
 10
139.5808392226518
 20
119.7957795378928
 40
12.59248774091341
 50
97.5271176533695
 51
99.92724594834169
  0
ARC
  8
0
  6
CONTINUOUS
 62
     7
 10
140.0
 20
116.6235399659085
 40
15.79230018218711
 50
89.99999999999994
 51
97.52711765336818
  0
ARC
  8
0
  6
CONTINUOUS
 62
     7
 10
140.0
 20
116.6235399659085
 40
15.79230018218711
 50
88.91150096460125
 51
90.00000000000011
  0
ARC
  8
0
  6
CONTINUOUS
 62
     7
 10
66.55714814253112
 20
193.0701410068629
 40
0.5762125464228955
 50
261.675123979834
 51
342.6134660513579
  0
ARC
  8
0
  6
CONTINUOUS
 62
     7
 10
87.63825316617994
 20
190.0
 40
19.18690676340286
 50
186.3247175989225
 51
187.5271176533692
  0
ARC
  8
0
  6
CONTINUOUS
 62
     7
 10
83.7841303217138
 20
189.4907392424737
 40
15.29928417120181
 50
187.5271176533688
 51
190.4675385236152
  0
ARC
  8
0
  6
CONTINUOUS
 62
     7
 10
90.66519869545861
 20
191.590660486555
 40
22.49364107057055
 50
202.8868789902895
 51
202.940117188498
  0
ARC
  8
0
  6
CONTINUOUS
 62
     7
 10
78.01773215701134
 20
186.2377227671822
 40
8.760019841316158
 50
202.9401171884988
 51
209.9726067277903
  0
ARC
  8
0
  6
CONTINUOUS
 62
     7
 10
134.6070197855904
 20
124.8497975893996
 40
5.307019785590422
 50
145.1241363219539
 51
145.5397659154944
  0
ARC
  8
0
  6
CONTINUOUS
 62
     7
 10
139.1755209338234
 20
121.6656273081143
 40
10.87569495313487
 50
130.834572932694
 51
145.1241363219546
  0
ARC
  8
0
  6
CONTINUOUS
 62
     7
 10
81.5123526569603
 20
188.9982964616549
 40
13.21346115801474
 50
228.4061777623616
 51
232.4955125973885
  0
ARC
  8
0
  6
CONTINUOUS
 62
     7
 10
141.4315944378979
 20
114.544693428247
 40
20.24427696350822
 50
111.9582449035554
 51
112.9401171884995
  0
ARC
  8
0
  6
CONTINUOUS
 62
     7
 10
136.6139504904634
 20
125.9274133128453
 40
7.884017857183517
 50
112.9401171884971
 51
113.6270650446457
  0
ARC
  8
0
  6
CONTINUOUS
 62
     7
 10
77.64373455820224
 20
183.4477810479138
 40
6.44778104791377
 50
251.8327880311588
 51
259.4867314244538
  0
ARC
  8
0
  6
CONTINUOUS
 62
     7
 10
77.64373455820224
 20
183.4477810479136
 40
6.447781047913631
 50
280.5132685755463
 51
288.1672119688416
  0
ARC
  8
0
  6
CONTINUOUS
 62
     7
 10
77.26973695939347
 20
186.2377227671819
 40
8.76001984131572
 50
330.0273932722103
 51
337.0598828115018
  0
ARC
  8
0
  6
CONTINUOUS
 62
     7
 10
64.62227042094362
 20
191.5906604865557
 40
22.49364107057287
 50
337.0598828115025
 51
337.1131210097111
  0
ARC
  8
0
  6
CONTINUOUS
 62
     7
 10
71.50333879468992
 20
189.4907392424739
 40
15.29928417120255
 50
349.532461476385
 51
352.472882346631
  0
ARC
  8
0
  6
CONTINUOUS
 62
     7
 10
67.6492159502245
 20
190.0
 40
19.18690676340286
 50
352.4728823466309
 51
353.6752824010773
  0
ARC
  8
0
  6
CONTINUOUS
 62
     7
 10
73.77511645944415
 20
191.0017035383451
 40
13.21346115801474
 50
48.40617776236153
 51
52.4955125973884
  0
ARC
  8
0
  6
CONTINUOUS
 62
     7
 10
140.0
 20
119.2754374111167
 40
14.09499689158081
 50
90.00000000000011
 51
95.68019518195865
  0
ARC
  8
0
  6
CONTINUOUS
 62
     7
 10
140.0
 20
119.275437411117
 40
14.09499689158047
 50
84.31980481804135
 51
90.0
  0
ARC
  8
0
  6
CONTINUOUS
 62
     7
 10
77.97609502842509
 20
185.0448433833071
 40
0.4310412023109389
 50
90.0
 51
126.0720702342928
  0
ARC
  8
0
  6
CONTINUOUS
 62
     7
 10
78.40450284413791
 20
184.456747660248
 40
1.158633008232518
 50
126.0720702343124
 51
139.300633150682
  0
ARC
  8
0
  6
CONTINUOUS
 62
     7
 10
78.04666178505593
 20
184.7645326483042
 40
0.6866353149779093
 50
139.3006331506815
 51
159.0172979496742
  0
ARC
  8
0
  6
CONTINUOUS
 62
     7
 10
82.76149052989985
 20
197.4969266838019
 40
1.065483072414761
 50
276.751879330872
 51
314.1559673175891
  0
ARC
  8
0
  6
CONTINUOUS
 62
     7
 10
60.26756258518575
 20
188.5684055621028
 40
20.2442769635065
 50
21.95824490355532
 51
22.94011718849949
  0
ARC
  8
0
  6
CONTINUOUS
 62
     7
 10
71.65028246978217
 20
193.3860495095364
 40
7.884017857183895
 50
22.94011718849767
 51
23.62743897284361
  0
ARC
  8
0
  6
CONTINUOUS
 62
     7
 10
64.99830656805827
 20
190.0
 40
14.09499689157638
 50
354.3198048180398
 51
0.0000000000001705
  0
ARC
  8
0
  6
CONTINUOUS
 62
     7
 10
64.99830656805709
 20
190.0
 40
14.09499689157756
 50
0.0
 51
5.680195181959845
  0
ARC
  8
0
  6
CONTINUOUS
 62
     7
 10
70.26483795347082
 20
193.09664356855
 40
7.21017017708329
 50
29.10784042776211
 51
38.30695373680442
  0
ARC
  8
0
  6
CONTINUOUS
 62
     7
 10
67.38849646505138
 20
190.8244790661765
 40
10.87569495313503
 50
38.30695373680421
 51
40.83457293269387
  0
ARC
  8
0
  6
CONTINUOUS
 62
     7
 10
77.68823002562269
 20
197.8059169056299
 40
1.572165297178685
 50
176.0755337882746
 51
180.0
  0
ARC
  8
0
  6
CONTINUOUS
 62
     7
 10
77.68823002562269
 20
197.8059169056299
 40
1.572165297178685
 50
180.0
 51
192.3002164491324
  0
ARC
  8
0
  6
CONTINUOUS
 62
     7
 10
76.82302758814272
 20
197.6172688429437
 40
0.6866353149779093
 50
192.3002164491328
 51
218.9392082501188
  0
ARC
  8
0
  6
CONTINUOUS
 62
     7
 10
77.77745677805477
 20
182.3372439734864
 40
1.110894617240022
 50
217.0751467672553
 51
262.6360282376627
  0
ARC
  8
0
  6
CONTINUOUS
 62
     7
 10
68.50512401982816
 20
190.9015331845111
 40
11.89211504221252
 50
46.68874143500324
 51
46.9159483430336
  0
ARC
  8
0
  6
CONTINUOUS
 62
     7
 10
72.06568930940894
 20
192.7638267364163
 40
6.435245344966617
 50
31.24889624456221
 51
38.30695373680432
  0
ARC
  8
0
  6
CONTINUOUS
 62
     7
 10
69.4984873267539
 20
190.735866830092
 40
9.706811850695475
 50
38.30695373680445
 51
47.652473772606
  0
ARC
  8
0
  6
CONTINUOUS
 62
     7
 10
72.93074963376837
 20
200.4255411655096
 40
0.8983726337666519
 50
311.593986815013
 51
34.89144770845223
  0
ARC
  8
0
  6
CONTINUOUS
 62
     7
 10
70.57266674633675
 20
195.3929802144096
 40
5.307019785590366
 50
55.1241363219537
 51
55.53976591549382
  0
ARC
  8
0
  6
CONTINUOUS
 62
     7
 10
67.38849646505176
 20
190.8244790661768
 40
10.87569495313457
 50
40.83457293269413
 51
55.12413632195506
  0
ARC
  8
0
  6
CONTINUOUS
 62
     7
 10
70.26483795347117
 20
186.9033564314497
 40
7.210170177082835
 50
336.3135553901921
 51
337.059882811502
  0
ARC
  8
0
  6
CONTINUOUS
 62
     7
 10
59.85500011028778
 20
191.3092359389335
 40
18.51399688116137
 50
337.0598828115019
 51
341.3102342127202
  0
ARC
  8
0
  6
CONTINUOUS
 62
     7
 10
71.6790515158441
 20
186.9033564314498
 40
7.210170177083034
 50
334.5738634176837
 51
336.3135553901917
  0
ARC
  8
0
  6
CONTINUOUS
 62
     7
 10
77.16191772436214
 20
177.737114393823
 40
1.573633882320887
 50
2.18445562735269
 51
77.99175586363015
  0
ARC
  8
0
  6
CONTINUOUS
 62
     7
 10
78.0217294686229
 20
177.9658405819022
 40
1.548822836736522
 50
1.466321715089244
 51
78.70988977589481
  0
ARC
  8
0
  6
CONTINUOUS
 62
     7
 10
72.07667034356136
 20
180.2054450618624
 40
1.008502149402711
 50
329.7359268478663
 51
38.91257903198721
  0
ARC
  8
0
  6
CONTINUOUS
 62
     7
 10
62.34640912284735
 20
190.0
 40
15.79230018218547
 50
353.2409959539556
 51
358.9115009646011
  0
ARC
  8
0
  6
CONTINUOUS
 62
     7
 10
69.49848732675386
 20
189.264133169908
 40
9.706811850695523
 50
312.3475262273941
 51
321.6930462631956
  0
ARC
  8
0
  6
CONTINUOUS
 62
     7
 10
72.06568930940908
 20
187.2361732635836
 40
6.435245344966439
 50
321.6930462631957
 51
328.7511037554379
  0
ARC
  8
0
  6
CONTINUOUS
 62
     7
 10
62.99181356152901
 20
190.0
 40
17.26821608706346
 50
5.783115248939168
 51
7.527117653368844
  0
ARC
  8
0
  6
CONTINUOUS
 62
     7
 10
66.46052412154962
 20
190.4583346817737
 40
13.76935575408143
 50
7.527117653368891
 51
9.370607957185973
  0
ARC
  8
0
  6
CONTINUOUS
 62
     7
 10
75.83077171515576
 20
198.6520963917444
 40
1.287370009145921
 50
45.45658921993513
 51
47.29971128372868
  0
ARC
  8
0
  6
CONTINUOUS
 62
     7
 10
130.2020128014344
 20
126.3082639252396
 40
1.046424341342888
 50
52.51132282789399
 51
118.8450017413148
  0
ARC
  8
0
  6
CONTINUOUS
 62
     7
 10
76.06687692324331
 20
189.9999999999999
 40
23.17187970657025
 50
179.9999999999999
 51
184.3318098342742
  0
ARC
  8
0
  6
CONTINUOUS
 62
     7
 10
76.06687692324512
 20
190.0
 40
23.17187970657206
 50
175.668190165726
 51
180.0
  0
ARC
  8
0
  6
CONTINUOUS
 62
     7
 10
78.9266107523938
 20
189.5689587976891
 40
0.4310412023109389
 50
90.0
 51
126.0720702342928
  0
ARC
  8
0
  6
CONTINUOUS
 62
     7
 10
79.35501856810653
 20
188.98086307463
 40
1.158633008232448
 50
126.0720702343099
 51
139.3006331506809
  0
ARC
  8
0
  6
CONTINUOUS
 62
     7
 10
78.99717750902455
 20
189.2886480626862
 40
0.6866353149778491
 50
139.3006331506802
 51
167.6997835508684
  0
ARC
  8
0
  6
CONTINUOUS
 62
     7
 10
79.8623799465046
 20
189.1
 40
1.572165297178713
 50
167.6997835508679
 51
180.0
  0
ARC
  8
0
  6
CONTINUOUS
 62
     7
 10
79.8623799465046
 20
189.1
 40
1.572165297178713
 50
180.0
 51
192.3002164491322
  0
ARC
  8
0
  6
CONTINUOUS
 62
     7
 10
78.99717750902462
 20
188.9113519373138
 40
0.6866353149779199
 50
192.3002164491325
 51
220.6993668493177
  0
ARC
  8
0
  6
CONTINUOUS
 62
     7
 10
79.35501856810633
 20
189.2191369253698
 40
1.158633008232173
 50
220.6993668493182
 51
233.9279297656922
  0
ARC
  8
0
  6
CONTINUOUS
 62
     7
 10
78.9266107523938
 20
188.6310412023109
 40
0.4310412023109389
 50
233.9279297657072
 51
270.0
  0
ARC
  8
0
  6
CONTINUOUS
 62
     7
 10
78.9266107523938
 20
188.6310412023109
 40
0.4310412023109389
 50
270.0
 51
306.0720702342928
  0
ARC
  8
0
  6
CONTINUOUS
 62
     7
 10
78.49820293668105
 20
189.21913692537
 40
1.158633008232448
 50
306.0720702343099
 51
319.3006331506809
  0
ARC
  8
0
  6
CONTINUOUS
 62
     7
 10
78.85604399576303
 20
188.9113519373138
 40
0.6866353149778491
 50
319.3006331506803
 51
347.6997835508685
  0
ARC
  8
0
  6
CONTINUOUS
 62
     7
 10
77.99084155828298
 20
189.1
 40
1.572165297178713
 50
347.6997835508679
 51
0.0
  0
ARC
  8
0
  6
CONTINUOUS
 62
     7
 10
77.99084155828298
 20
189.1
 40
1.572165297178713
 50
0.0
 51
12.30021644913215
  0
ARC
  8
0
  6
CONTINUOUS
 62
     7
 10
78.85604399576296
 20
189.2886480626862
 40
0.6866353149779199
 50
12.30021644913254
 51
40.69936684931772
  0
ARC
  8
0
  6
CONTINUOUS
 62
     7
 10
78.49820293668125
 20
188.9808630746302
 40
1.158633008232173
 50
40.69936684931815
 51
53.92792976569215
  0
ARC
  8
0
  6
CONTINUOUS
 62
     7
 10
78.9266107523938
 20
189.5689587976891
 40
0.4310412023109389
 50
53.92792976570723
 51
90.0
  0
ARC
  8
0
  6
CONTINUOUS
 62
     7
 10
71.98688030870986
 20
195.3929802144096
 40
5.307019785590394
 50
55.12413632195386
 51
64.72276019654453
  0
ARC
  8
0
  6
CONTINUOUS
 62
     7
 10
68.8027100274248
 20
190.8244790661767
 40
10.87569495313463
 50
46.11171125584383
 51
55.1241363219549
  0
ARC
  8
0
  6
CONTINUOUS
 62
     7
 10
77.76608400246374
 20
185.2685757605107
 40
0.385631272674004
 50
100.3618725359099
 51
163.8925415538681
  0
ARC
  8
0
  6
CONTINUOUS
 62
     7
 10
78.41139270227079
 20
189.7294654122498
 40
0.2772281203558769
 50
102.6160788291827
 51
186.1012519880239
  0
ARC
  8
0
  6
CONTINUOUS
 62
     7
 10
79.70477564716778
 20
201.6585379550295
 40
2.045626722366332
 50
279.0949627352179
 51
339.4188527434411
  0
ARC
  8
0
  6
CONTINUOUS
 62
     7
 10
67.82960450380037
 20
190.3741107872597
 40
11.23908952576749
 50
11.26709748000905
 51
16.97081183647868
  0
ARC
  8
0
  6
CONTINUOUS
 62
     7
 10
62.77466581385774
 20
188.8314763348772
 40
16.5241747864569
 50
16.97081183647874
 51
22.3760916660575
  0
ARC
  8
0
  6
CONTINUOUS
 62
     7
 10
62.89216479436352
 20
189.9999999999999
 40
15.42332120596593
 50
354.1104879348677
 51
356.9200424333764
  0
ARC
  8
0
  6
CONTINUOUS
 62
     7
 10
75.37287863649071
 20
201.8803210973591
 40
1.223474657652899
 50
290.4524846041808
 51
15.28741482461447
  0
ARC
  8
0
  6
CONTINUOUS
 62
     7
 10
67.38849646505128
 20
189.1755209338236
 40
10.87569495313519
 50
311.0879538657102
 51
317.8320798593743
  0
ARC
  8
0
  6
CONTINUOUS
 62
     7
 10
63.76062268522045
 20
190.0
 40
15.79230018218544
 50
352.472882346631
 51
353.2409959539555
  0
ARC
  8
0
  6
CONTINUOUS
 62
     7
 10
66.93286225720401
 20
189.5808392226515
 40
12.59248774091239
 50
350.1057367267306
 51
352.4728823466312
  0
ARC
  8
0
  6
CONTINUOUS
 62
     7
 10
60.45896627275074
 20
191.2786463141923
 40
18.08142686057415
 50
337.457850060789
 51
339.7010072393415
  0
ARC
  8
0
  6
CONTINUOUS
 62
     7
 10
70.26483795347085
 20
193.09664356855
 40
7.21017017708324
 50
22.94011718849913
 51
29.10784042776209
  0
ARC
  8
0
  6
CONTINUOUS
 62
     7
 10
59.85500011028787
 20
188.6907640610665
 40
18.51399688116127
 50
16.97081183647867
 51
22.94011718849816
  0
ARC
  8
0
  6
CONTINUOUS
 62
     7
 10
65.51864869483134
 20
190.4191607773486
 40
12.59248774091196
 50
16.88357298765578
 51
16.97081183647879
  0
ARC
  8
0
  6
CONTINUOUS
 62
     7
 10
65.51864869483134
 20
190.4191607773486
 40
12.59248774091196
 50
9.92724594834109
 51
16.88357298765577
  0
ARC
  8
0
  6
CONTINUOUS
 62
     7
 10
62.77466581385728
 20
191.168523665123
 40
16.52417478645739
 50
337.6239083339425
 51
343.0291881635214
  0
ARC
  8
0
  6
CONTINUOUS
 62
     7
 10
67.82960450380105
 20
189.62588921274
 40
11.23908952576676
 50
343.0291881635217
 51
348.7329025199913
  0
ARC
  8
0
  6
CONTINUOUS
 62
     7
 10
65.51864869483092
 20
190.4191607773485
 40
12.59248774091239
 50
7.527117653368691
 51
9.927245948341124
  0
ARC
  8
0
  6
CONTINUOUS
 62
     7
 10
62.34640912284736
 20
190.0
 40
15.79230018218544
 50
359.9999999999998
 51
7.527117653368919
  0
ARC
  8
0
  6
CONTINUOUS
 62
     7
 10
62.34640912284736
 20
190.0
 40
15.79230018218544
 50
358.9115009646011
 51
0.0000000000001137
  0
ARC
  8
0
  6
CONTINUOUS
 62
     7
 10
71.67905151584418
 20
193.0966435685502
 40
7.210170177082935
 50
22.94011718849844
 51
25.42089304383148
  0
ARC
  8
0
  6
CONTINUOUS
 62
     7
 10
61.26921367266095
 20
188.6907640610665
 40
18.51399688116127
 50
21.73769624720791
 51
22.94011718849816
  0
ARC
  8
0
  6
CONTINUOUS
 62
     7
 10
65.99028661933744
 20
190.4093673012421
 40
12.29827073762051
 50
11.00773069094066
 51
14.46487523141286
  0
ARC
  8
0
  6
CONTINUOUS
 62
     7
 10
66.93286225720401
 20
190.4191607773485
 40
12.59248774091239
 50
7.527117653368691
 51
9.927245948341067
  0
ARC
  8
0
  6
CONTINUOUS
 62
     7
 10
63.76062268522045
 20
190.0
 40
15.79230018218544
 50
5.56550952955098
 51
7.527117653368919
  0
ARC
  8
0
  6
CONTINUOUS
 62
     7
 10
82.76483576764336
 20
182.5101012924854
 40
1.058113481803157
 50
45.70888976271402
 51
83.38326358882506
  0
ARC
  8
0
  6
CONTINUOUS
 62
     7
 10
70.62558360557972
 20
193.0242920833036
 40
7.041708257057874
 50
30.83534401271066
 51
36.30907798032671
  0
ARC
  8
0
  6
CONTINUOUS
 62
     7
 10
78.5643530143125
 20
193.9683816533116
 40
0.6866353149777422
 50
145.6626398153899
 51
167.6997835508762
  0
ARC
  8
0
  6
CONTINUOUS
 62
     7
 10
79.4295554517925
 20
193.7797335906253
 40
1.572165297178588
 50
167.6997835508679
 51
180.0
  0
ARC
  8
0
  6
CONTINUOUS
 62
     7
 10
79.4295554517925
 20
193.7797335906253
 40
1.572165297178588
 50
180.0
 51
191.0423187218117
  0
ARC
  8
0
  6
CONTINUOUS
 62
     7
 10
62.34640912284693
 20
190.0
 40
15.79230018218587
 50
352.472882346631
 51
353.2409959539556
  0
ARC
  8
0
  6
CONTINUOUS
 62
     7
 10
65.51864869483052
 20
189.5808392226516
 40
12.5924877409128
 50
343.0291881635214
 51
352.4728823466307
  0
ARC
  8
0
  6
CONTINUOUS
 62
     7
 10
59.85500011028641
 20
191.3092359389339
 40
18.51399688116276
 50
341.3102342127206
 51
343.0291881635214
  0
ARC
  8
0
  6
CONTINUOUS
 62
     7
 10
77.17993559557358
 20
202.2477195413611
 40
1.555118329556079
 50
281.4751771202432
 51
358.348611388772
  0
ARC
  8
0
  6
CONTINUOUS
 62
     7
 10
75.80659188961415
 20
181.4586068006134
 40
0.4310412023108001
 50
90.0
 51
126.0720702343058
  0
ARC
  8
0
  6
CONTINUOUS
 62
     7
 10
76.23499970532629
 20
180.8705110775547
 40
1.158633008231651
 50
126.0720702343022
 51
134.3670828714942
  0
ARC
  8
0
  6
CONTINUOUS
 62
     7
 10
66.76356584909803
 20
189.0137072853217
 40
13.01017714019912
 50
318.4562028180843
 51
319.146501052154
  0
ARC
  8
0
  6
CONTINUOUS
 62
     7
 10
60.73190996309688
 20
190.0
 40
18.89172358242769
 50
354.2878972942462
 51
354.6240643324891
  0
ARC
  8
0
  6
CONTINUOUS
 62
     7
 10
74.47254309082348
 20
201.686056996652
 40
1.282529380146128
 50
297.8565600480486
 51
13.91700712703061
  0
ARC
  8
0
  6
CONTINUOUS
 62
     7
 10
67.38849646505176
 20
189.1755209338232
 40
10.87569495313457
 50
304.875863678045
 51
311.0879538657096
  0
ARC
  8
0
  6
CONTINUOUS
 62
     7
 10
70.57266674633675
 20
184.6070197855904
 40
5.307019785590366
 50
304.4732354960959
 51
304.8758636780462
  0
ARC
  8
0
  6
CONTINUOUS
 62
     7
 10
66.46052412154876
 20
189.5416653182265
 40
13.76935575408231
 50
350.6284139275745
 51
352.4728823466308
  0
ARC
  8
0
  6
CONTINUOUS
 62
     7
 10
62.99181356152901
 20
190.0
 40
17.26821608706346
 50
352.4728823466312
 51
353.2409959539558
  0
ARC
  8
0
  6
CONTINUOUS
 62
     7
 10
74.4290548574774
 20
178.2944977627871
 40
1.320390013174604
 50
347.3559922228876
 51
60.86421706659211
  0
ARC
  8
0
  6
CONTINUOUS
 62
     7
 10
78.04236194736158
 20
202.0167925767994
 40
1.527845441589808
 50
280.658835745084
 51
359.164952763933
  0
ARC
  8
0
  6
CONTINUOUS
 62
     7
 10
69.12650481725802
 20
189.1678155219901
 40
10.97733696204287
 50
304.875863678046
 51
307.0947139929647
  0
ARC
  8
0
  6
CONTINUOUS
 62
     7
 10
72.3404336993031
 20
184.5566181013437
 40
5.356618101343718
 50
294.1560376641849
 51
304.8758636780456
  0
ARC
  8
0
  6
CONTINUOUS
 62
     7
 10
67.38849646505128
 20
189.1755209338236
 40
10.87569495313519
 50
317.8320798593743
 51
321.6930462631955
  0
ARC
  8
0
  6
CONTINUOUS
 62
     7
 10
70.26483795347117
 20
186.9033564314497
 40
7.210170177082835
 50
321.6930462631955
 51
336.3135553901919
  0
ARC
  8
0
  6
CONTINUOUS
 62
     7
 10
68.80271002742484
 20
189.1755209338232
 40
10.87569495313458
 50
304.875863678045
 51
311.0879538657096
  0
ARC
  8
0
  6
CONTINUOUS
 62
     7
 10
71.98688030870986
 20
184.6070197855904
 40
5.307019785590394
 50
295.2957161023506
 51
304.8758636780461
  0
ARC
  8
0
  6
CONTINUOUS
 62
     7
 10
75.42206838595105
 20
178.1448911751433
 40
1.183260689800154
 50
342.9066526841826
 51
71.34992055295879
  0
ARC
  8
0
  6
CONTINUOUS
 62
     7
 10
69.12650481725802
 20
190.8321844780099
 40
10.97733696204287
 50
52.90528600703551
 51
55.12413632195403
  0
ARC
  8
0
  6
CONTINUOUS
 62
     7
 10
72.3404336993031
 20
195.4433818986563
 40
5.356618101343718
 50
55.12413632195443
 51
65.83213886406878
  0
ARC
  8
0
  6
CONTINUOUS
 62
     7
 10
77.79045205633692
 20
197.6403779920866
 40
1.134797944100198
 50
97.8698793394019
 51
142.4189456556811
  0
ARC
  8
0
  6
CONTINUOUS
 62
     7
 10
67.81644635754407
 20
189.1947844634069
 40
10.62158993086528
 50
312.102357273267
 51
315.4270262279904
  0
ENDSEC
  0
EOF
