  0
SECTION
  2
HEADER
  9
$ACADVER
  1
AC1004
  9
$INSBASE
 10
0.0
 20
0.0
  9
$EXTMIN
 10
30.27078322211988
 20
58.67045454545455
  9
$EXTMAX
 10
175.0
 20
242.0000000000001
  9
$LIMMIN
 10
0.0
 20
0.0
  9
$LIMMAX
 10
12.0
 20
9.0
  9
$ORTHOMODE
 70
     0
  9
$REGENMODE
 70
     1
  9
$FILLMODE
 70
     1
  9
$QTEXTMODE
 70
     0
  9
$DRAGMODE
 70
     2
  9
$LTSCALE
 40
1.0
  9
$OSMODE
 70
    37
  9
$ATTMODE
 70
     1
  9
$TEXTSIZE
 40
0.2
  9
$TRACEWID
 40
0.05
  9
$TEXTSTYLE
  7
STANDARD
  9
$CLAYER
  8
0
  9
$CELTYPE
  6
BYLAYER
  9
$CECOLOR
 62
   256
  9
$DIMSCALE
 40
1.0
  9
$DIMASZ
 40
3.0
  9
$DIMEXO
 40
0.0625
  9
$DIMDLI
 40
0.38
  9
$DIMRND
 40
0.0
  9
$DIMDLE
 40
0.0
  9
$DIMEXE
 40
1.5
  9
$DIMTP
 40
0.0
  9
$DIMTM
 40
0.0
  9
$DIMTXT
 40
3.0
  9
$DIMCEN
 40
0.09
  9
$DIMTSZ
 40
0.0
  9
$DIMTOL
 70
     0
  9
$DIMLIM
 70
     0
  9
$DIMTIH
 70
     1
  9
$DIMTOH
 70
     1
  9
$DIMSE1
 70
     0
  9
$DIMSE2
 70
     0
  9
$DIMTAD
 70
     1
  9
$DIMZIN
 70
     0
  9
$DIMBLK
  1

  9
$DIMASO
 70
     1
  9
$DIMSHO
 70
     1
  9
$DIMPOST
  1

  9
$DIMAPOST
  1

  9
$DIMALT
 70
     0
  9
$DIMALTD
 70
     2
  9
$DIMALTF
 40
25.4
  9
$DIMLFAC
 40
1.0
  9
$DIMTOFL
 70
     0
  9
$DIMTVP
 40
0.0
  9
$DIMTIX
 70
     0
  9
$DIMSOXD
 70
     0
  9
$DIMSAH
 70
     0
  9
$DIMBLK1
  1

  9
$DIMBLK2
  1

  9
$LUNITS
 70
     2
  9
$LUPREC
 70
     4
  9
$SKETCHINC
 40
0.1
  9
$FILLETRAD
 40
0.5
  9
$AUNITS
 70
     0
  9
$AUPREC
 70
     0
  9
$MENU
  1
.
  9
$ELEVATION
 40
0.0
  9
$THICKNESS
 40
0.0
  9
$LIMCHECK
 70
     0
  9
$CHAMFERA
 40
0.0
  9
$CHAMFERB
 40
0.0
  9
$SKPOLY
 70
     0
  9
$TDCREATE
 40
2460052.538450069
  9
$TDUPDATE
 40
2460052.538450602
  9
$TDINDWG
 40
0.0000000116
  9
$TDUSRTIMER
 40
0.0000000116
  9
$USRTIMER
 70
     1
  9
$ANGBASE
 50
0.0
  9
$ANGDIR
 70
     0
  9
$PDMODE
 70
     0
  9
$PDSIZE
 40
0.0
  9
$PLINEWID
 40
0.0
  9
$COORDS
 70
     1
  9
$SPLFRAME
 70
     0
  9
$SPLINETYPE
 70
     6
  9
$SPLINESEGS
 70
     8
  9
$ATTDIA
 70
     0
  9
$ATTREQ
 70
     1
  9
$SURFTAB1
 70
     6
  9
$SURFTAB2
 70
     6
  9
$SURFTYPE
 70
     6
  9
$SURFU
 70
     6
  9
$SURFV
 70
     6
  9
$UCSNAME
  2

  9
$UCSORG
 10
0.0
 20
0.0
 30
0.0
  9
$UCSXDIR
 10
1.0
 20
0.0
 30
0.0
  9
$UCSYDIR
 10
0.0
 20
1.0
 30
0.0
  9
$USERI1
 70
     0
  9
$USERI2
 70
     0
  9
$USERI3
 70
     0
  9
$USERI4
 70
     0
  9
$USERI5
 70
     0
  9
$USERR1
 40
0.0
  9
$USERR2
 40
0.0
  9
$USERR3
 40
0.0
  9
$USERR4
 40
0.0
  9
$USERR5
 40
0.0
  9
$WORLDVIEW
 70
     1
  0
ENDSEC
  0
SECTION
  2
TABLES
  0
TABLE
  2
LTYPE
 70
     2
  0
LTYPE
  2
CONTINUOUS
 70
     0
  3
Solid line
 72
    65
 73
     0
 40
0.0
  0
LTYPE
  2
CENTER
 70
     0
  3

 72
    65
 73
     0
 40
0.0
  0
ENDTAB
  0
TABLE
  2
LAYER
 70
     1
  0
LAYER
  2
0
 70
     0
 62
     7
  6
CONTINUOUS
  0
ENDTAB
  0
TABLE
  2
STYLE
 70
     2
  0
STYLE
  2
STANDARD
 70
     0
 40
0.0
 41
1.0
 50
0.0
 71
     0
 42
0.2
  3
txt
  4

  0
STYLE
  2
ＭＳ_ゴシック
 70
     0
 40
0.0
 41
1.0
 50
0.0
 71
     0
 42
0.2
  3
ＭＳ ゴシック.shx
  4

  0
ENDTAB
  0
TABLE
  2
VIEW
 70
     0
  0
ENDTAB
  0
ENDSEC
  0
SECTION
  2
BLOCKS
  0
BLOCK
  8
0
  2
D_FRAME_VIEW_1510
 70
     0
 10
0.0
 20
0.0
  0
ENDBLK
  8
0
  0
BLOCK
  8
0
  2
D_FRAME_VIEW_2730
 70
     0
 10
0.0
 20
0.0
  0
ENDBLK
  8
0
  0
BLOCK
  8
0
  2
D_FRAME_VIEW_2209
 70
     0
 10
0.0
 20
0.0
  0
ENDBLK
  8
0
  0
ENDSEC
  0
SECTION
  2
ENTITIES
  0
INSERT
  8
0
  6
CONTINUOUS
 62
     7
  2
D_FRAME_VIEW_1510
 10
0.0
 20
0.0
 30
0.0
  0
INSERT
  8
0
  6
CONTINUOUS
 62
     7
  2
D_FRAME_VIEW_2730
 10
0.0
 20
0.0
 30
0.0
  0
INSERT
  8
0
  6
CONTINUOUS
 62
     7
  2
D_FRAME_VIEW_2209
 10
0.0
 20
0.0
 30
0.0
  0
ARC
  8
0
  6
CONTINUOUS
 62
     7
 10
104.3182592597035
 20
210.0
 40
24.42640822571804
 50
178.2404502927953
 51
180.0
  0
ARC
  8
0
  6
CONTINUOUS
 62
     7
 10
104.3182592597035
 20
210.0
 40
24.42640822571804
 50
180.0
 51
181.7595497072048
  0
ARC
  8
0
  6
CONTINUOUS
 62
     7
 10
99.41166440771012
 20
209.351671881765
 40
19.47716561795454
 50
193.5966365165188
 51
196.9708118364787
  0
ARC
  8
0
  6
CONTINUOUS
 62
     7
 10
104.8151093957177
 20
211.0006612981232
 40
25.12662433837066
 50
196.9708118364791
 51
197.6652795137859
  0
ARC
  8
0
  6
CONTINUOUS
 62
     7
 10
93.98160959251534
 20
206.2292110130921
 40
13.28891105376584
 50
210.5071318547473
 51
216.2117870515494
  0
ARC
  8
0
  6
CONTINUOUS
 62
     7
 10
78.8706772655428
 20
209.9999999999999
 40
24.42640822571737
 50
358.2404502927955
 51
0.0000000000001137
  0
ARC
  8
0
  6
CONTINUOUS
 62
     7
 10
78.87067726554147
 20
210.0
 40
24.42640822571869
 50
0.0000000000000651
 51
1.759549707204857
  0
ARC
  8
0
  6
CONTINUOUS
 62
     7
 10
91.39056415174981
 20
202.5079468084827
 40
8.89283346387229
 50
231.0513148858042
 51
238.5753761168959
  0
ARC
  8
0
  6
CONTINUOUS
 62
     7
 10
92.65828178778264
 20
204.8207017359971
 40
11.53024571064952
 50
252.7943295500792
 51
252.9414242201789
  0
ARC
  8
0
  6
CONTINUOUS
 62
     7
 10
91.59446826262278
 20
201.3538051049113
 40
7.903805104911315
 50
252.9414242201787
 51
260.5025600089861
  0
ARC
  8
0
  6
CONTINUOUS
 62
     7
 10
80.94840756005917
 20
205.6546546782269
 40
0.5675202228913789
 50
286.0911880411323
 51
344.1500144848411
  0
ARC
  8
0
  6
CONTINUOUS
 62
     7
 10
80.91095693760359
 20
214.3080651975544
 40
0.6142556525585657
 50
18.24044561202862
 51
71.51551496929739
  0
ARC
  8
0
  6
CONTINUOUS
 62
     7
 10
91.59446826262278
 20
218.6461948950887
 40
7.903805104911315
 50
99.49743999101355
 51
107.0585757798213
  0
ARC
  8
0
  6
CONTINUOUS
 62
     7
 10
92.6582817877827
 20
215.1792982640028
 40
11.53024571064967
 50
107.0585757798212
 51
107.2056704499207
  0
ARC
  8
0
  6
CONTINUOUS
 62
     7
 10
92.48255100704277
 20
210.0000000000001
 40
28.85415594034794
 50
175.0286525746849
 51
180.0000000000001
  0
ARC
  8
0
  6
CONTINUOUS
 62
     7
 10
92.48255100704277
 20
209.9999999999999
 40
28.85415594034794
 50
179.9999999999999
 51
181.9861530556558
  0
ARC
  8
0
  6
CONTINUOUS
 62
     7
 10
77.38268879179219
 20
208.3763567691065
 40
0.6282193499902573
 50
15.13972861988441
 51
96.91981707944774
  0
ARC
  8
0
  6
CONTINUOUS
 62
     7
 10
77.55382328457226
 20
213.0763505232459
 40
0.5830953264857248
 50
261.2768766160607
 51
344.3584568577292
  0
ARC
  8
0
  6
CONTINUOUS
 62
     7
 10
95.30931064969795
 20
210.5289489058035
 40
0.0262176626655996
 50
51.94273218954992
 51
181.4095713574134
  0
ARC
  8
0
  6
CONTINUOUS
 62
     7
 10
95.36620797565733
 20
210.601624317581
 40
0.0660808810843238
 50
231.9427321895759
 51
273.9959985510641
  0
ARC
  8
0
  6
CONTINUOUS
 62
     7
 10
91.59446826262281
 20
201.3538051049113
 40
7.903805104911315
 50
279.4974399910136
 51
287.0585757798213
  0
ARC
  8
0
  6
CONTINUOUS
 62
     7
 10
90.5306547374629
 20
204.8207017359972
 40
11.53024571064967
 50
287.0585757798212
 51
287.2056704499206
  0
ARC
  8
0
  6
CONTINUOUS
 62
     7
 10
78.37382712953098
 20
211.0006612981221
 40
25.12662433836737
 50
342.3347204862145
 51
343.0291881635214
  0
ARC
  8
0
  6
CONTINUOUS
 62
     7
 10
83.77727211753674
 20
209.3516718817646
 40
19.47716561795322
 50
343.0291881635214
 51
346.4033634834813
  0
ARC
  8
0
  6
CONTINUOUS
 62
     7
 10
83.77727211753673
 20
210.6483281182354
 40
19.47716561795322
 50
13.59663651651861
 51
16.97081183647866
  0
ARC
  8
0
  6
CONTINUOUS
 62
     7
 10
78.37382712952868
 20
208.9993387018771
 40
25.12662433836981
 50
16.97081183647891
 51
17.66527951378588
  0
ARC
  8
0
  6
CONTINUOUS
 62
     7
 10
90.5306547374629
 20
215.1792982640028
 40
11.53024571064967
 50
72.79432955007921
 51
72.9414242201788
  0
ARC
  8
0
  6
CONTINUOUS
 62
     7
 10
91.59446826262281
 20
218.6461948950887
 40
7.903805104911315
 50
72.9414242201787
 51
80.50256000898617
  0
ARC
  8
0
  6
CONTINUOUS
 62
     7
 10
104.587589468756
 20
210.0
 40
26.64028208303355
 50
173.7073296574034
 51
180.0
  0
ARC
  8
0
  6
CONTINUOUS
 62
     7
 10
104.587589468756
 20
210.0
 40
26.64028208303355
 50
179.9999999999999
 51
183.1409059166902
  0
ARC
  8
0
  6
CONTINUOUS
 62
     7
 10
91.79837237349561
 20
202.5079468084831
 40
8.892833463872684
 50
301.4246238831035
 51
308.9486851141951
  0
ARC
  8
0
  6
CONTINUOUS
 62
     7
 10
89.20732693273025
 20
213.7707889869079
 40
13.28891105376584
 50
30.50713185474743
 51
36.21178705154928
  0
ARC
  8
0
  6
CONTINUOUS
 62
     7
 10
91.39056415174989
 20
217.4920531915171
 40
8.892833463872467
 50
121.4246238831036
 51
128.9486851141951
  0
ARC
  8
0
  6
CONTINUOUS
 62
     7
 10
104.8151093957154
 20
208.9993387018775
 40
25.12662433836822
 50
162.3347204862141
 51
163.0291881635211
  0
ARC
  8
0
  6
CONTINUOUS
 62
     7
 10
99.41166440770915
 20
210.6483281182353
 40
19.47716561795353
 50
163.0291881635214
 51
166.4033634834816
  0
ARC
  8
0
  6
CONTINUOUS
 62
     7
 10
89.20732693273057
 20
206.2292110130919
 40
13.28891105376548
 50
323.7882129484506
 51
329.4928681452529
  0
ARC
  8
0
  6
CONTINUOUS
 62
     7
 10
91.79837237349578
 20
217.4920531915173
 40
8.89283346387229
 50
51.05131488580432
 51
58.57537611689624
  0
ARC
  8
0
  6
CONTINUOUS
 62
     7
 10
93.98160959251523
 20
213.7707889869079
 40
13.2889110537657
 50
143.7882129484505
 51
149.4928681452526
  0
ARC
  8
0
  6
CONTINUOUS
 62
     7
 10
97.9589311592903
 20
199.5872804972765
 40
0.9370261544996725
 50
39.22405193408417
 51
81.24313047481303
  0
ARC
  8
0
  6
CONTINUOUS
 62
     7
 10
82.51182510724509
 20
209.0214126971548
 40
12.90853513129074
 50
309.8312431587001
 51
321.3653950622954
  0
ARC
  8
0
  6
CONTINUOUS
 62
     7
 10
90.64482096277384
 20
198.3601430942767
 40
0.4310412023108001
 50
90.0
 51
126.0720702343058
  0
ARC
  8
0
  6
CONTINUOUS
 62
     7
 10
91.07322877848597
 20
197.772047371218
 40
1.158633008231651
 50
126.0720702343022
 51
132.1676388008186
  0
ARC
  8
0
  6
CONTINUOUS
 62
     7
 10
73.57019859271053
 20
208.4460470631344
 40
21.97455704586626
 50
18.01641866965084
 51
22.94011718849755
  0
ARC
  8
0
  6
CONTINUOUS
 62
     7
 10
85.92580051873324
 20
213.675455450522
 40
8.557865537285771
 50
22.94011718849904
 51
29.93121872423023
  0
ARC
  8
0
  6
CONTINUOUS
 62
     7
 10
80.80002553727502
 20
211.0556414211793
 40
13.92495522036903
 50
38.42448523674523
 51
41.63779826111181
  0
ARC
  8
0
  6
CONTINUOUS
 62
     7
 10
84.48281791029818
 20
206.0351386084918
 40
9.231713217386659
 50
329.7380558087177
 51
334.902651774602
  0
ARC
  8
0
  6
CONTINUOUS
 62
     7
 10
85.9258005187332
 20
206.324544549478
 40
8.55786553728582
 50
330.0687812757695
 51
337.059882811501
  0
ARC
  8
0
  6
CONTINUOUS
 62
     7
 10
73.5701985927114
 20
211.5539529368652
 40
21.97455704586531
 50
337.0598828115023
 51
341.9835813303492
  0
ARC
  8
0
  6
CONTINUOUS
 62
     7
 10
83.26267840749705
 20
199.5541174403924
 40
0.7360801363570595
 50
311.6011334863002
 51
21.55125993768689
  0
ARC
  8
0
  6
CONTINUOUS
 62
     7
 10
83.21857997123179
 20
220.4353645455475
 40
0.7736608746786923
 50
340.3712443014875
 51
46.47352885036065
  0
ARC
  8
0
  6
CONTINUOUS
 62
     7
 10
92.30252731949246
 20
225.1887767431088
 40
1.528351764793618
 50
281.3766754556415
 51
359.4427013435533
  0
ARC
  8
0
  6
CONTINUOUS
 62
     7
 10
86.29116740372368
 20
202.9437642054455
 40
6.94376420544554
 50
289.4282263781637
 51
304.8758636780453
  0
ARC
  8
0
  6
CONTINUOUS
 62
     7
 10
82.12496329736894
 20
208.9212423433205
 40
14.22988124709268
 50
304.8758636780456
 51
304.9229160052798
  0
ARC
  8
0
  6
CONTINUOUS
 62
     7
 10
89.20772108212317
 20
194.9003230925552
 40
1.237190086210112
 50
345.5421722299627
 51
70.56823544494637
  0
ARC
  8
0
  6
CONTINUOUS
 62
     7
 10
92.590364105119
 20
221.0130451311968
 40
1.572165297178588
 50
188.588141939299
 51
192.3002164491322
  0
ARC
  8
0
  6
CONTINUOUS
 62
     7
 10
91.72516166763906
 20
220.8243970685106
 40
0.6866353149778205
 50
192.3002164491273
 51
220.6993668493187
  0
ARC
  8
0
  6
CONTINUOUS
 62
     7
 10
92.08300272672027
 20
221.1321820565661
 40
1.158633008231388
 50
220.6993668493172
 51
223.3214222625909
  0
ARC
  8
0
  6
CONTINUOUS
 62
     7
 10
76.52729153285128
 20
210.0
 40
18.74413199194155
 50
2.293241837836774
 51
7.527117653368349
  0
ARC
  8
0
  6
CONTINUOUS
 62
     7
 10
80.29247308090754
 20
210.4975085861985
 40
14.94622376725199
 50
7.52711765336933
 51
12.94273597358322
  0
ARC
  8
0
  6
CONTINUOUS
 62
     7
 10
80.29247308090778
 20
209.5024914138014
 40
14.94622376725175
 50
347.0572640264168
 51
352.4728823466308
  0
ARC
  8
0
  6
CONTINUOUS
 62
     7
 10
76.52729153285128
 20
210.0
 40
18.74413199194155
 50
352.4728823466317
 51
357.7067581621632
  0
ARC
  8
0
  6
CONTINUOUS
 62
     7
 10
93.33014895477525
 20
202.0876113673087
 40
0.4310412023108001
 50
90.0
 51
126.0720702343058
  0
ARC
  8
0
  6
CONTINUOUS
 62
     7
 10
93.7585567704874
 20
201.49951564425
 40
1.158633008231651
 50
126.0720702343022
 51
139.3006331506813
  0
ARC
  8
0
  6
CONTINUOUS
 62
     7
 10
93.40071571140595
 20
201.8073006323058
 40
0.6866353149777422
 50
139.3006331506817
 51
150.9962145081272
  0
ARC
  8
0
  6
CONTINUOUS
 62
     7
 10
92.77592745913252
 20
220.8155429221183
 40
1.089655822596789
 50
99.52369890649652
 51
144.5384755267667
  0
ARC
  8
0
  6
CONTINUOUS
 62
     7
 10
81.33986141121925
 20
215.7622560152658
 40
0.5485194907086784
 50
13.83777669074841
 51
74.56880875573042
  0
ARC
  8
0
  6
CONTINUOUS
 62
     7
 10
94.219671933589
 20
224.7349123166467
 40
1.966037120942494
 50
279.6460526352276
 51
342.2310053200259
  0
ARC
  8
0
  6
CONTINUOUS
 62
     7
 10
91.24375450478068
 20
194.5673331784226
 40
1.539639289858137
 50
0.8970358324301417
 51
78.28358736837468
  0
ARC
  8
0
  6
CONTINUOUS
 62
     7
 10
92.30199316611652
 20
194.8107815189042
 40
1.528890251802365
 50
0.5736574808270234
 51
78.60696571997778
  0
ARC
  8
0
  6
CONTINUOUS
 62
     7
 10
88.19675205423296
 20
195.1671056757569
 40
1.210409273449631
 50
343.6361100522831
 51
66.63433204774248
  0
ARC
  8
0
  6
CONTINUOUS
 62
     7
 10
81.30288056669653
 20
204.2736961927802
 40
0.5935888144454913
 50
287.9495034197597
 51
343.6470179479459
  0
ARC
  8
0
  6
CONTINUOUS
 62
     7
 10
88.10571089173406
 20
224.8755891918346
 40
1.287458335435606
 50
296.338868484207
 51
13.39799631131353
  0
ARC
  8
0
  6
CONTINUOUS
 62
     7
 10
91.2446484580827
 20
225.431927533669
 40
1.538734043020945
 50
281.6894092569431
 51
359.1299675422517
  0
ARC
  8
0
  6
CONTINUOUS
 62
     7
 10
86.29116740372368
 20
202.9437642054455
 40
6.94376420544554
 50
288.2693591050557
 51
289.4282263781637
  0
ARC
  8
0
  6
CONTINUOUS
 62
     7
 10
85.18970205197535
 20
196.928835395691
 40
1.045364764403271
 50
332.1264018288904
 51
42.66256797436011
  0
ARC
  8
0
  6
CONTINUOUS
 62
     7
 10
82.53564339876601
 20
200.6797828462233
 40
0.755784368774744
 50
312.0316477420812
 51
17.92479290511637
  0
ARC
  8
0
  6
CONTINUOUS
 62
     7
 10
82.52970125635106
 20
219.3186293352339
 40
0.7609496452989568
 50
342.3241924219057
 51
47.71607024793361
  0
ARC
  8
0
  6
CONTINUOUS
 62
     7
 10
97.95547584013994
 20
220.4187610405171
 40
0.94352661150448
 50
278.9083950813933
 51
320.6244225112157
  0
ARC
  8
0
  6
CONTINUOUS
 62
     7
 10
82.51182510724503
 20
210.9785873028452
 40
12.90853513129078
 50
38.63460493770432
 51
50.16875684129958
  0
ARC
  8
0
  6
CONTINUOUS
 62
     7
 10
80.80002553727502
 20
208.9443585788207
 40
13.92495522036903
 50
309.6397637821275
 51
312.6352467943483
  0
ARC
  8
0
  6
CONTINUOUS
 62
     7
 10
85.21218108638647
 20
223.0682467615327
 40
1.026941292947738
 50
316.6074651062758
 51
28.60387531745374
  0
ARC
  8
0
  6
CONTINUOUS
 62
     7
 10
86.25120039575809
 20
223.6429843318389
 40
0.9784707828463797
 50
310.1190186507017
 51
30.18254964720893
  0
ARC
  8
0
  6
CONTINUOUS
 62
     7
 10
86.29116740372368
 20
217.0562357945545
 40
6.94376420544554
 50
70.56683214833431
 51
71.73398230876978
  0
ARC
  8
0
  6
CONTINUOUS
 62
     7
 10
86.29116740372368
 20
217.0562357945545
 40
6.94376420544554
 50
55.12413632195467
 51
70.56683214833424
  0
ARC
  8
0
  6
CONTINUOUS
 62
     7
 10
82.12496329736894
 20
211.0787576566794
 40
14.22988124709268
 50
55.07708399472029
 51
55.12413632195438
  0
ARC
  8
0
  6
CONTINUOUS
 62
     7
 10
89.28727196034245
 20
225.0572953850458
 40
1.172322655911584
 50
286.4466933557688
 51
17.43560882267616
  0
ARC
  8
0
  6
CONTINUOUS
 62
     7
 10
92.76921259262498
 20
199.1737240079954
 40
1.07797056678266
 50
215.2039262665553
 51
260.733899300182
  0
ARC
  8
0
  6
CONTINUOUS
 62
     7
 10
143.9212423433202
 20
132.3847006605008
 40
14.22988124709226
 50
145.0770839947207
 51
145.1241363219546
  0
ARC
  8
0
  6
CONTINUOUS
 62
     7
 10
137.9437642054454
 20
136.5509047668552
 40
6.943764205445457
 50
145.1241363219542
 51
160.5021541803538
  0
ARC
  8
0
  6
CONTINUOUS
 62
     7
 10
146.0787576566797
 20
132.3847006605008
 40
14.22988124709226
 50
34.87586367804546
 51
34.92291600527938
  0
ARC
  8
0
  6
CONTINUOUS
 62
     7
 10
152.0562357945545
 20
136.5509047668552
 40
6.943764205445457
 50
19.48900830784396
 51
34.87586367804585
  0
ARC
  8
0
  6
CONTINUOUS
 62
     7
 10
71.15433394285839
 20
208.3236885641694
 40
23.70483712821549
 50
17.87963610366421
 51
19.98194181178508
  0
ARC
  8
0
  6
CONTINUOUS
 62
     7
 10
94.06574781229371
 20
217.0352431972293
 40
0.6866353149779199
 50
157.9081618808888
 51
167.6997835508674
  0
ARC
  8
0
  6
CONTINUOUS
 62
     7
 10
94.93095024977356
 20
216.8465951345432
 40
1.572165297178588
 50
167.6997835508679
 51
180.0
  0
ARC
  8
0
  6
CONTINUOUS
 62
     7
 10
94.93095024977356
 20
216.8465951345432
 40
1.572165297178588
 50
180.0
 51
192.3002164491322
  0
ARC
  8
0
  6
CONTINUOUS
 62
     7
 10
94.06574781229371
 20
216.657947071857
 40
0.6866353149779199
 50
192.3002164491325
 51
200.2504535436474
  0
ARC
  8
0
  6
CONTINUOUS
 62
     7
 10
95.55291749067769
 20
211.6515123549541
 40
1.158633008232448
 50
130.3272777685868
 51
139.3006331506809
  0
ARC
  8
0
  6
CONTINUOUS
 62
     7
 10
95.19507643159572
 20
211.9592973430103
 40
0.686635314977831
 50
139.300633150682
 51
167.6997835508707
  0
ARC
  8
0
  6
CONTINUOUS
 62
     7
 10
96.06027886907574
 20
211.7706492803241
 40
1.572165297178685
 50
167.6997835508677
 51
180.0
  0
ARC
  8
0
  6
CONTINUOUS
 62
     7
 10
96.06027886907574
 20
211.7706492803241
 40
1.572165297178685
 50
180.0
 51
183.9833246876269
  0
ARC
  8
0
  6
CONTINUOUS
 62
     7
 10
86.2521591603922
 20
196.3572108114312
 40
0.9777403260039902
 50
329.779318458672
 51
49.9013698280205
  0
ARC
  8
0
  6
CONTINUOUS
 62
     7
 10
137.9437642054454
 20
136.5509047668552
 40
6.943764205445457
 50
160.5021541803538
 51
161.7318239194737
  0
ARC
  8
0
  6
CONTINUOUS
 62
     7
 10
78.40592138288079
 20
209.4633175093761
 40
16.12309178042025
 50
346.8518815894587
 51
350.0441265267999
  0
ARC
  8
0
  6
CONTINUOUS
 62
     7
 10
94.89256171843749
 20
206.9284506837498
 40
0.4310412023109389
 50
90.0
 51
126.0720702342928
  0
ARC
  8
0
  6
CONTINUOUS
 62
     7
 10
95.32096953415022
 20
206.3403549606907
 40
1.158633008232448
 50
126.0720702343099
 51
139.3006331506809
  0
ARC
  8
0
  6
CONTINUOUS
 62
     7
 10
94.96312847506826
 20
206.6481399487469
 40
0.6866353149778491
 50
139.3006331506802
 51
167.6997835508684
  0
ARC
  8
0
  6
CONTINUOUS
 62
     7
 10
95.8283309125483
 20
206.4594918860607
 40
1.572165297178713
 50
167.6997835508679
 51
172.0012032961804
  0
ARC
  8
0
  6
CONTINUOUS
 62
     7
 10
74.34426884678749
 20
210.0
 40
20.22004789681878
 50
2.125761383454118
 51
4.714088594628436
  0
ARC
  8
0
  6
CONTINUOUS
 62
     7
 10
152.0562357945545
 20
136.5509047668552
 40
6.943764205445457
 50
18.27169617146239
 51
19.48900830784396
  0
ARC
  8
0
  6
CONTINUOUS
 62
     7
 10
97.33764914435675
 20
208.9029802201518
 40
16.19190260295383
 50
197.2320732048839
 51
209.572181603565
  0
ARC
  8
0
  6
CONTINUOUS
 62
     7
 10
97.34607271232159
 20
211.0933739769332
 40
16.20102817161243
 50
150.4313019008273
 51
162.7644749396884
  0
ARC
  8
0
  6
CONTINUOUS
 62
     7
 10
93.00061828785624
 20
213.8693964799706
 40
11.03310488904565
 50
129.6606759281188
 51
145.1382665484473
  0
ARC
  8
0
  6
CONTINUOUS
 62
     7
 10
93.00612392161139
 20
206.1356664491811
 40
11.04051648282259
 50
214.8669384845628
 51
230.3340975800165
  0
ARC
  8
0
  6
CONTINUOUS
 62
     7
 10
90.8678172861589
 20
216.6042415984746
 40
7.447109116638986
 50
107.1076486335398
 51
122.3573486164929
  0
LINE
  8
0
  6
CONTINUOUS
 62
     7
 10
90.71058478613959
 20
228.05
 11
78.33621611537501
 21
228.05
  0
ARC
  8
0
  6
CONTINUOUS
 62
     7
 10
90.83302484778133
 20
203.3202297418829
 40
7.3646956780586
 50
237.5565106161126
 51
252.978389274433
  0
ARC
  8
0
  6
CONTINUOUS
 62
     7
 10
64.7509985162631
 20
208.5
 40
0.5000000000000004
 50
3.376570582683314
 51
90.0
  0
ARC
  8
0
  6
CONTINUOUS
 62
     7
 10
64.88442584919657
 20
213.0
 40
0.5000000000000089
 50
270.0
 51
353.2019080603671
  0
ARC
  8
0
  6
CONTINUOUS
 62
     7
 10
84.81252311167353
 20
208.9431531498314
 40
19.56675985045038
 50
181.2120292371395
 51
228.434495279156
  0
ARC
  8
0
  6
CONTINUOUS
 62
     7
 10
78.49735914627348
 20
202.5456755690155
 40
10.60111440491767
 50
231.0319023221585
 51
267.4771707514076
  0
ARC
  8
0
  6
CONTINUOUS
 62
     7
 10
90.10050601752955
 20
204.0077373532132
 40
12.07316139969073
 50
272.8964933546092
 51
332.6186610618651
  0
ARC
  8
0
  6
CONTINUOUS
 62
     7
 10
80.54887574105094
 20
209.9325761990381
 40
23.29575534561643
 50
330.4829446008206
 51
34.33630860660958
  0
ARC
  8
0
  6
CONTINUOUS
 62
     7
 10
90.32043526206085
 20
216.5778635006088
 40
11.47873309610715
 50
34.45788272809745
 51
88.05744511904331
  0
LINE
  8
0
  6
CONTINUOUS
 62
     7
 10
78.33621611537501
 20
191.95
 11
90.7105847861396
 21
191.95
  0
ARC
  8
0
  6
CONTINUOUS
 62
     7
 10
67.62422525541875
 20
214.4980021502407
 40
11.98216834783437
 50
99.88337425064854
 51
161.0526550833042
  0
ARC
  8
0
  6
CONTINUOUS
 62
     7
 10
75.43226818593617
 20
210.2655311003272
 40
20.79330687430197
 50
157.0045564334513
 51
174.6580280634207
  0
ARC
  8
0
  6
CONTINUOUS
 62
     7
 10
100.9837462589016
 20
209.9586756880788
 40
19.99298348315993
 50
182.0314521758689
 51
192.8877224079213
  0
ARC
  8
0
  6
CONTINUOUS
 62
     7
 10
100.9876154731448
 20
210.0408176081415
 40
19.99686823799579
 50
167.1133167148708
 51
177.967510802559
  0
LINE
  8
0
  6
CONTINUOUS
 62
     7
 10
68.00006846551938
 20
110.3771534583401
 11
55.30561269407747
 21
123.2214041779621
  0
LINE
  8
0
  6
CONTINUOUS
 62
     7
 10
66.46064883701709
 20
226.3555332895971
 11
65.56756705958006
 21
226.3023452230819
  0
LINE
  8
0
  6
CONTINUOUS
 62
     7
 10
161.3385518900833
 20
115.7568354974508
 11
161.4220818408667
 21
123.0196789454161
  0
ARC
  8
0
  6
CONTINUOUS
 62
     7
 10
144.9322625540777
 20
127.3262649622379
 40
19.48300641513445
 50
48.71885585152137
 51
48.94016743146435
  0
LINE
  8
0
  6
CENTER
 62
     1
 10
62.27078322211993
 20
70.0
 11
62.2707832221199
 21
160.0
  0
LINE
  8
0
  6
CENTER
 62
     1
 10
62.27078322211992
 20
177.9999999999999
 11
62.27078322211992
 21
242.0000000000001
  0
LINE
  8
0
  6
CONTINUOUS
 62
     7
 10
49.07324609021261
 20
109.3134089531856
 11
45.14137369956867
 21
108.2598669213704
  0
ARC
  8
0
  6
CONTINUOUS
 62
     7
 10
148.7252205399362
 20
132.4248441133606
 40
13.12831998362969
 50
63.78829430878828
 51
65.32748624618414
  0
LINE
  8
0
  6
CONTINUOUS
 62
     7
 10
66.07987491173499
 20
193.6554586575628
 11
72.75958537979513
 21
193.5637105304701
  0
LINE
  8
0
  6
CONTINUOUS
 62
     7
 10
95.08966990340257
 20
207.3594918860608
 11
94.43449615330256
 21
207.3594918860608
  0
LINE
  8
0
  6
CONTINUOUS
 62
     7
 10
158.6904547097208
 20
142.8637447005549
 11
158.6904547097208
 21
138.8438878511567
  0
ARC
  8
0
  6
CONTINUOUS
 62
     7
 10
79.12493089310958
 20
215.7041421905392
 40
12.39722674184208
 50
95.71927215965093
 51
154.3600632131482
  0
ARC
  8
0
  6
CONTINUOUS
 62
     7
 10
87.22145139067678
 20
210.5109089326363
 40
21.97529497961668
 50
151.286216165578
 51
173.6510037526552
  0
LINE
  8
0
  6
CONTINUOUS
 62
     7
 10
163.0459048229963
 20
128.2904525402972
 11
163.0499999942772
 21
128.5956211382133
  0
LINE
  8
0
  6
CONTINUOUS
 62
     7
 10
90.92478265969056
 20
198.7911842965875
 11
90.64482096277384
 21
198.7911842965875
  0
LINE
  8
0
  6
CENTER
 62
     1
 10
94.73876046853574
 20
147.2612395314642
 11
62.27078322211992
 21
114.7932622850484
  0
ARC
  8
0
  6
CONTINUOUS
 62
     7
 10
145.6404933373504
 20
127.060409295934
 40
19.24179201531916
 50
77.80297625464203
 51
78.34493721518233
  0
LINE
  8
0
  6
CENTER
 62
     1
 10
30.27078322211988
 20
210.0
 11
94.27078322211996
 21
210.0
  0
LINE
  8
0
  6
CENTER
 62
     1
 10
145.0
 20
70.0
 11
145.0
 21
160.0
  0
LINE
  8
0
  6
CONTINUOUS
 62
     7
 10
131.3095452902792
 20
142.8637447005549
 11
131.3095452902792
 21
138.8383409824567
  0
LINE
  8
0
  6
CONTINUOUS
 62
     7
 10
78.33621377591163
 20
228.0581044861835
 11
77.88949215950763
 21
228.0396568544743
  0
LINE
  8
0
  6
CONTINUOUS
 62
     7
 10
126.9418955138165
 20
128.5959511390432
 11
126.9603431455256
 21
128.1492295226397
  0
ARC
  8
0
  6
CONTINUOUS
 62
     7
 10
145.0
 20
122.2131086415459
 40
24.13122504474309
 50
91.24720466728412
 51
91.78157557817113
  0
LINE
  8
0
  6
CONTINUOUS
 62
     7
 10
93.59160841751593
 20
202.5186525696195
 11
93.33014895477525
 21
202.5186525696195
  0
ARC
  8
0
  6
CONTINUOUS
 62
     7
 10
145.0677374459234
 20
127.3262649622364
 40
19.48300641513635
 50
131.0598325685352
 51
131.2811441484782
  0
LINE
  8
0
  6
CONTINUOUS
 62
     7
 10
78.03071517716572
 20
191.9540951770037
 11
78.33588377508174
 21
191.9500000057228
  0
ARC
  8
0
  6
CONTINUOUS
 62
     7
 10
143.2930989394275
 20
120.8101051435245
 40
24.13740714880534
 50
67.44514419729595
 51
73.02918816352144
  0
ARC
  8
0
  6
CONTINUOUS
 62
     7
 10
145.5464759667302
 20
128.1940208215055
 40
16.41730878371248
 50
73.02918816352145
 51
75.90875031076315
  0
LINE
  8
0
  6
CONTINUOUS
 62
     7
 10
89.0121150644913
 20
223.8881652578809
 11
90.52792104267314
 21
223.9999972274129
  0
LINE
  8
0
  6
CONTINUOUS
 62
     7
 10
90.53145829675496
 20
196.0000004417226
 11
89.01215853389863
 21
196.1116609561482
  0
LINE
  8
0
  6
CONTINUOUS
 62
     7
 10
94.54978951658046
 20
210.75
 11
103.2850627727407
 21
210.75
  0
LINE
  8
0
  6
CONTINUOUS
 62
     7
 10
88.58415048802509
 20
196.3095452902792
 11
92.60400733742335
 21
196.3095452902792
  0
LINE
  8
0
  6
CONTINUOUS
 62
     7
 10
92.07976977561214
 20
200.9595139676042
 11
93.49398333798524
 21
200.9595139676042
  0
LINE
  8
0
  6
CONTINUOUS
 62
     7
 10
94.54910348639939
 20
222.7402446037067
 11
90.3064627992801
 21
222.7402446037067
  0
LINE
  8
0
  6
CONTINUOUS
 62
     7
 10
82.99457968109849
 20
219.9415604594343
 11
83.57348906619896
 21
219.9955301706448
  0
LINE
  8
0
  6
CONTINUOUS
 62
     7
 10
81.00332629716014
 20
210.75
 11
79.90387375250484
 21
210.75
  0
LINE
  8
0
  6
CONTINUOUS
 62
     7
 10
93.8501276725478
 20
205.4749213090515
 11
97.20097457763494
 21
205.4749213090515
  0
LINE
  8
0
  6
CONTINUOUS
 62
     7
 10
79.90387375250484
 20
209.25
 11
81.00332625027539
 21
209.25
  0
LINE
  8
0
  6
CONTINUOUS
 62
     7
 10
95.25575049497783
 20
209.25
 11
103.2850627727407
 21
209.2499999999995
  0
LINE
  8
0
  6
CONTINUOUS
 62
     7
 10
91.61906865937318
 20
219.7107009045763
 11
92.09567059751747
 21
219.7107009045763
  0
LINE
  8
0
  6
CONTINUOUS
 62
     7
 10
99.95806540695457
 20
214.6790912525519
 11
96.17453992647224
 21
214.5169845183222
  0
LINE
  8
0
  6
CONTINUOUS
 62
     7
 10
98.10158578783515
 20
219.4866160143535
 11
94.36731703280891
 21
219.1829889707931
  0
LINE
  8
0
  6
CONTINUOUS
 62
     7
 10
88.57860361932515
 20
223.6904547097208
 11
92.60400733742335
 21
223.6904547097208
  0
LINE
  8
0
  6
CONTINUOUS
 62
     7
 10
63.64649148378651
 20
209.0
 11
77.30700079893407
 21
209.0
  0
LINE
  8
0
  6
CONTINUOUS
 62
     7
 10
77.46539119693645
 20
212.5
 11
63.74188953883121
 21
212.5
  0
LINE
  8
0
  6
CONTINUOUS
 62
     7
 10
96.57308827728495
 20
210.5252374253726
 11
94.38153108098695
 21
210.5252374253726
  0
LINE
  8
0
  6
CONTINUOUS
 62
     7
 10
93.68962610347671
 20
200.8009502115419
 11
95.38888233210625
 21
200.8009502115419
  0
LINE
  8
0
  6
CONTINUOUS
 62
     7
 10
65.26886646771223
 20
208.25
 11
53.96094653065815
 21
208.25
  0
LINE
  8
0
  6
CONTINUOUS
 62
     7
 10
83.57348902582424
 20
200.0044693962771
 11
82.99457968437542
 21
200.0584395757161
  0
LINE
  8
0
  6
CONTINUOUS
 62
     7
 10
53.96087321593632
 20
211.75
 11
63.68389046121612
 21
211.75
  0
LINE
  8
0
  6
CONTINUOUS
 62
     7
 10
90.89625600329232
 20
197.348973041193
 11
92.50485840237505
 21
197.348973041193
  0
LINE
  8
0
  6
CONTINUOUS
 62
     7
 10
138.579181463035
 20
77.21874851893047
 11
127.4999999999999
 21
77.12195111221544
  0
LINE
  8
0
  6
CONTINUOUS
 62
     7
 10
173.7427475452951
 20
76.72934571673464
 11
162.5000000000001
 21
77.12195111221543
  0
LINE
  8
0
  6
CONTINUOUS
 62
     7
 10
147.6405081139392
 20
145.3494072665341
 11
147.6405081139392
 21
144.6942335164341
  0
LINE
  8
0
  6
CONTINUOUS
 62
     7
 10
154.0404860323958
 20
142.3395071387437
 11
154.0404860323958
 21
143.7537207011168
  0
LINE
  8
0
  6
CONTINUOUS
 62
     7
 10
128.6459365394315
 20
116.7346448728213
 11
128.6570223871957
 21
116.3868849042103
  0
LINE
  8
0
  6
CONTINUOUS
 62
     7
 10
162.5000000000001
 20
77.16056750221534
 11
127.4999999999999
 21
77.16056750221534
  0
LINE
  8
0
  6
CONTINUOUS
 62
     7
 10
175.0
 20
74.16056750221534
 11
115.0
 21
74.16056750221534
  0
LINE
  8
0
  6
CONTINUOUS
 62
     7
 10
145.75
 20
145.5154878581094
 11
145.75
 21
153.5448001358723
  0
LINE
  8
0
  6
CONTINUOUS
 62
     7
 10
152.4813474303805
 20
143.8513457806475
 11
152.4813474303805
 21
143.5898863179068
  0
LINE
  8
0
  6
CONTINUOUS
 62
     7
 10
158.9999972274129
 20
140.7994325021444
 11
158.8887319346123
 21
139.2717862273948
  0
LINE
  8
0
  6
CONTINUOUS
 62
     7
 10
135.2892990954237
 20
141.8788060225048
 11
135.2892990954237
 21
142.355407960649
  0
LINE
  8
0
  6
CONTINUOUS
 62
     7
 10
140.3209087474481
 20
150.2178027700862
 11
140.4830154816777
 21
146.4342772896038
  0
LINE
  8
0
  6
CONTINUOUS
 62
     7
 10
135.5133839856465
 20
148.3613231509667
 11
135.8170110292068
 21
144.6270543959405
  0
LINE
  8
0
  6
CONTINUOUS
 62
     7
 10
149.5250786909484
 20
144.1098650356794
 11
149.5250786909484
 21
147.4607119407665
  0
LINE
  8
0
  6
CONTINUOUS
 62
     7
 10
154.1990497884581
 20
143.9493634666083
 11
154.1990497884581
 21
145.6486196952378
  0
LINE
  8
0
  6
CONTINUOUS
 62
     7
 10
144.25
 20
144.8095268797121
 11
144.25
 21
153.5448001358723
  0
LINE
  8
0
  6
CONTINUOUS
 62
     7
 10
132.2597553962933
 20
144.808840849531
 11
132.2597553962933
 21
140.5662001624117
  0
LINE
  8
0
  6
CONTINUOUS
 62
     7
 10
157.6510269588069
 20
141.1559933664239
 11
157.6510269588069
 21
142.7645957655066
  0
LINE
  8
0
  6
CONTINUOUS
 62
     7
 10
135.0584395405657
 20
133.2543170442301
 11
135.0044698293551
 21
133.8332264293306
  0
LINE
  8
0
  6
CONTINUOUS
 62
     7
 10
131.1114411959167
 20
139.2717578914489
 11
131.0000004417226
 21
140.7958952480625
  0
LINE
  8
0
  6
CONTINUOUS
 62
     7
 10
154.9955306037228
 20
133.8332263889558
 11
154.9415604242839
 21
133.254317047507
  0
LINE
  8
0
  6
CONTINUOUS
 62
     7
 10
146.0
 20
113.9062288469181
 11
146.0
 21
127.5667381620656
  0
LINE
  8
0
  6
CONTINUOUS
 62
     7
 10
142.5
 20
127.725128560068
 11
142.5
 21
114.0016269019628
  0
LINE
  8
0
  6
CONTINUOUS
 62
     7
 10
144.25
 20
131.2630636603222
 11
144.25
 21
130.1636111156364
  0
LINE
  8
0
  6
CONTINUOUS
 62
     7
 10
145.75
 20
130.1636111156364
 11
145.75
 21
131.2630636135551
  0
LINE
  8
0
  6
CONTINUOUS
 62
     7
 10
162.4999999999998
 20
77.12195111221544
 11
151.420818536965
 21
77.21874851893047
  0
LINE
  8
0
  6
CONTINUOUS
 62
     7
 10
127.4999999999999
 20
77.12195111221544
 11
116.2572524547049
 21
76.72934571673464
  0
LINE
  8
0
  6
CONTINUOUS
 62
     7
 10
143.2501308724017
 20
111.2288036979133
 11
142.816765578635
 21
111.2599361921403
  0
LINE
  8
0
  6
CONTINUOUS
 62
     7
 10
143.25
 20
111.2366750876415
 11
143.25
 21
113.9436278243477
  0
LINE
  8
0
  6
CONTINUOUS
 62
     7
 10
61.67119081378792
 20
76.85979453123963
 11
62.86977578237806
 21
76.85979452988217
  0
LINE
  8
0
  6
CONTINUOUS
 62
     7
 10
144.4747625746274
 20
146.8328256404166
 11
144.4747625746274
 21
144.6412684441185
  0
LINE
  8
0
  6
CONTINUOUS
 62
     7
 10
91.27627021108866
 20
113.8881324298262
 11
63.62839506669484
 21
141.5360075742204
  0
LINE
  8
0
  6
CONTINUOUS
 62
     7
 10
103.3507372834181
 20
128.375267598777
 11
103.354979198797
 21
127.4472480801734
  0
LINE
  8
0
  6
CONTINUOUS
 62
     7
 10
91.0641381767329
 20
113.6760003954704
 11
88.69786152335682
 21
116.0422770488459
  0
LINE
  8
0
  6
CONTINUOUS
 62
     7
 10
79.77078322211992
 20
106.1605675022153
 11
79.77078322211992
 21
106.9089336759182
  0
LINE
  8
0
  6
CONTINUOUS
 62
     7
 10
71.1345530417587
 20
109.1116752863615
 11
68.00006846551938
 21
110.3771534583401
  0
LINE
  8
0
  6
CONTINUOUS
 62
     7
 10
83.91552377650328
 20
111.1606238619867
 11
87.30624573795899
 21
111.1607300385687
  0
LINE
  8
0
  6
CONTINUOUS
 62
     7
 10
79.71507433868878
 20
153.7335995496883
 11
103.4738621865568
 21
129.9748117018204
  0
LINE
  8
0
  6
CONTINUOUS
 62
     7
 10
74.94730738572241
 20
152.854919893248
 11
63.62839506669484
 21
141.5360075742204
  0
LINE
  8
0
  6
CONTINUOUS
 62
     7
 10
146.75
 20
115.5286038308438
 11
146.75
 21
111.2366750876415
  0
LINE
  8
0
  6
CONTINUOUS
 62
     7
 10
89.42762389348164
 20
112.0394861122192
 11
91.06413817673288
 21
113.6760003954704
  0
LINE
  8
0
  6
CONTINUOUS
 62
     7
 10
79.77078322212039
 20
77.12195111221543
 11
68.69160175908492
 21
77.21874851893045
  0
LINE
  8
0
  6
CONTINUOUS
 62
     7
 10
147.183234421365
 20
111.2599361921403
 11
146.7498691275982
 21
111.2288036979133
  0
LINE
  8
0
  6
CONTINUOUS
 62
     7
 10
63.41626303233888
 20
141.3238755398644
 11
54.77516129239797
 21
132.6827737999236
  0
LINE
  8
0
  6
CONTINUOUS
 62
     7
 10
55.84996468515489
 20
77.21874851893045
 11
44.77078322212004
 21
77.12195111221543
  0
LINE
  8
0
  6
CONTINUOUS
 62
     7
 10
77.98910375771369
 20
153.7335995496883
 11
77.06862772928206
 21
153.7335995496883
  0
LINE
  8
0
  6
CONTINUOUS
 62
     7
 10
53.98833847490458
 20
129.8236826903402
 11
55.51370523953663
 21
124.1307720561676
  0
LINE
  8
0
  6
CONTINUOUS
 62
     7
 10
79.77040233794631
 20
106.9077479562778
 11
84.0232812579206
 21
111.1606268762521
  0
LINE
  8
0
  6
CONTINUOUS
 62
     7
 10
63.41626303233887
 20
141.3238755398644
 11
65.78253968571494
 21
138.957598886489
  0
LINE
  8
0
  6
CONTINUOUS
 62
     7
 10
79.77078322212
 20
77.16056750221534
 11
44.77078322211985
 21
77.16056750221534
  0
ARC
  8
0
  6
CONTINUOUS
 62
     7
 10
146.7069010605721
 20
120.8101051435264
 40
24.13740714880338
 50
107.2487464352803
 51
111.2310305593577
  0
ARC
  8
0
  6
CONTINUOUS
 62
     7
 10
145.0
 20
124.0582505384059
 40
20.58902687303535
 50
91.35495846224991
 51
96.26620848450924
  0
ARC
  8
0
  6
CONTINUOUS
 62
     7
 10
137.9689650475688
 20
136.197351376262
 40
6.918965047568837
 50
145.1241363219544
 51
160.6698594866406
  0
ARC
  8
0
  6
CONTINUOUS
 62
     7
 10
143.9250950492372
 20
132.0460265702872
 40
14.17906024263863
 50
138.9775611882776
 51
145.1241363219546
  0
ARC
  8
0
  6
CONTINUOUS
 62
     7
 10
145.5464759667304
 20
128.1940208215061
 40
16.41730878371191
 50
75.9087503107632
 51
81.97681070530012
  0
ARC
  8
0
  6
CONTINUOUS
 62
     7
 10
137.9689650475688
 20
134.7831378138889
 40
6.918965047568837
 50
145.1241363219544
 51
154.1079886291409
  0
ARC
  8
0
  6
CONTINUOUS
 62
     7
 10
143.9250950492372
 20
130.6318130079141
 40
14.17906024263863
 50
134.5340528192006
 51
145.1241363219546
  0
ARC
  8
0
  6
CONTINUOUS
 62
     7
 10
149.0372128767551
 20
135.7960231836946
 40
9.400175137411313
 50
56.94077629861162
 51
58.22240608878097
  0
ARC
  8
0
  6
CONTINUOUS
 62
     7
 10
140.9627871232454
 20
135.7960231836939
 40
9.400175137412146
 50
118.490901617486
 51
123.0594850697957
  0
ARC
  8
0
  6
CONTINUOUS
 62
     7
 10
146.0749049507631
 20
130.6318130079144
 40
14.17906024263817
 50
44.47166532344913
 51
51.69304626319574
  0
ARC
  8
0
  6
CONTINUOUS
 62
     7
 10
149.0372128767546
 20
134.3818096213208
 40
9.400175137412146
 50
51.69304626319573
 51
58.22240608878007
  0
ARC
  8
0
  6
CONTINUOUS
 62
     7
 10
146.0749049507628
 20
130.6318130079141
 40
14.17906024263864
 50
34.87586367804555
 51
38.76241194404884
  0
ARC
  8
0
  6
CONTINUOUS
 62
     7
 10
152.031034952431
 20
134.7831378138889
 40
6.918965047569003
 50
25.90793298937331
 51
34.87586367804488
  0
ARC
  8
0
  6
CONTINUOUS
 62
     7
 10
146.0749049507628
 20
130.6318130079141
 40
14.17906024263863
 50
38.76241194404864
 51
44.47166532344939
  0
ARC
  8
0
  6
CONTINUOUS
 62
     7
 10
142.6864722946985
 20
144.7526805110833
 40
0.2435350151303794
 50
203.178045068366
 51
285.9459604880633
  0
ARC
  8
0
  6
CONTINUOUS
 62
     7
 10
152.7102565128434
 20
143.4735740854265
 40
0.4268118058357976
 50
189.1324804088077
 51
246.9231960897039
  0
ARC
  8
0
  6
CONTINUOUS
 62
     7
 10
145.5464759667302
 20
128.1940208215055
 40
16.41730878371248
 50
81.97681070529985
 51
82.47288234663158
  0
ARC
  8
0
  6
CONTINUOUS
 62
     7
 10
145.0
 20
124.0582505384059
 40
20.58902687303535
 50
82.47288234663057
 51
89.9999999999999
  0
ARC
  8
0
  6
CONTINUOUS
 62
     7
 10
145.0
 20
124.0582505384059
 40
20.58902687303535
 50
90.00000000000009
 51
91.35495846224993
  0
LINE
  8
0
  6
CONTINUOUS
 62
     7
 10
54.50671758938835
 20
127.88884669732
 11
54.58121794525123
 21
127.8143463414572
  0
ARC
  8
0
  6
CONTINUOUS
 62
     7
 10
145.0
 20
124.0582505384059
 40
20.58902687303535
 50
96.26620848450922
 51
97.5271176533694
  0
ARC
  8
0
  6
CONTINUOUS
 62
     7
 10
144.4535240332697
 20
128.1940208215057
 40
16.41730878371223
 50
97.52711765336834
 51
106.9708118364786
  0
ARC
  8
0
  6
CONTINUOUS
 62
     7
 10
146.7069010605728
 20
120.8101051435236
 40
24.13740714880628
 50
106.9708118364786
 51
107.24874643528
  0
ARC
  8
0
  6
CONTINUOUS
 62
     7
 10
133.2085111688899
 20
140.976054223868
 40
1.287370009146188
 50
137.0115322259332
 51
139.0933555276674
  0
ARC
  8
0
  6
CONTINUOUS
 62
     7
 10
147.855012773498
 20
144.7604207693813
 40
0.3197524121245363
 50
191.946328194972
 51
266.6941830962769
  0
ARC
  8
0
  6
CONTINUOUS
 62
     7
 10
145.0
 20
124.6267740647169
 40
22.21253436840266
 50
90.0
 51
91.3549584622496
  0
ARC
  8
0
  6
CONTINUOUS
 62
     7
 10
144.9999999999999
 20
124.6267740647146
 40
22.21253436840491
 50
88.06443399954725
 51
89.99999999999972
  0
ARC
  8
0
  6
CONTINUOUS
 62
     7
 10
144.5408297487751
 20
145.6294629161526
 40
0.066080881084287
 50
178.8890407554361
 51
220.8862693972665
  0
ARC
  8
0
  6
CONTINUOUS
 62
     7
 10
144.4710510941964
 20
145.5690480128295
 40
0.0262176626655732
 50
271.4145007934837
 51
40.88626939731097
  0
ARC
  8
0
  6
CONTINUOUS
 62
     7
 10
145.0
 20
154.8473268318866
 40
26.64028208303257
 50
263.7073296574031
 51
270.0000000000001
  0
ARC
  8
0
  6
CONTINUOUS
 62
     7
 10
145.0
 20
154.8473268318866
 40
26.64028208303257
 50
269.9999999999999
 51
273.1409059166904
  0
ARC
  8
0
  6
CONTINUOUS
 62
     7
 10
146.6156991901422
 20
127.6477784740967
 40
0.6210096818213549
 50
104.5611944187235
 51
187.4983512806099
  0
ARC
  8
0
  6
CONTINUOUS
 62
     7
 10
149.0372128767551
 20
134.3818096213215
 40
9.400175137411313
 50
58.22240608878083
 51
67.05988281150249
  0
ARC
  8
0
  6
CONTINUOUS
 62
     7
 10
143.2930989394297
 20
120.8101051435319
 40
24.13740714879761
 50
67.05988281150043
 51
67.4451441972939
  0
ARC
  8
0
  6
CONTINUOUS
 62
     7
 10
136.3538051049113
 20
141.8542056257544
 40
7.903805104911288
 50
189.4974399910139
 51
197.0585757798214
  0
ARC
  8
0
  6
CONTINUOUS
 62
     7
 10
139.8207017359971
 20
142.9180191509142
 40
11.53024571064954
 50
197.0585757798209
 51
197.2056704499205
  0
ARC
  8
0
  6
CONTINUOUS
 62
     7
 10
62.27078322211992
 20
210.0
 40
17.49999999999998
 50
69.11305186421527
 51
290.8869481357846
  0
ARC
  8
0
  6
CONTINUOUS
 62
     7
 10
140.9627871232454
 20
134.3818096213208
 40
9.400175137412146
 50
127.0189054895128
 51
128.3069537368042
  0
ARC
  8
0
  6
CONTINUOUS
 62
     7
 10
143.9250950492371
 20
130.6318130079141
 40
14.17906024263864
 50
128.3069537368043
 51
134.5340528192006
  0
ARC
  8
0
  6
CONTINUOUS
 62
     7
 10
137.5079468084828
 20
141.6503015148814
 40
8.892833463872437
 50
211.4246238831039
 51
218.9486851141959
  0
ARC
  8
0
  6
CONTINUOUS
 62
     7
 10
141.2292110130917
 20
144.2413469556464
 40
13.28891105376523
 50
233.7882129484506
 51
239.4928681452531
  0
ARC
  8
0
  6
CONTINUOUS
 62
     7
 10
146.0006612981225
 20
155.074846758847
 40
25.12662433836822
 50
252.3347204862141
 51
253.0291881635211
  0
ARC
  8
0
  6
CONTINUOUS
 62
     7
 10
144.3516718817647
 20
149.6714017708408
 40
19.47716561795355
 50
253.0291881635214
 51
256.4033634834815
  0
ARC
  8
0
  6
CONTINUOUS
 62
     7
 10
144.4104327384022
 20
129.0886624346583
 40
17.71186359819885
 50
102.8147254525662
 51
106.0475451810897
  0
ARC
  8
0
  6
CONTINUOUS
 62
     7
 10
145.0
 20
125.472464100779
 40
20.58902687303535
 50
87.91165298375286
 51
89.9999999999999
  0
ARC
  8
0
  6
CONTINUOUS
 62
     7
 10
145.0
 20
125.472464100779
 40
20.58902687303535
 50
90.00000000000009
 51
91.35495846224993
  0
ARC
  8
0
  6
CONTINUOUS
 62
     7
 10
145.5464759667304
 20
129.6082343838791
 40
16.41730878371191
 50
73.32493860302634
 51
75.90875031076308
  0
ARC
  8
0
  6
CONTINUOUS
 62
     7
 10
144.4710510941964
 20
145.5690480128295
 40
0.0262176626656016
 50
141.9427321895125
 51
271.4095713575953
  0
ARC
  8
0
  6
CONTINUOUS
 62
     7
 10
144.3983756824191
 20
145.6259453387889
 40
0.066080881084128
 50
321.9427321894235
 51
3.995998551051855
  0
ARC
  8
0
  6
CONTINUOUS
 62
     7
 10
144.4535240332697
 20
129.6082343838788
 40
16.41730878371223
 50
102.5824023312726
 51
106.6751011711697
  0
ARC
  8
0
  6
CONTINUOUS
 62
     7
 10
140.6444405881606
 20
135.7643772330257
 40
10.14140758552318
 50
118.9298499077511
 51
121.4088326102245
  0
ARC
  8
0
  6
CONTINUOUS
 62
     7
 10
87.30622713360009
 20
114.1607300394569
 40
3.000000000000002
 50
269.5456020930387
 51
315.4766821046351
  0
ARC
  8
0
  6
CONTINUOUS
 62
     7
 10
145.5895672615972
 20
129.0886624346566
 40
17.71186359820067
 50
73.95360957540957
 51
75.90875031076268
  0
ARC
  8
0
  6
CONTINUOUS
 62
     7
 10
146.0749049507628
 20
132.0460265702872
 40
14.17906024263863
 50
34.87586367804546
 51
38.76241194404878
  0
ARC
  8
0
  6
CONTINUOUS
 62
     7
 10
152.0310349524311
 20
136.197351376262
 40
6.918965047568837
 50
19.32345734881733
 51
34.87586367804562
  0
ARC
  8
0
  6
CONTINUOUS
 62
     7
 10
145.0
 20
154.577996622835
 40
24.42640822571801
 50
268.2404502927953
 51
270.0000000000001
  0
ARC
  8
0
  6
CONTINUOUS
 62
     7
 10
145.0
 20
154.5779966228375
 40
24.42640822572048
 50
269.9999999999999
 51
271.7595497072045
  0
ARC
  8
0
  6
CONTINUOUS
 62
     7
 10
145.0000000000001
 20
142.5301563358177
 40
28.85415594034725
 50
269.9999999999997
 51
273.4774003065874
  0
ARC
  8
0
  6
CONTINUOUS
 62
     7
 10
144.9999999999999
 20
142.5301563358177
 40
28.85415594034725
 50
266.5225996934126
 51
270.0000000000002
  0
ARC
  8
0
  6
CONTINUOUS
 62
     7
 10
145.6483281182349
 20
149.6714017708417
 40
19.47716561795453
 50
283.596636516519
 51
286.9708118364788
  0
ARC
  8
0
  6
CONTINUOUS
 62
     7
 10
143.9993387018778
 20
155.0748467588462
 40
25.12662433836735
 50
286.9708118364788
 51
287.6652795137857
  0
ARC
  8
0
  6
CONTINUOUS
 62
     7
 10
152.4920531915172
 20
141.6503015148814
 40
8.8928334638724
 50
321.0513148858045
 51
328.5753761168964
  0
ARC
  8
0
  6
CONTINUOUS
 62
     7
 10
141.8972772040702
 20
127.7965533664625
 40
0.6069400890548489
 50
353.2417631827639
 51
72.39357029102734
  0
ARC
  8
0
  6
CONTINUOUS
 62
     7
 10
148.7707889869082
 20
144.2413469556464
 40
13.28891105376523
 50
300.5071318547472
 51
306.2117870515495
  0
ARC
  8
0
  6
CONTINUOUS
 62
     7
 10
150.1792982640031
 20
142.9180191509141
 40
11.53024571064927
 50
342.7943295500796
 51
342.9414242201792
  0
ARC
  8
0
  6
CONTINUOUS
 62
     7
 10
153.6461948950887
 20
141.8542056257544
 40
7.903805104911288
 50
342.9414242201786
 51
350.5025600089862
  0
ARC
  8
0
  6
CONTINUOUS
 62
     7
 10
56.89648163595767
 20
130.5614534563639
 40
2.999999999999994
 50
134.880608169737
 51
196.1683308867912
  0
ARC
  8
0
  6
CONTINUOUS
 62
     7
 10
77.06862772928206
 20
150.7335995496883
 40
3.000000000000003
 50
89.63580065234338
 51
135.0000000000002
  0
ARC
  8
0
  6
CONTINUOUS
 62
     7
 10
146.7069010605728
 20
120.8101051435236
 40
24.13740714880628
 50
111.231030559357
 51
112.9401171884973
  0
ARC
  8
0
  6
CONTINUOUS
 62
     7
 10
140.9627871232454
 20
134.3818096213208
 40
9.400175137412146
 50
112.9401171884987
 51
127.0189054895128
  0
ARC
  8
0
  6
CONTINUOUS
 62
     7
 10
143.9993387018768
 20
128.6335644926589
 40
25.12662433837113
 50
72.3347204862146
 51
73.02918816352127
  0
ARC
  8
0
  6
CONTINUOUS
 62
     7
 10
145.6483281182352
 20
134.0370094806677
 40
19.47716561795383
 50
73.02918816352147
 51
76.4033634834816
  0
ARC
  8
0
  6
CONTINUOUS
 62
     7
 10
149.3453115642279
 20
131.2081110277481
 40
0.5675620530453338
 50
16.09353120818179
 51
74.1476701917095
  0
ARC
  8
0
  6
CONTINUOUS
 62
     7
 10
148.7707889869076
 20
139.4670642958614
 40
13.2889110537664
 50
53.78821294845061
 51
59.49286814525221
  0
ARC
  8
0
  6
CONTINUOUS
 62
     7
 10
129.9420994764889
 20
139.5458640745597
 40
1.173234326722035
 50
16.49424618444846
 51
107.3906559868664
  0
ARC
  8
0
  6
CONTINUOUS
 62
     7
 10
129.8019848759829
 20
142.5510935529127
 40
1.539639289858236
 50
11.71641263162872
 51
89.10296416756682
  0
ARC
  8
0
  6
CONTINUOUS
 62
     7
 10
145.0
 20
129.1304146286737
 40
24.42640822571801
 50
88.24045029279532
 51
90.00000000000009
  0
ARC
  8
0
  6
CONTINUOUS
 62
     7
 10
144.9999999999999
 20
129.1304146286712
 40
24.42640822572048
 50
89.99999999999987
 51
91.75954970720454
  0
ARC
  8
0
  6
CONTINUOUS
 62
     7
 10
144.3516718817651
 20
134.0370094806671
 40
19.47716561795453
 50
103.5966365165191
 51
106.9708118364788
  0
ARC
  8
0
  6
CONTINUOUS
 62
     7
 10
146.0006612981221
 20
128.6335644926626
 40
25.12662433836735
 50
106.9708118364788
 51
107.6652795137858
  0
ARC
  8
0
  6
CONTINUOUS
 62
     7
 10
155.8262759920045
 20
143.0289499557566
 40
1.077970566782717
 50
305.2039262665568
 51
350.7338993001817
  0
ARC
  8
0
  6
CONTINUOUS
 62
     7
 10
130.1257333776748
 20
138.3682677550906
 40
1.285023492744269
 50
26.25234614304839
 51
103.4844909588697
  0
ARC
  8
0
  6
CONTINUOUS
 62
     7
 10
140.692148365529
 20
131.1704798736109
 40
0.6145261964563811
 50
108.2531036879614
 51
161.502867079113
  0
ARC
  8
0
  6
CONTINUOUS
 62
     7
 10
139.2377784078097
 20
131.5995633852141
 40
0.5485620897980206
 50
103.8403842585492
 51
164.5662023738786
  0
ARC
  8
0
  6
CONTINUOUS
 62
     7
 10
153.6461948950887
 20
141.8542056257544
 40
7.903805104911288
 50
9.497439991013891
 51
17.05857577982138
  0
ARC
  8
0
  6
CONTINUOUS
 62
     7
 10
150.1792982640031
 20
140.7903921005947
 40
11.53024571064927
 50
17.05857577982075
 51
17.20567044992033
  0
ARC
  8
0
  6
CONTINUOUS
 62
     7
 10
129.5720612259254
 20
141.5092090636481
 40
1.533855786413658
 50
11.54316554120608
 51
89.27621125798935
  0
ARC
  8
0
  6
CONTINUOUS
 62
     7
 10
158.6416991145098
 20
136.518177025712
 40
0.9728707084550281
 50
59.53767159449988
 51
140.1425754848447
  0
ARC
  8
0
  6
CONTINUOUS
 62
     7
 10
134.1844570778817
 20
143.0356648222641
 40
1.089655822596761
 50
189.5236989064953
 51
234.5384755267675
  0
ARC
  8
0
  6
CONTINUOUS
 62
     7
 10
145.0
 20
142.7422883701774
 40
28.85415594035094
 50
265.0286525746852
 51
269.9999999999999
  0
ARC
  8
0
  6
CONTINUOUS
 62
     7
 10
145.0
 20
142.7422883701774
 40
28.85415594035094
 50
270.0000000000001
 51
271.9861530556558
  0
ARC
  8
0
  6
CONTINUOUS
 62
     7
 10
154.3202160811181
 20
132.795378751243
 40
0.7557865117347965
 50
42.03170651529439
 51
107.9244683082532
  0
ARC
  8
0
  6
CONTINUOUS
 62
     7
 10
159.8725275806289
 20
138.3720173528619
 40
1.281785340652493
 50
76.40083380522094
 51
153.8697234891522
  0
ARC
  8
0
  6
CONTINUOUS
 62
     7
 10
155.4126990193788
 20
148.2186802374016
 40
0.9370041264514516
 50
129.2235346234504
 51
171.2436477854449
  0
ARC
  8
0
  6
CONTINUOUS
 62
     7
 10
131.3544752389905
 20
136.4962832502063
 40
0.9899075314156037
 50
40.67473902693621
 51
119.6289964559972
  0
ARC
  8
0
  6
CONTINUOUS
 62
     7
 10
134.5812508264715
 20
148.2152199903238
 40
0.9435138366677555
 50
8.908099496765372
 51
50.6247180958452
  0
ARC
  8
0
  6
CONTINUOUS
 62
     7
 10
144.0214126971547
 20
132.7715624703766
 40
12.90853513129073
 50
128.6346049377044
 51
140.1687568412996
  0
ARC
  8
0
  6
CONTINUOUS
 62
     7
 10
145.978587302845
 20
132.7715624703763
 40
12.90853513129113
 50
39.83124315870075
 51
51.36539506229584
  0
ARC
  8
0
  6
CONTINUOUS
 62
     7
 10
146.0556414211794
 20
131.0597629004067
 40
13.92495522036895
 50
39.63976378212755
 51
42.63524679434823
  0
ARC
  8
0
  6
CONTINUOUS
 62
     7
 10
156.6398569057233
 20
140.9045583259054
 40
0.4310412023107724
 50
180.0
 51
216.0720702343079
  0
ARC
  8
0
  6
CONTINUOUS
 62
     7
 10
157.2279526287821
 20
141.3329661416178
 40
1.1586330082319
 50
216.0720702343075
 51
222.1676388008226
  0
ARC
  8
0
  6
CONTINUOUS
 62
     7
 10
133.9869548688032
 20
142.85010146825
 40
1.572165297177991
 50
278.5881419392962
 51
282.3002164491369
  0
ARC
  8
0
  6
CONTINUOUS
 62
     7
 10
134.1756029314895
 20
141.9848990307705
 40
0.686635314977682
 50
282.3002164491227
 51
310.6993668493196
  0
ARC
  8
0
  6
CONTINUOUS
 62
     7
 10
133.8678179434339
 20
142.3427400898518
 40
1.158633008231406
 50
310.6993668493182
 51
313.3214222625904
  0
ARC
  8
0
  6
CONTINUOUS
 62
     7
 10
160.1020696742001
 20
139.4629686579679
 40
1.24094505601655
 50
75.70090608619483
 51
160.4094857057059
  0
ARC
  8
0
  6
CONTINUOUS
 62
     7
 10
131.9254446245104
 20
135.4233135296316
 40
1.066982734833583
 50
48.15423820641707
 51
117.0567128931025
  0
ARC
  8
0
  6
CONTINUOUS
 62
     7
 10
160.1972758361088
 20
142.5519875062146
 40
1.538734043021142
 50
90.87003245775435
 51
168.3105907430507
  0
ARC
  8
0
  6
CONTINUOUS
 62
     7
 10
141.2292110130917
 20
139.4670642958623
 40
13.28891105376523
 50
120.5071318547473
 51
126.2117870515494
  0
ARC
  8
0
  6
CONTINUOUS
 62
     7
 10
139.8207017359968
 20
140.7903921005947
 40
11.53024571064927
 50
162.7943295500797
 51
162.9414242201792
  0
ARC
  8
0
  6
CONTINUOUS
 62
     7
 10
136.3538051049113
 20
141.8542056257544
 40
7.903805104911288
 50
162.9414242201786
 51
170.5025600089863
  0
ARC
  8
0
  6
CONTINUOUS
 62
     7
 10
155.445883238108
 20
133.5224170293938
 40
0.7360787932390435
 50
41.6010952827186
 51
111.5514789459441
  0
ARC
  8
0
  6
CONTINUOUS
 62
     7
 10
134.5646401653695
 20
133.4782972342076
 40
0.7736781332104399
 50
70.37204892287579
 51
136.4726898375071
  0
ARC
  8
0
  6
CONTINUOUS
 62
     7
 10
158.071184970439
 20
135.4492825082078
 40
1.045493949512821
 50
62.13140863682952
 51
132.6575626634635
  0
ARC
  8
0
  6
CONTINUOUS
 62
     7
 10
137.5079468084828
 20
142.0581097366273
 40
8.8928334638724
 50
141.0513148858047
 51
148.5753761168962
  0
ARC
  8
0
  6
CONTINUOUS
 62
     7
 10
152.4920531915168
 20
142.0581097366271
 40
8.892833463872845
 50
31.4246238831035
 51
38.94868511419459
  0
ARC
  8
0
  6
CONTINUOUS
 62
     7
 10
150.7261354185935
 20
131.5624447965005
 40
0.5938023740600225
 50
17.96038869475033
 51
73.63612970602706
  0
ARC
  8
0
  6
CONTINUOUS
 62
     7
 10
135.6813704483303
 20
132.7894390210178
 40
0.7609492150206815
 50
72.32412828762506
 51
137.7160816509754
  0
ARC
  8
0
  6
CONTINUOUS
 62
     7
 10
160.4236137386092
 20
141.5144389337595
 40
1.528577631334314
 50
90.56416217386743
 51
168.6164610269369
  0
ARC
  8
0
  6
CONTINUOUS
 62
     7
 10
77.06652759910692
 20
209.9322625540781
 40
19.4830064151337
 50
41.05983256853576
 51
41.28114414847877
  0
ARC
  8
0
  6
CONTINUOUS
 62
     7
 10
76.80067193280169
 20
209.3595066626498
 40
19.24179201531986
 50
347.8029762546421
 51
348.3449372151822
  0
ARC
  8
0
  6
CONTINUOUS
 62
     7
 10
70.55036778039575
 20
208.2930989394284
 40
24.13740714880237
 50
17.2487464352799
 51
21.23103055935742
  0
ARC
  8
0
  6
CONTINUOUS
 62
     7
 10
77.93428345837471
 20
209.4535240332696
 40
16.41730878371169
 50
351.9768107053
 51
352.4728823466317
  0
ARC
  8
0
  6
CONTINUOUS
 62
     7
 10
73.79851317527326
 20
210.0
 40
20.58902687303639
 50
352.472882346631
 51
0.0000000000001137
  0
ARC
  8
0
  6
CONTINUOUS
 62
     7
 10
73.79851317527213
 20
209.9999999999999
 40
20.58902687303751
 50
0.0000000000001545
 51
1.354958462249904
  0
ARC
  8
0
  6
CONTINUOUS
 62
     7
 10
148.0715493162502
 20
145.1522990815691
 40
0.4310412023109667
 50
180.0
 51
216.0720702342906
  0
ARC
  8
0
  6
CONTINUOUS
 62
     7
 10
148.6596450393094
 20
145.5807068972819
 40
1.158633008232643
 50
216.0720702343114
 51
229.3006331506801
  0
ARC
  8
0
  6
CONTINUOUS
 62
     7
 10
148.3518600512531
 20
145.2228658381999
 40
0.686635314977938
 50
229.3006331506805
 51
257.6997835508654
  0
ARC
  8
0
  6
CONTINUOUS
 62
     7
 10
148.5405081139392
 20
146.0880682756805
 40
1.572165297179323
 50
257.6997835508727
 51
262.0012032961835
  0
ARC
  8
0
  6
CONTINUOUS
 62
     7
 10
77.93428345837368
 20
209.4535240332699
 40
16.41730878371274
 50
345.9087503107628
 51
351.9768107052993
  0
ARC
  8
0
  6
CONTINUOUS
 62
     7
 10
77.0665275991077
 20
210.0677374459213
 40
19.48300641513277
 50
318.7188558515209
 51
318.940167431464
  0
ARC
  8
0
  6
CONTINUOUS
 62
     7
 10
84.12207225818943
 20
214.0372128767548
 40
9.400175137411852
 50
37.01890548951267
 51
38.30695373680421
  0
ARC
  8
0
  6
CONTINUOUS
 62
     7
 10
80.37207564478229
 20
211.0749049507627
 40
14.17906024263887
 50
38.30695373680428
 51
44.53405281920025
  0
ARC
  8
0
  6
CONTINUOUS
 62
     7
 10
145.4975085861988
 20
130.5522104440402
 40
14.94622376725079
 50
77.0572640264171
 51
82.47288234663137
  0
ARC
  8
0
  6
CONTINUOUS
 62
     7
 10
145.0
 20
126.7870288959862
 40
18.7441319919382
 50
82.47288234663036
 51
87.70675816216283
  0
ARC
  8
0
  6
CONTINUOUS
 62
     7
 10
146.5539529368655
 20
123.8299359558421
 40
21.97455704586626
 50
108.0164186696508
 51
112.9401171884976
  0
ARC
  8
0
  6
CONTINUOUS
 62
     7
 10
141.3245445494779
 20
136.1855378818649
 40
8.557865537285625
 50
112.9401171884987
 51
119.93121872423
  0
ARC
  8
0
  6
CONTINUOUS
 62
     7
 10
152.9123886326913
 20
143.5898863179068
 40
0.4310412023107724
 50
180.0
 51
216.0720702343079
  0
ARC
  8
0
  6
CONTINUOUS
 62
     7
 10
153.50048435575
 20
144.018294133619
 40
1.15863300823168
 50
216.0720702343019
 51
229.3006331506808
  0
ARC
  8
0
  6
CONTINUOUS
 62
     7
 10
153.1926993676942
 20
143.6604530745374
 40
0.6866353149776219
 50
229.3006331506792
 51
240.9962145081267
  0
ARC
  8
0
  6
CONTINUOUS
 62
     7
 10
143.9443585788206
 20
131.0597629004067
 40
13.92495522036895
 50
128.4244852367452
 51
131.6377982611119
  0
ARC
  8
0
  6
CONTINUOUS
 62
     7
 10
148.9648613915081
 20
134.7425552734297
 40
9.231713217386737
 50
59.7380558087171
 51
64.9026517746018
  0
ARC
  8
0
  6
CONTINUOUS
 62
     7
 10
145.5366824906242
 20
128.6656587460134
 40
16.12309178041919
 50
76.85188158945869
 51
80.04412652680031
  0
ARC
  8
0
  6
CONTINUOUS
 62
     7
 10
71.95337127841427
 20
210.0
 40
24.13122504474309
 50
1.247204667284109
 51
1.781575578171001
  0
ARC
  8
0
  6
CONTINUOUS
 62
     7
 10
70.55036778039295
 20
208.2930989394274
 40
24.13740714880534
 50
21.23103055935731
 51
22.94011718849774
  0
ARC
  8
0
  6
CONTINUOUS
 62
     7
 10
84.12207225818922
 20
214.0372128767546
 40
9.400175137412146
 50
22.94011718849866
 51
37.0189054895128
  0
ARC
  8
0
  6
CONTINUOUS
 62
     7
 10
148.6754554505221
 20
136.1855378818649
 40
8.557865537285625
 50
60.0687812757701
 51
67.05988281150135
  0
ARC
  8
0
  6
CONTINUOUS
 62
     7
 10
143.4460470631344
 20
123.8299359558421
 40
21.97455704586626
 50
67.05988281150233
 51
71.98358133034915
  0
ARC
  8
0
  6
CONTINUOUS
 62
     7
 10
73.79851317527213
 20
209.9999999999999
 40
20.58902687303751
 50
6.266208484508679
 51
7.527117653368755
  0
ARC
  8
0
  6
CONTINUOUS
 62
     7
 10
77.93428345837341
 20
210.54647596673
 40
16.41730878371301
 50
7.527117653368891
 51
16.9708118364787
  0
ARC
  8
0
  6
CONTINUOUS
 62
     7
 10
70.55036778039295
 20
208.2930989394274
 40
24.13740714880534
 50
16.97081183647881
 51
17.2487464352802
  0
ARC
  8
0
  6
CONTINUOUS
 62
     7
 10
137.9647568027708
 20
144.3254851754254
 40
0.6866353149780583
 50
247.9081618808866
 51
257.6997835508629
  0
ARC
  8
0
  6
CONTINUOUS
 62
     7
 10
138.1534048654568
 20
145.1906876129058
 40
1.572165297179212
 50
257.6997835508728
 51
270.0
  0
ARC
  8
0
  6
CONTINUOUS
 62
     7
 10
138.1534048654568
 20
145.1906876129058
 40
1.572165297179212
 50
270.0
 51
282.3002164491272
  0
ARC
  8
0
  6
CONTINUOUS
 62
     7
 10
138.3420529281429
 20
144.3254851754254
 40
0.6866353149780583
 50
282.3002164491371
 51
290.2504535436525
  0
ARC
  8
0
  6
CONTINUOUS
 62
     7
 10
73.79851317527215
 20
209.9999999999999
 40
20.58902687303749
 50
1.354958462249881
 51
6.266208484508702
  0
ARC
  8
0
  6
CONTINUOUS
 62
     7
 10
143.348487645046
 20
145.8126548538095
 40
1.158633008232667
 50
220.3272777685902
 51
229.300633150683
  0
ARC
  8
0
  6
CONTINUOUS
 62
     7
 10
143.0407026569898
 20
145.4548137947275
 40
0.6866353149780583
 50
229.300633150683
 51
257.6997835508629
  0
ARC
  8
0
  6
CONTINUOUS
 62
     7
 10
143.2293507196758
 20
146.3200162322078
 40
1.572165297179212
 50
257.6997835508728
 51
270.0
  0
ARC
  8
0
  6
CONTINUOUS
 62
     7
 10
143.2293507196758
 20
146.3200162322078
 40
1.572165297179212
 50
270.0
 51
273.9833246876265
  0
ARC
  8
0
  6
CONTINUOUS
 62
     7
 10
146.6763114358297
 20
121.4140713059927
 40
23.70483712821266
 50
107.8796361036644
 51
109.9819418117854
  0
ARC
  8
0
  6
CONTINUOUS
 62
     7
 10
145.0
 20
124.6040062099206
 40
20.22004789681721
 50
92.1257613834544
 51
94.71408859462882
  0
ARC
  8
0
  6
CONTINUOUS
 62
     7
 10
145.0
 20
126.7870288959862
 40
18.7441319919382
 50
92.29324183783721
 51
97.5271176533697
  0
ARC
  8
0
  6
CONTINUOUS
 62
     7
 10
144.5024914138012
 20
130.55221044404
 40
14.94622376725099
 50
97.52711765336878
 51
102.9427359735831
  0
ARC
  8
0
  6
CONTINUOUS
 62
     7
 10
82.16510675022923
 20
206.2747794600637
 40
13.12831998362947
 50
333.7882777827255
 51
335.3274862461842
  0
ARC
  8
0
  6
CONTINUOUS
 62
     7
 10
85.53628582056255
 20
214.0372128767548
 40
9.400175137411852
 50
28.49090161748544
 51
33.05948506979521
  0
ARC
  8
0
  6
CONTINUOUS
 62
     7
 10
85.50463986989396
 20
214.3555594118393
 40
10.14140758552337
 50
28.92984990775108
 51
31.4088326102244
  0
ARC
  8
0
  6
CONTINUOUS
 62
     7
 10
81.7862892071555
 20
208.9250950492372
 40
14.1790602426387
 50
304.8758636780458
 51
308.7624119440489
  0
ARC
  8
0
  6
CONTINUOUS
 62
     7
 10
85.93761401313041
 20
202.968965047569
 40
6.918965047569003
 50
289.3234573488171
 51
304.8758636780452
  0
ARC
  8
0
  6
CONTINUOUS
 62
     7
 10
84.52340045075731
 20
217.0310349524311
 40
6.91896504756892
 50
55.12413632195467
 51
64.10798862914123
  0
ARC
  8
0
  6
CONTINUOUS
 62
     7
 10
80.37207564478271
 20
211.074904950763
 40
14.17906024263832
 50
44.53405281920049
 51
55.12413632195472
  0
ARC
  8
0
  6
CONTINUOUS
 62
     7
 10
79.3484970207468
 20
209.4535240332698
 40
16.41730878371271
 50
343.3249399190569
 51
345.9087503107631
  0
ARC
  8
0
  6
CONTINUOUS
 62
     7
 10
79.3484970207465
 20
210.54647596673
 40
16.41730878371301
 50
12.58240233127291
 51
16.67510117116976
  0
ARC
  8
0
  6
CONTINUOUS
 62
     7
 10
94.50109859206519
 20
207.1446303656568
 40
0.3201876580358055
 50
102.0057959243073
 51
176.6347153669405
  0
ARC
  8
0
  6
CONTINUOUS
 62
     7
 10
74.36703670158415
 20
210.0
 40
22.21253436840381
 50
0.0000000000000568
 51
1.35495846224967
  0
ARC
  8
0
  6
CONTINUOUS
 62
     7
 10
74.36703670158415
 20
210.0
 40
22.21253436840381
 50
358.0644339995474
 51
0.0
  0
ARC
  8
0
  6
CONTINUOUS
 62
     7
 10
84.12207225818936
 20
205.9627871232453
 40
9.400175137411974
 50
328.2224060887802
 51
337.0598828115015
  0
ARC
  8
0
  6
CONTINUOUS
 62
     7
 10
70.55036778039754
 20
211.7069010605711
 40
24.1374071488005
 50
337.0598828115014
 51
337.4451441972947
  0
ARC
  8
0
  6
CONTINUOUS
 62
     7
 10
70.55036778039295
 20
211.7069010605726
 40
24.13740714880534
 50
337.4451441972956
 51
343.0291881635212
  0
ARC
  8
0
  6
CONTINUOUS
 62
     7
 10
77.93428345837371
 20
209.4535240332698
 40
16.41730878371271
 50
343.0291881635213
 51
345.9087503107629
  0
ARC
  8
0
  6
CONTINUOUS
 62
     7
 10
80.37207564478256
 20
208.9250950492371
 40
14.17906024263855
 50
314.4716653234492
 51
321.6930462631955
  0
ARC
  8
0
  6
CONTINUOUS
 62
     7
 10
84.12207225818936
 20
205.9627871232453
 40
9.400175137411974
 50
321.6930462631956
 51
328.2224060887802
  0
ARC
  8
0
  6
CONTINUOUS
 62
     7
 10
78.82892507152678
 20
209.4104327384022
 40
17.71186359819887
 50
343.9536129261599
 51
345.9087503107628
  0
ARC
  8
0
  6
CONTINUOUS
 62
     7
 10
78.82892507152678
 20
210.5895672615977
 40
17.71186359819887
 50
12.81472545256651
 51
16.04754518109002
  0
ARC
  8
0
  6
CONTINUOUS
 62
     7
 10
75.21272673764635
 20
210.0
 40
20.58902687303639
 50
357.9116529837531
 51
0.0000000000001137
  0
ARC
  8
0
  6
CONTINUOUS
 62
     7
 10
75.21272673764523
 20
209.9999999999999
 40
20.58902687303751
 50
0.0000000000001545
 51
1.354958462249904
  0
ARC
  8
0
  6
CONTINUOUS
 62
     7
 10
93.21230171730578
 20
202.2917062375328
 40
0.4246320096726309
 50
98.97002073777406
 51
157.0856557607351
  0
ARC
  8
0
  6
CONTINUOUS
 62
     7
 10
85.9376140131304
 20
217.0310349524311
 40
6.91896504756892
 50
55.12413632195467
 51
70.6698594866408
  0
ARC
  8
0
  6
CONTINUOUS
 62
     7
 10
81.7862892071558
 20
211.074904950763
 40
14.17906024263832
 50
48.97756118827766
 51
55.12413632195472
  0
ARC
  8
0
  6
CONTINUOUS
 62
     7
 10
94.49692080061932
 20
212.3116357435419
 40
0.2468570082209118
 50
113.853926697204
 51
195.2700793731059
  0
ARC
  8
0
  6
CONTINUOUS
 62
     7
 10
80.37207564478229
 20
208.9250950492373
 40
14.17906024263887
 50
304.8758636780459
 51
308.7624119440489
  0
ARC
  8
0
  6
CONTINUOUS
 62
     7
 10
84.52340045075731
 20
202.968965047569
 40
6.918965047569031
 50
295.9079329893729
 51
304.8758636780448
  0
ARC
  8
0
  6
CONTINUOUS
 62
     7
 10
90.71631686073667
 20
221.7914888311103
 40
1.287370009145832
 50
47.01153222593547
 51
49.09335552767151
  0
ARC
  8
0
  6
CONTINUOUS
 62
     7
 10
92.27041897268981
 20
210.0
 40
28.85415594035094
 50
176.5225996934128
 51
180.0
  0
ARC
  8
0
  6
CONTINUOUS
 62
     7
 10
92.27041897268981
 20
210.0
 40
28.85415594035094
 50
180.0
 51
183.4774003065872
  0
ARC
  8
0
  6
CONTINUOUS
 62
     7
 10
80.37207564478256
 20
208.9250950492371
 40
14.17906024263855
 50
308.7624119440486
 51
314.4716653234491
  0
ARC
  8
0
  6
CONTINUOUS
 62
     7
 10
85.53628582056247
 20
205.9627871232453
 40
9.400175137411974
 50
326.9407924548182
 51
328.2224060887802
  0
ARC
  8
0
  6
CONTINUOUS
 62
     7
 10
95.36972555302098
 20
210.4591702512249
 40
0.066080881084176
 50
88.88904075598722
 51
130.8862693973701
  0
ARC
  8
0
  6
CONTINUOUS
 62
     7
 10
95.30931064969793
 20
210.5289489058035
 40
0.0262176626655857
 50
181.4145007933616
 51
310.886269397311
  0
TEXT
  8
0
  6
CONTINUOUS
 62
     7
 10
101.3446698762036
 20
58.32842003251219
 40
3.0
  1
CNVHP-22BG
  0
LINE
  8
0
  6
CONTINUOUS
 62
     7
 10
98.68482574083154
 20
200.1798132564599
 11
98.95989959950738
 21
199.8295442144475
  0
ARC
  8
0
  6
CONTINUOUS
 62
     7
 10
97.96934490994643
 20
221.6594351629248
 40
2.811414154041216
 50
278.7595480176475
 51
320.7751684119694
  0
LINE
  8
0
  6
CONTINUOUS
 62
     7
 10
91.55640565242277
 20
223.9251064072811
 11
89.66169128058205
 21
223.9251064072811
  0
LINE
  8
0
  6
CONTINUOUS
 62
     7
 10
94.54910348639939
 20
197.2033283322245
 11
90.3064627992801
 21
197.2033283322245
  0
ARC
  8
0
  6
CONTINUOUS
 62
     7
 10
95.1668986874955
 20
224.178961439113
 40
2.006158374990929
 50
283.3811937206721
 51
342.0261771201733
  0
LINE
  8
0
  6
CONTINUOUS
 62
     7
 10
89.74085690994801
 20
198.1520088673827
 11
89.86802223999263
 21
197.7990550854054
  0
LINE
  8
0
  6
CONTINUOUS
 62
     7
 10
93.75629876857724
 20
202.0742312058203
 11
93.30801103249323
 21
202.0742312058203
  0
LINE
  8
0
  6
CONTINUOUS
 62
     7
 10
90.83353052778013
 20
220.9555408126858
 11
91.28181826386417
 21
220.9555408126858
  0
LINE
  8
0
  6
CONTINUOUS
 62
     7
 10
89.74085690994801
 20
198.1520088673827
 11
90.94293843796514
 21
198.1520088673827
  0
LINE
  8
0
  6
CONTINUOUS
 62
     7
 10
97.68776961478201
 20
219.9955301706448
 11
94.5748738045011
 21
219.7423842379417
  0
LINE
  8
0
  6
CONTINUOUS
 62
     7
 10
91.44439536722089
 20
197.348973041193
 11
91.47653949440922
 21
197.2597553962933
  0
LINE
  8
0
  6
CONTINUOUS
 62
     7
 10
95.38888233210625
 20
200.7339492915609
 11
98.10158578783515
 21
200.5133839856465
  0
LINE
  8
0
  6
CONTINUOUS
 62
     7
 10
91.0586166605116
 20
198.4197212828056
 11
91.02791322668793
 21
198.1805079725042
  0
LINE
  8
0
  6
CONTINUOUS
 62
     7
 10
94.30794615174551
 20
200.8009502115419
 11
94.36056342414042
 21
200.7339492915609
  0
LINE
  8
0
  6
CONTINUOUS
 62
     7
 10
90.83353052778014
 20
199.0444591873142
 11
91.0586166605116
 21
198.4197212828056
  0
LINE
  8
0
  6
CONTINUOUS
 62
     7
 10
92.50485840237505
 20
197.2597553962933
 11
93.013084030751
 21
197.2033270456534
  0
ARC
  8
0
  6
CONTINUOUS
 62
     7
 10
97.25963375662764
 20
197.2258633879655
 40
2.81139717385672
 50
39.22469869648017
 51
81.24058487390431
  0
ARC
  8
0
  6
CONTINUOUS
 62
     7
 10
94.17249588363198
 20
195.2365951759343
 40
2.019698123073612
 50
18.13030025892367
 51
75.97325422659507
  0
LINE
  8
0
  6
CONTINUOUS
 62
     7
 10
94.6620198224185
 20
197.1960713359582
 11
94.54910348639939
 21
197.2033283322245
  0
LINE
  8
0
  6
CONTINUOUS
 62
     7
 10
94.5748738045011
 20
200.2576157620582
 11
97.687769614782
 21
200.0044698293551
  0
LINE
  8
0
  6
CONTINUOUS
 62
     7
 10
93.01308403075103
 20
222.7966729543466
 11
92.50485840237506
 21
222.7402446037067
  0
LINE
  8
0
  6
CONTINUOUS
 62
     7
 10
91.6683970182451
 20
198.8213256508217
 11
91.28181826386417
 21
199.0444591873142
  0
LINE
  8
0
  6
CONTINUOUS
 62
     7
 10
91.28181826386417
 20
199.0444591873142
 11
90.83353052778014
 21
199.0444591873142
  0
ARC
  8
0
  6
CONTINUOUS
 62
     7
 10
95.15241309547488
 20
195.8053427010163
 40
2.024807519448487
 50
18.26980596357202
 51
76.32282319558298
  0
LINE
  8
0
  6
CONTINUOUS
 62
     7
 10
91.6683970182451
 20
221.1786743491782
 11
91.88839702614958
 21
221.4477134230499
  0
LINE
  8
0
  6
CONTINUOUS
 62
     7
 10
92.42013171303267
 20
201.4040163336398
 11
92.71141024930071
 21
201.0331128448728
  0
LINE
  8
0
  6
CONTINUOUS
 62
     7
 10
93.67645837868672
 20
201.6050637625853
 11
93.71926460389771
 21
201.4464926721598
  0
LINE
  8
0
  6
CONTINUOUS
 62
     7
 10
94.47581843319207
 20
201.7046180231265
 11
94.19408090652875
 21
201.9066617497962
  0
ARC
  8
0
  6
CONTINUOUS
 62
     7
 10
95.50491053085469
 20
203.0589941885764
 40
1.700989518783269
 50
232.7714356917079
 51
262.5579953697462
  0
LINE
  8
0
  6
CONTINUOUS
 62
     7
 10
98.39748979866573
 20
201.1191870675713
 11
95.28459398838481
 21
201.3723330002744
  0
LINE
  8
0
  6
CONTINUOUS
 62
     7
 10
91.88839702614958
 20
198.55228657695
 11
91.6683970182451
 21
198.8213256508217
  0
LINE
  8
0
  6
CONTINUOUS
 62
     7
 10
91.55640565242277
 20
196.0748935927188
 11
89.6521667739713
 21
196.0748935927188
  0
LINE
  8
0
  6
CONTINUOUS
 62
     7
 10
95.63118110224113
 20
197.7727335331877
 11
92.59563786324065
 21
198.1098197095885
  0
LINE
  8
0
  6
CONTINUOUS
 62
     7
 10
92.59563786324065
 20
221.8901802904115
 11
95.63118110224113
 21
222.2272664668122
  0
LINE
  8
0
  6
CONTINUOUS
 62
     7
 10
91.28181826386417
 20
220.9555408126858
 11
91.6683970182451
 21
221.1786743491782
  0
LINE
  8
0
  6
CONTINUOUS
 62
     7
 10
91.47653949440922
 20
222.7402446037067
 11
90.83353052778013
 21
220.9555408126858
  0
ARC
  8
0
  6
CONTINUOUS
 62
     7
 10
97.25326242175325
 20
222.7852763010122
 40
2.823380947143591
 50
278.8527767557605
 51
320.6819396738551
  0
LINE
  8
0
  6
CONTINUOUS
 62
     7
 10
92.42013171303267
 20
201.4040163336398
 11
93.62221324104979
 21
201.4040163336398
  0
LINE
  8
0
  6
CONTINUOUS
 62
     7
 10
93.30801103249323
 20
202.0742312058203
 11
93.67645837868672
 21
201.6050637625853
  0
LINE
  8
0
  6
CONTINUOUS
 62
     7
 10
94.19408090652875
 20
201.9066617497962
 11
93.75629876857724
 21
202.0742312058203
  0
ARC
  8
0
  6
CONTINUOUS
 62
     7
 10
97.9630074968645
 20
198.3294844572101
 40
2.823334114984362
 50
39.31769712764771
 51
81.14758644273641
  0
LINE
  8
0
  6
CONTINUOUS
 62
     7
 10
98.95989959950738
 20
199.8295442144475
 11
99.03074724399052
 21
199.564691657676
  0
LINE
  8
0
  6
CONTINUOUS
 62
     7
 10
100.9539976499326
 20
204.9546629737633
 11
101.083519263734
 21
204.8246521528708
  0
ARC
  8
0
  6
CONTINUOUS
 62
     7
 10
94.795190346971
 20
218.0557230496395
 40
1.700989518783355
 50
97.44200463025432
 51
127.2285643082915
  0
LINE
  8
0
  6
CONTINUOUS
 62
     7
 10
98.95989959950738
 20
220.1704557855524
 11
98.68482574081725
 21
219.8201867435421
  0
LINE
  8
0
  6
CONTINUOUS
 62
     7
 10
95.29866775097292
 20
206.1568555903088
 11
94.85038001488891
 21
206.1568555903088
  0
LINE
  8
0
  6
CONTINUOUS
 62
     7
 10
94.09737720193161
 20
205.7979069378102
 11
95.29945872994874
 21
205.7979069378102
  0
LINE
  8
0
  6
CONTINUOUS
 62
     7
 10
93.75629876857724
 20
217.9257687941797
 11
94.19408090652875
 21
218.0933382502038
  0
LINE
  8
0
  6
CONTINUOUS
 62
     7
 10
96.9682155478487
 20
205.7809382158521
 11
96.09256973222763
 21
205.9589009351965
  0
ARC
  8
0
  6
CONTINUOUS
 62
     7
 10
99.7575393171151
 20
200.4625647394956
 40
5.196309386160084
 50
63.41236675550225
 51
85.86691066971746
  0
LINE
  8
0
  6
CONTINUOUS
 62
     7
 10
94.19408090652875
 20
218.0933382502038
 11
94.47581843319207
 21
218.2953819768735
  0
LINE
  8
0
  6
CONTINUOUS
 62
     7
 10
93.30801103249321
 20
217.9257687941797
 11
93.75629876857724
 21
217.9257687941797
  0
ARC
  8
0
  6
CONTINUOUS
 62
     7
 10
99.75662101364594
 20
219.5407781717825
 40
5.199709832743835
 50
274.1405269583001
 51
296.5801956164817
  0
LINE
  8
0
  6
CONTINUOUS
 62
     7
 10
95.29866775097292
 20
213.8431444096912
 11
95.77017218271905
 21
213.9328900016445
  0
LINE
  8
0
  6
CONTINUOUS
 62
     7
 10
94.8503800148889
 20
213.8431444096912
 11
95.29866775097292
 21
213.8431444096912
  0
LINE
  8
0
  6
CONTINUOUS
 62
     7
 10
96.17265566966913
 20
214.5609625409518
 11
94.8503800148889
 21
213.8431444096912
  0
LINE
  8
0
  6
CONTINUOUS
 62
     7
 10
100.9539976499326
 20
215.0453370262367
 11
100.6084343606381
 21
214.857742560849
  0
LINE
  8
0
  6
CONTINUOUS
 62
     7
 10
96.5881089369236
 20
204.3805675761063
 11
99.75194876598974
 21
204.244989576869
  0
LINE
  8
0
  6
CONTINUOUS
 62
     7
 10
93.48436072264502
 20
200.7919445115801
 11
93.76609824930834
 21
200.5899007849104
  0
LINE
  8
0
  6
CONTINUOUS
 62
     7
 10
93.76609824930834
 20
219.4100992150896
 11
93.48436072264502
 21
219.2080554884199
  0
ARC
  8
0
  6
CONTINUOUS
 62
     7
 10
99.3765144027211
 20
199.0588511884723
 40
5.19970983274307
 50
63.41980438351743
 51
85.85947304170213
  0
LINE
  8
0
  6
CONTINUOUS
 62
     7
 10
96.9682155478487
 20
214.2190617841479
 11
100.1320553769148
 21
214.3546397833851
  0
ARC
  8
0
  6
CONTINUOUS
 62
     7
 10
99.37740776864496
 20
220.9378966806981
 40
5.1964017278855
 50
274.1332914358679
 51
296.5874311389139
  0
LINE
  8
0
  6
CONTINUOUS
 62
     7
 10
96.10655488565033
 20
205.4749213090515
 11
96.17265566966913
 21
205.4390374590482
  0
LINE
  8
0
  6
CONTINUOUS
 62
     7
 10
95.77017218271905
 20
213.9328900016445
 11
96.09256973222763
 21
214.0410990648035
  0
LINE
  8
0
  6
CONTINUOUS
 62
     7
 10
95.28459398838481
 20
218.6276669997256
 11
98.39748979866573
 21
218.8808129324287
  0
LINE
  8
0
  6
CONTINUOUS
 62
     7
 10
94.36056342414042
 20
219.2660507084391
 11
93.30801103249321
 21
217.9257687941797
  0
LINE
  8
0
  6
CONTINUOUS
 62
     7
 10
94.09737720193161
 20
205.7979069378102
 11
94.69234132327722
 21
205.4749213090515
  0
LINE
  8
0
  6
CONTINUOUS
 62
     7
 10
96.09256973222763
 20
205.9589009351965
 11
95.77017218271905
 21
206.0671099983554
  0
LINE
  8
0
  6
CONTINUOUS
 62
     7
 10
100.608434360652
 20
205.142257439152
 11
100.9539976499326
 21
204.9546629737632
  0
LINE
  8
0
  6
CONTINUOUS
 62
     7
 10
97.20097457763494
 20
205.4390374590482
 11
99.95806540695459
 21
205.3209087474481
  0
LINE
  8
0
  6
CONTINUOUS
 62
     7
 10
94.85038001488891
 20
206.1568555903088
 11
95.31324434335964
 21
205.9055824113095
  0
LINE
  8
0
  6
CONTINUOUS
 62
     7
 10
99.95806540695459
 20
205.3209087474481
 11
100.608434360652
 21
205.142257439152
  0
LINE
  8
0
  6
CONTINUOUS
 62
     7
 10
100.6084343606381
 20
214.857742560849
 11
99.95806540695457
 21
214.6790912525519
  0
LINE
  8
0
  6
CONTINUOUS
 62
     7
 10
100.9308648238807
 20
215.2247110253811
 11
101.0835193480084
 21
215.1753474831017
  0
LINE
  8
0
  6
CONTINUOUS
 62
     7
 10
100.1320553769148
 20
205.6453602166148
 11
96.9682155478487
 21
205.7809382158521
  0
LINE
  8
0
  6
CONTINUOUS
 62
     7
 10
99.75194876598974
 20
215.7550104231309
 11
96.5881089369236
 21
215.6194324238937
  0
ARC
  8
0
  6
CONTINUOUS
 62
     7
 10
94.80181801737265
 20
201.9604085766452
 40
1.717849540898494
 50
232.9209393218409
 51
262.4084917396105
  0
LINE
  8
0
  6
CONTINUOUS
 62
     7
 10
95.77017218271905
 20
206.0671099983554
 11
95.29866775097292
 21
206.1568555903088
  0
LINE
  8
0
  6
CONTINUOUS
 62
     7
 10
96.09256973222763
 20
214.0410990648035
 11
96.9682155478487
 21
214.2190617841479
  0
LINE
  8
0
  6
CONTINUOUS
 62
     7
 10
95.31324434335964
 20
205.9055824113095
 11
95.39104552424793
 21
205.8276263835157
  0
ARC
  8
0
  6
CONTINUOUS
 62
     7
 10
95.51162040442387
 20
216.9246741041603
 40
1.718058728893027
 50
97.59334413293438
 51
127.0772248056115
  0
LINE
  8
0
  6
CONTINUOUS
 62
     7
 10
72.76079943244191
 20
226.35
 11
66.47616175225227
 21
226.35
  0
LINE
  8
0
  6
CONTINUOUS
 62
     7
 10
93.71926460389771
 20
201.4464926721598
 11
93.62221324104979
 21
201.4040163336398
  0
LINE
  8
0
  6
CONTINUOUS
 62
     7
 10
101.083519263734
 20
204.8246521528708
 11
100.9308648238807
 21
204.7752889746189
  0
LINE
  8
0
  6
CONTINUOUS
 62
     7
 10
93.71727059100651
 20
215.6024637019356
 11
94.35039815077684
 21
215.6024637019356
  0
LINE
  8
0
  6
CONTINUOUS
 62
     7
 10
93.48436072264502
 20
219.2080554884199
 11
93.0465785846935
 21
219.0404860323958
  0
LINE
  8
0
  6
CONTINUOUS
 62
     7
 10
95.39006557179394
 20
215.3332606413904
 11
94.91856114004781
 21
215.243515049437
  0
LINE
  8
0
  6
CONTINUOUS
 62
     7
 10
93.0465785846935
 20
200.9595139676042
 11
93.48436072264502
 21
200.7919445115801
  0
LINE
  8
0
  6
CONTINUOUS
 62
     7
 10
94.91856114004781
 20
204.756484950563
 11
95.39006557179394
 21
204.6667393586096
  0
LINE
  8
0
  6
CONTINUOUS
 62
     7
 10
94.4702734039638
 20
204.756484950563
 11
94.91856114004781
 21
204.756484950563
  0
LINE
  8
0
  6
CONTINUOUS
 62
     7
 10
99.03074724399052
 20
199.564691657676
 11
98.86936621854687
 21
199.4946241052001
  0
ARC
  8
0
  6
CONTINUOUS
 62
     7
 10
62.27078322211992
 20
210.0
 40
30.00000000000004
 50
36.98935734066004
 51
323.01064265934
  0
CIRCLE
  8
0
  6
CONTINUOUS
 62
     7
 10
62.2707957803632
 20
234.9720684223758
 40
0.5996269005299759
  0
LINE
  8
0
  6
CONTINUOUS
 62
     7
 10
93.0465785846935
 20
219.0404860323958
 11
92.59829084860948
 21
219.0404860323958
  0
LINE
  8
0
  6
CONTINUOUS
 62
     7
 10
95.71246312130252
 20
215.4414697045493
 11
95.39006557179394
 21
215.3332606413904
  0
LINE
  8
0
  6
CONTINUOUS
 62
     7
 10
91.02791322668793
 20
198.1805079725042
 11
90.94293843796514
 21
198.1520088673827
  0
LINE
  8
0
  6
CONTINUOUS
 62
     7
 10
95.39104552424793
 20
205.8276263835157
 11
95.29945872994874
 21
205.7979069378102
  0
LINE
  8
0
  6
CONTINUOUS
 62
     7
 10
94.91856114004781
 20
215.243515049437
 11
94.4702734039638
 21
215.243515049437
  0
LINE
  8
0
  6
CONTINUOUS
 62
     7
 10
99.03074437740308
 20
220.4353132969986
 11
98.95989959950738
 21
220.1704557855524
  0
ARC
  8
0
  6
CONTINUOUS
 62
     7
 10
54.23164030449119
 20
212.25
 40
0.5000000000000054
 50
334.0423627006527
 51
354.4118317592899
  0
LINE
  8
0
  6
CONTINUOUS
 62
     7
 10
96.5881089369236
 20
215.6194324238937
 11
95.71246312130252
 21
215.4414697045493
  0
LINE
  8
0
  6
CONTINUOUS
 62
     7
 10
95.39006557179394
 20
204.6667393586096
 11
95.71246312130252
 21
204.5585302954506
  0
ARC
  8
0
  6
CONTINUOUS
 62
     7
 10
78.35370171654434
 20
209.9999999788583
 40
24.45548722722801
 50
175.7021872761516
 51
184.2978164116086
  0
ARC
  8
0
  6
CONTINUOUS
 62
     7
 10
54.23164030449118
 20
207.75
 40
0.4999999999999997
 50
5.58816824071016
 51
26.00211526597928
  0
ARC
  8
0
  6
CONTINUOUS
 62
     7
 10
71.46712700110145
 20
208.6484207935274
 40
16.75916178712752
 50
182.9249775266379
 51
234.5144187149203
  0
ARC
  8
0
  6
CONTINUOUS
 62
     7
 10
66.55839841526688
 20
202.8943609408255
 40
9.247695456861894
 50
238.5869773639875
 51
267.0342021137565
  0
CIRCLE
  8
0
  6
CONTINUOUS
 62
     7
 10
62.27079602348656
 20
185.0279083945495
 40
0.599627942678821
  0
LINE
  8
0
  6
CONTINUOUS
 62
     7
 10
95.71246312130252
 20
204.5585302954506
 11
96.5881089369236
 21
204.3805675761063
  0
LINE
  8
0
  6
CONTINUOUS
 62
     7
 10
101.0835193480084
 20
215.1753474831017
 11
100.9539976499326
 21
215.0453370262367
  0
ARC
  8
0
  6
CONTINUOUS
 62
     7
 10
100.3687279418604
 20
127.4308390512217
 40
2.986296339244765
 50
315.036091345425
 51
0.3148290488007319
  0
LINE
  8
0
  6
CONTINUOUS
 62
     7
 10
103.3058445383798
 20
128.375062397031
 11
103.4738621865568
 21
128.207044748854
  0
ARC
  8
0
  6
CONTINUOUS
 62
     7
 10
75.71299915664437
 20
102.0966038719486
 40
6.168117347682593
 50
67.05993969527299
 51
87.7267194743298
  0
LINE
  8
0
  6
CONTINUOUS
 62
     7
 10
102.4816880579801
 20
125.3205392209904
 11
91.16277573895246
 21
114.0016269019628
  0
LINE
  8
0
  6
CONTINUOUS
 62
     7
 10
74.88600749100429
 20
108.3260533766318
 11
73.4662112450124
 21
108.5211047512321
  0
LINE
  8
0
  6
CONTINUOUS
 62
     7
 10
44.77078322211995
 20
106.1605675022153
 11
79.77078322211987
 21
106.1605675022153
  0
LINE
  8
0
  6
CONTINUOUS
 62
     7
 10
83.9155206666512
 20
111.2599361921403
 11
84.02328161796862
 21
111.1606272363006
  0
LINE
  8
0
  6
CONTINUOUS
 62
     7
 10
55.85047300533692
 20
77.16056750221534
 11
55.85047300533692
 21
106.1605675022153
  0
LINE
  8
0
  6
CONTINUOUS
 62
     7
 10
46.77078322211994
 20
77.16056750221534
 11
46.77078322211993
 21
106.1605675022153
  0
LINE
  8
0
  6
CONTINUOUS
 62
     7
 10
92.27078322211996
 20
74.16056750221533
 11
32.2707832221199
 21
74.16056750221532
  0
LINE
  8
0
  6
CONTINUOUS
 62
     7
 10
74.88600749100429
 20
108.3260533766318
 11
75.9576625957098
 21
108.2598669213704
  0
LINE
  8
0
  6
CONTINUOUS
 62
     7
 10
62.87021293344717
 20
76.85975374381816
 11
62.70217134367795
 21
76.87543197388334
  0
LINE
  8
0
  6
CONTINUOUS
 62
     7
 10
68.6910934389029
 20
77.16056750221534
 11
68.6910934389029
 21
106.1605675022153
  0
LINE
  8
0
  6
CONTINUOUS
 62
     7
 10
71.14261555117689
 20
109.1316454541421
 11
73.4662112450124
 21
108.5211047512321
  0
LINE
  8
0
  6
CONTINUOUS
 62
     7
 10
78.11713350742237
 20
107.7769040082259
 11
79.77078322210592
 21
106.9081288404586
  0
LINE
  8
0
  6
CONTINUOUS
 62
     7
 10
77.94730738572243
 20
153.7335995496883
 11
77.98910375771369
 21
153.6918031776971
  0
ARC
  8
0
  6
CONTINUOUS
 62
     7
 10
157.0100875902358
 20
89.29002024554481
 40
19.04678833892486
 50
95.15173889950785
 51
103.9268669974931
  0
ARC
  8
0
  6
CONTINUOUS
 62
     7
 10
145.0
 20
139.0678524107103
 40
32.16001608461092
 50
256.6497565045038
 51
283.3502434954962
  0
LINE
  8
0
  6
CONTINUOUS
 62
     7
 10
103.4738621865568
 20
127.3283650924136
 11
103.4738621865568
 21
128.207044748854
  0
LINE
  8
0
  6
CONTINUOUS
 62
     7
 10
91.0135307674151
 20
76.72934571673464
 11
79.77078322212009
 21
77.12195111221543
  0
LINE
  8
0
  6
CONTINUOUS
 62
     7
 10
44.7707832221199
 20
77.12195111221543
 11
33.52803567682486
 21
76.72934571673461
  0
LINE
  8
0
  6
CONTINUOUS
 62
     7
 10
91.27627021108884
 20
113.8881324298264
 11
102.5951825301164
 21
125.207044748854
  0
LINE
  8
0
  6
CONTINUOUS
 62
     7
 10
77.77078322211992
 20
77.16056750221534
 11
77.77078322211992
 21
106.1605675022153
  0
LINE
  8
0
  6
CONTINUOUS
 62
     7
 10
155.2998059983706
 20
108.2598669213704
 11
156.219246378469
 21
108.3260533766318
  0
ARC
  8
0
  6
CONTINUOUS
 62
     7
 10
33.56293517351988
 20
75.72995488971534
 40
0.9999999999999215
 50
91.99999999957653
 51
170.0000000025222
  0
LINE
  8
0
  6
CONTINUOUS
 62
     7
 10
88.80139647693592
 20
115.9387420952674
 11
89.0135285112919
 21
116.1508741296233
  0
LINE
  8
0
  6
CONTINUOUS
 62
     7
 10
65.89113676649177
 20
139.2732658744235
 11
65.67900473213582
 21
139.0611338400675
  0
ARC
  8
0
  6
CONTINUOUS
 62
     7
 10
78.83119086220559
 20
152.8497160732051
 40
1.250000000000015
 50
44.99999999999984
 51
135.0
  0
ARC
  8
0
  6
CONTINUOUS
 62
     7
 10
145.0
 20
134.2705283995915
 40
23.10990118921136
 50
265.6571129936353
 51
274.3428870063645
  0
ARC
  8
0
  6
CONTINUOUS
 62
     7
 10
75.85028322212
 20
77.6562231075154
 40
0.4999999999999474
 50
262.4415590318848
 51
269.499426759887
  0
LINE
  8
0
  6
CONTINUOUS
 62
     7
 10
133.780753621531
 20
108.3260533766318
 11
134.7001940016295
 21
108.2598669213704
  0
LINE
  8
0
  6
CONTINUOUS
 62
     7
 10
92.27078322211996
 20
74.16056750221533
 11
91.96343902373354
 21
75.90360306733781
  0
ARC
  8
0
  6
CONTINUOUS
 62
     7
 10
133.0630052625535
 20
89.72497282633704
 40
18.60706011387773
 50
75.96923419023915
 51
84.95215991275995
  0
ARC
  8
0
  6
CONTINUOUS
 62
     7
 10
102.5899787100736
 20
129.0909282253372
 40
1.249999999999995
 50
315.0
 51
45.00000000000017
  0
LINE
  8
0
  6
CONTINUOUS
 62
     7
 10
44.77078322211991
 20
107.7769040082259
 11
44.77078322211992
 21
106.1605675022153
  0
ARC
  8
0
  6
CONTINUOUS
 62
     7
 10
48.8140923795493
 20
110.279245106108
 40
0.9999999999999968
 50
285.0
 51
354.9565064969857
  0
LINE
  8
0
  6
CONTINUOUS
 62
     7
 10
32.57812742050629
 20
75.9036030673378
 11
32.27078322211989
 21
74.16056750221532
  0
ARC
  8
0
  6
CONTINUOUS
 62
     7
 10
72.82078322211991
 20
108.1605675022153
 40
23.1
 50
139.3089396332829
 51
174.9563417566591
  0
ARC
  8
0
  6
CONTINUOUS
 62
     7
 10
90.97863127071997
 20
75.72995488971534
 40
0.9999999999999252
 50
9.999999997478291
 51
88.00000000042341
  0
ARC
  8
0
  6
CONTINUOUS
 62
     7
 10
48.69128322211984
 20
77.6562231075154
 40
0.4999999999999455
 50
270.5005732401128
 51
277.5584409681152
  0
ARC
  8
0
  6
CONTINUOUS
 62
     7
 10
100.4738621865568
 20
127.3283650924136
 40
3.000000000000019
 50
315.0
 51
359.9999999999997
  0
ARC
  8
0
  6
CONTINUOUS
 62
     7
 10
54.54738020368485
 20
123.8733884496407
 40
0.9999999999999939
 50
319.3086249455556
 51
14.99999999999994
  0
ARC
  8
0
  6
CONTINUOUS
 62
     7
 10
45.27078322211992
 20
107.7769040082258
 40
0.5000000000000022
 50
105.0
 51
179.9999999999987
  0
LINE
  8
0
  6
CONTINUOUS
 62
     7
 10
137.9686227456804
 20
143.3025930167595
 11
137.7402479670566
 21
143.3201706457418
  0
LINE
  8
0
  6
CONTINUOUS
 62
     7
 10
156.0672790970627
 20
141.1335259545364
 11
156.0672790970627
 21
141.0001775655923
  0
LINE
  8
0
  6
CONTINUOUS
 62
     7
 10
133.9327209029373
 20
141.1335259545364
 11
133.9327209029373
 21
140.7880455312363
  0
LINE
  8
0
  6
CONTINUOUS
 62
     7
 10
142.4578144193845
 20
145.3494072665341
 11
142.4578144193845
 21
144.6942335164341
  0
LINE
  8
0
  6
CONTINUOUS
 62
     7
 10
157.7966716677755
 20
141.2130796386995
 11
157.2009449145945
 21
140.9795811486082
  0
LINE
  8
0
  6
CONTINUOUS
 62
     7
 10
137.7402479670566
 20
143.3201706457418
 11
137.7111450222125
 21
143.4058314559136
  0
LINE
  8
0
  6
CONTINUOUS
 62
     7
 10
142.4625939100483
 20
144.6568276421592
 11
142.4578144193845
 21
144.6942335164341
  0
LINE
  8
0
  6
CONTINUOUS
 62
     7
 10
156.6724916397279
 20
108.4184648798834
 11
156.219246378469
 21
108.3260533766318
  0
LINE
  8
0
  6
CONTINUOUS
 62
     7
 10
139.5493007575746
 20
144.6620045002029
 11
139.5493007575746
 21
143.8631261885682
  0
LINE
  8
0
  6
CONTINUOUS
 62
     7
 10
156.2473480254774
 20
140.6183611341136
 11
156.0672790970627
 21
141.0001775655923
  0
LINE
  8
0
  6
CONTINUOUS
 62
     7
 10
157.2009449145945
 20
140.9795811486082
 11
157.2009449145945
 21
139.5653675862351
  0
LINE
  8
0
  6
CONTINUOUS
 62
     7
 10
137.7111450222125
 20
143.9049034448801
 11
137.7111450222125
 21
143.4058314559136
  0
LINE
  8
0
  6
CONTINUOUS
 62
     7
 10
127.5
 20
106.1605675022154
 11
162.4999999999999
 21
106.1605675022154
  0
LINE
  8
0
  6
CONTINUOUS
 62
     7
 10
135.309515732097
 20
141.8788060225048
 11
135.2363915728144
 21
141.9323497627306
  0
LINE
  8
0
  6
CONTINUOUS
 62
     7
 10
133.780753621531
 20
108.3260533766318
 11
133.327876234176
 21
108.4181905203277
  0
LINE
  8
0
  6
CONTINUOUS
 62
     7
 10
153.9668871551272
 20
143.7537207011168
 11
154.5457604660266
 21
144.2415355306986
  0
LINE
  8
0
  6
CONTINUOUS
 62
     7
 10
139.5493007575746
 20
143.8631261885682
 11
139.3975362980644
 21
144.1159413718601
  0
LINE
  8
0
  6
CONTINUOUS
 62
     7
 10
152.2888549777875
 20
143.9049034448801
 11
152.2888549777875
 21
143.4058314559136
  0
LINE
  8
0
  6
CONTINUOUS
 62
     7
 10
149.5416757546773
 20
145.5240785980525
 11
149.8998007245802
 21
146.259519454251
  0
LINE
  8
0
  6
CONTINUOUS
 62
     7
 10
133.379906866984
 20
150.1871503507611
 11
134.0036877881211
 21
149.6972816944571
  0
LINE
  8
0
  6
CONTINUOUS
 62
     7
 10
151.6250816651269
 20
131.1301487224551
 11
151.2910017597258
 21
131.7455493461304
  0
LINE
  8
0
  6
CONTINUOUS
 62
     7
 10
129.9284986590104
 20
137.0193143483548
 11
130.865082931724
 21
137.3567552662195
  0
LINE
  8
0
  6
CONTINUOUS
 62
     7
 10
138.374918334873
 20
152.5782625290536
 11
138.7089982402742
 21
151.9628619053783
  0
LINE
  8
0
  6
CONTINUOUS
 62
     7
 10
160.1739111637949
 20
139.61786710115
 11
161.2121228278304
 21
139.5015928850615
  0
LINE
  8
0
  6
CONTINUOUS
 62
     7
 10
161.2121228278304
 20
144.2068183664472
 11
160.1739111637949
 21
144.0905441503587
  0
LINE
  8
0
  6
CONTINUOUS
 62
     7
 10
151.2910017597258
 20
151.9628619053783
 11
151.6250816651269
 21
152.5782625290536
  0
LINE
  8
0
  6
CONTINUOUS
 62
     7
 10
139.7752889746189
 20
130.75004211153
 11
140.10936888002
 21
131.3654427352053
  0
LINE
  8
0
  6
CONTINUOUS
 62
     7
 10
131.4401038200105
 20
147.3348890816721
 11
130.6094844086197
 21
147.6341520361565
  0
LINE
  8
0
  6
CONTINUOUS
 62
     7
 10
155.9963122118789
 20
149.6972816944571
 11
156.620093133016
 21
150.1871503507611
  0
LINE
  8
0
  6
CONTINUOUS
 62
     7
 10
158.5598961799895
 20
136.3735221698366
 11
159.3905155913803
 21
136.0742592153522
  0
LINE
  8
0
  6
CONTINUOUS
 62
     7
 10
150.2247110253811
 20
152.9583691399787
 11
149.89063111998
 21
152.3429685163034
  0
LINE
  8
0
  6
CONTINUOUS
 62
     7
 10
129.5914371386447
 20
143.0429424653582
 11
128.5532254746092
 21
143.1592166814467
  0
LINE
  8
0
  6
CONTINUOUS
 62
     7
 10
130.6094844086197
 20
136.0742592153522
 11
131.4401038200105
 21
136.3735221698366
  0
LINE
  8
0
  6
CONTINUOUS
 62
     7
 10
134.0036877881211
 20
134.0111295570516
 11
133.379906866984
 21
133.5212609007476
  0
LINE
  8
0
  6
CONTINUOUS
 62
     7
 10
138.7089982402742
 20
131.7455493461304
 11
138.3749183348731
 21
131.1301487224551
  0
LINE
  8
0
  6
CONTINUOUS
 62
     7
 10
154.8815949736628
 20
133.3014093731678
 11
155.5053758947999
 21
132.8115407168639
  0
LINE
  8
0
  6
CONTINUOUS
 62
     7
 10
156.620093133016
 20
133.5212609007476
 11
155.9963122118789
 21
134.0111295570516
  0
LINE
  8
0
  6
CONTINUOUS
 62
     7
 10
140.10936888002
 20
152.3429685163034
 11
139.7752889746189
 21
152.9583691399787
  0
LINE
  8
0
  6
CONTINUOUS
 62
     7
 10
160.4085628613553
 20
143.0429424653582
 11
161.4467745253907
 21
143.1592166814467
  0
LINE
  8
0
  6
CONTINUOUS
 62
     7
 10
130.8650829317241
 20
146.3516559852893
 11
129.9284986590104
 21
146.6890969031539
  0
LINE
  8
0
  6
CONTINUOUS
 62
     7
 10
128.7878771721696
 20
144.2068183664472
 11
129.8260888362051
 21
144.0905441503587
  0
LINE
  8
0
  6
CONTINUOUS
 62
     7
 10
155.5053758947999
 20
150.8968705346448
 11
154.8815949736628
 21
150.4070018783409
  0
LINE
  8
0
  6
CONTINUOUS
 62
     7
 10
134.4946241052001
 20
150.8968705346448
 11
134.4946241052001
 21
149.1291035816784
  0
LINE
  8
0
  6
CONTINUOUS
 62
     7
 10
139.7752889746189
 20
152.9583691399787
 11
139.7752889746189
 21
151.1906021870123
  0
LINE
  8
0
  6
CONTINUOUS
 62
     7
 10
129.8260888362051
 20
139.61786710115
 11
128.7878771721696
 21
139.5015928850615
  0
LINE
  8
0
  6
CONTINUOUS
 62
     7
 10
134.4946241052001
 20
132.8115407168639
 11
135.1184050263372
 21
133.3014093731678
  0
LINE
  8
0
  6
CONTINUOUS
 62
     7
 10
159.3905155913803
 20
147.6341520361565
 11
158.5598961799895
 21
147.3348890816721
  0
LINE
  8
0
  6
CONTINUOUS
 62
     7
 10
161.4467745253907
 20
140.5491945700621
 11
160.4085628613553
 21
140.6654687861506
  0
LINE
  8
0
  6
CONTINUOUS
 62
     7
 10
150.2247110253811
 20
151.1906021870123
 11
150.2247110253811
 21
152.9583691399787
  0
LINE
  8
0
  6
CONTINUOUS
 62
     7
 10
149.89063111998
 20
131.3654427352053
 11
150.2247110253811
 21
130.75004211153
  0
LINE
  8
0
  6
CONTINUOUS
 62
     7
 10
159.1349170682759
 20
146.3516559852893
 11
160.0715013409896
 21
146.6890969031539
  0
LINE
  8
0
  6
CONTINUOUS
 62
     7
 10
128.5532254746092
 20
140.5491945700621
 11
129.5914371386447
 21
140.6654687861506
  0
LINE
  8
0
  6
CONTINUOUS
 62
     7
 10
160.0715013409896
 20
137.0193143483548
 11
159.1349170682759
 21
137.3567552662195
  0
LINE
  8
0
  6
CONTINUOUS
 62
     7
 10
135.1184050263372
 20
150.4070018783409
 11
134.4946241052001
 21
150.8968705346448
  0
LINE
  8
0
  6
CONTINUOUS
 62
     7
 10
155.5053758947999
 20
149.1291035816784
 11
155.5053758947999
 21
150.8968705346448
  0
LINE
  8
0
  6
CONTINUOUS
 62
     7
 10
150.8934312058977
 20
132.1321933190871
 11
150.7550104231309
 21
131.7690472781228
  0
LINE
  8
0
  6
CONTINUOUS
 62
     7
 10
132.166012531338
 20
137.0135149264522
 11
132.1796761192801
 21
136.9682475867786
  0
LINE
  8
0
  6
CONTINUOUS
 62
     7
 10
157.7966716677755
 20
144.808840849531
 11
157.8070423777404
 21
144.9443302572121
  0
ARC
  8
0
  6
CONTINUOUS
 62
     7
 10
159.774966711955
 20
144.4176231472889
 40
2.037190851353334
 50
108.3114670244506
 51
165.0162082832049
  0
LINE
  8
0
  6
CONTINUOUS
 62
     7
 10
132.2033283322245
 20
144.808840849531
 11
132.1953548762979
 21
144.9273074441922
  0
ARC
  8
0
  6
CONTINUOUS
 62
     7
 10
130.2185400159254
 20
144.4144377211084
 40
2.042261576058599
 50
14.54429051930544
 51
71.54366587507491
  0
LINE
  8
0
  6
CONTINUOUS
 62
     7
 10
135.0044698293551
 20
133.8332264293306
 11
134.8245272393381
 21
134.2070197895002
  0
LINE
  8
0
  6
CONTINUOUS
 62
     7
 10
157.8948830971099
 20
137.1416698095715
 11
157.7966716677692
 21
136.7782500584208
  0
LINE
  8
0
  6
CONTINUOUS
 62
     7
 10
132.1052426554734
 20
137.1414694303907
 11
132.166012531338
 21
137.0135149264522
  0
LINE
  8
0
  6
CONTINUOUS
 62
     7
 10
128.7878771721696
 20
143.1329369322078
 11
128.7878771721696
 21
144.2068183664472
  0
LINE
  8
0
  6
CONTINUOUS
 62
     7
 10
159.3905155913803
 20
146.4437452961542
 11
159.3905155913803
 21
147.6341520361565
  0
LINE
  8
0
  6
CONTINUOUS
 62
     7
 10
139.244989576869
 20
131.7690472781228
 11
139.1065525416695
 21
132.1321984745758
  0
LINE
  8
0
  6
CONTINUOUS
 62
     7
 10
139.2906664951916
 20
130.8713887307709
 11
139.244989576869
 21
131.7690472781228
  0
LINE
  8
0
  6
CONTINUOUS
 62
     7
 10
131.0748935927189
 20
139.921426555577
 11
131.0748935927188
 21
141.8161430155544
  0
LINE
  8
0
  6
CONTINUOUS
 62
     7
 10
158.9251064072811
 20
139.9119039551288
 11
158.9251064072811
 21
141.8161430155544
  0
LINE
  8
0
  6
CONTINUOUS
 62
     7
 10
157.7966716677755
 20
136.7782500584181
 11
157.7966716677755
 21
136.458844953868
  0
LINE
  8
0
  6
CONTINUOUS
 62
     7
 10
157.7966716677755
 20
140.5662001624117
 11
157.7966716677755
 21
144.808840849531
  0
LINE
  8
0
  6
CONTINUOUS
 62
     7
 10
132.1796761192801
 20
136.9682475867786
 11
132.2033283322307
 21
136.7782500584208
  0
LINE
  8
0
  6
CONTINUOUS
 62
     7
 10
132.2033283322245
 20
136.7782500584181
 11
132.2033283322245
 21
136.4587821212013
  0
LINE
  8
0
  6
CONTINUOUS
 62
     7
 10
155.175494234788
 20
134.2070350080796
 11
154.9955301706448
 21
133.8332264293306
  0
LINE
  8
0
  6
CONTINUOUS
 62
     7
 10
161.2121228278304
 20
143.1329369322078
 11
161.2121228278304
 21
144.2068183664472
  0
LINE
  8
0
  6
CONTINUOUS
 62
     7
 10
150.7550104231309
 20
131.7690472781228
 11
150.7094735760047
 21
130.8741414192833
  0
LINE
  8
0
  6
CONTINUOUS
 62
     7
 10
130.6094844086197
 20
147.6341520361565
 11
130.6094844086197
 21
146.4437452961542
  0
ARC
  8
0
  6
CONTINUOUS
 62
     7
 10
133.3314919865708
 20
148.2238930645692
 40
2.821173923113395
 50
8.83564650859247
 51
50.69906992102418
  0
LINE
  8
0
  6
CONTINUOUS
 62
     7
 10
155.9555408126858
 20
141.0932678909117
 11
156.5802787171943
 21
141.3183540236432
  0
LINE
  8
0
  6
CONTINUOUS
 62
     7
 10
133.8213256508217
 20
141.9281343813767
 11
133.55228657695
 21
142.1481343892812
  0
LINE
  8
0
  6
CONTINUOUS
 62
     7
 10
136.9066617497962
 20
144.4538182696603
 11
136.7046180231265
 21
144.7355557963237
  0
LINE
  8
0
  6
CONTINUOUS
 62
     7
 10
157.6510269588069
 20
141.7041327303525
 11
157.7402446037067
 21
141.7362768575408
  0
LINE
  8
0
  6
CONTINUOUS
 62
     7
 10
135.0044698293551
 20
147.9475069779136
 11
135.2576157620582
 21
144.8346111676327
  0
LINE
  8
0
  6
CONTINUOUS
 62
     7
 10
134.8295442144475
 20
149.219636962639
 11
135.1798132564579
 21
148.9445631039488
  0
LINE
  8
0
  6
CONTINUOUS
 62
     7
 10
153.3949362374147
 20
143.9361957418183
 11
153.5535073278401
 21
143.9790019670293
  0
LINE
  8
0
  6
CONTINUOUS
 62
     7
 10
153.8808129324287
 20
148.6572271617973
 11
153.6276669997256
 21
145.5443313515164
  0
ARC
  8
0
  6
CONTINUOUS
 62
     7
 10
159.1984109105324
 20
145.4086862785012
 40
2.029275314013327
 50
108.3397826741804
 51
166.252846484974
  0
LINE
  8
0
  6
CONTINUOUS
 62
     7
 10
156.8479911326172
 20
140.0005942730796
 11
156.8479911326172
 21
141.2026758010967
  0
LINE
  8
0
  6
CONTINUOUS
 62
     7
 10
132.2597553962933
 20
141.7362768575408
 11
134.0444591873142
 21
141.0932678909117
  0
ARC
  8
0
  6
CONTINUOUS
 62
     7
 10
134.0621152453286
 20
149.6371484078766
 40
5.196389596746561
 50
4.133264885223014
 51
26.58745768955845
  0
LINE
  8
0
  6
CONTINUOUS
 62
     7
 10
156.4477134230499
 20
142.1481343892812
 11
156.1786743491782
 21
141.9281343813767
  0
LINE
  8
0
  6
CONTINUOUS
 62
     7
 10
133.1098197095885
 20
142.8553752263722
 11
132.7727335331877
 21
145.8909184653727
  0
LINE
  8
0
  6
CONTINUOUS
 62
     7
 10
156.1786743491782
 20
141.9281343813767
 11
155.9555408126858
 21
141.5415556269957
  0
ARC
  8
0
  6
CONTINUOUS
 62
     7
 10
157.7741481807454
 20
147.5193645030456
 40
2.811409615271517
 50
129.2247960665518
 51
171.2404875038328
  0
LINE
  8
0
  6
CONTINUOUS
 62
     7
 10
153.5959836663602
 20
142.6798690761643
 11
153.5959836663602
 21
143.8819506041814
  0
LINE
  8
0
  6
CONTINUOUS
 62
     7
 10
152.9257687941797
 20
144.0160361317088
 11
152.9257687941797
 21
143.5677483956248
  0
LINE
  8
0
  6
CONTINUOUS
 62
     7
 10
153.2953819768735
 20
144.7355557963237
 11
153.0933382502038
 21
144.4538182696603
  0
ARC
  8
0
  6
CONTINUOUS
 62
     7
 10
151.9410058114235
 20
145.7646478939863
 40
1.700989518783269
 50
322.7714356917078
 51
352.5579953697463
  0
LINE
  8
0
  6
CONTINUOUS
 62
     7
 10
154.1990497884581
 20
144.5676835148771
 11
154.2660507084391
 21
144.620300787272
  0
LINE
  8
0
  6
CONTINUOUS
 62
     7
 10
137.0742312058203
 20
143.5677483956248
 11
137.0742312058203
 21
144.0160361317088
  0
LINE
  8
0
  6
CONTINUOUS
 62
     7
 10
155.1704557855524
 20
149.219636962639
 11
155.4353083577182
 21
149.2904845982161
  0
ARC
  8
0
  6
CONTINUOUS
 62
     7
 10
155.9412052227667
 20
149.6362362695884
 40
5.199767215634992
 50
153.4199298091612
 51
175.8593476160574
  0
LINE
  8
0
  6
CONTINUOUS
 62
     7
 10
136.3723330002744
 20
145.5443313515164
 11
136.1191870675713
 21
148.6572271617973
  0
LINE
  8
0
  6
CONTINUOUS
 62
     7
 10
149.5609625409518
 20
147.4607119407665
 11
149.6790912525519
 21
150.2178027700862
  0
LINE
  8
0
  6
CONTINUOUS
 62
     7
 10
134.0444591873142
 20
141.0932678909117
 11
134.0444591873142
 21
141.5415556269957
  0
LINE
  8
0
  6
CONTINUOUS
 62
     7
 10
149.5250786909484
 20
146.3662922487819
 11
149.5609625409518
 21
146.4323930328007
  0
LINE
  8
0
  6
CONTINUOUS
 62
     7
 10
132.2033270456534
 20
143.2728213938826
 11
132.2597553962933
 21
142.7645957655066
  0
LINE
  8
0
  6
CONTINUOUS
 62
     7
 10
134.0444591873142
 20
141.5415556269957
 11
133.8213256508217
 21
141.9281343813767
  0
LINE
  8
0
  6
CONTINUOUS
 62
     7
 10
154.8201867435401
 20
148.9445631039631
 11
155.1704557855524
 21
149.219636962639
  0
LINE
  8
0
  6
CONTINUOUS
 62
     7
 10
135.7339492915609
 20
144.620300787272
 11
137.0742312058203
 21
143.5677483956248
  0
LINE
  8
0
  6
CONTINUOUS
 62
     7
 10
156.8479911326172
 20
140.0005942730796
 11
157.2009449145945
 21
140.1277596031242
  0
ARC
  8
0
  6
CONTINUOUS
 62
     7
 10
132.2147213502995
 20
147.5129984415547
 40
2.823383474585428
 50
8.852796356519377
 51
50.68192007309602
  0
LINE
  8
0
  6
CONTINUOUS
 62
     7
 10
155.9555408126858
 20
141.5415556269957
 11
155.9555408126858
 21
141.0932678909117
  0
LINE
  8
0
  6
CONTINUOUS
 62
     7
 10
154.7423842379418
 20
144.8346111676327
 11
154.9955301706448
 21
147.9475069779136
  0
LINE
  8
0
  6
CONTINUOUS
 62
     7
 10
152.9257687941797
 20
143.5677483956248
 11
153.3949362374147
 21
143.9361957418183
  0
LINE
  8
0
  6
CONTINUOUS
 62
     7
 10
156.5802787171943
 20
141.3183540236432
 11
156.8194920274958
 21
141.2876505898195
  0
ARC
  8
0
  6
CONTINUOUS
 62
     7
 10
156.6728473912203
 20
148.2214111614291
 40
2.825843591789315
 50
129.3371407322126
 51
171.1281428381723
  0
ARC
  8
0
  6
CONTINUOUS
 62
     7
 10
138.0753258958406
 20
145.7713577675558
 40
1.718058728893945
 50
187.5933441329419
 51
217.0772248056029
  0
LINE
  8
0
  6
CONTINUOUS
 62
     7
 10
157.7402446037067
 20
142.7645957655066
 11
157.7966729543466
 21
143.2728213938826
  0
LINE
  8
0
  6
CONTINUOUS
 62
     7
 10
154.2660507084391
 20
145.6486196952378
 11
154.4866160143535
 21
148.3613231509667
  0
LINE
  8
0
  6
CONTINUOUS
 62
     7
 10
153.5959836663602
 20
142.6798690761643
 11
153.9668871551272
 21
142.9711476124323
  0
LINE
  8
0
  6
CONTINUOUS
 62
     7
 10
153.0933382502038
 20
144.4538182696603
 11
152.9257687941797
 21
144.0160361317088
  0
LINE
  8
0
  6
CONTINUOUS
 62
     7
 10
137.0742312058203
 20
144.0160361317088
 11
136.9066617497962
 21
144.4538182696603
  0
LINE
  8
0
  6
CONTINUOUS
 62
     7
 10
134.4946241052001
 20
149.1291035816784
 11
134.5646867180811
 21
149.2904817492598
  0
ARC
  8
0
  6
CONTINUOUS
 62
     7
 10
130.8084177828727
 20
145.4149884287189
 40
2.021149615126288
 50
13.61961911491237
 51
71.78775172593343
  0
LINE
  8
0
  6
CONTINUOUS
 62
     7
 10
157.2272664668122
 20
145.8909184653727
 11
156.8901802904115
 21
142.8553752263722
  0
ARC
  8
0
  6
CONTINUOUS
 62
     7
 10
153.0393913423751
 20
145.0616375836723
 40
1.718058728894428
 50
322.9227751943988
 51
352.4066558670518
  0
LINE
  8
0
  6
CONTINUOUS
 62
     7
 10
135.5899007849104
 20
144.0258356124399
 11
135.7919445115801
 21
143.7440980857766
  0
LINE
  8
0
  6
CONTINUOUS
 62
     7
 10
150.3332606413904
 20
145.6498029349255
 11
150.4414697045493
 21
145.9722004844341
  0
LINE
  8
0
  6
CONTINUOUS
 62
     7
 10
139.5585302954506
 20
145.9722004844341
 11
139.6667393586096
 21
145.6498029349255
  0
LINE
  8
0
  6
CONTINUOUS
 62
     7
 10
140.7809382158521
 20
147.2279529109803
 11
140.6453602166149
 21
150.3917927400464
  0
LINE
  8
0
  6
CONTINUOUS
 62
     7
 10
149.0410990648035
 20
146.3523070953592
 11
148.9328900016445
 21
146.0299095458506
  0
LINE
  8
0
  6
CONTINUOUS
 62
     7
 10
134.5646867180811
 20
149.2904817492598
 11
134.8295442144475
 21
149.219636962639
  0
LINE
  8
0
  6
CONTINUOUS
 62
     7
 10
140.142257439151
 20
150.8681717237697
 11
140.3209087474481
 21
150.2178027700862
  0
LINE
  8
0
  6
CONTINUOUS
 62
     7
 10
135.7919445115801
 20
143.7440980857766
 11
135.9595139676042
 21
143.3063159478251
  0
LINE
  8
0
  6
CONTINUOUS
 62
     7
 10
156.8194920274958
 20
141.2876505898195
 11
156.8479911326172
 21
141.2026758010967
  0
LINE
  8
0
  6
CONTINUOUS
 62
     7
 10
149.0944175886905
 20
145.5729817064912
 11
149.1723736164842
 21
145.6507828873795
  0
LINE
  8
0
  6
CONTINUOUS
 62
     7
 10
139.3805675761063
 20
146.8478463000552
 11
139.5585302954506
 21
145.9722004844341
  0
LINE
  8
0
  6
CONTINUOUS
 62
     7
 10
155.4353083577182
 20
149.2904845982161
 11
155.5053758947999
 21
149.1291035816784
  0
LINE
  8
0
  6
CONTINUOUS
 62
     7
 10
149.2020930621898
 20
144.3571145650632
 11
149.2020930621898
 21
145.5591960930803
  0
LINE
  8
0
  6
CONTINUOUS
 62
     7
 10
154.2080554884199
 20
143.7440980857766
 11
154.4100992150896
 21
144.0258356124399
  0
LINE
  8
0
  6
CONTINUOUS
 62
     7
 10
139.2449895768691
 20
150.0116861291213
 11
139.3805675761063
 21
146.8478463000552
  0
LINE
  8
0
  6
CONTINUOUS
 62
     7
 10
154.0404860323958
 20
143.3063159478251
 11
154.2080554884199
 21
143.7440980857766
  0
LINE
  8
0
  6
CONTINUOUS
 62
     7
 10
149.857742560848
 20
150.8681717237836
 11
150.0453370262367
 21
151.2137350130642
  0
LINE
  8
0
  6
CONTINUOUS
 62
     7
 10
150.6194324238937
 20
146.8478463000552
 11
150.7550104231309
 21
150.0116861291213
  0
LINE
  8
0
  6
CONTINUOUS
 62
     7
 10
150.0453370262367
 20
151.2137350130642
 11
150.1753468049738
 21
151.3432568681174
  0
LINE
  8
0
  6
CONTINUOUS
 62
     7
 10
149.6790912525519
 20
150.2178027700862
 11
149.857742560848
 21
150.8681717237836
  0
LINE
  8
0
  6
CONTINUOUS
 62
     7
 10
149.2190617841479
 20
147.2279529109803
 11
149.0410990648035
 21
146.3523070953592
  0
LINE
  8
0
  6
CONTINUOUS
 62
     7
 10
141.1568555903088
 20
145.5584051141045
 11
141.0671099983554
 21
146.0299095458506
  0
LINE
  8
0
  6
CONTINUOUS
 62
     7
 10
139.6667393586096
 20
145.6498029349255
 11
139.756484950563
 21
145.1782985031794
  0
LINE
  8
0
  6
CONTINUOUS
 62
     7
 10
150.4414697045493
 20
145.9722004844341
 11
150.6194324238937
 21
146.8478463000552
  0
LINE
  8
0
  6
CONTINUOUS
 62
     7
 10
150.243515049437
 20
145.1782985031794
 11
150.3332606413904
 21
145.6498029349255
  0
LINE
  8
0
  6
CONTINUOUS
 62
     7
 10
139.756484950563
 20
145.1782985031794
 11
139.756484950563
 21
144.7300107670953
  0
LINE
  8
0
  6
CONTINUOUS
 62
     7
 10
150.243515049437
 20
144.7300107670953
 11
150.243515049437
 21
145.1782985031794
  0
ARC
  8
0
  6
CONTINUOUS
 62
     7
 10
154.5375141149251
 20
150.0172550188018
 40
5.196389596746164
 50
153.4125423104407
 51
175.8667351147779
  0
LINE
  8
0
  6
CONTINUOUS
 62
     7
 10
150.1753468049738
 20
151.3432568681174
 11
150.2247110253811
 21
151.1906021870123
  0
LINE
  8
0
  6
CONTINUOUS
 62
     7
 10
141.0671099983554
 20
146.0299095458506
 11
140.9589009351965
 21
146.3523070953592
  0
LINE
  8
0
  6
CONTINUOUS
 62
     7
 10
139.8246501974834
 20
151.3432561741087
 11
139.9546629737633
 21
151.2137350130642
  0
LINE
  8
0
  6
CONTINUOUS
 62
     7
 10
153.5535073278401
 20
143.9790019670293
 11
153.5959836663602
 21
143.8819506041814
  0
LINE
  8
0
  6
CONTINUOUS
 62
     7
 10
139.7752889746189
 20
151.1906021870123
 11
139.8246501974834
 21
151.3432561741087
  0
LINE
  8
0
  6
CONTINUOUS
 62
     7
 10
149.2020930621898
 20
144.3571145650632
 11
149.5250786909484
 21
144.9520786864088
  0
LINE
  8
0
  6
CONTINUOUS
 62
     7
 10
148.8431444096912
 20
145.1101173780205
 11
149.0944175886905
 21
145.5729817064912
  0
LINE
  8
0
  6
CONTINUOUS
 62
     7
 10
139.9546629737632
 20
151.2137350130642
 11
140.142257439151
 21
150.8681717237697
  0
ARC
  8
0
  6
CONTINUOUS
 62
     7
 10
136.9442769503608
 20
145.0549277101028
 40
1.70098951878377
 50
187.44200463026
 51
217.2285643082897
  0
LINE
  8
0
  6
CONTINUOUS
 62
     7
 10
149.3546397833851
 20
150.3917927400464
 11
149.2190617841479
 21
147.2279529109803
  0
ARC
  8
0
  6
CONTINUOUS
 62
     7
 10
135.4591654169787
 20
150.0163428805134
 40
5.199767215635361
 50
4.140652383943471
 51
26.58007019083818
  0
LINE
  8
0
  6
CONTINUOUS
 62
     7
 10
140.4390374590482
 20
146.4323930328007
 11
141.1568555903088
 21
145.1101173780204
  0
LINE
  8
0
  6
CONTINUOUS
 62
     7
 10
141.1568555903088
 20
145.1101173780204
 11
141.1568555903088
 21
145.5584051141045
  0
LINE
  8
0
  6
CONTINUOUS
 62
     7
 10
148.8431444096912
 20
145.5584051141045
 11
148.8431444096912
 21
145.1101173780204
  0
LINE
  8
0
  6
CONTINUOUS
 62
     7
 10
140.9589009351965
 20
146.3523070953592
 11
140.7809382158521
 21
147.2279529109803
  0
LINE
  8
0
  6
CONTINUOUS
 62
     7
 10
135.9595139676042
 20
143.3063159478251
 11
135.9595139676042
 21
142.8580282117411
  0
LINE
  8
0
  6
CONTINUOUS
 62
     7
 10
148.9328900016445
 20
146.0299095458506
 11
148.8431444096912
 21
145.5584051141045
  0
ARC
  8
0
  6
CONTINUOUS
 62
     7
 10
150.5897754837001
 20
117.3746072120844
 40
10.82641102451216
 50
304.1881902709073
 51
351.4089041665827
  0
LINE
  8
0
  6
CONTINUOUS
 62
     7
 10
132.0681673603414
 20
109.4677791953547
 11
131.71037560056
 21
109.288734242225
  0
LINE
  8
0
  6
CONTINUOUS
 62
     7
 10
163.05
 20
128.5959534785066
 11
163.05
 21
140.9703221492712
  0
ARC
  8
0
  6
CONTINUOUS
 62
     7
 10
143.9066262933252
 20
147.6058107999628
 40
16.20102894380291
 50
240.4313094744238
 51
252.7644749179586
  0
LINE
  8
0
  6
CONTINUOUS
 62
     7
 10
138.579689783217
 20
77.16056750221534
 11
138.579689783217
 21
106.1605675022154
  0
LINE
  8
0
  6
CONTINUOUS
 62
     7
 10
127.5
 20
107.7769040082259
 11
127.5
 21
106.1605675022153
  0
LINE
  8
0
  6
CONTINUOUS
 62
     7
 10
151.4203102167829
 20
77.16056750221534
 11
151.4203102167829
 21
106.1605675022154
  0
ARC
  8
0
  6
CONTINUOUS
 62
     7
 10
141.1306018585541
 20
143.2603536384048
 40
11.0331022836127
 50
219.6606435155486
 51
235.1382643436414
  0
LINE
  8
0
  6
CONTINUOUS
 62
     7
 10
128.65
 20
123.0205367955735
 11
128.65
 21
116.7358991153838
  0
ARC
  8
0
  6
CONTINUOUS
 62
     7
 10
128.0
 20
107.7769040082258
 40
0.5000000000000058
 50
105.0000000000003
 51
179.9999999999991
  0
ARC
  8
0
  6
CONTINUOUS
 62
     7
 10
150.8673804729668
 20
140.3326284268284
 40
12.19935284643227
 50
3.001308783354926
 51
65.29907963245627
  0
ARC
  8
0
  6
CONTINUOUS
 62
     7
 10
145.1095775392497
 20
130.9204330236419
 40
23.19276484000893
 50
62.09132658356769
 51
126.1586393575333
  0
ARC
  8
0
  6
CONTINUOUS
 62
     7
 10
138.3118666900972
 20
140.601429574189
 40
11.36785364154083
 50
127.2858470263794
 51
178.1403966341246
  0
LINE
  8
0
  6
CONTINUOUS
 62
     7
 10
160.5
 20
77.16056750221534
 11
160.5
 21
106.1605675022154
  0
LINE
  8
0
  6
CONTINUOUS
 62
     7
 10
126.95
 20
140.9703221492712
 11
126.95
 21
128.5959534785066
  0
ARC
  8
0
  6
CONTINUOUS
 62
     7
 10
146.0970187365421
 20
147.5973893190467
 40
16.1919055970904
 50
287.2320740580503
 51
299.5721515515907
  0
ARC
  8
0
  6
CONTINUOUS
 62
     7
 10
151.6797703793986
 20
141.0927622154319
 40
7.364695568515491
 50
327.5565241753437
 51
342.9783778490888
  0
LINE
  8
0
  6
CONTINUOUS
 62
     7
 10
131.7118468554228
 20
109.2891284657694
 11
127.8705904774487
 21
108.2598669213704
  0
ARC
  8
0
  6
CONTINUOUS
 62
     7
 10
145.0413242990465
 20
151.2434836927137
 40
19.99298355491898
 50
272.0314503120978
 51
282.8877224237585
  0
ARC
  8
0
  6
CONTINUOUS
 62
     7
 10
162.0
 20
107.7769040082258
 40
0.5000000000000004
 50
0.0000000000011245
 51
74.99999999999966
  0
ARC
  8
0
  6
CONTINUOUS
 62
     7
 10
138.3957601432697
 20
141.1275555750906
 40
7.447111087874736
 50
197.107703427264
 51
212.3573564542005
  0
LINE
  8
0
  6
CONTINUOUS
 62
     7
 10
158.2896333886035
 20
109.2887318247184
 11
157.9318779040651
 21
109.4677451856692
  0
ARC
  8
0
  6
CONTINUOUS
 62
     7
 10
144.9591823872906
 20
151.2473527872442
 40
19.99686818878564
 50
257.113315921549
 51
267.9675106751541
  0
LINE
  8
0
  6
CONTINUOUS
 62
     7
 10
162.5
 20
106.1605675022153
 11
162.5
 21
107.7769040082259
  0
ARC
  8
0
  6
CONTINUOUS
 62
     7
 10
148.8643345459222
 20
143.2658603339706
 40
11.04051510917023
 50
304.8669561217562
 51
320.3340986135722
  0
ARC
  8
0
  6
CONTINUOUS
 62
     7
 10
139.2432192140832
 20
117.2387552552846
 40
10.62041648677883
 50
184.6006731444341
 51
236.1506226962517
  0
LINE
  8
0
  6
CONTINUOUS
 62
     7
 10
162.1294095225512
 20
108.2598669213704
 11
158.286214387451
 21
109.2896479541757
  0
LINE
  8
0
  6
CONTINUOUS
 62
     7
 10
139.3975362980644
 20
143.9770079541381
 11
139.3975362980644
 21
144.6101355139084
  0
LINE
  8
0
  6
CONTINUOUS
 62
     7
 10
129.5
 20
77.16056750221534
 11
129.5
 21
106.1605675022154
  0
LINE
  8
0
  6
CONTINUOUS
 62
     7
 10
149.1723736164842
 20
145.6507828873795
 11
149.2020930621898
 21
145.5591960930803
  0
ARC
  8
0
  6
CONTINUOUS
 62
     7
 10
146.0568468540393
 20
135.0722604696524
 40
19.56675984413558
 50
271.212029309887
 51
318.434495282925
  0
ARC
  8
0
  6
CONTINUOUS
 62
     7
 10
152.454324430984
 20
128.7570965094052
 40
10.6011144049181
 50
321.0319023221592
 51
357.4771707514063
  0
ARC
  8
0
  6
CONTINUOUS
 62
     7
 10
173.7078480486
 20
75.72995488971536
 40
0.9999999999999365
 50
9.999999997477742
 51
88.00000000042357
  0
LINE
  8
0
  6
CONTINUOUS
 62
     7
 10
90.71984378547661
 20
197.7990550854054
 11
89.3056302231035
 21
197.7990550854054
  0
LINE
  8
0
  6
CONTINUOUS
 62
     7
 10
90.95334227556789
 20
197.2033283322245
 11
90.71984378547661
 21
197.7990550854054
  0
LINE
  8
0
  6
CONTINUOUS
 62
     7
 10
115.3073441983864
 20
75.90360306733783
 11
115.0
 21
74.16056750221534
  0
ARC
  8
0
  6
CONTINUOUS
 62
     7
 10
139.2958578094608
 20
129.3846682562411
 40
12.39722674184199
 50
185.7192721596482
 51
244.3600632131483
  0
ARC
  8
0
  6
CONTINUOUS
 62
     7
 10
144.4890928561283
 20
137.4811929288362
 40
21.9752995006282
 50
241.2862173050277
 51
263.6510580608144
  0
ARC
  8
0
  6
CONTINUOUS
 62
     7
 10
142.0
 20
115.1441632123282
 40
0.5000000000000089
 50
0.0
 51
83.20190806036703
  0
ARC
  8
0
  6
CONTINUOUS
 62
     7
 10
158.5795000000001
 20
77.65622310751542
 40
0.4999999999999474
 50
262.4415590318829
 51
269.4994267598874
  0
ARC
  8
0
  6
CONTINUOUS
 62
     7
 10
116.2921519513999
 20
75.72995488971536
 40
0.9999999999999352
 50
91.99999999957645
 51
170.0000000025221
  0
LINE
  8
0
  6
CONTINUOUS
 62
     7
 10
91.61906865937318
 20
219.690484267903
 11
91.67261239959903
 21
219.7636084271856
  0
LINE
  8
0
  6
CONTINUOUS
 62
     7
 10
156.2088157034125
 20
141.1845200228221
 11
156.2088157034125
 21
140.9045583259054
  0
ARC
  8
0
  6
CONTINUOUS
 62
     7
 10
146.5
 20
115.0107358793947
 40
0.5000000000000004
 50
93.37657058268336
 51
180.0
  0
LINE
  8
0
  6
CONTINUOUS
 62
     7
 10
175.0
 20
74.16056750221534
 11
174.6926558016136
 21
75.90360306733783
  0
LINE
  8
0
  6
CONTINUOUS
 62
     7
 10
90.8737885914048
 20
221.0672790970627
 11
90.52830816810477
 21
221.0672790970627
  0
LINE
  8
0
  6
CONTINUOUS
 62
     7
 10
93.60338882543662
 20
215.4506992424253
 11
93.85620400872848
 21
215.6024637019356
  0
LINE
  8
0
  6
CONTINUOUS
 62
     7
 10
90.87378859140482
 20
198.9327209029372
 11
90.74044020246075
 21
198.9327209029372
  0
LINE
  8
0
  6
CONTINUOUS
 62
     7
 10
90.35862377098205
 20
198.7526519745226
 11
90.74044020246075
 21
198.9327209029372
  0
ARC
  8
0
  6
CONTINUOUS
 62
     7
 10
131.4204999999999
 20
77.65622310751542
 40
0.4999999999999482
 50
270.5005732401127
 51
277.5584409681167
  0
LINE
  8
0
  6
CONTINUOUS
 62
     7
 10
101.7031245422467
 20
203.7089982402742
 11
102.318525165922
 21
203.3749183348731
  0
LINE
  8
0
  6
CONTINUOUS
 62
     7
 10
99.92741298762951
 20
221.620093133016
 11
99.43754433132558
 21
220.9963122118789
  0
LINE
  8
0
  6
CONTINUOUS
 62
     7
 10
54.68095065222865
 20
207.9693632108861
 11
54.58121794525111
 21
208.146853427077
  0
LINE
  8
0
  6
CONTINUOUS
 62
     7
 10
97.37441467302493
 20
195.6094844086197
 11
97.07515171854052
 21
196.4401038200105
  0
LINE
  8
0
  6
CONTINUOUS
 62
     7
 10
93.64516608174853
 20
217.2888549777875
 11
93.14609409278202
 21
217.2888549777875
  0
LINE
  8
0
  6
CONTINUOUS
 62
     7
 10
93.04285565362791
 20
217.0313772543195
 11
93.06043329289021
 21
217.2597520418523
  0
LINE
  8
0
  6
CONTINUOUS
 62
     7
 10
90.405731423019
 20
194.5914371386447
 11
90.28945720693052
 21
193.5532254746092
  0
LINE
  8
0
  6
CONTINUOUS
 62
     7
 10
102.6986317768471
 20
204.7752889746189
 11
102.0832311531718
 21
205.10936888002
  0
LINE
  8
0
  6
CONTINUOUS
 62
     7
 10
54.58111791657048
 20
211.8530021464404
 11
54.68100813659309
 21
212.0307544928095
  0
LINE
  8
0
  6
CONTINUOUS
 62
     7
 10
54.58106371805938
 20
208.146949232701
 11
54.45313807425636
 21
208.25
  0
LINE
  8
0
  6
CONTINUOUS
 62
     7
 10
95.2643412349209
 20
205.4583242453226
 11
95.99978209111943
 21
205.1001992754198
  0
LINE
  8
0
  6
CONTINUOUS
 62
     7
 10
94.40226713707129
 20
215.4506992424253
 11
93.60338882543662
 21
215.4506992424253
  0
LINE
  8
0
  6
CONTINUOUS
 62
     7
 10
95.08966990340257
 20
212.5421855806154
 11
94.43449615330255
 21
212.5421855806154
  0
LINE
  8
0
  6
CONTINUOUS
 62
     7
 10
54.72926372275091
 20
207.7986922659057
 11
54.73155142374495
 21
207.7957437453189
  0
LINE
  8
0
  6
CONTINUOUS
 62
     7
 10
93.64516608174853
 20
202.7111450222125
 11
93.14609409278202
 21
202.7111450222125
  0
LINE
  8
0
  6
CONTINUOUS
 62
     7
 10
94.39709027720077
 20
212.5374060894728
 11
94.43449615330255
 21
212.5421855806154
  0
LINE
  8
0
  6
CONTINUOUS
 62
     7
 10
92.89947931831506
 20
193.5532254746092
 11
92.78320510222656
 21
194.5914371386447
  0
LINE
  8
0
  6
CONTINUOUS
 62
     7
 10
54.4531380742585
 20
211.75
 11
54.58096553533305
 21
211.8529078266622
  0
LINE
  8
0
  6
CONTINUOUS
 62
     7
 10
93.83080678722713
 20
194.8260888362051
 11
93.94708100331565
 21
193.7878771721696
  0
LINE
  8
0
  6
CONTINUOUS
 62
     7
 10
96.42935954002235
 20
194.9284986590104
 11
96.09191862215768
 21
195.865082931724
  0
LINE
  8
0
  6
CONTINUOUS
 62
     7
 10
99.43754433132557
 20
199.0036877881211
 11
99.92741298762951
 21
198.379906866984
  0
LINE
  8
0
  6
CONTINUOUS
 62
     7
 10
93.49398333798524
 20
201.0331128448728
 11
93.98180037993252
 21
200.4542369086343
  0
LINE
  8
0
  6
CONTINUOUS
 62
     7
 10
102.0832311531718
 20
214.89063111998
 11
102.6986317768471
 21
215.2247110253811
  0
LINE
  8
0
  6
CONTINUOUS
 62
     7
 10
102.318525165922
 20
216.6250816651269
 11
101.7031245422467
 21
216.2910017597258
  0
LINE
  8
0
  6
CONTINUOUS
 62
     7
 10
93.06043329289021
 20
217.2597520418523
 11
93.14609409278202
 21
217.2888549777875
  0
LINE
  8
0
  6
CONTINUOUS
 62
     7
 10
100.1472645152093
 20
219.8815949736628
 11
100.6371331715132
 21
220.5053758947999
  0
LINE
  8
0
  6
CONTINUOUS
 62
     7
 10
100.6371331715132
 20
199.4946241052001
 11
100.1472645152093
 21
200.1184050263372
  0
LINE
  8
0
  6
CONTINUOUS
 62
     7
 10
83.57348906619896
 20
219.9955301706448
 11
83.94728262116145
 21
220.1754730355013
  0
LINE
  8
0
  6
CONTINUOUS
 62
     7
 10
83.75139219392
 20
220.9963122118789
 11
83.26152353761607
 21
221.620093133016
  0
LINE
  8
0
  6
CONTINUOUS
 62
     7
 10
93.94708100331565
 20
226.2121228278304
 11
92.87319956907625
 21
226.2121228278304
  0
LINE
  8
0
  6
CONTINUOUS
 62
     7
 10
97.07515171854052
 20
223.5598961799895
 11
97.37441467302493
 21
224.3905155913803
  0
LINE
  8
0
  6
CONTINUOUS
 62
     7
 10
81.87245595102812
 20
204.1065688096309
 11
81.50930991499122
 21
204.2449895768691
  0
LINE
  8
0
  6
CONTINUOUS
 62
     7
 10
90.405731423019
 20
225.4085628613553
 11
90.28945720693052
 21
226.4467745253907
  0
LINE
  8
0
  6
CONTINUOUS
 62
     7
 10
89.24185552192993
 20
193.7878771721696
 11
89.35812973801845
 21
194.8260888362051
  0
LINE
  8
0
  6
CONTINUOUS
 62
     7
 10
83.94729866893663
 20
199.8245043201885
 11
83.57348906619895
 21
200.0044698293552
  0
LINE
  8
0
  6
CONTINUOUS
 62
     7
 10
82.55180335373232
 20
220.5053758947999
 11
83.04167201003627
 21
219.8815949736628
  0
LINE
  8
0
  6
CONTINUOUS
 62
     7
 10
81.48581198299885
 20
216.2910017597258
 11
80.87041135932357
 21
216.6250816651269
  0
LINE
  8
0
  6
CONTINUOUS
 62
     7
 10
100.9308648238807
 20
204.7752889746189
 11
102.6986317768471
 21
204.7752889746189
  0
LINE
  8
0
  6
CONTINUOUS
 62
     7
 10
97.37441467302493
 20
224.3905155913803
 11
96.18400793302267
 21
224.3905155913803
  0
LINE
  8
0
  6
CONTINUOUS
 62
     7
 10
96.42935954002235
 20
225.0715013409896
 11
96.09191862215768
 21
224.1349170682759
  0
LINE
  8
0
  6
CONTINUOUS
 62
     7
 10
81.10570537207374
 20
205.10936888002
 11
80.49030474839847
 21
204.7752889746189
  0
LINE
  8
0
  6
CONTINUOUS
 62
     7
 10
96.18400793302267
 20
195.6094844086197
 11
97.37441467302493
 21
195.6094844086197
  0
LINE
  8
0
  6
CONTINUOUS
 62
     7
 10
98.86936621854687
 20
199.4946241052001
 11
100.6371331715132
 21
199.4946241052001
  0
LINE
  8
0
  6
CONTINUOUS
 62
     7
 10
81.50930991499122
 20
204.2449895768691
 11
80.6144040561517
 21
204.2905264239953
  0
LINE
  8
0
  6
CONTINUOUS
 62
     7
 10
80.61165136763934
 20
215.7093335048084
 11
81.50930991499122
 21
215.7550104231309
  0
LINE
  8
0
  6
CONTINUOUS
 62
     7
 10
83.26152353761607
 20
198.379906866984
 11
83.75139219392
 21
199.0036877881211
  0
LINE
  8
0
  6
CONTINUOUS
 62
     7
 10
85.81452185222064
 20
224.3905155913803
 11
86.11378480670504
 21
223.5598961799895
  0
LINE
  8
0
  6
CONTINUOUS
 62
     7
 10
92.89947931831507
 20
226.4467745253907
 11
92.78320510222656
 21
225.4085628613553
  0
LINE
  8
0
  6
CONTINUOUS
 62
     7
 10
80.87041135932357
 20
203.374918334873
 11
81.48581198299885
 21
203.7089982402742
  0
LINE
  8
0
  6
CONTINUOUS
 62
     7
 10
83.04167201003628
 20
200.1184050263372
 11
82.55180335373232
 21
199.4946241052001
  0
LINE
  8
0
  6
CONTINUOUS
 62
     7
 10
87.09701790308787
 20
224.1349170682759
 11
86.75957698522322
 21
225.0715013409896
  0
LINE
  8
0
  6
CONTINUOUS
 62
     7
 10
93.83080678722713
 20
225.1739111637949
 11
93.94708100331565
 21
226.2121228278304
  0
LINE
  8
0
  6
CONTINUOUS
 62
     7
 10
100.6371331715132
 20
220.5053758947999
 11
98.86936621854687
 21
220.5053758947999
  0
LINE
  8
0
  6
CONTINUOUS
 62
     7
 10
80.49030474839847
 20
215.2247110253811
 11
81.10570537207374
 21
214.89063111998
  0
LINE
  8
0
  6
CONTINUOUS
 62
     7
 10
87.09701790308787
 20
195.8650829317241
 11
86.75957698522322
 21
194.9284986590104
  0
LINE
  8
0
  6
CONTINUOUS
 62
     7
 10
102.6986317768471
 20
215.2247110253811
 11
100.9308648238807
 21
215.2247110253811
  0
LINE
  8
0
  6
CONTINUOUS
 62
     7
 10
93.94708100331565
 20
193.7878771721696
 11
92.87319956907625
 21
193.7878771721696
  0
LINE
  8
0
  6
CONTINUOUS
 62
     7
 10
86.11378480670504
 20
196.4401038200105
 11
85.81452185222065
 21
195.6094844086197
  0
LINE
  8
0
  6
CONTINUOUS
 62
     7
 10
81.50930991499122
 20
215.7550104231309
 11
81.8724611094756
 21
215.8934474521226
  0
LINE
  8
0
  6
CONTINUOUS
 62
     7
 10
89.24185552192993
 20
226.2121228278304
 11
89.35812973801845
 21
225.1739111637949
  0
LINE
  8
0
  6
CONTINUOUS
 62
     7
 10
86.19922825514404
 20
222.7966716677755
 11
86.51851269528655
 21
222.7966716677755
  0
LINE
  8
0
  6
CONTINUOUS
 62
     7
 10
86.77860470317906
 20
197.1569470385608
 11
86.88192692729343
 21
197.1051203680399
  0
LINE
  8
0
  6
CONTINUOUS
 62
     7
 10
86.51851269528655
 20
197.2033283322245
 11
86.77860470317906
 21
197.1569470385608
  0
LINE
  8
0
  6
CONTINUOUS
 62
     7
 10
86.51851269528655
 20
222.7966716677755
 11
86.88170495342193
 21
222.8947403371091
  0
LINE
  8
0
  6
CONTINUOUS
 62
     7
 10
86.19911213937002
 20
197.2033283322245
 11
86.51851269528655
 21
197.2033283322245
  0
ENDSEC
  0
EOF
