  0
SECTION
  2
HEADER
  9
$ACADVER
  1
AC1015
  9
$ACADMAINTVER
 70
     6
  9
$DWGCODEPAGE
  3
ANSI_932
  9
$INSBASE
 10
0.0
 20
0.0
 30
0.0
  9
$EXTMIN
 10
0.0
 20
0.0
 30
0.0
  9
$EXTMAX
 10
730.0
 20
330.0
 30
5.0
  9
$LIMMIN
 10
0.0
 20
0.0
  9
$LIMMAX
 10
12.0
 20
9.0
  9
$ORTHOMODE
 70
     0
  9
$REGENMODE
 70
     1
  9
$FILLMODE
 70
     1
  9
$QTEXTMODE
 70
     0
  9
$MIRRTEXT
 70
     1
  9
$LTSCALE
 40
1.0
  9
$ATTMODE
 70
     1
  9
$TEXTSIZE
 40
0.2
  9
$TRACEWID
 40
0.05
  9
$TEXTSTYLE
  7
Standard
  9
$CLAYER
  8
0
  9
$CELTYPE
  6
ByLayer
  9
$CECOLOR
 62
   256
  9
$CELTSCALE
 40
1.0
  9
$DISPSILH
 70
     0
  9
$DIMSCALE
 40
1.0
  9
$DIMASZ
 40
3.0
  9
$DIMEXO
 40
0.0625
  9
$DIMDLI
 40
0.38
  9
$DIMRND
 40
0.0
  9
$DIMDLE
 40
0.0
  9
$DIMEXE
 40
1.5
  9
$DIMTP
 40
0.0
  9
$DIMTM
 40
0.0
  9
$DIMTXT
 40
3.0
  9
$DIMCEN
 40
0.09
  9
$DIMTSZ
 40
0.0
  9
$DIMTOL
 70
     0
  9
$DIMLIM
 70
     0
  9
$DIMTIH
 70
     1
  9
$DIMTOH
 70
     1
  9
$DIMSE1
 70
     0
  9
$DIMSE2
 70
     0
  9
$DIMTAD
 70
     1
  9
$DIMZIN
 70
     0
  9
$DIMBLK
  1

  9
$DIMASO
 70
     1
  9
$DIMSHO
 70
     1
  9
$DIMPOST
  1

  9
$DIMAPOST
  1

  9
$DIMALT
 70
     0
  9
$DIMALTD
 70
     2
  9
$DIMALTF
 40
25.4
  9
$DIMLFAC
 40
1.0
  9
$DIMTOFL
 70
     0
  9
$DIMTVP
 40
0.0
  9
$DIMTIX
 70
     0
  9
$DIMSOXD
 70
     0
  9
$DIMSAH
 70
     0
  9
$DIMBLK1
  1

  9
$DIMBLK2
  1

  9
$DIMSTYLE
  2
Standard
  9
$DIMCLRD
 70
     0
  9
$DIMCLRE
 70
     0
  9
$DIMCLRT
 70
     0
  9
$DIMTFAC
 40
1.0
  9
$DIMGAP
 40
1.5
  9
$DIMJUST
 70
     0
  9
$DIMSD1
 70
     0
  9
$DIMSD2
 70
     0
  9
$DIMTOLJ
 70
     1
  9
$DIMTZIN
 70
     0
  9
$DIMALTZ
 70
     0
  9
$DIMALTTZ
 70
     0
  9
$DIMUPT
 70
     0
  9
$DIMDEC
 70
     2
  9
$DIMTDEC
 70
     4
  9
$DIMALTU
 70
     2
  9
$DIMALTTD
 70
     2
  9
$DIMTXSTY
  7
ＭＳ ゴシック
  9
$DIMAUNIT
 70
     0
  9
$DIMADEC
 70
     2
  9
$DIMALTRND
 40
0.0
  9
$DIMAZIN
 70
     0
  9
$DIMDSEP
 70
    46
  9
$DIMATFIT
 70
     3
  9
$DIMFRAC
 70
     0
  9
$DIMLDRBLK
  1

  9
$DIMLUNIT
 70
     2
  9
$DIMLWD
 70
    -2
  9
$DIMLWE
 70
    -2
  9
$DIMTMOVE
 70
     0
  9
$LUNITS
 70
     2
  9
$LUPREC
 70
     4
  9
$SKETCHINC
 40
0.1
  9
$FILLETRAD
 40
0.5
  9
$AUNITS
 70
     0
  9
$AUPREC
 70
     0
  9
$MENU
  1
.
  9
$ELEVATION
 40
0.0
  9
$PELEVATION
 40
0.0
  9
$THICKNESS
 40
0.0
  9
$LIMCHECK
 70
     0
  9
$CHAMFERA
 40
0.0
  9
$CHAMFERB
 40
0.0
  9
$CHAMFERC
 40
0.0
  9
$CHAMFERD
 40
0.0
  9
$SKPOLY
 70
     0
  9
$TDCREATE
 40
2458982.609575891
  9
$TDUCREATE
 40
2458982.234575891
  9
$TDUPDATE
 40
2458982.609576065
  9
$TDUUPDATE
 40
2458982.234576065
  9
$TDINDWG
 40
0.0000000116
  9
$TDUSRTIMER
 40
0.0000000116
  9
$USRTIMER
 70
     1
  9
$ANGBASE
 50
0.0
  9
$ANGDIR
 70
     0
  9
$PDMODE
 70
     0
  9
$PDSIZE
 40
0.0
  9
$PLINEWID
 40
0.0
  9
$SPLFRAME
 70
     0
  9
$SPLINETYPE
 70
     6
  9
$SPLINESEGS
 70
     8
  9
$HANDSEED
  5
25E
  9
$SURFTAB1
 70
     6
  9
$SURFTAB2
 70
     6
  9
$SURFTYPE
 70
     6
  9
$SURFU
 70
     6
  9
$SURFV
 70
     6
  9
$UCSBASE
  2

  9
$UCSNAME
  2

  9
$UCSORG
 10
0.0
 20
0.0
 30
0.0
  9
$UCSXDIR
 10
1.0
 20
0.0
 30
0.0
  9
$UCSYDIR
 10
0.0
 20
1.0
 30
0.0
  9
$UCSORTHOREF
  2

  9
$UCSORTHOVIEW
 70
     0
  9
$UCSORGTOP
 10
0.0
 20
0.0
 30
0.0
  9
$UCSORGBOTTOM
 10
0.0
 20
0.0
 30
0.0
  9
$UCSORGLEFT
 10
0.0
 20
0.0
 30
0.0
  9
$UCSORGRIGHT
 10
0.0
 20
0.0
 30
0.0
  9
$UCSORGFRONT
 10
0.0
 20
0.0
 30
0.0
  9
$UCSORGBACK
 10
0.0
 20
0.0
 30
0.0
  9
$PUCSBASE
  2

  9
$PUCSNAME
  2

  9
$PUCSORG
 10
0.0
 20
0.0
 30
0.0
  9
$PUCSXDIR
 10
1.0
 20
0.0
 30
0.0
  9
$PUCSYDIR
 10
0.0
 20
1.0
 30
0.0
  9
$PUCSORTHOREF
  2

  9
$PUCSORTHOVIEW
 70
     0
  9
$PUCSORGTOP
 10
0.0
 20
0.0
 30
0.0
  9
$PUCSORGBOTTOM
 10
0.0
 20
0.0
 30
0.0
  9
$PUCSORGLEFT
 10
0.0
 20
0.0
 30
0.0
  9
$PUCSORGRIGHT
 10
0.0
 20
0.0
 30
0.0
  9
$PUCSORGFRONT
 10
0.0
 20
0.0
 30
0.0
  9
$PUCSORGBACK
 10
0.0
 20
0.0
 30
0.0
  9
$USERI1
 70
     0
  9
$USERI2
 70
     0
  9
$USERI3
 70
     0
  9
$USERI4
 70
     0
  9
$USERI5
 70
     0
  9
$USERR1
 40
0.0
  9
$USERR2
 40
0.0
  9
$USERR3
 40
0.0
  9
$USERR4
 40
0.0
  9
$USERR5
 40
0.0
  9
$WORLDVIEW
 70
     1
  9
$SHADEDGE
 70
     3
  9
$SHADEDIF
 70
    70
  9
$TILEMODE
 70
     1
  9
$MAXACTVP
 70
    64
  9
$PINSBASE
 10
0.0
 20
0.0
 30
0.0
  9
$PLIMCHECK
 70
     0
  9
$PEXTMIN
 10
1.000000000000000E+20
 20
1.000000000000000E+20
 30
1.000000000000000E+20
  9
$PEXTMAX
 10
-1.000000000000000E+20
 20
-1.000000000000000E+20
 30
-1.000000000000000E+20
  9
$PLIMMIN
 10
0.0
 20
0.0
  9
$PLIMMAX
 10
12.0
 20
9.0
  9
$UNITMODE
 70
     0
  9
$VISRETAIN
 70
     1
  9
$PLINEGEN
 70
     0
  9
$PSLTSCALE
 70
     1
  9
$TREEDEPTH
 70
  3020
  9
$CMLSTYLE
  2
Standard
  9
$CMLJUST
 70
     0
  9
$CMLSCALE
 40
1.0
  9
$PROXYGRAPHICS
 70
     1
  9
$MEASUREMENT
 70
     1
  9
$CELWEIGHT
370
    -1
  9
$ENDCAPS
280
     0
  9
$JOINSTYLE
280
     0
  9
$LWDISPLAY
290
     1
  9
$INSUNITS
 70
     4
  9
$HYPERLINKBASE
  1

  9
$STYLESHEET
  1

  9
$XEDIT
290
     1
  9
$CEPSNTYPE
380
     0
  9
$PSTYLEMODE
290
     1
  9
$FINGERPRINTGUID
  2
{ADBAEF28-EC08-4DC4-9C4C-D17B98FD0CE3}
  9
$VERSIONGUID
  2
{FAEB1C32-E019-11D5-929B-00C0DF256EC4}
  9
$EXTNAMES
290
     1
  9
$PSVPSCALE
 40
0.0
  9
$OLESTARTUP
290
     0
  0
ENDSEC
  0
SECTION
  2
CLASSES
  0
CLASS
  1
ACDBDICTIONARYWDFLT
  2
AcDbDictionaryWithDefault
  3
ObjectDBX Classes
 90
        0
280
     0
281
     0
  0
CLASS
  1
VISUALSTYLE
  2
AcDbVisualStyle
  3
ObjectDBX Classes
 90
     4095
280
     0
281
     0
  0
CLASS
  1
MATERIAL
  2
AcDbMaterial
  3
ObjectDBX Classes
 90
     1153
280
     0
281
     0
  0
CLASS
  1
SCALE
  2
AcDbScale
  3
ObjectDBX Classes
 90
     1153
280
     0
281
     0
  0
CLASS
  1
TABLESTYLE
  2
AcDbTableStyle
  3
ObjectDBX Classes
 90
     4095
280
     0
281
     0
  0
CLASS
  1
MLEADERSTYLE
  2
AcDbMLeaderStyle
  3
ACDB_MLEADERSTYLE_CLASS
 90
     4095
280
     0
281
     0
  0
CLASS
  1
SUN
  2
AcDbSun
  3
SCENEOE
 90
     1153
280
     0
281
     0
  0
CLASS
  1
DICTIONARYVAR
  2
AcDbDictionaryVar
  3
ObjectDBX Classes
 90
        0
280
     0
281
     0
  0
CLASS
  1
ACDBPLACEHOLDER
  2
AcDbPlaceHolder
  3
ObjectDBX Classes
 90
        0
280
     0
281
     0
  0
CLASS
  1
LAYOUT
  2
AcDbLayout
  3
ObjectDBX Classes
 90
        0
280
     0
281
     0
  0
ENDSEC
  0
SECTION
  2
TABLES
  0
TABLE
  2
VPORT
  5
8
102
{ACAD_XDICTIONARY
360
221
102
}
330
0
100
AcDbSymbolTable
 70
     1
  0
VPORT
  5
29
330
8
100
AcDbSymbolTableRecord
100
AcDbViewportTableRecord
  2
*Active
 70
     0
 10
0.0
 20
0.0
 11
1.0
 21
1.0
 12
365.0
 22
165.0
 13
0.0
 23
0.0
 14
0.5
 24
0.5
 15
0.5
 25
0.5
 16
0.0
 26
0.0
 36
1.0
 17
0.0
 27
0.0
 37
0.0
 40
330.0
 41
1.6
 42
50.0
 43
0.0
 44
0.0
 50
0.0
 51
0.0
 71
     0
 72
   100
 73
     1
 74
     3
 75
     0
 76
     0
 77
     0
 78
     0
281
     0
 65
     1
110
0.0
120
0.0
130
0.0
111
1.0
121
0.0
131
0.0
112
0.0
122
1.0
132
0.0
 79
     0
146
0.0
  0
ENDTAB
  0
TABLE
  2
LTYPE
  5
5
330
0
100
AcDbSymbolTable
 70
     1
  0
LTYPE
  5
14
330
5
100
AcDbSymbolTableRecord
100
AcDbLinetypeTableRecord
  2
ByBlock
 70
     0
  3

 72
    65
 73
     0
 40
0.0
  0
LTYPE
  5
15
330
5
100
AcDbSymbolTableRecord
100
AcDbLinetypeTableRecord
  2
ByLayer
 70
     0
  3

 72
    65
 73
     0
 40
0.0
  0
LTYPE
  5
16
330
5
100
AcDbSymbolTableRecord
100
AcDbLinetypeTableRecord
  2
Continuous
 70
     0
  3
Solid line
 72
    65
 73
     0
 40
0.0
  0
ENDTAB
  0
TABLE
  2
LAYER
  5
2
330
0
100
AcDbSymbolTable
 70
     1
  0
LAYER
  5
10
330
2
100
AcDbSymbolTableRecord
100
AcDbLayerTableRecord
  2
0
 70
     0
 62
     7
  6
Continuous
370
    -3
390
F
  0
ENDTAB
  0
TABLE
  2
STYLE
  5
3
330
0
100
AcDbSymbolTable
 70
     2
  0
STYLE
  5
11
330
3
100
AcDbSymbolTableRecord
100
AcDbTextStyleTableRecord
  2
Standard
 70
     0
 40
0.0
 41
1.0
 50
0.0
 71
     0
 42
0.2
  3
txt
  4

  0
STYLE
  5
6E
330
3
100
AcDbSymbolTableRecord
100
AcDbTextStyleTableRecord
  2
ＭＳ ゴシック
 70
     0
 40
0.0
 41
1.0
 50
0.0
 71
     0
 42
0.2
  3
ＭＳ ゴシック.shx
  4

  0
ENDTAB
  0
TABLE
  2
VIEW
  5
6
330
0
100
AcDbSymbolTable
 70
     0
  0
ENDTAB
  0
TABLE
  2
UCS
  5
7
330
0
100
AcDbSymbolTable
 70
     0
  0
ENDTAB
  0
TABLE
  2
APPID
  5
9
330
0
100
AcDbSymbolTable
 70
     2
  0
APPID
  5
12
330
9
100
AcDbSymbolTableRecord
100
AcDbRegAppTableRecord
  2
ACAD
 70
     0
  0
APPID
  5
25B
330
9
100
AcDbSymbolTableRecord
100
AcDbRegAppTableRecord
  2
ACAD_MLEADERVER
 70
     0
  0
ENDTAB
  0
TABLE
  2
DIMSTYLE
  5
A
330
0
100
AcDbSymbolTable
 70
     1
100
AcDbDimStyleTable
  0
DIMSTYLE
105
27
330
A
100
AcDbSymbolTableRecord
100
AcDbDimStyleTableRecord
  2
Standard
 70
     0
178
     0
340
11
  0
ENDTAB
  0
TABLE
  2
BLOCK_RECORD
  5
1
330
0
100
AcDbSymbolTable
 70
     5
  0
BLOCK_RECORD
  5
1F
330
1
100
AcDbSymbolTableRecord
100
AcDbBlockTableRecord
  2
*Model_Space
340
22
  0
BLOCK_RECORD
  5
1B
330
1
100
AcDbSymbolTableRecord
100
AcDbBlockTableRecord
  2
*Paper_Space
340
1E
  0
BLOCK_RECORD
  5
23
330
1
100
AcDbSymbolTableRecord
100
AcDbBlockTableRecord
  2
*Paper_Space0
340
26
  0
BLOCK_RECORD
  5
70
330
1
100
AcDbSymbolTableRecord
100
AcDbBlockTableRecord
  2
D_FRAME_VIEW@1707
340
0
102
{BLKREFS
331
93
102
}
  0
BLOCK_RECORD
  5
94
330
1
100
AcDbSymbolTableRecord
100
AcDbBlockTableRecord
  2
D_FRAME_VIEW@1665
340
0
102
{BLKREFS
331
171
102
}
  0
BLOCK_RECORD
  5
172
330
1
100
AcDbSymbolTableRecord
100
AcDbBlockTableRecord
  2
D_FRAME_DRAWING@17
340
0
102
{BLKREFS
331
173
102
}
  0
BLOCK_RECORD
  5
17A
330
1
100
AcDbSymbolTableRecord
100
AcDbBlockTableRecord
  2
D_FRAME_VIEW@1287
340
0
102
{BLKREFS
331
217
102
}
  0
ENDTAB
  0
ENDSEC
  0
SECTION
  2
BLOCKS
  0
BLOCK
  5
20
330
1F
100
AcDbEntity
  8
0
100
AcDbBlockBegin
  2
*Model_Space
 70
     0
 10
0.0
 20
0.0
 30
0.0
  3
*Model_Space
  1

  0
ENDBLK
  5
21
330
1F
100
AcDbEntity
  8
0
100
AcDbBlockEnd
  0
BLOCK
  5
1C
330
1B
100
AcDbEntity
 67
     1
  8
0
100
AcDbBlockBegin
  2
*Paper_Space
 70
     0
 10
0.0
 20
0.0
 30
0.0
  3
*Paper_Space
  1

  0
ENDBLK
  5
1D
330
1B
100
AcDbEntity
 67
     1
  8
0
100
AcDbBlockEnd
  0
BLOCK
  5
24
330
23
100
AcDbEntity
  8
0
100
AcDbBlockBegin
  2
*Paper_Space0
 70
     0
 10
0.0
 20
0.0
 30
0.0
  3
*Paper_Space0
  1

  0
ENDBLK
  5
25
330
23
100
AcDbEntity
  8
0
100
AcDbBlockEnd
  0
BLOCK
  5
95
330
70
100
AcDbEntity
  8
0
100
AcDbBlockBegin
  2
D_FRAME_VIEW@1707
 70
     0
 10
0.0
 20
0.0
 30
0.0
  3
D_FRAME_VIEW@1707
  1

  0
ARC
  5
71
330
70
100
AcDbEntity
  8
0
  6
Continuous
 62
     7
370
     9
100
AcDbCircle
 10
-612.5
 20
310.0
 30
0.0
 40
3.500000000000003
210
0.0
220
0.0
230
-1.0
100
AcDbArc
 50
270.0
 51
90.0
  0
ARC
  5
72
330
70
100
AcDbEntity
  8
0
  6
Continuous
 62
     7
370
     9
100
AcDbCircle
 10
-612.5
 20
310.0
 30
0.0
 40
3.500000000000003
210
0.0
220
0.0
230
-1.0
100
AcDbArc
 50
90.0
 51
270.0
  0
LINE
  5
73
330
70
100
AcDbEntity
  8
0
  6
Continuous
 62
     7
370
     9
100
AcDbLine
 10
600.5773502691897
 20
311.0
 30
0.0
 11
609.1458980337504
 21
311.0
 31
0.0
  0
ELLIPSE
  5
74
330
70
100
AcDbEntity
  8
0
  6
Continuous
 62
     7
370
     9
100
AcDbEllipse
 10
600.5773502691897
 20
310.5
 30
0.0
 11
0.5773502691895915
 21
0.0
 31
0.0
210
0.0
220
0.0
230
-1.0
 40
0.8660254037843946
 41
3.141592653589793
 42
4.712388980384698
  0
LINE
  5
75
330
70
100
AcDbEntity
  8
0
  6
Continuous
 62
     7
370
     9
100
AcDbLine
 10
624.4226497308103
 20
309.0
 30
0.0
 11
615.8541019662497
 21
309.0
 31
0.0
  0
ELLIPSE
  5
76
330
70
100
AcDbEntity
  8
0
  6
Continuous
 62
     7
370
     9
100
AcDbEllipse
 10
624.4226497308103
 20
309.5
 30
0.0
 11
-0.5773502691895915
 21
0.0
 31
0.0
210
0.0
220
0.0
230
-1.0
 40
0.8660254037843946
 41
3.141592653589793
 42
4.712388980384698
  0
LINE
  5
77
330
70
100
AcDbEntity
  8
0
  6
Continuous
 62
     7
370
     9
100
AcDbLine
 10
613.5
 20
321.9226497308103
 30
0.0
 11
613.5
 21
313.3541019662497
 31
0.0
  0
ELLIPSE
  5
78
330
70
100
AcDbEntity
  8
0
  6
Continuous
 62
     7
370
     9
100
AcDbEllipse
 10
613.0000000000001
 20
321.9226497308103
 30
0.0
 11
0.0
 21
-0.5773502691895915
 31
0.0
210
0.0
220
0.0
230
-1.0
 40
0.8660254037844908
 41
3.141592653589793
 42
4.712388980384696
  0
LINE
  5
79
330
70
100
AcDbEntity
  8
0
  6
Continuous
 62
     7
370
     9
100
AcDbLine
 10
611.5
 20
298.0773502691897
 30
0.0
 11
611.5
 21
306.6458980337503
 31
0.0
  0
ELLIPSE
  5
7A
330
70
100
AcDbEntity
  8
0
  6
Continuous
 62
     7
370
     9
100
AcDbEllipse
 10
612.0
 20
298.0773502691897
 30
0.0
 11
0.0
 21
0.5773502691895915
 31
0.0
210
0.0
220
0.0
230
-1.0
 40
0.8660254037844908
 41
3.141592653589793
 42
4.712388980384698
  0
LINE
  5
7B
330
70
100
AcDbEntity
  8
0
  6
Continuous
 62
     7
370
     9
100
AcDbLine
 10
611.5
 20
313.3541019662497
 30
0.0
 11
611.5
 21
321.9226497308103
 31
0.0
  0
ELLIPSE
  5
7C
330
70
100
AcDbEntity
  8
0
  6
Continuous
 62
     7
370
     9
100
AcDbEllipse
 10
612.0000000000001
 20
321.9226497308103
 30
0.0
 11
0.0
 21
-0.5773502691895915
 31
0.0
210
0.0
220
0.0
230
-1.0
 40
0.8660254037844908
 41
1.570796326794891
 42
3.141592653589793
  0
LINE
  5
7D
330
70
100
AcDbEntity
  8
0
  6
Continuous
 62
     7
370
     9
100
AcDbLine
 10
615.8541019662497
 20
311.0
 30
0.0
 11
624.4226497308103
 21
311.0
 31
0.0
  0
ELLIPSE
  5
7E
330
70
100
AcDbEntity
  8
0
  6
Continuous
 62
     7
370
     9
100
AcDbEllipse
 10
624.4226497308103
 20
310.5
 30
0.0
 11
0.5773502691895915
 21
0.0
 31
0.0
210
0.0
220
0.0
230
-1.0
 40
0.8660254037845869
 41
4.712388980384683
 42
6.283185307179586
  0
LINE
  5
7F
330
70
100
AcDbEntity
  8
0
  6
Continuous
 62
     7
370
     9
100
AcDbLine
 10
609.1458980337504
 20
309.0
 30
0.0
 11
600.5773502691897
 21
309.0
 31
0.0
  0
ELLIPSE
  5
80
330
70
100
AcDbEntity
  8
0
  6
Continuous
 62
     7
370
     9
100
AcDbEllipse
 10
600.5773502691897
 20
309.5
 30
0.0
 11
-0.5773502691895915
 21
0.0
 31
0.0
210
0.0
220
0.0
230
-1.0
 40
0.8660254037845869
 41
4.712388980384683
 42
6.283185307179586
  0
LINE
  5
81
330
70
100
AcDbEntity
  8
0
  6
Continuous
 62
     7
370
     9
100
AcDbLine
 10
613.5
 20
306.6458980337503
 30
0.0
 11
613.5
 21
298.0773502691897
 31
0.0
  0
ELLIPSE
  5
82
330
70
100
AcDbEntity
  8
0
  6
Continuous
 62
     7
370
     9
100
AcDbEllipse
 10
613.0
 20
298.0773502691897
 30
0.0
 11
0.0
 21
-0.577350269189647
 31
0.0
210
0.0
220
0.0
230
-1.0
 40
0.8660254037844075
 41
4.712388980384683
 42
6.283185307179586
  0
LINE
  5
83
330
70
100
AcDbEntity
  8
0
  6
Continuous
 62
     7
370
     9
100
AcDbLine
 10
625.0
 20
309.5
 30
0.0
 11
625.0
 21
310.5
 31
0.0
  0
LINE
  5
84
330
70
100
AcDbEntity
  8
0
  6
Continuous
 62
     7
370
     9
100
AcDbLine
 10
600.0000000000001
 20
310.5
 30
0.0
 11
600.0000000000001
 21
309.5
 31
0.0
  0
LINE
  5
85
330
70
100
AcDbEntity
  8
0
  6
Continuous
 62
     7
370
     9
100
AcDbLine
 10
612.0
 20
297.5
 30
0.0
 11
613.0
 21
297.5
 31
0.0
  0
LINE
  5
86
330
70
100
AcDbEntity
  8
0
  6
Continuous
 62
     7
370
     9
100
AcDbLine
 10
613.0000000000001
 20
322.5
 30
0.0
 11
612.0000000000001
 21
322.5
 31
0.0
  0
CIRCLE
  5
87
330
70
100
AcDbEntity
  8
0
  6
Continuous
 62
     7
370
     9
100
AcDbCircle
 10
627.5
 20
325.0
 30
0.0
 40
1.499999999999946
  0
CIRCLE
  5
88
330
70
100
AcDbEntity
  8
0
  6
Continuous
 62
     7
370
     9
100
AcDbCircle
 10
597.5
 20
325.0
 30
0.0
 40
1.500000000000057
  0
CIRCLE
  5
89
330
70
100
AcDbEntity
  8
0
  6
Continuous
 62
     7
370
     9
100
AcDbCircle
 10
597.5
 20
295.0
 30
0.0
 40
1.500000000000057
  0
CIRCLE
  5
8A
330
70
100
AcDbEntity
  8
0
  6
Continuous
 62
     7
370
     9
100
AcDbCircle
 10
627.5
 20
295.0
 30
0.0
 40
1.499999999999946
  0
LINE
  5
8B
330
70
100
AcDbEntity
  8
0
  6
Continuous
 62
     7
370
     9
100
AcDbLine
 10
629.5
 20
290.0
 30
0.0
 11
595.5
 21
290.0
 31
0.0
  0
ARC
  5
8C
330
70
100
AcDbEntity
  8
0
  6
Continuous
 62
     7
370
     9
100
AcDbCircle
 10
-629.5
 20
293.0
 30
0.0
 40
3.000000000000003
210
0.0
220
0.0
230
-1.0
100
AcDbArc
 50
180.0
 51
270.0
  0
ARC
  5
8D
330
70
100
AcDbEntity
  8
0
  6
Continuous
 62
     7
370
     9
100
AcDbCircle
 10
-595.5
 20
293.0
 30
0.0
 40
3.000000000000003
210
0.0
220
0.0
230
-1.0
100
AcDbArc
 50
270.0
 51
0.0
  0
LINE
  5
8E
330
70
100
AcDbEntity
  8
0
  6
Continuous
 62
     7
370
     9
100
AcDbLine
 10
632.5
 20
327.0
 30
0.0
 11
632.5
 21
293.0
 31
0.0
  0
LINE
  5
8F
330
70
100
AcDbEntity
  8
0
  6
Continuous
 62
     7
370
     9
100
AcDbLine
 10
592.5
 20
293.0
 30
0.0
 11
592.5
 21
327.0
 31
0.0
  0
ARC
  5
90
330
70
100
AcDbEntity
  8
0
  6
Continuous
 62
     7
370
     9
100
AcDbCircle
 10
-629.5
 20
327.0
 30
0.0
 40
3.000000000000003
210
0.0
220
0.0
230
-1.0
100
AcDbArc
 50
90.0
 51
180.0
  0
ARC
  5
91
330
70
100
AcDbEntity
  8
0
  6
Continuous
 62
     7
370
     9
100
AcDbCircle
 10
-595.5
 20
327.0
 30
0.0
 40
3.000000000000003
210
0.0
220
0.0
230
-1.0
100
AcDbArc
 50
0.0
 51
90.0
  0
LINE
  5
92
330
70
100
AcDbEntity
  8
0
  6
Continuous
 62
     7
370
     9
100
AcDbLine
 10
595.5
 20
330.0
 30
0.0
 11
629.5
 21
330.0
 31
0.0
  0
ENDBLK
  5
96
330
70
100
AcDbEntity
  8
0
100
AcDbBlockEnd
  0
BLOCK
  5
174
330
94
100
AcDbEntity
  8
0
100
AcDbBlockBegin
  2
D_FRAME_VIEW@1665
 70
     0
 10
0.0
 20
0.0
 30
0.0
  3
D_FRAME_VIEW@1665
  1

  0
LINE
  5
97
330
94
100
AcDbEntity
  8
0
  6
Continuous
 62
     7
370
     9
100
AcDbLine
 10
692.9999999999999
 20
52.49999999999999
 30
0.0
 11
689.9999999999999
 21
52.49999999999999
 31
0.0
  0
LINE
  5
98
330
94
100
AcDbEntity
  8
0
  6
Continuous
 62
     7
370
     9
100
AcDbLine
 10
689.9999999999999
 20
52.49999999999999
 30
0.0
 11
689.9999999999999
 21
54.49999999999999
 31
0.0
  0
LINE
  5
99
330
94
100
AcDbEntity
  8
0
  6
Continuous
 62
     7
370
     9
100
AcDbLine
 10
730.0
 20
54.49999999999999
 30
0.0
 11
730.0
 21
52.49999999999999
 31
0.0
  0
LINE
  5
9A
330
94
100
AcDbEntity
  8
0
  6
Continuous
 62
     7
370
     9
100
AcDbLine
 10
730.0
 20
52.49999999999999
 30
0.0
 11
727.0
 21
52.49999999999999
 31
0.0
  0
LINE
  5
9B
330
94
100
AcDbEntity
  8
0
  6
Continuous
 62
     7
370
     9
100
AcDbLine
 10
727.0
 20
55.49999999999999
 30
0.0
 11
729.0
 21
55.49999999999999
 31
0.0
  0
ARC
  5
9C
330
94
100
AcDbEntity
  8
0
  6
Continuous
 62
     7
370
     9
100
AcDbCircle
 10
729.0
 20
54.49999999999999
 30
0.0
 40
1.000000000000001
100
AcDbArc
 50
0.0
 51
90.0
  0
ARC
  5
9D
330
94
100
AcDbEntity
  8
0
  6
Continuous
 62
     7
370
     9
100
AcDbCircle
 10
-690.9999999999999
 20
54.49999999999999
 30
0.0
 40
1.000000000000001
210
0.0
220
0.0
230
-1.0
100
AcDbArc
 50
0.0
 51
90.0
  0
LINE
  5
9E
330
94
100
AcDbEntity
  8
0
  6
Continuous
 62
     7
370
     9
100
AcDbLine
 10
690.9999999999999
 20
55.49999999999999
 30
0.0
 11
692.9999999999999
 21
55.49999999999999
 31
0.0
  0
LINE
  5
9F
330
94
100
AcDbEntity
  8
0
  6
Continuous
 62
     7
370
     9
100
AcDbLine
 10
692.9999999999999
 20
55.49999999999999
 30
0.0
 11
727.0
 21
55.49999999999999
 31
0.0
  0
LINE
  5
A0
330
94
100
AcDbEntity
  8
0
  6
Continuous
 62
     7
370
     9
100
AcDbLine
 10
727.0
 20
52.49999999999999
 30
0.0
 11
692.9999999999999
 21
52.49999999999999
 31
0.0
  0
LINE
  5
A1
330
94
100
AcDbEntity
  8
0
  6
Continuous
 62
     7
370
     9
100
AcDbLine
 10
709.0
 20
55.49999999999999
 30
0.0
 11
709.0
 21
70.34116007529984
 31
0.0
  0
LWPOLYLINE
  5
A2
330
94
100
AcDbEntity
  8
0
  6
Continuous
 62
     7
370
     9
100
AcDbPolyline
 90
       54
 70
     0
 43
0.0
 10
-709.0
 20
70.34116007529984
 10
-709.0009949536824
 20
70.40370094300268
 10
-709.0040597598751
 20
70.46624181070551
 10
-709.0093742111436
 20
70.52907520613464
 10
-709.017105002219
 20
70.59173466621863
 10
-709.0276060417075
 20
70.65480057569727
 10
-709.041087978593
 20
70.71740270843519
 10
-709.0534643898098
 20
70.76426640731003
 10
-709.0679192623802
 20
70.81059064102953
 10
-709.0788397725028
 20
70.84116007529984
 10
-709.092590003712
 20
70.87545193828807
 10
-709.1078708266299
 20
70.9091315381079
 10
-709.1161522871556
 20
70.9257498074138
 10
-709.1248587727832
 20
70.94213723447048
 10
-709.1340348917723
 20
70.95831803435911
 10
-709.1436719216717
 20
70.97421472557251
 10
-709.1537068758715
 20
70.98967781479045
 10
-709.1642292655508
 20
71.00479802513135
 10
-709.1753079215025
 20
71.01960608679431
 10
-709.1869111567047
 20
71.03398954025451
 10
-709.1960664354918
 20
71.04458294542701
 10
-709.2055375654091
 20
71.05488450757375
 10
-709.2153697822429
 20
71.06491059370931
 10
-709.2255293357956
 20
71.07459395245435
 10
-709.2397078910275
 20
71.0870247213237
 10
-709.2472118728037
 20
71.09311887673286
 10
-709.2548781652305
 20
71.09901358312263
 10
-709.2680787017206
 20
71.10841021201949
 10
-709.2817407246966
 20
71.11717681882868
 10
-709.2960008129929
 20
71.12533892119399
 10
-709.3033058079321
 20
71.12914458016687
 10
-709.3107105820029
 20
71.13275057756954
 10
-709.3197860310823
 20
71.13683264005304
 10
-709.3290050970122
 20
71.14060787874594
 10
-709.3380577514229
 20
71.1439594810556
 10
-709.3472302847465
 20
71.14700432260817
 10
-709.3550197923406
 20
71.14931808136984
 10
-709.362874770993
 20
71.1514029975559
 10
-709.3708161082275
 20
71.15326127747035
 10
-709.378810865875
 20
71.1548826114251
 10
-709.3869998823543
 20
71.15628739933929
 10
-709.3952301741684
 20
71.15744199667182
 10
-709.4035246098908
 20
71.15834774567281
 10
-709.4118456251236
 20
71.15899951983148
 10
-709.421949201237
 20
71.15944878507612
 10
-709.4320805681947
 20
71.15952664269429
 10
-709.4405863897508
 20
71.15930658157043
 10
-709.4490853078883
 20
71.15882866691501
 10
-709.4576001152992
 20
71.15809266650922
 10
-709.4660931856085
 20
71.15710363269814
 10
-709.47461616787
 20
71.15585612224757
 10
-709.4831033390071
 20
71.15436101547168
 10
-709.49157586947
 20
71.15261726956783
 10
-709.5
 20
71.15063509461092
210
0.0
220
0.0
230
-1.0
  0
ELLIPSE
  5
A3
330
94
100
AcDbEntity
  8
0
  6
Continuous
 62
     7
370
     9
100
AcDbEllipse
 10
710.0
 20
77.15063509461092
 30
0.0
 11
0.0
 21
-6.062177826491069
 31
0.0
210
0.0
220
0.0
230
1.0
 40
0.577350269189626
 41
6.13983773827422
 42
6.426532876084951
  0
LWPOLYLINE
  5
A4
330
94
100
AcDbEntity
  8
0
  6
Continuous
 62
     7
370
     9
100
AcDbPolyline
 90
        9
 70
     0
 43
0.0
 10
-710.4999999999999
 20
71.15063509461092
 10
-710.6005701065794
 20
71.1579327721822
 10
-710.6969509649284
 20
71.12901505464768
 10
-710.7801358462833
 20
71.06927698134771
 10
-710.8449787009225
 20
70.99162581524762
 10
-710.9049489189916
 20
70.881166236362
 10
-710.9437114445429
 20
70.77393541586888
 10
-710.9437114445429
 20
70.77393541586888
 42
0.0706323239769831
 10
-711.0
 20
70.34116007529981
210
0.0
220
0.0
230
-1.0
  0
LINE
  5
A5
330
94
100
AcDbEntity
  8
0
  6
Continuous
 62
     7
370
     9
100
AcDbLine
 10
711.0
 20
70.34116007529981
 30
0.0
 11
711.0
 21
55.49999999999999
 31
0.0
  0
LINE
  5
A6
330
94
100
AcDbEntity
  8
0
  6
Continuous
 62
     7
370
     9
100
AcDbLine
 10
708.0
 20
252.5
 30
0.0
 11
712.0
 21
252.5
 31
0.0
  0
LINE
  5
A7
330
94
100
AcDbEntity
  8
0
  6
Continuous
 62
     7
370
     9
100
AcDbLine
 10
713.3541019662496
 20
70.34116007529984
 30
0.0
 11
713.453616585404
 21
71.15952664269429
 31
0.0
  0
LINE
  5
A8
330
94
100
AcDbEntity
  8
0
  6
Continuous
 62
     7
370
     9
100
AcDbLine
 10
713.3541019662496
 20
55.49999999999999
 30
0.0
 11
713.3541019662496
 21
70.34116007529984
 31
0.0
  0
LINE
  5
A9
330
94
100
AcDbEntity
  8
0
  6
Continuous
 62
     7
370
     9
100
AcDbLine
 10
706.6458980337503
 20
55.49999999999999
 30
0.0
 11
706.6458980337503
 21
70.34116007529981
 31
0.0
  0
LINE
  5
AA
330
94
100
AcDbEntity
  8
0
  6
Continuous
 62
     7
370
     9
100
AcDbLine
 10
706.5349013564507
 20
71.1579721143263
 30
0.0
 11
706.6458980337503
 21
70.34116007529981
 31
0.0
  0
LINE
  5
AB
330
94
100
AcDbEntity
  8
0
  6
Continuous
 62
     7
370
     9
100
AcDbLine
 10
713.4641016151377
 20
71.15063509461092
 30
0.0
 11
722.4999999999999
 21
55.49999999999999
 31
0.0
  0
LINE
  5
AC
330
94
100
AcDbEntity
  8
0
  6
Continuous
 62
     7
370
     9
100
AcDbLine
 10
697.5
 20
55.49999999999999
 30
0.0
 11
706.5358983848622
 21
71.15063509461092
 31
0.0
  0
ARC
  5
AD
330
94
100
AcDbEntity
  8
0
  6
Continuous
 62
     7
370
     9
100
AcDbCircle
 10
712.0
 20
251.0
 30
0.0
 40
1.499999999999946
100
AcDbArc
 50
0.0
 51
90.0
  0
ARC
  5
AE
330
94
100
AcDbEntity
  8
0
  6
Continuous
 62
     7
370
     9
100
AcDbCircle
 10
708.0
 20
251.0
 30
0.0
 40
1.500000000000001
100
AcDbArc
 50
90.0
 51
180.0
  0
LINE
  5
AF
330
94
100
AcDbEntity
  8
0
  6
Continuous
 62
     7
370
     9
100
AcDbLine
 10
713.4999999999999
 20
250.8
 30
0.0
 11
713.4999999999999
 21
251.0
 31
0.0
  0
LINE
  5
B0
330
94
100
AcDbEntity
  8
0
  6
Continuous
 62
     7
370
     9
100
AcDbLine
 10
713.4999999999999
 20
239.4666666666667
 30
0.0
 11
713.4999999999999
 21
242.2
 31
0.0
  0
LINE
  5
B1
330
94
100
AcDbEntity
  8
0
  6
Continuous
 62
     7
370
     9
100
AcDbLine
 10
713.4999999999999
 20
228.1333333333333
 30
0.0
 11
713.4999999999999
 21
230.8666666666667
 31
0.0
  0
LINE
  5
B2
330
94
100
AcDbEntity
  8
0
  6
Continuous
 62
     7
370
     9
100
AcDbLine
 10
713.4999999999999
 20
216.8
 30
0.0
 11
713.4999999999999
 21
219.5333333333333
 31
0.0
  0
LINE
  5
B3
330
94
100
AcDbEntity
  8
0
  6
Continuous
 62
     7
370
     9
100
AcDbLine
 10
713.4999999999999
 20
205.4666666666666
 30
0.0
 11
713.4999999999999
 21
208.2
 31
0.0
  0
LINE
  5
B4
330
94
100
AcDbEntity
  8
0
  6
Continuous
 62
     7
370
     9
100
AcDbLine
 10
713.4999999999999
 20
194.1333333333333
 30
0.0
 11
713.4999999999999
 21
196.8666666666666
 31
0.0
  0
LINE
  5
B5
330
94
100
AcDbEntity
  8
0
  6
Continuous
 62
     7
370
     9
100
AcDbLine
 10
713.4999999999999
 20
182.8
 30
0.0
 11
713.4999999999999
 21
185.5333333333334
 31
0.0
  0
LINE
  5
B6
330
94
100
AcDbEntity
  8
0
  6
Continuous
 62
     7
370
     9
100
AcDbLine
 10
713.4999999999999
 20
171.4666666666666
 30
0.0
 11
713.4999999999999
 21
174.2
 31
0.0
  0
LINE
  5
B7
330
94
100
AcDbEntity
  8
0
  6
Continuous
 62
     7
370
     9
100
AcDbLine
 10
713.4999999999999
 20
160.1333333333333
 30
0.0
 11
713.4999999999999
 21
162.8666666666666
 31
0.0
  0
LINE
  5
B8
330
94
100
AcDbEntity
  8
0
  6
Continuous
 62
     7
370
     9
100
AcDbLine
 10
713.4999999999999
 20
148.8
 30
0.0
 11
713.4999999999999
 21
151.5333333333334
 31
0.0
  0
LINE
  5
B9
330
94
100
AcDbEntity
  8
0
  6
Continuous
 62
     7
370
     9
100
AcDbLine
 10
713.4999999999999
 20
137.4666666666666
 30
0.0
 11
713.4999999999999
 21
140.2
 31
0.0
  0
LINE
  5
BA
330
94
100
AcDbEntity
  8
0
  6
Continuous
 62
     7
370
     9
100
AcDbLine
 10
713.4999999999999
 20
126.1333333333333
 30
0.0
 11
713.4999999999999
 21
128.8666666666667
 31
0.0
  0
LINE
  5
BB
330
94
100
AcDbEntity
  8
0
  6
Continuous
 62
     7
370
     9
100
AcDbLine
 10
713.4999999999999
 20
114.8
 30
0.0
 11
713.4999999999999
 21
117.5333333333333
 31
0.0
  0
LINE
  5
BC
330
94
100
AcDbEntity
  8
0
  6
Continuous
 62
     7
370
     9
100
AcDbLine
 10
713.4999999999999
 20
103.4666666666667
 30
0.0
 11
713.4999999999999
 21
106.2
 31
0.0
  0
LINE
  5
BD
330
94
100
AcDbEntity
  8
0
  6
Continuous
 62
     7
370
     9
100
AcDbLine
 10
713.4999999999999
 20
92.13333333333334
 30
0.0
 11
713.4999999999999
 21
94.86666666666665
 31
0.0
  0
LINE
  5
BE
330
94
100
AcDbEntity
  8
0
  6
Continuous
 62
     7
370
     9
100
AcDbLine
 10
713.4999999999999
 20
80.79999999999998
 30
0.0
 11
713.4999999999999
 21
83.53333333333332
 31
0.0
  0
LINE
  5
BF
330
94
100
AcDbEntity
  8
0
  6
Continuous
 62
     7
370
     9
100
AcDbLine
 10
713.4999999999999
 20
71.08845726811985
 30
0.0
 11
713.4999999999999
 21
72.19999999999999
 31
0.0
  0
LINE
  5
C0
330
94
100
AcDbEntity
  8
0
  6
Continuous
 62
     7
370
     9
100
AcDbLine
 10
706.5
 20
72.19999999999999
 30
0.0
 11
706.5
 21
71.08845726811985
 31
0.0
  0
LINE
  5
C1
330
94
100
AcDbEntity
  8
0
  6
Continuous
 62
     7
370
     9
100
AcDbLine
 10
706.5
 20
83.53333333333332
 30
0.0
 11
706.5
 21
80.79999999999998
 31
0.0
  0
LINE
  5
C2
330
94
100
AcDbEntity
  8
0
  6
Continuous
 62
     7
370
     9
100
AcDbLine
 10
706.5
 20
94.86666666666665
 30
0.0
 11
706.5
 21
92.13333333333331
 31
0.0
  0
LINE
  5
C3
330
94
100
AcDbEntity
  8
0
  6
Continuous
 62
     7
370
     9
100
AcDbLine
 10
706.5
 20
106.2
 30
0.0
 11
706.5
 21
103.4666666666667
 31
0.0
  0
LINE
  5
C4
330
94
100
AcDbEntity
  8
0
  6
Continuous
 62
     7
370
     9
100
AcDbLine
 10
706.5
 20
117.5333333333333
 30
0.0
 11
706.5
 21
114.8
 31
0.0
  0
LINE
  5
C5
330
94
100
AcDbEntity
  8
0
  6
Continuous
 62
     7
370
     9
100
AcDbLine
 10
706.5
 20
128.8666666666667
 30
0.0
 11
706.5
 21
126.1333333333333
 31
0.0
  0
LINE
  5
C6
330
94
100
AcDbEntity
  8
0
  6
Continuous
 62
     7
370
     9
100
AcDbLine
 10
706.5
 20
140.2
 30
0.0
 11
706.5
 21
137.4666666666666
 31
0.0
  0
LINE
  5
C7
330
94
100
AcDbEntity
  8
0
  6
Continuous
 62
     7
370
     9
100
AcDbLine
 10
706.5
 20
151.5333333333334
 30
0.0
 11
706.5
 21
148.8
 31
0.0
  0
LINE
  5
C8
330
94
100
AcDbEntity
  8
0
  6
Continuous
 62
     7
370
     9
100
AcDbLine
 10
706.5
 20
162.8666666666666
 30
0.0
 11
706.5
 21
160.1333333333333
 31
0.0
  0
LINE
  5
C9
330
94
100
AcDbEntity
  8
0
  6
Continuous
 62
     7
370
     9
100
AcDbLine
 10
706.5
 20
174.2
 30
0.0
 11
706.5
 21
171.4666666666666
 31
0.0
  0
LINE
  5
CA
330
94
100
AcDbEntity
  8
0
  6
Continuous
 62
     7
370
     9
100
AcDbLine
 10
706.5
 20
185.5333333333334
 30
0.0
 11
706.5
 21
182.8
 31
0.0
  0
LINE
  5
CB
330
94
100
AcDbEntity
  8
0
  6
Continuous
 62
     7
370
     9
100
AcDbLine
 10
706.5
 20
196.8666666666667
 30
0.0
 11
706.5
 21
194.1333333333333
 31
0.0
  0
LINE
  5
CC
330
94
100
AcDbEntity
  8
0
  6
Continuous
 62
     7
370
     9
100
AcDbLine
 10
706.5
 20
208.2
 30
0.0
 11
706.5
 21
205.4666666666666
 31
0.0
  0
LINE
  5
CD
330
94
100
AcDbEntity
  8
0
  6
Continuous
 62
     7
370
     9
100
AcDbLine
 10
706.5
 20
219.5333333333334
 30
0.0
 11
706.5
 21
216.8
 31
0.0
  0
LINE
  5
CE
330
94
100
AcDbEntity
  8
0
  6
Continuous
 62
     7
370
     9
100
AcDbLine
 10
706.5
 20
230.8666666666667
 30
0.0
 11
706.5
 21
228.1333333333333
 31
0.0
  0
LINE
  5
CF
330
94
100
AcDbEntity
  8
0
  6
Continuous
 62
     7
370
     9
100
AcDbLine
 10
706.5
 20
242.2
 30
0.0
 11
706.5
 21
239.4666666666667
 31
0.0
  0
LINE
  5
D0
330
94
100
AcDbEntity
  8
0
  6
Continuous
 62
     7
370
     9
100
AcDbLine
 10
706.5
 20
251.0
 30
0.0
 11
706.5
 21
250.8
 31
0.0
  0
LINE
  5
D1
330
94
100
AcDbEntity
  8
0
  6
Continuous
 62
     7
370
     9
100
AcDbLine
 10
706.6491465063245
 20
137.2462340304523
 30
0.0
 11
706.7760833574232
 21
136.6666666666667
 31
0.0
  0
LINE
  5
D2
330
94
100
AcDbEntity
  8
0
  6
Continuous
 62
     7
370
     9
100
AcDbLine
 10
706.6491465063245
 20
171.2462340304523
 30
0.0
 11
706.7760833574232
 21
170.6666666666667
 31
0.0
  0
LINE
  5
D3
330
94
100
AcDbEntity
  8
0
  6
Continuous
 62
     7
370
     9
100
AcDbLine
 10
706.6491465063245
 20
159.9129006971189
 30
0.0
 11
706.7760833574232
 21
159.3333333333333
 31
0.0
  0
LINE
  5
D4
330
94
100
AcDbEntity
  8
0
  6
Continuous
 62
     7
370
     9
100
AcDbLine
 10
706.6491465063245
 20
125.9129006971189
 30
0.0
 11
706.7760833574232
 21
125.3333333333333
 31
0.0
  0
LINE
  5
D5
330
94
100
AcDbEntity
  8
0
  6
Continuous
 62
     7
370
     9
100
AcDbLine
 10
706.6491465063245
 20
148.5795673637856
 30
0.0
 11
706.7760833574232
 21
148.0
 31
0.0
  0
LINE
  5
D6
330
94
100
AcDbEntity
  8
0
  6
Continuous
 62
     7
370
     9
100
AcDbLine
 10
713.3508534936753
 20
197.0870993028811
 30
0.0
 11
713.2239166425767
 21
197.6666666666667
 31
0.0
  0
LINE
  5
D7
330
94
100
AcDbEntity
  8
0
  6
Continuous
 62
     7
370
     9
100
AcDbLine
 10
713.3508534936753
 20
231.0870993028811
 30
0.0
 11
713.2239166425767
 21
231.6666666666667
 31
0.0
  0
LINE
  5
D8
330
94
100
AcDbEntity
  8
0
  6
Continuous
 62
     7
370
     9
100
AcDbLine
 10
713.3508534936753
 20
242.4204326362144
 30
0.0
 11
713.2239166425767
 21
243.0
 31
0.0
  0
LINE
  5
D9
330
94
100
AcDbEntity
  8
0
  6
Continuous
 62
     7
370
     9
100
AcDbLine
 10
713.3508534936753
 20
208.4204326362144
 30
0.0
 11
713.2239166425767
 21
209.0
 31
0.0
  0
LINE
  5
DA
330
94
100
AcDbEntity
  8
0
  6
Continuous
 62
     7
370
     9
100
AcDbLine
 10
713.3508534936753
 20
185.7537659695477
 30
0.0
 11
713.2239166425767
 21
186.3333333333333
 31
0.0
  0
LINE
  5
DB
330
94
100
AcDbEntity
  8
0
  6
Continuous
 62
     7
370
     9
100
AcDbLine
 10
713.3508534936753
 20
219.7537659695477
 30
0.0
 11
713.2239166425767
 21
220.3333333333333
 31
0.0
  0
LINE
  5
DC
330
94
100
AcDbEntity
  8
0
  6
Continuous
 62
     7
370
     9
100
AcDbLine
 10
713.3508534936753
 20
129.0870993028811
 30
0.0
 11
713.2239166425767
 21
129.6666666666667
 31
0.0
  0
LINE
  5
DD
330
94
100
AcDbEntity
  8
0
  6
Continuous
 62
     7
370
     9
100
AcDbLine
 10
713.3508534936753
 20
151.7537659695477
 30
0.0
 11
713.2239166425767
 21
152.3333333333333
 31
0.0
  0
LINE
  5
DE
330
94
100
AcDbEntity
  8
0
  6
Continuous
 62
     7
370
     9
100
AcDbLine
 10
713.3508534936753
 20
163.0870993028811
 30
0.0
 11
713.2239166425767
 21
163.6666666666667
 31
0.0
  0
LINE
  5
DF
330
94
100
AcDbEntity
  8
0
  6
Continuous
 62
     7
370
     9
100
AcDbLine
 10
713.3508534936753
 20
117.7537659695477
 30
0.0
 11
713.2239166425767
 21
118.3333333333333
 31
0.0
  0
LINE
  5
E0
330
94
100
AcDbEntity
  8
0
  6
Continuous
 62
     7
370
     9
100
AcDbLine
 10
713.3508534936753
 20
140.4204326362144
 30
0.0
 11
713.2239166425767
 21
141.0
 31
0.0
  0
LINE
  5
E1
330
94
100
AcDbEntity
  8
0
  6
Continuous
 62
     7
370
     9
100
AcDbLine
 10
713.3508534936753
 20
174.4204326362144
 30
0.0
 11
713.2239166425767
 21
175.0
 31
0.0
  0
LINE
  5
E2
330
94
100
AcDbEntity
  8
0
  6
Continuous
 62
     7
370
     9
100
AcDbLine
 10
706.6491465063245
 20
103.2462340304523
 30
0.0
 11
706.7760833574232
 21
102.6666666666667
 31
0.0
  0
LINE
  5
E3
330
94
100
AcDbEntity
  8
0
  6
Continuous
 62
     7
370
     9
100
AcDbLine
 10
706.6491465063245
 20
114.5795673637856
 30
0.0
 11
706.7760833574232
 21
114.0
 31
0.0
  0
LINE
  5
E4
330
94
100
AcDbEntity
  8
0
  6
Continuous
 62
     7
370
     9
100
AcDbLine
 10
706.6491465063245
 20
91.91290069711894
 30
0.0
 11
706.7760833574232
 21
91.33333333333331
 31
0.0
  0
LINE
  5
E5
330
94
100
AcDbEntity
  8
0
  6
Continuous
 62
     7
370
     9
100
AcDbLine
 10
713.3508534936753
 20
95.08709930288106
 30
0.0
 11
713.2239166425767
 21
95.66666666666666
 31
0.0
  0
LINE
  5
E6
330
94
100
AcDbEntity
  8
0
  6
Continuous
 62
     7
370
     9
100
AcDbLine
 10
713.3508534936753
 20
83.75376596954773
 30
0.0
 11
713.2239166425767
 21
84.33333333333333
 31
0.0
  0
LINE
  5
E7
330
94
100
AcDbEntity
  8
0
  6
Continuous
 62
     7
370
     9
100
AcDbLine
 10
713.3508534936753
 20
106.4204326362144
 30
0.0
 11
713.2239166425767
 21
107.0
 31
0.0
  0
LINE
  5
E8
330
94
100
AcDbEntity
  8
0
  6
Continuous
 62
     7
370
     9
100
AcDbLine
 10
706.6491465063245
 20
80.5795673637856
 30
0.0
 11
706.7760833574232
 21
79.99999999999999
 31
0.0
  0
LINE
  5
E9
330
94
100
AcDbEntity
  8
0
  6
Continuous
 62
     7
370
     9
100
AcDbLine
 10
713.3508534936753
 20
72.42043263621439
 30
0.0
 11
713.2239166425767
 21
73.0
 31
0.0
  0
LINE
  5
EA
330
94
100
AcDbEntity
  8
0
  6
Continuous
 62
     7
370
     9
100
AcDbLine
 10
706.6491465063245
 20
182.5795673637856
 30
0.0
 11
706.7760833574232
 21
182.0
 31
0.0
  0
LINE
  5
EB
330
94
100
AcDbEntity
  8
0
  6
Continuous
 62
     7
370
     9
100
AcDbLine
 10
706.6491465063245
 20
216.5795673637856
 30
0.0
 11
706.7760833574232
 21
216.0
 31
0.0
  0
LINE
  5
EC
330
94
100
AcDbEntity
  8
0
  6
Continuous
 62
     7
370
     9
100
AcDbLine
 10
706.6491465063245
 20
250.5795673637856
 30
0.0
 11
706.7760833574232
 21
250.0
 31
0.0
  0
LINE
  5
ED
330
94
100
AcDbEntity
  8
0
  6
Continuous
 62
     7
370
     9
100
AcDbLine
 10
706.6491465063245
 20
205.2462340304523
 30
0.0
 11
706.7760833574232
 21
204.6666666666667
 31
0.0
  0
LINE
  5
EE
330
94
100
AcDbEntity
  8
0
  6
Continuous
 62
     7
370
     9
100
AcDbLine
 10
706.6491465063245
 20
227.9129006971189
 30
0.0
 11
706.7760833574232
 21
227.3333333333333
 31
0.0
  0
LINE
  5
EF
330
94
100
AcDbEntity
  8
0
  6
Continuous
 62
     7
370
     9
100
AcDbLine
 10
706.6491465063245
 20
239.2462340304523
 30
0.0
 11
706.7760833574232
 21
238.6666666666667
 31
0.0
  0
LINE
  5
F0
330
94
100
AcDbEntity
  8
0
  6
Continuous
 62
     7
370
     9
100
AcDbLine
 10
706.6491465063245
 20
193.9129006971189
 30
0.0
 11
706.7760833574232
 21
193.3333333333333
 31
0.0
  0
LINE
  5
F1
330
94
100
AcDbEntity
  8
0
  6
Continuous
 62
     7
370
     9
100
AcDbLine
 10
713.2239166425767
 20
91.33333333333331
 30
0.0
 11
713.3511533135728
 21
91.91337750090834
 31
0.0
  0
LINE
  5
F2
330
94
100
AcDbEntity
  8
0
  6
Continuous
 62
     7
370
     9
100
AcDbLine
 10
713.2239166425767
 20
102.6666666666667
 30
0.0
 11
713.3511533135728
 21
103.2467108342417
 31
0.0
  0
LINE
  5
F3
330
94
100
AcDbEntity
  8
0
  6
Continuous
 62
     7
370
     9
100
AcDbLine
 10
713.2239166425767
 20
114.0
 30
0.0
 11
713.3511533135728
 21
114.580044167575
 31
0.0
  0
LINE
  5
F4
330
94
100
AcDbEntity
  8
0
  6
Continuous
 62
     7
370
     9
100
AcDbLine
 10
706.7760833574232
 20
73.0
 30
0.0
 11
706.6488466864271
 21
72.41995583242498
 31
0.0
  0
LINE
  5
F5
330
94
100
AcDbEntity
  8
0
  6
Continuous
 62
     7
370
     9
100
AcDbLine
 10
713.2239166425767
 20
79.99999999999999
 30
0.0
 11
713.3511533135728
 21
80.58004416757501
 31
0.0
  0
LINE
  5
F6
330
94
100
AcDbEntity
  8
0
  6
Continuous
 62
     7
370
     9
100
AcDbLine
 10
706.7760833574232
 20
84.33333333333333
 30
0.0
 11
706.6488466864271
 21
83.7532891657583
 31
0.0
  0
LINE
  5
F7
330
94
100
AcDbEntity
  8
0
  6
Continuous
 62
     7
370
     9
100
AcDbLine
 10
706.7760833574232
 20
95.66666666666666
 30
0.0
 11
706.6488466864271
 21
95.08662249909163
 31
0.0
  0
LINE
  5
F8
330
94
100
AcDbEntity
  8
0
  6
Continuous
 62
     7
370
     9
100
AcDbLine
 10
706.7760833574232
 20
107.0
 30
0.0
 11
706.6488466864271
 21
106.419955832425
 31
0.0
  0
LINE
  5
F9
330
94
100
AcDbEntity
  8
0
  6
Continuous
 62
     7
370
     9
100
AcDbLine
 10
713.2239166425767
 20
125.3333333333333
 30
0.0
 11
713.3511533135728
 21
125.9133775009084
 31
0.0
  0
LINE
  5
FA
330
94
100
AcDbEntity
  8
0
  6
Continuous
 62
     7
370
     9
100
AcDbLine
 10
713.2239166425767
 20
136.6666666666667
 30
0.0
 11
713.3511533135728
 21
137.2467108342417
 31
0.0
  0
LINE
  5
FB
330
94
100
AcDbEntity
  8
0
  6
Continuous
 62
     7
370
     9
100
AcDbLine
 10
706.7760833574232
 20
118.3333333333333
 30
0.0
 11
706.6488466864271
 21
117.7532891657583
 31
0.0
  0
LINE
  5
FC
330
94
100
AcDbEntity
  8
0
  6
Continuous
 62
     7
370
     9
100
AcDbLine
 10
713.2239166425767
 20
148.0
 30
0.0
 11
713.3511533135728
 21
148.580044167575
 31
0.0
  0
LINE
  5
FD
330
94
100
AcDbEntity
  8
0
  6
Continuous
 62
     7
370
     9
100
AcDbLine
 10
706.7760833574232
 20
129.6666666666667
 30
0.0
 11
706.6488466864271
 21
129.0866224990916
 31
0.0
  0
LINE
  5
FE
330
94
100
AcDbEntity
  8
0
  6
Continuous
 62
     7
370
     9
100
AcDbLine
 10
713.2239166425767
 20
159.3333333333333
 30
0.0
 11
713.3511533135728
 21
159.9133775009083
 31
0.0
  0
LINE
  5
FF
330
94
100
AcDbEntity
  8
0
  6
Continuous
 62
     7
370
     9
100
AcDbLine
 10
706.7760833574232
 20
141.0
 30
0.0
 11
706.6488466864271
 21
140.419955832425
 31
0.0
  0
LINE
  5
100
330
94
100
AcDbEntity
  8
0
  6
Continuous
 62
     7
370
     9
100
AcDbLine
 10
713.2239166425767
 20
170.6666666666667
 30
0.0
 11
713.3511533135728
 21
171.2467108342417
 31
0.0
  0
LINE
  5
101
330
94
100
AcDbEntity
  8
0
  6
Continuous
 62
     7
370
     9
100
AcDbLine
 10
706.7760833574232
 20
152.3333333333333
 30
0.0
 11
706.6488466864271
 21
151.7532891657583
 31
0.0
  0
LINE
  5
102
330
94
100
AcDbEntity
  8
0
  6
Continuous
 62
     7
370
     9
100
AcDbLine
 10
706.7760833574232
 20
163.6666666666667
 30
0.0
 11
706.6488466864271
 21
163.0866224990916
 31
0.0
  0
LINE
  5
103
330
94
100
AcDbEntity
  8
0
  6
Continuous
 62
     7
370
     9
100
AcDbLine
 10
706.7760833574232
 20
175.0
 30
0.0
 11
706.6488466864271
 21
174.419955832425
 31
0.0
  0
LINE
  5
104
330
94
100
AcDbEntity
  8
0
  6
Continuous
 62
     7
370
     9
100
AcDbLine
 10
706.7760833574232
 20
186.3333333333333
 30
0.0
 11
706.6488466864271
 21
185.7532891657583
 31
0.0
  0
LINE
  5
105
330
94
100
AcDbEntity
  8
0
  6
Continuous
 62
     7
370
     9
100
AcDbLine
 10
713.2239166425767
 20
182.0
 30
0.0
 11
713.3511533135728
 21
182.580044167575
 31
0.0
  0
LINE
  5
106
330
94
100
AcDbEntity
  8
0
  6
Continuous
 62
     7
370
     9
100
AcDbLine
 10
706.7760833574232
 20
197.6666666666667
 30
0.0
 11
706.6488466864271
 21
197.0866224990916
 31
0.0
  0
LINE
  5
107
330
94
100
AcDbEntity
  8
0
  6
Continuous
 62
     7
370
     9
100
AcDbLine
 10
706.7760833574232
 20
209.0
 30
0.0
 11
706.6488466864271
 21
208.419955832425
 31
0.0
  0
LINE
  5
108
330
94
100
AcDbEntity
  8
0
  6
Continuous
 62
     7
370
     9
100
AcDbLine
 10
713.2239166425767
 20
193.3333333333333
 30
0.0
 11
713.3511533135728
 21
193.9133775009084
 31
0.0
  0
LINE
  5
109
330
94
100
AcDbEntity
  8
0
  6
Continuous
 62
     7
370
     9
100
AcDbLine
 10
706.7760833574232
 20
220.3333333333333
 30
0.0
 11
706.6488466864271
 21
219.7532891657583
 31
0.0
  0
LINE
  5
10A
330
94
100
AcDbEntity
  8
0
  6
Continuous
 62
     7
370
     9
100
AcDbLine
 10
713.2239166425767
 20
204.6666666666667
 30
0.0
 11
713.3511533135728
 21
205.2467108342417
 31
0.0
  0
LINE
  5
10B
330
94
100
AcDbEntity
  8
0
  6
Continuous
 62
     7
370
     9
100
AcDbLine
 10
713.2239166425767
 20
216.0
 30
0.0
 11
713.3511533135728
 21
216.580044167575
 31
0.0
  0
LINE
  5
10C
330
94
100
AcDbEntity
  8
0
  6
Continuous
 62
     7
370
     9
100
AcDbLine
 10
706.7760833574232
 20
231.6666666666667
 30
0.0
 11
706.6488466864271
 21
231.0866224990916
 31
0.0
  0
LINE
  5
10D
330
94
100
AcDbEntity
  8
0
  6
Continuous
 62
     7
370
     9
100
AcDbLine
 10
706.7760833574232
 20
243.0
 30
0.0
 11
706.6488466864271
 21
242.419955832425
 31
0.0
  0
LINE
  5
10E
330
94
100
AcDbEntity
  8
0
  6
Continuous
 62
     7
370
     9
100
AcDbLine
 10
713.2239166425767
 20
227.3333333333333
 30
0.0
 11
713.3511533135728
 21
227.9133775009084
 31
0.0
  0
LINE
  5
10F
330
94
100
AcDbEntity
  8
0
  6
Continuous
 62
     7
370
     9
100
AcDbLine
 10
713.2239166425767
 20
238.6666666666667
 30
0.0
 11
713.3511533135728
 21
239.2467108342417
 31
0.0
  0
LINE
  5
110
330
94
100
AcDbEntity
  8
0
  6
Continuous
 62
     7
370
     9
100
AcDbLine
 10
713.2239166425767
 20
250.0
 30
0.0
 11
713.3511533135728
 21
250.5800441675751
 31
0.0
  0
LINE
  5
111
330
94
100
AcDbEntity
  8
0
  6
Continuous
 62
     7
370
     9
100
AcDbLine
 10
706.7759616965573
 20
79.99999999999999
 30
0.0
 11
706.7759616965573
 21
73.00000000000001
 31
0.0
  0
LINE
  5
112
330
94
100
AcDbEntity
  8
0
  6
Continuous
 62
     7
370
     9
100
AcDbLine
 10
713.2240383034426
 20
73.00000000000001
 30
0.0
 11
713.2240383034426
 21
79.99999999999999
 31
0.0
  0
LINE
  5
113
330
94
100
AcDbEntity
  8
0
  6
Continuous
 62
     7
370
     9
100
AcDbLine
 10
706.7759616965573
 20
91.33333333333331
 30
0.0
 11
706.7759616965573
 21
84.33333333333331
 31
0.0
  0
LINE
  5
114
330
94
100
AcDbEntity
  8
0
  6
Continuous
 62
     7
370
     9
100
AcDbLine
 10
713.2240383034426
 20
84.33333333333331
 30
0.0
 11
713.2240383034426
 21
91.33333333333331
 31
0.0
  0
LINE
  5
115
330
94
100
AcDbEntity
  8
0
  6
Continuous
 62
     7
370
     9
100
AcDbLine
 10
706.7759616965573
 20
102.6666666666667
 30
0.0
 11
706.7759616965573
 21
95.66666666666667
 31
0.0
  0
LINE
  5
116
330
94
100
AcDbEntity
  8
0
  6
Continuous
 62
     7
370
     9
100
AcDbLine
 10
713.2240383034426
 20
95.66666666666667
 30
0.0
 11
713.2240383034426
 21
102.6666666666667
 31
0.0
  0
LINE
  5
117
330
94
100
AcDbEntity
  8
0
  6
Continuous
 62
     7
370
     9
100
AcDbLine
 10
706.7759616965573
 20
114.0
 30
0.0
 11
706.7759616965573
 21
107.0
 31
0.0
  0
LINE
  5
118
330
94
100
AcDbEntity
  8
0
  6
Continuous
 62
     7
370
     9
100
AcDbLine
 10
706.7759616965573
 20
125.3333333333333
 30
0.0
 11
706.7759616965573
 21
118.3333333333333
 31
0.0
  0
LINE
  5
119
330
94
100
AcDbEntity
  8
0
  6
Continuous
 62
     7
370
     9
100
AcDbLine
 10
713.2240383034426
 20
107.0
 30
0.0
 11
713.2240383034426
 21
114.0
 31
0.0
  0
LINE
  5
11A
330
94
100
AcDbEntity
  8
0
  6
Continuous
 62
     7
370
     9
100
AcDbLine
 10
713.2240383034426
 20
118.3333333333333
 30
0.0
 11
713.2240383034426
 21
125.3333333333333
 31
0.0
  0
LINE
  5
11B
330
94
100
AcDbEntity
  8
0
  6
Continuous
 62
     7
370
     9
100
AcDbLine
 10
706.7759616965573
 20
136.6666666666667
 30
0.0
 11
706.7759616965573
 21
129.6666666666667
 31
0.0
  0
LINE
  5
11C
330
94
100
AcDbEntity
  8
0
  6
Continuous
 62
     7
370
     9
100
AcDbLine
 10
713.2240383034426
 20
129.6666666666667
 30
0.0
 11
713.2240383034426
 21
136.6666666666667
 31
0.0
  0
LINE
  5
11D
330
94
100
AcDbEntity
  8
0
  6
Continuous
 62
     7
370
     9
100
AcDbLine
 10
706.7759616965573
 20
148.0
 30
0.0
 11
706.7759616965573
 21
141.0
 31
0.0
  0
LINE
  5
11E
330
94
100
AcDbEntity
  8
0
  6
Continuous
 62
     7
370
     9
100
AcDbLine
 10
713.2240383034426
 20
141.0
 30
0.0
 11
713.2240383034426
 21
148.0
 31
0.0
  0
LINE
  5
11F
330
94
100
AcDbEntity
  8
0
  6
Continuous
 62
     7
370
     9
100
AcDbLine
 10
706.7759616965573
 20
159.3333333333333
 30
0.0
 11
706.7759616965573
 21
152.3333333333333
 31
0.0
  0
LINE
  5
120
330
94
100
AcDbEntity
  8
0
  6
Continuous
 62
     7
370
     9
100
AcDbLine
 10
713.2240383034426
 20
152.3333333333333
 30
0.0
 11
713.2240383034426
 21
159.3333333333333
 31
0.0
  0
LINE
  5
121
330
94
100
AcDbEntity
  8
0
  6
Continuous
 62
     7
370
     9
100
AcDbLine
 10
706.7759616965573
 20
170.6666666666667
 30
0.0
 11
706.7759616965573
 21
163.6666666666667
 31
0.0
  0
LINE
  5
122
330
94
100
AcDbEntity
  8
0
  6
Continuous
 62
     7
370
     9
100
AcDbLine
 10
713.2240383034426
 20
163.6666666666667
 30
0.0
 11
713.2240383034426
 21
170.6666666666667
 31
0.0
  0
LINE
  5
123
330
94
100
AcDbEntity
  8
0
  6
Continuous
 62
     7
370
     9
100
AcDbLine
 10
706.7759616965573
 20
182.0
 30
0.0
 11
706.7759616965573
 21
175.0
 31
0.0
  0
LINE
  5
124
330
94
100
AcDbEntity
  8
0
  6
Continuous
 62
     7
370
     9
100
AcDbLine
 10
713.2240383034426
 20
175.0
 30
0.0
 11
713.2240383034426
 21
182.0
 31
0.0
  0
LINE
  5
125
330
94
100
AcDbEntity
  8
0
  6
Continuous
 62
     7
370
     9
100
AcDbLine
 10
706.7759616965573
 20
193.3333333333333
 30
0.0
 11
706.7759616965573
 21
186.3333333333333
 31
0.0
  0
LINE
  5
126
330
94
100
AcDbEntity
  8
0
  6
Continuous
 62
     7
370
     9
100
AcDbLine
 10
713.2240383034426
 20
186.3333333333333
 30
0.0
 11
713.2240383034426
 21
193.3333333333333
 31
0.0
  0
LINE
  5
127
330
94
100
AcDbEntity
  8
0
  6
Continuous
 62
     7
370
     9
100
AcDbLine
 10
706.7759616965573
 20
204.6666666666667
 30
0.0
 11
706.7759616965573
 21
197.6666666666667
 31
0.0
  0
LINE
  5
128
330
94
100
AcDbEntity
  8
0
  6
Continuous
 62
     7
370
     9
100
AcDbLine
 10
713.2240383034426
 20
197.6666666666667
 30
0.0
 11
713.2240383034426
 21
204.6666666666667
 31
0.0
  0
LINE
  5
129
330
94
100
AcDbEntity
  8
0
  6
Continuous
 62
     7
370
     9
100
AcDbLine
 10
706.7759616965573
 20
216.0
 30
0.0
 11
706.7759616965573
 21
209.0
 31
0.0
  0
LINE
  5
12A
330
94
100
AcDbEntity
  8
0
  6
Continuous
 62
     7
370
     9
100
AcDbLine
 10
713.2240383034426
 20
209.0
 30
0.0
 11
713.2240383034426
 21
216.0
 31
0.0
  0
LINE
  5
12B
330
94
100
AcDbEntity
  8
0
  6
Continuous
 62
     7
370
     9
100
AcDbLine
 10
706.7759616965573
 20
227.3333333333333
 30
0.0
 11
706.7759616965573
 21
220.3333333333333
 31
0.0
  0
LINE
  5
12C
330
94
100
AcDbEntity
  8
0
  6
Continuous
 62
     7
370
     9
100
AcDbLine
 10
713.2240383034426
 20
220.3333333333333
 30
0.0
 11
713.2240383034426
 21
227.3333333333333
 31
0.0
  0
LINE
  5
12D
330
94
100
AcDbEntity
  8
0
  6
Continuous
 62
     7
370
     9
100
AcDbLine
 10
706.7759616965573
 20
238.6666666666667
 30
0.0
 11
706.7759616965573
 21
231.6666666666667
 31
0.0
  0
LINE
  5
12E
330
94
100
AcDbEntity
  8
0
  6
Continuous
 62
     7
370
     9
100
AcDbLine
 10
713.2240383034426
 20
231.6666666666667
 30
0.0
 11
713.2240383034426
 21
238.6666666666667
 31
0.0
  0
LINE
  5
12F
330
94
100
AcDbEntity
  8
0
  6
Continuous
 62
     7
370
     9
100
AcDbLine
 10
706.7759616965573
 20
250.0
 30
0.0
 11
706.7759616965573
 21
243.0
 31
0.0
  0
LINE
  5
130
330
94
100
AcDbEntity
  8
0
  6
Continuous
 62
     7
370
     9
100
AcDbLine
 10
713.2240383034426
 20
243.0
 30
0.0
 11
713.2240383034426
 21
250.0
 31
0.0
  0
ARC
  5
131
330
94
100
AcDbEntity
  8
0
  6
Continuous
 62
     7
370
     9
100
AcDbCircle
 10
713.1999999999999
 20
162.8666666666666
 30
0.0
 40
0.299999999999967
100
AcDbArc
 50
0.0
 51
65.5264877366291
  0
ARC
  5
132
330
94
100
AcDbEntity
  8
0
  6
Continuous
 62
     7
370
     9
100
AcDbCircle
 10
713.1999999999999
 20
185.5333333333334
 30
0.0
 40
0.299999999999967
100
AcDbArc
 50
0.0
 51
65.53293471881271
  0
ARC
  5
133
330
94
100
AcDbEntity
  8
0
  6
Continuous
 62
     7
370
     9
100
AcDbCircle
 10
713.1999999999999
 20
174.2
 30
0.0
 40
0.299999999999967
100
AcDbArc
 50
0.0
 51
65.53293471881042
  0
ARC
  5
134
330
94
100
AcDbEntity
  8
0
  6
Continuous
 62
     7
370
     9
100
AcDbCircle
 10
713.1999999999999
 20
219.5333333333333
 30
0.0
 40
0.299999999999967
100
AcDbArc
 50
0.0
 51
65.53293471881204
  0
ARC
  5
135
330
94
100
AcDbEntity
  8
0
  6
Continuous
 62
     7
370
     9
100
AcDbCircle
 10
713.1999999999999
 20
140.2
 30
0.0
 40
0.299999999999967
100
AcDbArc
 50
0.0
 51
65.53293471881042
  0
ARC
  5
136
330
94
100
AcDbEntity
  8
0
  6
Continuous
 62
     7
370
     9
100
AcDbCircle
 10
713.1999999999999
 20
128.8666666666667
 30
0.0
 40
0.299999999999967
100
AcDbArc
 50
0.0
 51
65.53293471881042
  0
ARC
  5
137
330
94
100
AcDbEntity
  8
0
  6
Continuous
 62
     7
370
     9
100
AcDbCircle
 10
713.1999999999999
 20
106.2
 30
0.0
 40
0.299999999999967
100
AcDbArc
 50
0.0
 51
65.53293471880852
  0
ARC
  5
138
330
94
100
AcDbEntity
  8
0
  6
Continuous
 62
     7
370
     9
100
AcDbCircle
 10
713.1999999999999
 20
83.53333333333332
 30
0.0
 40
0.299999999999967
100
AcDbArc
 50
0.0
 51
65.53293471880843
  0
ARC
  5
139
330
94
100
AcDbEntity
  8
0
  6
Continuous
 62
     7
370
     9
100
AcDbCircle
 10
713.1999999999999
 20
196.8666666666666
 30
0.0
 40
0.299999999999967
100
AcDbArc
 50
0.0
 51
65.53293471881204
  0
ARC
  5
13A
330
94
100
AcDbEntity
  8
0
  6
Continuous
 62
     7
370
     9
100
AcDbCircle
 10
713.1999999999999
 20
230.8666666666667
 30
0.0
 40
0.299999999999967
100
AcDbArc
 50
0.0
 51
65.53293471881271
  0
ARC
  5
13B
330
94
100
AcDbEntity
  8
0
  6
Continuous
 62
     7
370
     9
100
AcDbCircle
 10
713.1999999999999
 20
117.5333333333333
 30
0.0
 40
0.299999999999967
100
AcDbArc
 50
0.0
 51
65.52648773662774
  0
ARC
  5
13C
330
94
100
AcDbEntity
  8
0
  6
Continuous
 62
     7
370
     9
100
AcDbCircle
 10
713.1999999999999
 20
208.2
 30
0.0
 40
0.299999999999967
100
AcDbArc
 50
0.0
 51
65.52648773663098
  0
ARC
  5
13D
330
94
100
AcDbEntity
  8
0
  6
Continuous
 62
     7
370
     9
100
AcDbCircle
 10
713.1999999999999
 20
151.5333333333334
 30
0.0
 40
0.299999999999967
100
AcDbArc
 50
0.0
 51
65.53293471881042
  0
ARC
  5
13E
330
94
100
AcDbEntity
  8
0
  6
Continuous
 62
     7
370
     9
100
AcDbCircle
 10
713.1999999999999
 20
72.19999999999999
 30
0.0
 40
0.299999999999967
100
AcDbArc
 50
0.0
 51
65.53293471880875
  0
ARC
  5
13F
330
94
100
AcDbEntity
  8
0
  6
Continuous
 62
     7
370
     9
100
AcDbCircle
 10
713.1999999999999
 20
94.86666666666665
 30
0.0
 40
0.299999999999967
100
AcDbArc
 50
0.0
 51
65.53293471880852
  0
ARC
  5
140
330
94
100
AcDbEntity
  8
0
  6
Continuous
 62
     7
370
     9
100
AcDbCircle
 10
713.1999999999999
 20
242.2
 30
0.0
 40
0.299999999999967
100
AcDbArc
 50
0.0
 51
65.53293471881204
  0
ARC
  5
141
330
94
100
AcDbEntity
  8
0
  6
Continuous
 62
     7
370
     9
100
AcDbCircle
 10
706.8
 20
92.13333333333334
 30
0.0
 40
0.299999999999967
100
AcDbArc
 50
180.0
 51
245.5329347188076
  0
ARC
  5
142
330
94
100
AcDbEntity
  8
0
  6
Continuous
 62
     7
370
     9
100
AcDbCircle
 10
706.8
 20
80.79999999999998
 30
0.0
 40
0.299999999999967
100
AcDbArc
 50
180.0
 51
245.5329347188108
  0
ARC
  5
143
330
94
100
AcDbEntity
  8
0
  6
Continuous
 62
     7
370
     9
100
AcDbCircle
 10
706.8
 20
148.8
 30
0.0
 40
0.299999999999967
100
AcDbArc
 50
180.0
 51
245.5329347188097
  0
ARC
  5
144
330
94
100
AcDbEntity
  8
0
  6
Continuous
 62
     7
370
     9
100
AcDbCircle
 10
706.8
 20
114.8
 30
0.0
 40
0.299999999999967
100
AcDbArc
 50
180.0
 51
245.5329347188076
  0
ARC
  5
145
330
94
100
AcDbEntity
  8
0
  6
Continuous
 62
     7
370
     9
100
AcDbCircle
 10
706.8
 20
126.1333333333333
 30
0.0
 40
0.299999999999967
100
AcDbArc
 50
180.0
 51
245.5329347188097
  0
ARC
  5
146
330
94
100
AcDbEntity
  8
0
  6
Continuous
 62
     7
370
     9
100
AcDbCircle
 10
706.8
 20
194.1333333333333
 30
0.0
 40
0.299999999999967
100
AcDbArc
 50
180.0
 51
245.5329347188128
  0
ARC
  5
147
330
94
100
AcDbEntity
  8
0
  6
Continuous
 62
     7
370
     9
100
AcDbCircle
 10
706.8
 20
171.4666666666666
 30
0.0
 40
0.299999999999967
100
AcDbArc
 50
180.0
 51
245.5329347188097
  0
ARC
  5
148
330
94
100
AcDbEntity
  8
0
  6
Continuous
 62
     7
370
     9
100
AcDbCircle
 10
706.8
 20
160.1333333333333
 30
0.0
 40
0.299999999999967
100
AcDbArc
 50
180.0
 51
245.5329347188097
  0
ARC
  5
149
330
94
100
AcDbEntity
  8
0
  6
Continuous
 62
     7
370
     9
100
AcDbCircle
 10
706.8
 20
103.4666666666667
 30
0.0
 40
0.299999999999967
100
AcDbArc
 50
180.0
 51
245.5329347188108
  0
ARC
  5
14A
330
94
100
AcDbEntity
  8
0
  6
Continuous
 62
     7
370
     9
100
AcDbCircle
 10
706.8
 20
137.4666666666666
 30
0.0
 40
0.299999999999967
100
AcDbArc
 50
180.0
 51
245.5329347188097
  0
ARC
  5
14B
330
94
100
AcDbEntity
  8
0
  6
Continuous
 62
     7
370
     9
100
AcDbCircle
 10
706.8
 20
182.8
 30
0.0
 40
0.299999999999967
100
AcDbArc
 50
180.0
 51
245.5329347188128
  0
ARC
  5
14C
330
94
100
AcDbEntity
  8
0
  6
Continuous
 62
     7
370
     9
100
AcDbCircle
 10
713.1999999999999
 20
171.4666666666666
 30
0.0
 40
0.3000000000000021
100
AcDbArc
 50
294.4696900682486
 51
0.0
  0
ARC
  5
14D
330
94
100
AcDbEntity
  8
0
  6
Continuous
 62
     7
370
     9
100
AcDbCircle
 10
713.1999999999999
 20
148.8
 30
0.0
 40
0.3000000000000021
100
AcDbArc
 50
294.4696900682486
 51
0.0
  0
ARC
  5
14E
330
94
100
AcDbEntity
  8
0
  6
Continuous
 62
     7
370
     9
100
AcDbCircle
 10
713.1999999999999
 20
194.1333333333333
 30
0.0
 40
0.2999999999999768
100
AcDbArc
 50
294.4696900682491
 51
0.0
  0
ARC
  5
14F
330
94
100
AcDbEntity
  8
0
  6
Continuous
 62
     7
370
     9
100
AcDbCircle
 10
713.1999999999999
 20
182.8
 30
0.0
 40
0.2999999999999768
100
AcDbArc
 50
294.4696900682491
 51
0.0
  0
ARC
  5
150
330
94
100
AcDbEntity
  8
0
  6
Continuous
 62
     7
370
     9
100
AcDbCircle
 10
713.1999999999999
 20
160.1333333333333
 30
0.0
 40
0.2999999999999768
100
AcDbArc
 50
294.4696900682486
 51
0.0
  0
ARC
  5
151
330
94
100
AcDbEntity
  8
0
  6
Continuous
 62
     7
370
     9
100
AcDbCircle
 10
713.1999999999999
 20
205.4666666666666
 30
0.0
 40
0.2999999999999768
100
AcDbArc
 50
294.4696900682491
 51
0.0
  0
ARC
  5
152
330
94
100
AcDbEntity
  8
0
  6
Continuous
 62
     7
370
     9
100
AcDbCircle
 10
713.1999999999999
 20
92.13333333333334
 30
0.0
 40
0.3000000000000228
100
AcDbArc
 50
294.469690068252
 51
0.0
  0
ARC
  5
153
330
94
100
AcDbEntity
  8
0
  6
Continuous
 62
     7
370
     9
100
AcDbCircle
 10
713.1999999999999
 20
126.1333333333333
 30
0.0
 40
0.3000000000000021
100
AcDbArc
 50
294.4696900682486
 51
0.0
  0
ARC
  5
154
330
94
100
AcDbEntity
  8
0
  6
Continuous
 62
     7
370
     9
100
AcDbCircle
 10
713.1999999999999
 20
114.8
 30
0.0
 40
0.3000000000000228
100
AcDbArc
 50
294.469690068252
 51
0.0
  0
ARC
  5
155
330
94
100
AcDbEntity
  8
0
  6
Continuous
 62
     7
370
     9
100
AcDbCircle
 10
713.1999999999999
 20
216.8
 30
0.0
 40
0.2999999999999768
100
AcDbArc
 50
294.4696900682491
 51
0.0
  0
ARC
  5
156
330
94
100
AcDbEntity
  8
0
  6
Continuous
 62
     7
370
     9
100
AcDbCircle
 10
713.1999999999999
 20
239.4666666666667
 30
0.0
 40
0.2999999999999768
100
AcDbArc
 50
294.4696900682491
 51
0.0
  0
ARC
  5
157
330
94
100
AcDbEntity
  8
0
  6
Continuous
 62
     7
370
     9
100
AcDbCircle
 10
713.1999999999999
 20
80.79999999999998
 30
0.0
 40
0.2999999999999894
100
AcDbArc
 50
294.4696900682482
 51
0.0
  0
ARC
  5
158
330
94
100
AcDbEntity
  8
0
  6
Continuous
 62
     7
370
     9
100
AcDbCircle
 10
713.1999999999999
 20
137.4666666666666
 30
0.0
 40
0.2999999999999768
100
AcDbArc
 50
294.4696900682486
 51
0.0
  0
ARC
  5
159
330
94
100
AcDbEntity
  8
0
  6
Continuous
 62
     7
370
     9
100
AcDbCircle
 10
713.1999999999999
 20
103.4666666666667
 30
0.0
 40
0.2999999999999894
100
AcDbArc
 50
294.4696900682487
 51
0.0
  0
ARC
  5
15A
330
94
100
AcDbEntity
  8
0
  6
Continuous
 62
     7
370
     9
100
AcDbCircle
 10
713.1999999999999
 20
250.8
 30
0.0
 40
0.3000000000000021
100
AcDbArc
 50
294.4696900682491
 51
0.0
  0
ARC
  5
15B
330
94
100
AcDbEntity
  8
0
  6
Continuous
 62
     7
370
     9
100
AcDbCircle
 10
713.1999999999999
 20
228.1333333333333
 30
0.0
 40
0.2999999999999768
100
AcDbArc
 50
294.4696900682491
 51
0.0
  0
ARC
  5
15C
330
94
100
AcDbEntity
  8
0
  6
Continuous
 62
     7
370
     9
100
AcDbCircle
 10
706.8
 20
94.86666666666665
 30
0.0
 40
0.3000000000000228
100
AcDbArc
 50
114.46969006825
 51
180.0
  0
ARC
  5
15D
330
94
100
AcDbEntity
  8
0
  6
Continuous
 62
     7
370
     9
100
AcDbCircle
 10
706.8
 20
196.8666666666666
 30
0.0
 40
0.3000000000000021
100
AcDbArc
 50
114.4696900682465
 51
180.0
  0
ARC
  5
15E
330
94
100
AcDbEntity
  8
0
  6
Continuous
 62
     7
370
     9
100
AcDbCircle
 10
706.8
 20
208.2
 30
0.0
 40
0.3000000000000207
100
AcDbArc
 50
114.4699600361136
 51
180.0
  0
ARC
  5
15F
330
94
100
AcDbEntity
  8
0
  6
Continuous
 62
     7
370
     9
100
AcDbCircle
 10
706.8
 20
83.53333333333332
 30
0.0
 40
0.3000000000000228
100
AcDbArc
 50
114.46969006825
 51
180.0
  0
ARC
  5
160
330
94
100
AcDbEntity
  8
0
  6
Continuous
 62
     7
370
     9
100
AcDbCircle
 10
706.8
 20
242.2
 30
0.0
 40
0.3000000000000021
100
AcDbArc
 50
114.4696900682465
 51
180.0
  0
ARC
  5
161
330
94
100
AcDbEntity
  8
0
  6
Continuous
 62
     7
370
     9
100
AcDbCircle
 10
706.8
 20
230.8666666666667
 30
0.0
 40
0.2999999999999768
100
AcDbArc
 50
114.4696900682491
 51
180.0
  0
ARC
  5
162
330
94
100
AcDbEntity
  8
0
  6
Continuous
 62
     7
370
     9
100
AcDbCircle
 10
706.8
 20
117.5333333333333
 30
0.0
 40
0.3000000000000207
100
AcDbArc
 50
114.4699600361153
 51
180.0
  0
ARC
  5
163
330
94
100
AcDbEntity
  8
0
  6
Continuous
 62
     7
370
     9
100
AcDbCircle
 10
706.8
 20
128.8666666666667
 30
0.0
 40
0.2999999999999768
100
AcDbArc
 50
114.4696900682485
 51
180.0
  0
ARC
  5
164
330
94
100
AcDbEntity
  8
0
  6
Continuous
 62
     7
370
     9
100
AcDbCircle
 10
706.8
 20
151.5333333333334
 30
0.0
 40
0.2999999999999768
100
AcDbArc
 50
114.4696900682485
 51
180.0
  0
ARC
  5
165
330
94
100
AcDbEntity
  8
0
  6
Continuous
 62
     7
370
     9
100
AcDbCircle
 10
706.8
 20
219.5333333333333
 30
0.0
 40
0.3000000000000021
100
AcDbArc
 50
114.4696900682465
 51
180.0
  0
ARC
  5
166
330
94
100
AcDbEntity
  8
0
  6
Continuous
 62
     7
370
     9
100
AcDbCircle
 10
706.8
 20
72.19999999999999
 30
0.0
 40
0.2999999999999894
100
AcDbArc
 50
114.4696900682496
 51
180.0
  0
ARC
  5
167
330
94
100
AcDbEntity
  8
0
  6
Continuous
 62
     7
370
     9
100
AcDbCircle
 10
706.8
 20
185.5333333333334
 30
0.0
 40
0.2999999999999768
100
AcDbArc
 50
114.4696900682491
 51
180.0
  0
ARC
  5
168
330
94
100
AcDbEntity
  8
0
  6
Continuous
 62
     7
370
     9
100
AcDbCircle
 10
706.8
 20
140.2
 30
0.0
 40
0.3000000000000021
100
AcDbArc
 50
114.4696900682485
 51
180.0
  0
ARC
  5
169
330
94
100
AcDbEntity
  8
0
  6
Continuous
 62
     7
370
     9
100
AcDbCircle
 10
706.8
 20
174.2
 30
0.0
 40
0.2999999999999768
100
AcDbArc
 50
114.4696900682485
 51
180.0
  0
ARC
  5
16A
330
94
100
AcDbEntity
  8
0
  6
Continuous
 62
     7
370
     9
100
AcDbCircle
 10
706.8
 20
106.2
 30
0.0
 40
0.3000000000000228
100
AcDbArc
 50
114.46969006825
 51
180.0
  0
ARC
  5
16B
330
94
100
AcDbEntity
  8
0
  6
Continuous
 62
     7
370
     9
100
AcDbCircle
 10
706.8
 20
162.8666666666666
 30
0.0
 40
0.300000000000046
100
AcDbArc
 50
114.4699600361139
 51
180.0
  0
ARC
  5
16C
330
94
100
AcDbEntity
  8
0
  6
Continuous
 62
     7
370
     9
100
AcDbCircle
 10
706.8
 20
239.4666666666667
 30
0.0
 40
0.299999999999967
100
AcDbArc
 50
180.0
 51
245.5329347188128
  0
ARC
  5
16D
330
94
100
AcDbEntity
  8
0
  6
Continuous
 62
     7
370
     9
100
AcDbCircle
 10
706.8
 20
228.1333333333333
 30
0.0
 40
0.299999999999967
100
AcDbArc
 50
180.0
 51
245.5329347188128
  0
ARC
  5
16E
330
94
100
AcDbEntity
  8
0
  6
Continuous
 62
     7
370
     9
100
AcDbCircle
 10
706.8
 20
205.4666666666666
 30
0.0
 40
0.299999999999967
100
AcDbArc
 50
180.0
 51
245.5329347188128
  0
ARC
  5
16F
330
94
100
AcDbEntity
  8
0
  6
Continuous
 62
     7
370
     9
100
AcDbCircle
 10
706.8
 20
250.8
 30
0.0
 40
0.299999999999967
100
AcDbArc
 50
180.0
 51
245.5329347188128
  0
ARC
  5
170
330
94
100
AcDbEntity
  8
0
  6
Continuous
 62
     7
370
     9
100
AcDbCircle
 10
706.8
 20
216.8
 30
0.0
 40
0.299999999999967
100
AcDbArc
 50
180.0
 51
245.5329347188128
  0
ENDBLK
  5
175
330
94
100
AcDbEntity
  8
0
100
AcDbBlockEnd
  0
BLOCK
  5
17B
330
172
100
AcDbEntity
  8
0
100
AcDbBlockBegin
  2
D_FRAME_DRAWING@17
 70
     0
 10
0.0
 20
0.0
 30
0.0
  3
D_FRAME_DRAWING@17
  1

  0
LINE
  5
176
330
172
100
AcDbEntity
  8
0
  6
Continuous
 62
     7
370
     9
100
AcDbLine
 10
0.0
 20
0.0
 30
0.0
 11
420.0
 21
0.0
 31
0.0
  0
LINE
  5
177
330
172
100
AcDbEntity
  8
0
  6
Continuous
 62
     7
370
     9
100
AcDbLine
 10
420.0
 20
0.0
 30
0.0
 11
420.0
 21
297.0
 31
0.0
  0
LINE
  5
178
330
172
100
AcDbEntity
  8
0
  6
Continuous
 62
     7
370
     9
100
AcDbLine
 10
420.0
 20
297.0
 30
0.0
 11
0.0
 21
297.0
 31
0.0
  0
LINE
  5
179
330
172
100
AcDbEntity
  8
0
  6
Continuous
 62
     7
370
     9
100
AcDbLine
 10
0.0
 20
297.0
 30
0.0
 11
0.0
 21
0.0
 31
0.0
  0
ENDBLK
  5
17C
330
172
100
AcDbEntity
  8
0
100
AcDbBlockEnd
  0
BLOCK
  5
21F
330
17A
100
AcDbEntity
  8
0
100
AcDbBlockBegin
  2
D_FRAME_VIEW@1287
 70
     0
 10
0.0
 20
0.0
 30
0.0
  3
D_FRAME_VIEW@1287
  1

  0
LINE
  5
17D
330
17A
100
AcDbEntity
  8
0
  6
Continuous
 62
     7
370
     9
100
AcDbLine
 10
632.5
 20
52.49999999999999
 30
0.0
 11
629.5
 21
52.49999999999999
 31
0.0
  0
LINE
  5
17E
330
17A
100
AcDbEntity
  8
0
  6
Continuous
 62
     7
370
     9
100
AcDbLine
 10
632.5
 20
54.49999999999999
 30
0.0
 11
632.5
 21
52.49999999999999
 31
0.0
  0
LINE
  5
17F
330
17A
100
AcDbEntity
  8
0
  6
Continuous
 62
     7
370
     9
100
AcDbLine
 10
595.5
 20
55.49999999999999
 30
0.0
 11
629.5
 21
55.49999999999999
 31
0.0
  0
LINE
  5
180
330
17A
100
AcDbEntity
  8
0
  6
Continuous
 62
     7
370
     9
100
AcDbLine
 10
629.5
 20
55.49999999999999
 30
0.0
 11
631.5
 21
55.49999999999999
 31
0.0
  0
ARC
  5
181
330
17A
100
AcDbEntity
  8
0
  6
Continuous
 62
     7
370
     9
100
AcDbCircle
 10
631.5
 20
54.49999999999999
 30
0.0
 40
1.000000000000001
100
AcDbArc
 50
0.0
 51
90.0
  0
LINE
  5
182
330
17A
100
AcDbEntity
  8
0
  6
Continuous
 62
     7
370
     9
100
AcDbLine
 10
629.5
 20
52.49999999999999
 30
0.0
 11
595.5
 21
52.49999999999999
 31
0.0
  0
LINE
  5
183
330
17A
100
AcDbEntity
  8
0
  6
Continuous
 62
     7
370
     9
100
AcDbLine
 10
592.5
 20
52.49999999999999
 30
0.0
 11
592.5
 21
54.49999999999999
 31
0.0
  0
LINE
  5
184
330
17A
100
AcDbEntity
  8
0
  6
Continuous
 62
     7
370
     9
100
AcDbLine
 10
595.5
 20
52.49999999999999
 30
0.0
 11
592.5
 21
52.49999999999999
 31
0.0
  0
LINE
  5
185
330
17A
100
AcDbEntity
  8
0
  6
Continuous
 62
     7
370
     9
100
AcDbLine
 10
593.5
 20
55.49999999999999
 30
0.0
 11
595.5
 21
55.49999999999999
 31
0.0
  0
ARC
  5
186
330
17A
100
AcDbEntity
  8
0
  6
Continuous
 62
     7
370
     9
100
AcDbCircle
 10
593.5
 20
54.49999999999999
 30
0.0
 40
1.000000000000001
100
AcDbArc
 50
90.0
 51
180.0
  0
LINE
  5
187
330
17A
100
AcDbEntity
  8
0
  6
Continuous
 62
     7
370
     9
100
AcDbLine
 10
611.5
 20
55.49999999999999
 30
0.0
 11
611.5
 21
70.34116007529984
 31
0.0
  0
LWPOLYLINE
  5
188
330
17A
100
AcDbEntity
  8
0
  6
Continuous
 62
     7
370
     9
100
AcDbPolyline
 90
        9
 70
     0
 43
0.0
 10
-611.5
 20
70.34116007529984
 42
0.089925873450806
 10
-611.5788397725028
 20
70.84116007529984
 10
-611.630931460325
 20
70.95296537738069
 10
-611.6991361859072
 20
71.04799182453533
 10
-611.7816553511384
 20
71.11712496242578
 10
-611.8786659537918
 20
71.1548554306928
 10
-611.9887568021696
 20
71.15322486567979
 10
-612.0000000000001
 20
71.15063509461092
 10
-612.0000000000001
 20
71.15063509461092
210
0.0
220
0.0
230
-1.0
  0
LWPOLYLINE
  5
189
330
17A
100
AcDbEntity
  8
0
  6
Continuous
 62
     7
370
     9
100
AcDbPolyline
 90
        8
 70
     0
 43
0.0
 10
-613.0000000000001
 20
71.15063509461092
 10
-613.1005701065794
 20
71.1579327721822
 10
-613.1969509649285
 20
71.12901505464768
 10
-613.2907822183068
 20
71.05871500684478
 10
-613.3607536709388
 20
70.96704940923428
 10
-613.4193134835253
 20
70.84604265798926
 10
-613.4193134835253
 20
70.84604265798926
 42
0.0901330827086057
 10
-613.5
 20
70.34116007529981
210
0.0
220
0.0
230
-1.0
  0
LINE
  5
18A
330
17A
100
AcDbEntity
  8
0
  6
Continuous
 62
     7
370
     9
100
AcDbLine
 10
613.5
 20
70.34116007529981
 30
0.0
 11
613.5
 21
55.49999999999999
 31
0.0
  0
ELLIPSE
  5
18B
330
17A
100
AcDbEntity
  8
0
  6
Continuous
 62
     7
370
     9
100
AcDbEllipse
 10
612.5
 20
77.15063509461092
 30
0.0
 11
0.0
 21
-6.062177826491069
 31
0.0
210
0.0
220
0.0
230
1.0
 40
0.577350269189626
 41
6.13983773827422
 42
6.426532876084951
  0
LWPOLYLINE
  5
18C
330
17A
100
AcDbEntity
  8
0
  6
Continuous
 62
     7
370
     9
100
AcDbPolyline
 90
       37
 70
     0
 43
0.0
 10
613.0000000000001
 20
129.1666666666667
 10
613.0224155775782
 20
129.1671704312132
 10
613.0446965809008
 20
129.168669519468
 10
613.0667749626333
 20
129.1711456233544
 10
613.0890329182145
 20
129.1746582698829
 10
613.111019975788
 20
129.1791487868654
 10
613.1326765753524
 20
129.1845910228588
 10
613.1533130357478
 20
129.1907529418464
 10
613.1736052897735
 20
129.1977754372756
 10
613.1935105815967
 20
129.2056326115266
 10
613.2129861553846
 20
129.2142985669793
 10
613.2325413132124
 20
129.224034136009
 10
613.2516282326302
 20
129.2346001420668
 10
613.2702092171718
 20
129.2459696370116
 10
613.2882465703711
 20
129.2581156727023
 10
613.3095423857643
 20
129.2740056627611
 10
613.3299905028244
 20
129.2910266478607
 10
613.3495259105307
 20
129.3091311609213
 10
613.363880337547
 20
129.3237522580111
 10
613.3776704997175
 20
129.3390028639247
 10
613.3908644066512
 20
129.3548586801818
 10
613.4034300679574
 20
129.3712954083019
 10
613.417877231618
 20
129.3921172574438
 10
613.4313353904572
 20
129.413786158622
 10
613.4437386399845
 20
129.4362409315902
 10
613.4525448503958
 20
129.4540601855132
 10
613.4606844567198
 20
129.4723295305783
 10
613.468125802132
 20
129.4910061848738
 10
613.4748372298079
 20
129.510047366488
 10
613.4805271931409
 20
129.5284944679909
 10
613.4855265525329
 20
129.5472501306433
 10
613.4898128097987
 20
129.5662606992574
 10
613.4933634667535
 20
129.585472518645
 10
613.4962517643265
 20
129.6055834637311
 10
613.4983273682686
 20
129.6258690014954
 10
613.4995801547647
 20
129.6462548348399
 10
613.5
 20
129.6666666666667
  0
LINE
  5
18D
330
17A
100
AcDbEntity
  8
0
  6
Continuous
 62
     7
370
     9
100
AcDbLine
 10
612.0000000000001
 20
208.5
 30
0.0
 11
613.0000000000001
 21
208.5
 31
0.0
  0
LWPOLYLINE
  5
18E
330
17A
100
AcDbEntity
  8
0
  6
Continuous
 62
     7
370
     9
100
AcDbPolyline
 90
       38
 70
     0
 43
0.0
 10
611.5
 20
107.0
 10
611.5002695915081
 20
106.9836004677494
 10
611.5010762086741
 20
106.9672207968193
 10
611.5024166154607
 20
106.9509003520349
 10
611.504319769566
 20
106.9344213735374
 10
611.5067633696822
 20
106.9180422474519
 10
611.5097379289821
 20
106.9018007040698
 10
611.5144893848357
 20
106.8805155686495
 10
611.5201437927619
 20
106.8595264240675
 10
611.5266665721957
 20
106.8389020852975
 10
611.534023142572
 20
106.8187113673131
 10
611.5425343983476
 20
106.7982000847251
 10
611.5519009647905
 20
106.778181055117
 10
611.562079900003
 20
106.7587036178672
 10
611.5730282620873
 20
106.7398171123542
 10
611.5847149297238
 20
106.7215450341198
 10
611.5971315902268
 20
106.7038665938383
 10
611.6102398765316
 20
106.6868133410603
 10
611.6240014215737
 20
106.6704168253363
 10
611.6388262823948
 20
106.6542361314342
 10
611.6543163444027
 20
106.6387504848373
 10
611.6704348688284
 20
106.6239868081367
 10
611.6871451169029
 20
106.6099720239236
 10
611.7090853151298
 20
106.5933458246678
 10
611.731926409765
 20
106.5779389564035
 10
611.7555950756833
 20
106.5638048223902
 10
611.7743321512618
 20
106.5538240853748
 10
611.7935353679361
 20
106.5446205383619
 10
611.813166002904
 20
106.5362198855756
 10
611.8331853333634
 20
106.5286478312399
 10
611.8527775596774
 20
106.5221671539145
 10
611.8727122476375
 20
106.5164759718746
 10
611.8929453805168
 20
106.511596479522
 10
611.9134329415884
 20
106.5075508712588
 10
611.9347757148593
 20
106.5042745681174
 10
611.9563589262617
 20
106.5019118982897
 10
611.9781209099305
 20
106.5004809971318
 10
612.0000000000001
 20
106.5
  0
LWPOLYLINE
  5
18F
330
17A
100
AcDbEntity
  8
0
  6
Continuous
 62
     7
370
     9
100
AcDbPolyline
 90
       37
 70
     0
 43
0.0
 10
613.0000000000001
 20
106.5
 10
613.0224155775782
 20
106.5005037645465
 10
613.0446965809008
 20
106.5020028528013
 10
613.0667749626333
 20
106.5044789566877
 10
613.0890329182145
 20
106.5079916032163
 10
613.111019975788
 20
106.5124821201988
 10
613.1326765753524
 20
106.5179243561921
 10
613.1533130357478
 20
106.5240862751797
 10
613.1736052897735
 20
106.531108770609
 10
613.1935105815967
 20
106.5389659448599
 10
613.2129861553846
 20
106.5476319003127
 10
613.2325413132124
 20
106.5573674693423
 10
613.2516282326302
 20
106.5679334754001
 10
613.2702092171718
 20
106.579302970345
 10
613.2882465703711
 20
106.5914490060356
 10
613.3095423857643
 20
106.6073389960944
 10
613.3299905028244
 20
106.624359981194
 10
613.3495259105308
 20
106.6424644942547
 10
613.363880337547
 20
106.6570855913444
 10
613.3776704997175
 20
106.6723361972581
 10
613.3908644066512
 20
106.6881920135152
 10
613.4034300679574
 20
106.7046287416353
 10
613.417877231618
 20
106.7254505907772
 10
613.4313353904572
 20
106.7471194919553
 10
613.4437386399845
 20
106.7695742649235
 10
613.4525448503958
 20
106.7873935188466
 10
613.4606844567198
 20
106.8056628639117
 10
613.468125802132
 20
106.8243395182072
 10
613.4748372298079
 20
106.8433806998214
 10
613.4805271931409
 20
106.8618278013242
 10
613.4855265525329
 20
106.8805834639766
 10
613.4898128097987
 20
106.8995940325907
 10
613.4933634667535
 20
106.9188058519784
 10
613.4962517643265
 20
106.9389167970644
 10
613.4983273682686
 20
106.9592023348287
 10
613.4995801547647
 20
106.9795881681733
 10
613.5
 20
107.0
  0
LINE
  5
190
330
17A
100
AcDbEntity
  8
0
  6
Continuous
 62
     7
370
     9
100
AcDbLine
 10
613.0
 20
227.8333333333333
 30
0.0
 11
612.0
 21
227.8333333333333
 31
0.0
  0
LINE
  5
191
330
17A
100
AcDbEntity
  8
0
  6
Continuous
 62
     7
370
     9
100
AcDbLine
 10
613.0
 20
216.5
 30
0.0
 11
612.0
 21
216.5
 31
0.0
  0
LINE
  5
192
330
17A
100
AcDbEntity
  8
0
  6
Continuous
 62
     7
370
     9
100
AcDbLine
 10
615.8541019662497
 20
70.34116007529984
 30
0.0
 11
615.953616585404
 21
71.15952664269429
 31
0.0
  0
LINE
  5
193
330
17A
100
AcDbEntity
  8
0
  6
Continuous
 62
     7
370
     9
100
AcDbLine
 10
615.8541019662497
 20
55.49999999999999
 30
0.0
 11
615.8541019662497
 21
70.34116007529984
 31
0.0
  0
LINE
  5
194
330
17A
100
AcDbEntity
  8
0
  6
Continuous
 62
     7
370
     9
100
AcDbLine
 10
609.1458980337504
 20
55.49999999999999
 30
0.0
 11
609.1458980337504
 21
70.34116007529981
 31
0.0
  0
LINE
  5
195
330
17A
100
AcDbEntity
  8
0
  6
Continuous
 62
     7
370
     9
100
AcDbLine
 10
609.0349166256275
 20
71.15785975017677
 30
0.0
 11
609.1458980337504
 21
70.34116007529981
 31
0.0
  0
LWPOLYLINE
  5
196
330
17A
100
AcDbEntity
  8
0
  6
Continuous
 62
     7
370
     9
100
AcDbPolyline
 90
       37
 70
     0
 43
0.0
 10
613.0000000000001
 20
151.8333333333333
 10
613.0224155775782
 20
151.8338370978798
 10
613.0446965809008
 20
151.8353361861346
 10
613.0667749626333
 20
151.837812290021
 10
613.0890329182145
 20
151.8413249365496
 10
613.111019975788
 20
151.8458154535321
 10
613.1326765753524
 20
151.8512576895255
 10
613.1533130357478
 20
151.8574196085131
 10
613.1736052897735
 20
151.8644421039423
 10
613.1935105815967
 20
151.8722992781933
 10
613.2129861553846
 20
151.880965233646
 10
613.2325413132124
 20
151.8907008026756
 10
613.2516282326302
 20
151.9012668087335
 10
613.2702092171718
 20
151.9126363036783
 10
613.2882465703711
 20
151.924782339369
 10
613.3095423857643
 20
151.9406723294277
 10
613.3299905028244
 20
151.9576933145273
 10
613.3495259105307
 20
151.975797827588
 10
613.363880337547
 20
151.9904189246778
 10
613.3776704997175
 20
152.0056695305914
 10
613.3908644066512
 20
152.0215253468485
 10
613.4034300679574
 20
152.0379620749686
 10
613.417877231618
 20
152.0587839241105
 10
613.4313353904572
 20
152.0804528252887
 10
613.4437386399845
 20
152.1029075982569
 10
613.4525448503958
 20
152.12072685218
 10
613.4606844567198
 20
152.138996197245
 10
613.468125802132
 20
152.1576728515405
 10
613.4748372298079
 20
152.1767140331547
 10
613.4805271931409
 20
152.1951611346576
 10
613.4855265525329
 20
152.21391679731
 10
613.4898128097987
 20
152.232927365924
 10
613.4933634667535
 20
152.2521391853117
 10
613.4962517643265
 20
152.2722501303977
 10
613.4983273682686
 20
152.292535668162
 10
613.4995801547647
 20
152.3129215015066
 10
613.5
 20
152.3333333333333
  0
LINE
  5
197
330
17A
100
AcDbEntity
  8
0
  6
Continuous
 62
     7
370
     9
100
AcDbLine
 10
612.0000000000001
 20
242.5
 30
0.0
 11
613.0000000000001
 21
242.5
 31
0.0
  0
LINE
  5
198
330
17A
100
AcDbEntity
  8
0
  6
Continuous
 62
     7
370
     9
100
AcDbLine
 10
612.0000000000001
 20
197.1666666666667
 30
0.0
 11
613.0000000000001
 21
197.1666666666667
 31
0.0
  0
LWPOLYLINE
  5
199
330
17A
100
AcDbEntity
  8
0
  6
Continuous
 62
     7
370
     9
100
AcDbPolyline
 90
       37
 70
     0
 43
0.0
 10
612.0000000000001
 20
137.1666666666667
 10
611.9775844224218
 20
137.1661629021202
 10
611.9553034190993
 20
137.1646638138654
 10
611.9332250373668
 20
137.162187709979
 10
611.9109670817855
 20
137.1586750634504
 10
611.888980024212
 20
137.1541845464679
 10
611.8673234246477
 20
137.1487423104745
 10
611.8466869642523
 20
137.142580391487
 10
611.8263947102267
 20
137.1355578960577
 10
611.8064894184034
 20
137.1277007218067
 10
611.7870138446156
 20
137.119034766354
 10
611.7674586867876
 20
137.1092991973244
 10
611.7483717673698
 20
137.0987331912665
 10
611.7297907828283
 20
137.0873636963217
 10
611.7117534296289
 20
137.075217660631
 10
611.6904576142358
 20
137.0593276705723
 10
611.6700094971757
 20
137.0423066854727
 10
611.6504740894694
 20
137.0242021724119
 10
611.636119662453
 20
137.0095810753222
 10
611.6223295002826
 20
136.9943304694086
 10
611.6091355933488
 20
136.9784746531515
 10
611.5965699320427
 20
136.9620379250314
 10
611.5821227683821
 20
136.9412160758895
 10
611.5686646095428
 20
136.9195471747113
 10
611.5562613600155
 20
136.8970924017431
 10
611.5474551496043
 20
136.87927314782
 10
611.5393155432802
 20
136.861003802755
 10
611.531874197868
 20
136.8423271484595
 10
611.5251627701922
 20
136.8232859668453
 10
611.5194728068591
 20
136.8048388653424
 10
611.5144734474673
 20
136.78608320269
 10
611.5101871902015
 20
136.767072634076
 10
611.5066365332466
 20
136.7478608146883
 10
611.5037482356736
 20
136.7277498696023
 10
611.5016726317315
 20
136.7074643318379
 10
611.5004198452353
 20
136.6870784984934
 10
611.5
 20
136.6666666666667
  0
LWPOLYLINE
  5
19A
330
17A
100
AcDbEntity
  8
0
  6
Continuous
 62
     7
370
     9
100
AcDbPolyline
 90
       38
 70
     0
 43
0.0
 10
611.5
 20
118.3333333333333
 10
611.5002695915081
 20
118.3169338010827
 10
611.5010762086741
 20
118.3005541301527
 10
611.5024166154607
 20
118.2842336853682
 10
611.504319769566
 20
118.2677547068707
 10
611.5067633696822
 20
118.2513755807853
 10
611.5097379289821
 20
118.2351340374032
 10
611.5144893848357
 20
118.2138489019828
 10
611.5201437927619
 20
118.1928597574008
 10
611.5266665721957
 20
118.1722354186308
 10
611.534023142572
 20
118.1520447006465
 10
611.5425343983476
 20
118.1315334180584
 10
611.5519009647905
 20
118.1115143884503
 10
611.562079900003
 20
118.0920369512006
 10
611.5730282620873
 20
118.0731504456876
 10
611.5847149297238
 20
118.0548783674531
 10
611.5971315902268
 20
118.0371999271716
 10
611.6102398765316
 20
118.0201466743937
 10
611.6240014215737
 20
118.0037501586697
 10
611.6388262823948
 20
117.9875694647676
 10
611.6543163444027
 20
117.9720838181706
 10
611.6704348688284
 20
117.9573201414701
 10
611.6871451169029
 20
117.9433053572569
 10
611.7090853151298
 20
117.9266791580011
 10
611.7319264097652
 20
117.9112722897368
 10
611.7555950756833
 20
117.8971381557235
 10
611.7743321512618
 20
117.8871574187081
 10
611.7935353679361
 20
117.8779538716952
 10
611.813166002904
 20
117.8695532189089
 10
611.8331853333634
 20
117.8619811645732
 10
611.8527775596774
 20
117.8555004872478
 10
611.8727122476375
 20
117.8498093052079
 10
611.8929453805168
 20
117.8449298128554
 10
611.9134329415884
 20
117.8408842045921
 10
611.9347757148593
 20
117.8376079014507
 10
611.9563589262617
 20
117.835245231623
 10
611.9781209099305
 20
117.8338143304651
 10
612.0000000000001
 20
117.8333333333333
  0
LINE
  5
19B
330
17A
100
AcDbEntity
  8
0
  6
Continuous
 62
     7
370
     9
100
AcDbLine
 10
612.0000000000001
 20
231.1666666666667
 30
0.0
 11
613.0000000000001
 21
231.1666666666667
 31
0.0
  0
LWPOLYLINE
  5
19C
330
17A
100
AcDbEntity
  8
0
  6
Continuous
 62
     7
370
     9
100
AcDbPolyline
 90
       37
 70
     0
 43
0.0
 10
613.0000000000001
 20
117.8333333333333
 10
613.0224155775782
 20
117.8338370978798
 10
613.0446965809008
 20
117.8353361861346
 10
613.0667749626333
 20
117.837812290021
 10
613.0890329182145
 20
117.8413249365496
 10
613.111019975788
 20
117.8458154535321
 10
613.1326765753524
 20
117.8512576895255
 10
613.1533130357478
 20
117.857419608513
 10
613.1736052897735
 20
117.8644421039423
 10
613.1935105815967
 20
117.8722992781933
 10
613.2129861553846
 20
117.880965233646
 10
613.2325413132124
 20
117.8907008026756
 10
613.2516282326302
 20
117.9012668087334
 10
613.2702092171718
 20
117.9126363036783
 10
613.2882465703711
 20
117.924782339369
 10
613.3095423857643
 20
117.9406723294277
 10
613.3299905028244
 20
117.9576933145273
 10
613.3495259105307
 20
117.975797827588
 10
613.363880337547
 20
117.9904189246778
 10
613.3776704997175
 20
118.0056695305914
 10
613.3908644066512
 20
118.0215253468485
 10
613.4034300679574
 20
118.0379620749686
 10
613.417877231618
 20
118.0587839241105
 10
613.4313353904572
 20
118.0804528252887
 10
613.4437386399845
 20
118.1029075982569
 10
613.4525448503958
 20
118.1207268521799
 10
613.4606844567198
 20
118.138996197245
 10
613.468125802132
 20
118.1576728515405
 10
613.4748372298079
 20
118.1767140331547
 10
613.4805271931409
 20
118.1951611346576
 10
613.4855265525329
 20
118.21391679731
 10
613.4898128097987
 20
118.232927365924
 10
613.4933634667535
 20
118.2521391853117
 10
613.4962517643265
 20
118.2722501303977
 10
613.4983273682686
 20
118.292535668162
 10
613.4995801547647
 20
118.3129215015066
 10
613.5
 20
118.3333333333333
  0
LINE
  5
19D
330
17A
100
AcDbEntity
  8
0
  6
Continuous
 62
     7
370
     9
100
AcDbLine
 10
612.0000000000001
 20
163.1666666666667
 30
0.0
 11
613.0000000000001
 21
163.1666666666667
 31
0.0
  0
LINE
  5
19E
330
17A
100
AcDbEntity
  8
0
  6
Continuous
 62
     7
370
     9
100
AcDbLine
 10
613.0000000000001
 20
182.5
 30
0.0
 11
612.0000000000001
 21
182.5
 31
0.0
  0
LINE
  5
19F
330
17A
100
AcDbEntity
  8
0
  6
Continuous
 62
     7
370
     9
100
AcDbLine
 10
613.0
 20
239.1666666666667
 30
0.0
 11
612.0
 21
239.1666666666667
 31
0.0
  0
LINE
  5
1A0
330
17A
100
AcDbEntity
  8
0
  6
Continuous
 62
     7
370
     9
100
AcDbLine
 10
612.0000000000001
 20
219.8333333333333
 30
0.0
 11
613.0000000000001
 21
219.8333333333333
 31
0.0
  0
LINE
  5
1A1
330
17A
100
AcDbEntity
  8
0
  6
Continuous
 62
     7
370
     9
100
AcDbLine
 10
612.0000000000001
 20
83.83333333333333
 30
0.0
 11
613.0000000000001
 21
83.83333333333333
 31
0.0
  0
LINE
  5
1A2
330
17A
100
AcDbEntity
  8
0
  6
Continuous
 62
     7
370
     9
100
AcDbLine
 10
613.0000000000001
 20
103.1666666666667
 30
0.0
 11
612.0000000000001
 21
103.1666666666667
 31
0.0
  0
LINE
  5
1A3
330
17A
100
AcDbEntity
  8
0
  6
Continuous
 62
     7
370
     9
100
AcDbLine
 10
613.0000000000001
 20
159.8333333333333
 30
0.0
 11
612.0000000000001
 21
159.8333333333333
 31
0.0
  0
LWPOLYLINE
  5
1A4
330
17A
100
AcDbEntity
  8
0
  6
Continuous
 62
     7
370
     9
100
AcDbPolyline
 90
       38
 70
     0
 43
0.0
 10
613.5
 20
125.3333333333333
 10
613.499730408492
 20
125.349732865584
 10
613.4989237913261
 20
125.366112536514
 10
613.4975833845394
 20
125.3824329812984
 10
613.4956802304341
 20
125.3989119597959
 10
613.4932366303178
 20
125.4152910858814
 10
613.4902620710179
 20
125.4315326292635
 10
613.4855106151645
 20
125.4528177646839
 10
613.4798562072381
 20
125.4738069092658
 10
613.4733334278043
 20
125.4944312480358
 10
613.4659768574281
 20
125.5146219660202
 10
613.4574656016525
 20
125.5351332486082
 10
613.4480990352096
 20
125.5551522782163
 10
613.4379200999971
 20
125.5746297154661
 10
613.4269717379128
 20
125.5935162209791
 10
613.4152850702764
 20
125.6117882992135
 10
613.4028684097733
 20
125.629466739495
 10
613.3897601234685
 20
125.646519992273
 10
613.3759985784263
 20
125.662916507997
 10
613.3611737176052
 20
125.6790972018991
 10
613.3456836555973
 20
125.694582848496
 10
613.3295651311718
 20
125.7093465251966
 10
613.3128548830972
 20
125.7233613094098
 10
613.2909146848704
 20
125.7399875086655
 10
613.2680735902351
 20
125.7553943769298
 10
613.2444049243168
 20
125.7695285109431
 10
613.2256678487383
 20
125.7795092479585
 10
613.206464632064
 20
125.7887127949714
 10
613.1868339970961
 20
125.7971134477578
 10
613.1668146666367
 20
125.8046855020934
 10
613.1472224403227
 20
125.8111661794188
 10
613.1272877523626
 20
125.8168573614587
 10
613.1070546194832
 20
125.8217368538113
 10
613.0865670584116
 20
125.8257824620745
 10
613.0652242851409
 20
125.8290587652159
 10
613.0436410737383
 20
125.8314214350437
 10
613.0218790900697
 20
125.8328523362015
 10
613.0000000000001
 20
125.8333333333333
  0
LWPOLYLINE
  5
1A5
330
17A
100
AcDbEntity
  8
0
  6
Continuous
 62
     7
370
     9
100
AcDbPolyline
 90
       37
 70
     0
 43
0.0
 10
612.0000000000001
 20
125.8333333333333
 10
611.9775844224218
 20
125.8328295687869
 10
611.9553034190993
 20
125.831330480532
 10
611.9332250373668
 20
125.8288543766457
 10
611.9109670817855
 20
125.8253417301171
 10
611.888980024212
 20
125.8208512131346
 10
611.8673234246477
 20
125.8154089771412
 10
611.8466869642523
 20
125.8092470581536
 10
611.8263947102267
 20
125.8022245627244
 10
611.8064894184034
 20
125.7943673884734
 10
611.7870138446156
 20
125.7857014330206
 10
611.7674586867876
 20
125.7759658639911
 10
611.7483717673698
 20
125.7653998579332
 10
611.7297907828283
 20
125.7540303629883
 10
611.7117534296289
 20
125.7418843272977
 10
611.6904576142358
 20
125.725994337239
 10
611.6700094971757
 20
125.7089733521393
 10
611.6504740894694
 20
125.6908688390786
 10
611.636119662453
 20
125.6762477419889
 10
611.6223295002826
 20
125.6609971360753
 10
611.6091355933488
 20
125.6451413198182
 10
611.5965699320427
 20
125.6287045916981
 10
611.5821227683821
 20
125.6078827425562
 10
611.5686646095428
 20
125.586213841378
 10
611.5562613600155
 20
125.5637590684098
 10
611.5474551496043
 20
125.5459398144867
 10
611.5393155432802
 20
125.5276704694216
 10
611.531874197868
 20
125.5089938151261
 10
611.5251627701922
 20
125.4899526335119
 10
611.5194728068591
 20
125.4715055320091
 10
611.5144734474673
 20
125.4527498693567
 10
611.5101871902015
 20
125.4337393007426
 10
611.5066365332466
 20
125.414527481355
 10
611.5037482356736
 20
125.3944165362689
 10
611.5016726317315
 20
125.3741309985046
 10
611.5004198452353
 20
125.3537451651601
 10
611.5
 20
125.3333333333333
  0
LINE
  5
1A6
330
17A
100
AcDbEntity
  8
0
  6
Continuous
 62
     7
370
     9
100
AcDbLine
 10
613.0
 20
250.5
 30
0.0
 11
612.0
 21
250.5
 31
0.0
  0
LWPOLYLINE
  5
1A7
330
17A
100
AcDbEntity
  8
0
  6
Continuous
 62
     7
370
     9
100
AcDbPolyline
 90
       38
 70
     0
 43
0.0
 10
613.5
 20
193.3333333333333
 10
613.499730408492
 20
193.3497328655839
 10
613.4989237913261
 20
193.366112536514
 10
613.4975833845394
 20
193.3824329812984
 10
613.4956802304341
 20
193.398911959796
 10
613.4932366303178
 20
193.4152910858814
 10
613.4902620710179
 20
193.4315326292635
 10
613.4855106151645
 20
193.4528177646839
 10
613.4798562072381
 20
193.4738069092658
 10
613.4733334278043
 20
193.4944312480358
 10
613.4659768574281
 20
193.5146219660202
 10
613.4574656016524
 20
193.5351332486083
 10
613.4480990352096
 20
193.5551522782164
 10
613.4379200999971
 20
193.5746297154661
 10
613.4269717379128
 20
193.5935162209791
 10
613.4152850702764
 20
193.6117882992135
 10
613.4028684097733
 20
193.629466739495
 10
613.3897601234685
 20
193.646519992273
 10
613.3759985784263
 20
193.662916507997
 10
613.3611737176052
 20
193.6790972018991
 10
613.3456836555973
 20
193.694582848496
 10
613.3295651311718
 20
193.7093465251966
 10
613.3128548830972
 20
193.7233613094097
 10
613.2909146848704
 20
193.7399875086656
 10
613.2680735902351
 20
193.7553943769298
 10
613.2444049243168
 20
193.7695285109431
 10
613.2256678487383
 20
193.7795092479585
 10
613.206464632064
 20
193.7887127949714
 10
613.1868339970961
 20
193.7971134477578
 10
613.1668146666367
 20
193.8046855020935
 10
613.1472224403227
 20
193.8111661794188
 10
613.1272877523626
 20
193.8168573614587
 10
613.1070546194832
 20
193.8217368538113
 10
613.0865670584116
 20
193.8257824620746
 10
613.0652242851409
 20
193.8290587652159
 10
613.0436410737384
 20
193.8314214350437
 10
613.0218790900697
 20
193.8328523362015
 10
613.0000000000001
 20
193.8333333333333
  0
LWPOLYLINE
  5
1A8
330
17A
100
AcDbEntity
  8
0
  6
Continuous
 62
     7
370
     9
100
AcDbPolyline
 90
       37
 70
     0
 43
0.0
 10
612.0000000000001
 20
193.8333333333333
 10
611.9775844224218
 20
193.8328295687868
 10
611.9553034190993
 20
193.831330480532
 10
611.9332250373668
 20
193.8288543766456
 10
611.9109670817855
 20
193.8253417301171
 10
611.888980024212
 20
193.8208512131346
 10
611.8673234246477
 20
193.8154089771412
 10
611.8466869642524
 20
193.8092470581536
 10
611.8263947102267
 20
193.8022245627244
 10
611.8064894184034
 20
193.7943673884734
 10
611.7870138446156
 20
193.7857014330207
 10
611.7674586867876
 20
193.7759658639911
 10
611.7483717673698
 20
193.7653998579332
 10
611.7297907828283
 20
193.7540303629883
 10
611.7117534296289
 20
193.7418843272977
 10
611.6904576142358
 20
193.725994337239
 10
611.6700094971757
 20
193.7089733521393
 10
611.6504740894694
 20
193.6908688390787
 10
611.636119662453
 20
193.6762477419889
 10
611.6223295002826
 20
193.6609971360753
 10
611.6091355933488
 20
193.6451413198182
 10
611.5965699320427
 20
193.6287045916981
 10
611.5821227683821
 20
193.6078827425562
 10
611.5686646095428
 20
193.586213841378
 10
611.5562613600155
 20
193.5637590684098
 10
611.5474551496043
 20
193.5459398144867
 10
611.5393155432802
 20
193.5276704694216
 10
611.531874197868
 20
193.5089938151262
 10
611.5251627701922
 20
193.4899526335119
 10
611.5194728068591
 20
193.4715055320091
 10
611.5144734474673
 20
193.4527498693567
 10
611.5101871902015
 20
193.4337393007426
 10
611.5066365332466
 20
193.414527481355
 10
611.5037482356736
 20
193.3944165362689
 10
611.5016726317315
 20
193.3741309985046
 10
611.5004198452353
 20
193.3537451651601
 10
611.5
 20
193.3333333333333
  0
LWPOLYLINE
  5
1A9
330
17A
100
AcDbEntity
  8
0
  6
Continuous
 62
     7
370
     9
100
AcDbPolyline
 90
       37
 70
     0
 43
0.0
 10
613.0000000000001
 20
140.5
 10
613.0224155775782
 20
140.5005037645465
 10
613.0446965809008
 20
140.5020028528013
 10
613.0667749626333
 20
140.5044789566877
 10
613.0890329182145
 20
140.5079916032163
 10
613.111019975788
 20
140.5124821201988
 10
613.1326765753524
 20
140.5179243561921
 10
613.1533130357478
 20
140.5240862751797
 10
613.1736052897735
 20
140.5311087706089
 10
613.1935105815967
 20
140.5389659448599
 10
613.2129861553846
 20
140.5476319003127
 10
613.2325413132124
 20
140.5573674693423
 10
613.2516282326302
 20
140.5679334754001
 10
613.2702092171718
 20
140.579302970345
 10
613.2882465703711
 20
140.5914490060356
 10
613.3095423857643
 20
140.6073389960944
 10
613.3299905028244
 20
140.624359981194
 10
613.3495259105307
 20
140.6424644942547
 10
613.363880337547
 20
140.6570855913444
 10
613.3776704997175
 20
140.6723361972581
 10
613.3908644066512
 20
140.6881920135152
 10
613.4034300679574
 20
140.7046287416353
 10
613.417877231618
 20
140.7254505907772
 10
613.4313353904572
 20
140.7471194919554
 10
613.4437386399845
 20
140.7695742649235
 10
613.4525448503958
 20
140.7873935188466
 10
613.4606844567198
 20
140.8056628639117
 10
613.468125802132
 20
140.8243395182072
 10
613.4748372298079
 20
140.8433806998214
 10
613.4805271931409
 20
140.8618278013242
 10
613.4855265525329
 20
140.8805834639766
 10
613.4898128097987
 20
140.8995940325907
 10
613.4933634667535
 20
140.9188058519784
 10
613.4962517643265
 20
140.9389167970644
 10
613.4983273682686
 20
140.9592023348287
 10
613.4995801547647
 20
140.9795881681733
 10
613.5
 20
141.0
  0
LINE
  5
1AA
330
17A
100
AcDbEntity
  8
0
  6
Continuous
 62
     7
370
     9
100
AcDbLine
 10
613.0000000000001
 20
114.5
 30
0.0
 11
612.0000000000001
 21
114.5
 31
0.0
  0
LWPOLYLINE
  5
1AB
330
17A
100
AcDbEntity
  8
0
  6
Continuous
 62
     7
370
     9
100
AcDbPolyline
 90
       38
 70
     0
 43
0.0
 10
611.5
 20
163.6666666666667
 10
611.5002695915081
 20
163.6502671344161
 10
611.5010762086741
 20
163.633887463486
 10
611.5024166154607
 20
163.6175670187015
 10
611.504319769566
 20
163.6010880402041
 10
611.5067633696822
 20
163.5847089141186
 10
611.5097379289821
 20
163.5684673707365
 10
611.5144893848357
 20
163.5471822353161
 10
611.5201437927619
 20
163.5261930907342
 10
611.5266665721957
 20
163.5055687519642
 10
611.534023142572
 20
163.4853780339798
 10
611.5425343983476
 20
163.4648667513918
 10
611.5519009647905
 20
163.4448477217836
 10
611.562079900003
 20
163.4253702845339
 10
611.5730282620873
 20
163.4064837790209
 10
611.5847149297238
 20
163.3882117007864
 10
611.5971315902268
 20
163.370533260505
 10
611.6102398765316
 20
163.353480007727
 10
611.6240014215737
 20
163.337083492003
 10
611.6388262823948
 20
163.3209027981009
 10
611.6543163444027
 20
163.305417151504
 10
611.6704348688284
 20
163.2906534748034
 10
611.6871451169029
 20
163.2766386905903
 10
611.7090853151298
 20
163.2600124913345
 10
611.7319264097652
 20
163.2446056230702
 10
611.7555950756833
 20
163.2304714890569
 10
611.7743321512618
 20
163.2204907520415
 10
611.7935353679361
 20
163.2112872050286
 10
611.813166002904
 20
163.2028865522422
 10
611.8331853333634
 20
163.1953144979065
 10
611.8527775596774
 20
163.1888338205812
 10
611.8727122476375
 20
163.1831426385413
 10
611.8929453805168
 20
163.1782631461887
 10
611.9134329415884
 20
163.1742175379254
 10
611.9347757148593
 20
163.1709412347841
 10
611.9563589262617
 20
163.1685785649563
 10
611.9781209099305
 20
163.1671476637985
 10
612.0000000000001
 20
163.1666666666667
  0
LWPOLYLINE
  5
1AC
330
17A
100
AcDbEntity
  8
0
  6
Continuous
 62
     7
370
     9
100
AcDbPolyline
 90
       38
 70
     0
 43
0.0
 10
611.5
 20
186.3333333333333
 10
611.5002695915081
 20
186.3169338010827
 10
611.5010762086741
 20
186.3005541301527
 10
611.5024166154607
 20
186.2842336853682
 10
611.504319769566
 20
186.2677547068707
 10
611.5067633696822
 20
186.2513755807852
 10
611.5097379289821
 20
186.2351340374032
 10
611.5144893848357
 20
186.2138489019828
 10
611.5201437927619
 20
186.1928597574008
 10
611.5266665721957
 20
186.1722354186308
 10
611.534023142572
 20
186.1520447006465
 10
611.5425343983476
 20
186.1315334180584
 10
611.5519009647905
 20
186.1115143884503
 10
611.562079900003
 20
186.0920369512006
 10
611.5730282620873
 20
186.0731504456876
 10
611.5847149297238
 20
186.0548783674531
 10
611.5971315902268
 20
186.0371999271717
 10
611.6102398765316
 20
186.0201466743937
 10
611.6240014215737
 20
186.0037501586697
 10
611.6388262823948
 20
185.9875694647676
 10
611.6543163444027
 20
185.9720838181707
 10
611.6704348688284
 20
185.9573201414701
 10
611.6871451169029
 20
185.9433053572569
 10
611.7090853151298
 20
185.9266791580011
 10
611.731926409765
 20
185.9112722897369
 10
611.7555950756833
 20
185.8971381557236
 10
611.7743321512618
 20
185.8871574187081
 10
611.7935353679361
 20
185.8779538716952
 10
611.813166002904
 20
185.8695532189089
 10
611.8331853333634
 20
185.8619811645732
 10
611.8527775596774
 20
185.8555004872479
 10
611.8727122476375
 20
185.8498093052079
 10
611.8929453805168
 20
185.8449298128554
 10
611.9134329415884
 20
185.8408842045921
 10
611.9347757148593
 20
185.8376079014508
 10
611.9563589262617
 20
185.835245231623
 10
611.9781209099305
 20
185.8338143304651
 10
612.0000000000001
 20
185.8333333333333
  0
LINE
  5
1AD
330
17A
100
AcDbEntity
  8
0
  6
Continuous
 62
     7
370
     9
100
AcDbLine
 10
612.0000000000001
 20
185.8333333333333
 30
0.0
 11
613.0000000000001
 21
185.8333333333333
 31
0.0
  0
LWPOLYLINE
  5
1AE
330
17A
100
AcDbEntity
  8
0
  6
Continuous
 62
     7
370
     9
100
AcDbPolyline
 90
       38
 70
     0
 43
0.0
 10
613.5
 20
216.0
 10
613.499730408492
 20
216.0163995322506
 10
613.4989237913261
 20
216.0327792031806
 10
613.4975833845394
 20
216.0490996479651
 10
613.4956802304341
 20
216.0655786264626
 10
613.4932366303178
 20
216.0819577525481
 10
613.4902620710179
 20
216.0981992959302
 10
613.4855106151645
 20
216.1194844313506
 10
613.4798562072381
 20
216.1404735759325
 10
613.4733334278043
 20
216.1610979147025
 10
613.4659768574281
 20
216.1812886326869
 10
613.4574656016524
 20
216.2017999152749
 10
613.4480990352096
 20
216.221818944883
 10
613.4379200999971
 20
216.2412963821328
 10
613.4269717379128
 20
216.2601828876458
 10
613.4152850702764
 20
216.2784549658802
 10
613.4028684097733
 20
216.2961334061617
 10
613.3897601234685
 20
216.3131866589396
 10
613.3759985784263
 20
216.3295831746636
 10
613.3611737176052
 20
216.3457638685658
 10
613.3456836555973
 20
216.3612495151627
 10
613.3295651311718
 20
216.3760131918633
 10
613.3128548830972
 20
216.3900279760764
 10
613.2909146848704
 20
216.4066541753322
 10
613.2680735902351
 20
216.4220610435965
 10
613.2444049243168
 20
216.4361951776098
 10
613.2256678487383
 20
216.4461759146252
 10
613.206464632064
 20
216.4553794616381
 10
613.1868339970961
 20
216.4637801144244
 10
613.1668146666367
 20
216.4713521687601
 10
613.1472224403227
 20
216.4778328460855
 10
613.1272877523626
 20
216.4835240281254
 10
613.1070546194832
 20
216.4884035204779
 10
613.0865670584116
 20
216.4924491287412
 10
613.0652242851409
 20
216.4957254318825
 10
613.0436410737383
 20
216.4980881017103
 10
613.0218790900697
 20
216.4995190028682
 10
613.0000000000001
 20
216.5
  0
LWPOLYLINE
  5
1AF
330
17A
100
AcDbEntity
  8
0
  6
Continuous
 62
     7
370
     9
100
AcDbPolyline
 90
       38
 70
     0
 43
0.0
 10
611.5
 20
243.0
 10
611.5002695915081
 20
242.9836004677494
 10
611.5010762086741
 20
242.9672207968193
 10
611.5024166154607
 20
242.9509003520349
 10
611.504319769566
 20
242.9344213735373
 10
611.5067633696822
 20
242.9180422474519
 10
611.5097379289821
 20
242.9018007040698
 10
611.5144893848357
 20
242.8805155686495
 10
611.5201437927619
 20
242.8595264240674
 10
611.5266665721957
 20
242.8389020852975
 10
611.534023142572
 20
242.8187113673131
 10
611.5425343983476
 20
242.798200084725
 10
611.5519009647905
 20
242.778181055117
 10
611.562079900003
 20
242.7587036178672
 10
611.5730282620873
 20
242.7398171123542
 10
611.5847149297238
 20
242.7215450341198
 10
611.5971315902268
 20
242.7038665938383
 10
611.6102398765316
 20
242.6868133410603
 10
611.6240014215737
 20
242.6704168253364
 10
611.6388262823948
 20
242.6542361314342
 10
611.6543163444027
 20
242.6387504848373
 10
611.6704348688284
 20
242.6239868081367
 10
611.6871451169029
 20
242.6099720239236
 10
611.7090853151298
 20
242.5933458246678
 10
611.731926409765
 20
242.5779389564035
 10
611.7555950756833
 20
242.5638048223902
 10
611.7743321512618
 20
242.5538240853748
 10
611.7935353679361
 20
242.5446205383619
 10
611.813166002904
 20
242.5362198855755
 10
611.8331853333634
 20
242.5286478312398
 10
611.8527775596774
 20
242.5221671539145
 10
611.8727122476375
 20
242.5164759718746
 10
611.8929453805168
 20
242.511596479522
 10
611.9134329415884
 20
242.5075508712588
 10
611.9347757148593
 20
242.5042745681174
 10
611.9563589262617
 20
242.5019118982897
 10
611.9781209099305
 20
242.5004809971318
 10
612.0000000000001
 20
242.5
  0
LWPOLYLINE
  5
1B0
330
17A
100
AcDbEntity
  8
0
  6
Continuous
 62
     7
370
     9
100
AcDbPolyline
 90
       37
 70
     0
 43
0.0
 10
613.0000000000001
 20
242.5
 10
613.0224155775782
 20
242.5005037645465
 10
613.0446965809008
 20
242.5020028528013
 10
613.0667749626333
 20
242.5044789566877
 10
613.0890329182145
 20
242.5079916032163
 10
613.111019975788
 20
242.5124821201988
 10
613.1326765753524
 20
242.5179243561921
 10
613.1533130357478
 20
242.5240862751797
 10
613.1736052897734
 20
242.5311087706089
 10
613.1935105815967
 20
242.5389659448599
 10
613.2129861553846
 20
242.5476319003127
 10
613.2325413132124
 20
242.5573674693422
 10
613.2516282326302
 20
242.5679334754001
 10
613.2702092171719
 20
242.579302970345
 10
613.2882465703711
 20
242.5914490060356
 10
613.3095423857643
 20
242.6073389960944
 10
613.3299905028244
 20
242.624359981194
 10
613.3495259105307
 20
242.6424644942547
 10
613.363880337547
 20
242.6570855913444
 10
613.3776704997175
 20
242.6723361972581
 10
613.3908644066512
 20
242.6881920135152
 10
613.4034300679574
 20
242.7046287416353
 10
613.417877231618
 20
242.7254505907772
 10
613.4313353904572
 20
242.7471194919554
 10
613.4437386399845
 20
242.7695742649236
 10
613.4525448503958
 20
242.7873935188466
 10
613.4606844567198
 20
242.8056628639117
 10
613.468125802132
 20
242.8243395182072
 10
613.4748372298079
 20
242.8433806998214
 10
613.4805271931409
 20
242.8618278013243
 10
613.4855265525329
 20
242.8805834639767
 10
613.4898128097987
 20
242.8995940325907
 10
613.4933634667535
 20
242.9188058519784
 10
613.4962517643265
 20
242.9389167970644
 10
613.4983273682686
 20
242.9592023348287
 10
613.4995801547647
 20
242.9795881681733
 10
613.5
 20
243.0
  0
LINE
  5
1B1
330
17A
100
AcDbEntity
  8
0
  6
Continuous
 62
     7
370
     9
100
AcDbLine
 10
612.0000000000001
 20
106.5
 30
0.0
 11
613.0000000000001
 21
106.5
 31
0.0
  0
LWPOLYLINE
  5
1B2
330
17A
100
AcDbEntity
  8
0
  6
Continuous
 62
     7
370
     9
100
AcDbPolyline
 90
       38
 70
     0
 43
0.0
 10
611.5
 20
152.3333333333333
 10
611.5002695915081
 20
152.3169338010827
 10
611.5010762086741
 20
152.3005541301527
 10
611.5024166154607
 20
152.2842336853683
 10
611.504319769566
 20
152.2677547068707
 10
611.5067633696822
 20
152.2513755807853
 10
611.5097379289821
 20
152.2351340374032
 10
611.5144893848357
 20
152.2138489019828
 10
611.5201437927619
 20
152.1928597574008
 10
611.5266665721957
 20
152.1722354186308
 10
611.534023142572
 20
152.1520447006465
 10
611.5425343983476
 20
152.1315334180584
 10
611.5519009647905
 20
152.1115143884503
 10
611.562079900003
 20
152.0920369512006
 10
611.5730282620873
 20
152.0731504456876
 10
611.5847149297238
 20
152.0548783674531
 10
611.5971315902268
 20
152.0371999271717
 10
611.6102398765316
 20
152.0201466743937
 10
611.6240014215737
 20
152.0037501586697
 10
611.6388262823948
 20
151.9875694647675
 10
611.6543163444027
 20
151.9720838181707
 10
611.6704348688284
 20
151.9573201414701
 10
611.6871451169029
 20
151.9433053572569
 10
611.7090853151298
 20
151.9266791580011
 10
611.7319264097652
 20
151.9112722897368
 10
611.7555950756833
 20
151.8971381557235
 10
611.7743321512618
 20
151.8871574187081
 10
611.7935353679361
 20
151.8779538716952
 10
611.813166002904
 20
151.8695532189089
 10
611.8331853333634
 20
151.8619811645732
 10
611.8527775596774
 20
151.8555004872478
 10
611.8727122476375
 20
151.8498093052079
 10
611.8929453805168
 20
151.8449298128554
 10
611.9134329415884
 20
151.8408842045921
 10
611.9347757148593
 20
151.8376079014507
 10
611.9563589262617
 20
151.835245231623
 10
611.9781209099305
 20
151.8338143304651
 10
612.0000000000001
 20
151.8333333333333
  0
LINE
  5
1B3
330
17A
100
AcDbEntity
  8
0
  6
Continuous
 62
     7
370
     9
100
AcDbLine
 10
612.0000000000001
 20
151.8333333333333
 30
0.0
 11
613.0000000000001
 21
151.8333333333333
 31
0.0
  0
LINE
  5
1B4
330
17A
100
AcDbEntity
  8
0
  6
Continuous
 62
     7
370
     9
100
AcDbLine
 10
613.0000000000001
 20
171.1666666666667
 30
0.0
 11
612.0000000000001
 21
171.1666666666667
 31
0.0
  0
LWPOLYLINE
  5
1B5
330
17A
100
AcDbEntity
  8
0
  6
Continuous
 62
     7
370
     9
100
AcDbPolyline
 90
       37
 70
     0
 43
0.0
 10
612.0000000000001
 20
205.1666666666667
 10
611.9775844224218
 20
205.1661629021202
 10
611.9553034190993
 20
205.1646638138654
 10
611.9332250373668
 20
205.162187709979
 10
611.9109670817855
 20
205.1586750634504
 10
611.888980024212
 20
205.1541845464679
 10
611.8673234246477
 20
205.1487423104745
 10
611.8466869642524
 20
205.142580391487
 10
611.8263947102267
 20
205.1355578960577
 10
611.8064894184034
 20
205.1277007218067
 10
611.7870138446156
 20
205.119034766354
 10
611.7674586867876
 20
205.1092991973244
 10
611.7483717673698
 20
205.0987331912665
 10
611.7297907828283
 20
205.0873636963217
 10
611.7117534296289
 20
205.075217660631
 10
611.6904576142358
 20
205.0593276705723
 10
611.6700094971757
 20
205.0423066854727
 10
611.6504740894694
 20
205.024202172412
 10
611.636119662453
 20
205.0095810753223
 10
611.6223295002826
 20
204.9943304694086
 10
611.6091355933488
 20
204.9784746531515
 10
611.5965699320427
 20
204.9620379250314
 10
611.5821227683821
 20
204.9412160758895
 10
611.5686646095428
 20
204.9195471747113
 10
611.5562613600155
 20
204.8970924017431
 10
611.5474551496043
 20
204.87927314782
 10
611.5393155432802
 20
204.861003802755
 10
611.531874197868
 20
204.8423271484595
 10
611.5251627701922
 20
204.8232859668452
 10
611.5194728068591
 20
204.8048388653424
 10
611.5144734474673
 20
204.78608320269
 10
611.5101871902015
 20
204.767072634076
 10
611.5066365332466
 20
204.7478608146883
 10
611.5037482356736
 20
204.7277498696023
 10
611.5016726317315
 20
204.7074643318379
 10
611.5004198452353
 20
204.6870784984934
 10
611.5
 20
204.6666666666667
  0
LWPOLYLINE
  5
1B6
330
17A
100
AcDbEntity
  8
0
  6
Continuous
 62
     7
370
     9
100
AcDbPolyline
 90
       38
 70
     0
 43
0.0
 10
613.5
 20
204.6666666666667
 10
613.499730408492
 20
204.6830661989173
 10
613.4989237913261
 20
204.6994458698473
 10
613.4975833845394
 20
204.7157663146318
 10
613.4956802304341
 20
204.7322452931293
 10
613.4932366303178
 20
204.7486244192148
 10
613.4902620710179
 20
204.7648659625968
 10
613.4855106151645
 20
204.7861510980172
 10
613.4798562072381
 20
204.8071402425992
 10
613.4733334278043
 20
204.8277645813692
 10
613.4659768574281
 20
204.8479552993536
 10
613.4574656016524
 20
204.8684665819416
 10
613.4480990352096
 20
204.8884856115497
 10
613.4379200999971
 20
204.9079630487994
 10
613.4269717379128
 20
204.9268495543124
 10
613.4152850702764
 20
204.9451216325469
 10
613.4028684097733
 20
204.9628000728283
 10
613.3897601234685
 20
204.9798533256063
 10
613.3759985784263
 20
204.9962498413303
 10
613.3611737176052
 20
205.0124305352325
 10
613.3456836555973
 20
205.0279161818293
 10
613.3295651311718
 20
205.0426798585299
 10
613.3128548830972
 20
205.0566946427431
 10
613.2909146848704
 20
205.0733208419989
 10
613.2680735902351
 20
205.0887277102632
 10
613.2444049243168
 20
205.1028618442764
 10
613.2256678487383
 20
205.1128425812919
 10
613.206464632064
 20
205.1220461283048
 10
613.1868339970961
 20
205.1304467810911
 10
613.1668146666367
 20
205.1380188354268
 10
613.1472224403227
 20
205.1444995127522
 10
613.1272877523626
 20
205.1501906947921
 10
613.1070546194832
 20
205.1550701871446
 10
613.0865670584116
 20
205.1591157954079
 10
613.0652242851409
 20
205.1623920985492
 10
613.0436410737383
 20
205.164754768377
 10
613.0218790900697
 20
205.1661856695349
 10
613.0000000000001
 20
205.1666666666667
  0
LWPOLYLINE
  5
1B7
330
17A
100
AcDbEntity
  8
0
  6
Continuous
 62
     7
370
     9
100
AcDbPolyline
 90
       38
 70
     0
 43
0.0
 10
611.5
 20
231.6666666666667
 10
611.5002695915081
 20
231.650267134416
 10
611.5010762086741
 20
231.633887463486
 10
611.5024166154607
 20
231.6175670187015
 10
611.504319769566
 20
231.6010880402041
 10
611.5067633696822
 20
231.5847089141186
 10
611.5097379289821
 20
231.5684673707365
 10
611.5144893848357
 20
231.5471822353161
 10
611.5201437927619
 20
231.5261930907342
 10
611.5266665721957
 20
231.5055687519642
 10
611.534023142572
 20
231.4853780339798
 10
611.5425343983476
 20
231.4648667513918
 10
611.5519009647905
 20
231.4448477217836
 10
611.562079900003
 20
231.4253702845339
 10
611.5730282620873
 20
231.4064837790209
 10
611.5847149297238
 20
231.3882117007864
 10
611.5971315902268
 20
231.370533260505
 10
611.6102398765316
 20
231.353480007727
 10
611.6240014215737
 20
231.337083492003
 10
611.6388262823948
 20
231.3209027981009
 10
611.6543163444027
 20
231.305417151504
 10
611.6704348688284
 20
231.2906534748034
 10
611.6871451169029
 20
231.2766386905903
 10
611.7090853151298
 20
231.2600124913345
 10
611.731926409765
 20
231.2446056230702
 10
611.7555950756833
 20
231.2304714890569
 10
611.7743321512618
 20
231.2204907520415
 10
611.7935353679361
 20
231.2112872050286
 10
611.813166002904
 20
231.2028865522422
 10
611.8331853333634
 20
231.1953144979065
 10
611.8527775596774
 20
231.1888338205812
 10
611.8727122476375
 20
231.1831426385413
 10
611.8929453805168
 20
231.1782631461887
 10
611.9134329415884
 20
231.1742175379255
 10
611.9347757148593
 20
231.1709412347841
 10
611.9563589262617
 20
231.1685785649563
 10
611.9781209099305
 20
231.1671476637985
 10
612.0000000000001
 20
231.1666666666667
  0
LWPOLYLINE
  5
1B8
330
17A
100
AcDbEntity
  8
0
  6
Continuous
 62
     7
370
     9
100
AcDbPolyline
 90
       37
 70
     0
 43
0.0
 10
613.0000000000001
 20
231.1666666666667
 10
613.0224155775782
 20
231.1671704312132
 10
613.0446965809008
 20
231.168669519468
 10
613.0667749626333
 20
231.1711456233544
 10
613.0890329182145
 20
231.1746582698829
 10
613.111019975788
 20
231.1791487868654
 10
613.1326765753524
 20
231.1845910228588
 10
613.1533130357478
 20
231.1907529418463
 10
613.1736052897734
 20
231.1977754372757
 10
613.1935105815967
 20
231.2056326115266
 10
613.2129861553846
 20
231.2142985669793
 10
613.2325413132124
 20
231.224034136009
 10
613.2516282326302
 20
231.2346001420668
 10
613.2702092171719
 20
231.2459696370117
 10
613.2882465703711
 20
231.2581156727023
 10
613.3095423857643
 20
231.2740056627611
 10
613.3299905028244
 20
231.2910266478607
 10
613.3495259105307
 20
231.3091311609214
 10
613.363880337547
 20
231.3237522580111
 10
613.3776704997175
 20
231.3390028639247
 10
613.3908644066512
 20
231.3548586801818
 10
613.4034300679574
 20
231.371295408302
 10
613.417877231618
 20
231.3921172574439
 10
613.4313353904572
 20
231.413786158622
 10
613.4437386399845
 20
231.4362409315902
 10
613.4525448503958
 20
231.4540601855133
 10
613.4606844567198
 20
231.4723295305784
 10
613.468125802132
 20
231.4910061848739
 10
613.4748372298079
 20
231.5100473664881
 10
613.4805271931409
 20
231.528494467991
 10
613.4855265525329
 20
231.5472501306433
 10
613.4898128097987
 20
231.5662606992574
 10
613.4933634667535
 20
231.585472518645
 10
613.4962517643265
 20
231.6055834637311
 10
613.4983273682686
 20
231.6258690014954
 10
613.4995801547647
 20
231.6462548348399
 10
613.5
 20
231.6666666666667
  0
LWPOLYLINE
  5
1B9
330
17A
100
AcDbEntity
  8
0
  6
Continuous
 62
     7
370
     9
100
AcDbPolyline
 90
       37
 70
     0
 43
0.0
 10
613.0000000000001
 20
163.1666666666667
 10
613.0224155775782
 20
163.1671704312132
 10
613.0446965809008
 20
163.168669519468
 10
613.0667749626333
 20
163.1711456233544
 10
613.0890329182145
 20
163.174658269883
 10
613.111019975788
 20
163.1791487868654
 10
613.1326765753524
 20
163.1845910228588
 10
613.1533130357478
 20
163.1907529418464
 10
613.1736052897735
 20
163.1977754372756
 10
613.1935105815967
 20
163.2056326115266
 10
613.2129861553846
 20
163.2142985669793
 10
613.2325413132124
 20
163.224034136009
 10
613.2516282326302
 20
163.2346001420667
 10
613.2702092171718
 20
163.2459696370117
 10
613.2882465703711
 20
163.2581156727023
 10
613.3095423857643
 20
163.2740056627611
 10
613.3299905028244
 20
163.2910266478607
 10
613.3495259105307
 20
163.3091311609213
 10
613.363880337547
 20
163.3237522580111
 10
613.3776704997175
 20
163.3390028639247
 10
613.3908644066512
 20
163.3548586801818
 10
613.4034300679574
 20
163.3712954083019
 10
613.417877231618
 20
163.3921172574439
 10
613.4313353904572
 20
163.413786158622
 10
613.4437386399845
 20
163.4362409315902
 10
613.4525448503958
 20
163.4540601855133
 10
613.4606844567198
 20
163.4723295305783
 10
613.468125802132
 20
163.4910061848738
 10
613.4748372298079
 20
163.510047366488
 10
613.4805271931409
 20
163.5284944679909
 10
613.4855265525329
 20
163.5472501306433
 10
613.4898128097987
 20
163.5662606992573
 10
613.4933634667535
 20
163.585472518645
 10
613.4962517643265
 20
163.6055834637311
 10
613.4983273682686
 20
163.6258690014954
 10
613.4995801547647
 20
163.6462548348399
 10
613.5
 20
163.6666666666667
  0
LINE
  5
1BA
330
17A
100
AcDbEntity
  8
0
  6
Continuous
 62
     7
370
     9
100
AcDbLine
 10
613.0000000000001
 20
137.1666666666667
 30
0.0
 11
612.0000000000001
 21
137.1666666666667
 31
0.0
  0
LWPOLYLINE
  5
1BB
330
17A
100
AcDbEntity
  8
0
  6
Continuous
 62
     7
370
     9
100
AcDbPolyline
 90
       38
 70
     0
 43
0.0
 10
613.5
 20
136.6666666666667
 10
613.499730408492
 20
136.6830661989173
 10
613.4989237913261
 20
136.6994458698473
 10
613.4975833845394
 20
136.7157663146317
 10
613.4956802304341
 20
136.7322452931293
 10
613.4932366303178
 20
136.7486244192147
 10
613.4902620710179
 20
136.7648659625968
 10
613.4855106151645
 20
136.7861510980172
 10
613.4798562072381
 20
136.8071402425992
 10
613.4733334278043
 20
136.8277645813691
 10
613.4659768574281
 20
136.8479552993535
 10
613.4574656016525
 20
136.8684665819416
 10
613.4480990352096
 20
136.8884856115496
 10
613.4379200999971
 20
136.9079630487994
 10
613.4269717379128
 20
136.9268495543124
 10
613.4152850702764
 20
136.9451216325469
 10
613.4028684097733
 20
136.9628000728283
 10
613.3897601234685
 20
136.9798533256063
 10
613.3759985784263
 20
136.9962498413303
 10
613.3611737176052
 20
137.0124305352324
 10
613.3456836555973
 20
137.0279161818293
 10
613.3295651311718
 20
137.0426798585299
 10
613.3128548830972
 20
137.0566946427431
 10
613.2909146848704
 20
137.0733208419989
 10
613.2680735902351
 20
137.0887277102632
 10
613.2444049243168
 20
137.1028618442764
 10
613.2256678487383
 20
137.1128425812919
 10
613.206464632064
 20
137.1220461283048
 10
613.1868339970961
 20
137.1304467810911
 10
613.1668146666367
 20
137.1380188354268
 10
613.1472224403227
 20
137.1444995127521
 10
613.1272877523626
 20
137.1501906947921
 10
613.1070546194832
 20
137.1550701871446
 10
613.0865670584116
 20
137.1591157954079
 10
613.0652242851409
 20
137.1623920985492
 10
613.0436410737383
 20
137.164754768377
 10
613.0218790900697
 20
137.1661856695349
 10
613.0000000000001
 20
137.1666666666667
  0
LWPOLYLINE
  5
1BC
330
17A
100
AcDbEntity
  8
0
  6
Continuous
 62
     7
370
     9
100
AcDbPolyline
 90
       38
 70
     0
 43
0.0
 10
613.5
 20
238.6666666666667
 10
613.499730408492
 20
238.6830661989173
 10
613.4989237913261
 20
238.6994458698473
 10
613.4975833845394
 20
238.7157663146318
 10
613.4956802304341
 20
238.7322452931293
 10
613.4932366303178
 20
238.7486244192147
 10
613.4902620710179
 20
238.7648659625968
 10
613.4855106151645
 20
238.7861510980172
 10
613.4798562072381
 20
238.8071402425992
 10
613.4733334278043
 20
238.8277645813692
 10
613.4659768574281
 20
238.8479552993536
 10
613.4574656016524
 20
238.8684665819416
 10
613.4480990352096
 20
238.8884856115497
 10
613.4379200999971
 20
238.9079630487994
 10
613.4269717379128
 20
238.9268495543124
 10
613.4152850702764
 20
238.9451216325469
 10
613.4028684097733
 20
238.9628000728283
 10
613.3897601234685
 20
238.9798533256063
 10
613.3759985784263
 20
238.9962498413303
 10
613.3611737176052
 20
239.0124305352324
 10
613.3456836555973
 20
239.0279161818293
 10
613.3295651311718
 20
239.0426798585299
 10
613.3128548830972
 20
239.0566946427431
 10
613.2909146848704
 20
239.0733208419989
 10
613.2680735902351
 20
239.0887277102632
 10
613.2444049243168
 20
239.1028618442764
 10
613.2256678487383
 20
239.1128425812918
 10
613.206464632064
 20
239.1220461283048
 10
613.1868339970961
 20
239.1304467810911
 10
613.1668146666367
 20
239.1380188354268
 10
613.1472224403227
 20
239.1444995127521
 10
613.1272877523626
 20
239.1501906947921
 10
613.1070546194832
 20
239.1550701871446
 10
613.0865670584116
 20
239.1591157954079
 10
613.0652242851409
 20
239.1623920985492
 10
613.0436410737383
 20
239.164754768377
 10
613.0218790900697
 20
239.1661856695349
 10
613.0000000000001
 20
239.1666666666667
  0
LWPOLYLINE
  5
1BD
330
17A
100
AcDbEntity
  8
0
  6
Continuous
 62
     7
370
     9
100
AcDbPolyline
 90
       37
 70
     0
 43
0.0
 10
613.0000000000001
 20
83.83333333333333
 10
613.0224155775782
 20
83.83383709787978
 10
613.0446965809008
 20
83.83533618613461
 10
613.0667749626333
 20
83.83781229002102
 10
613.0890329182145
 20
83.84132493654961
 10
613.111019975788
 20
83.84581545353208
 10
613.1326765753524
 20
83.85125768952547
 10
613.1533130357478
 20
83.85741960851303
 10
613.1736052897734
 20
83.86444210394228
 10
613.1935105815967
 20
83.87229927819324
 10
613.2129861553846
 20
83.880965233646
 10
613.2325413132124
 20
83.8907008026756
 10
613.2516282326302
 20
83.90126680873344
 10
613.2702092171718
 20
83.91263630367828
 10
613.2882465703711
 20
83.92478233936896
 10
613.3095423857643
 20
83.94067232942771
 10
613.3299905028244
 20
83.95769331452733
 10
613.3495259105307
 20
83.97579782758801
 10
613.363880337547
 20
83.99041892467775
 10
613.3776704997175
 20
84.00566953059139
 10
613.3908644066512
 20
84.02152534684849
 10
613.4034300679574
 20
84.0379620749686
 10
613.417877231618
 20
84.0587839241105
 10
613.4313353904572
 20
84.0804528252887
 10
613.4437386399845
 20
84.10290759825686
 10
613.4525448503958
 20
84.12072685217993
 10
613.4606844567198
 20
84.13899619724502
 10
613.468125802132
 20
84.1576728515405
 10
613.4748372298079
 20
84.17671403315471
 10
613.4805271931409
 20
84.19516113465755
 10
613.4855265525329
 20
84.21391679730998
 10
613.4898128097987
 20
84.23292736592401
 10
613.4933634667535
 20
84.25213918531172
 10
613.4962517643265
 20
84.27225013039774
 10
613.4983273682686
 20
84.29253566816205
 10
613.4995801547647
 20
84.31292150150658
 10
613.5
 20
84.33333333333333
  0
LWPOLYLINE
  5
1BE
330
17A
100
AcDbEntity
  8
0
  6
Continuous
 62
     7
370
     9
100
AcDbPolyline
 90
       38
 70
     0
 43
0.0
 10
611.5
 20
84.33333333333331
 10
611.5002695915081
 20
84.31693380108268
 10
611.5010762086741
 20
84.30055413015268
 10
611.5024166154607
 20
84.28423368536825
 10
611.504319769566
 20
84.26775470687073
 10
611.5067633696822
 20
84.25137558078526
 10
611.5097379289821
 20
84.23513403740318
 10
611.5144893848357
 20
84.2138489019828
 10
611.5201437927619
 20
84.19285975740083
 10
611.5266665721957
 20
84.17223541863083
 10
611.534023142572
 20
84.15204470064647
 10
611.5425343983476
 20
84.1315334180584
 10
611.5519009647905
 20
84.11151438845033
 10
611.562079900003
 20
84.09203695120057
 10
611.5730282620873
 20
84.07315044568756
 10
611.5847149297238
 20
84.0548783674531
 10
611.5971315902268
 20
84.03719992717164
 10
611.6102398765316
 20
84.02014667439366
 10
611.6240014215737
 20
84.00375015866967
 10
611.6388262823948
 20
83.98756946476755
 10
611.6543163444027
 20
83.97208381817065
 10
611.6704348688284
 20
83.95732014147008
 10
611.6871451169029
 20
83.94330535725692
 10
611.7090853151298
 20
83.92667915800112
 10
611.731926409765
 20
83.91127228973684
 10
611.7555950756833
 20
83.89713815572355
 10
611.7743321512618
 20
83.88715741870814
 10
611.7935353679361
 20
83.87795387169524
 10
611.813166002904
 20
83.86955321890889
 10
611.8331853333634
 20
83.8619811645732
 10
611.8527775596774
 20
83.85550048724785
 10
611.8727122476375
 20
83.84980930520794
 10
611.8929453805168
 20
83.84492981285538
 10
611.9134329415884
 20
83.84088420459211
 10
611.9347757148593
 20
83.83760790145075
 10
611.9563589262617
 20
83.835245231623
 10
611.9781209099305
 20
83.83381433046512
 10
612.0000000000001
 20
83.83333333333333
  0
LWPOLYLINE
  5
1BF
330
17A
100
AcDbEntity
  8
0
  6
Continuous
 62
     7
370
     9
100
AcDbPolyline
 90
       38
 70
     0
 43
0.0
 10
611.5
 20
220.3333333333333
 10
611.5002695915081
 20
220.3169338010827
 10
611.5010762086741
 20
220.3005541301527
 10
611.5024166154607
 20
220.2842336853682
 10
611.504319769566
 20
220.2677547068707
 10
611.5067633696822
 20
220.2513755807852
 10
611.5097379289821
 20
220.2351340374031
 10
611.5144893848357
 20
220.2138489019828
 10
611.5201437927619
 20
220.1928597574008
 10
611.5266665721957
 20
220.1722354186308
 10
611.534023142572
 20
220.1520447006464
 10
611.5425343983476
 20
220.1315334180584
 10
611.5519009647905
 20
220.1115143884503
 10
611.562079900003
 20
220.0920369512006
 10
611.5730282620873
 20
220.0731504456875
 10
611.5847149297238
 20
220.0548783674531
 10
611.5971315902268
 20
220.0371999271716
 10
611.6102398765316
 20
220.0201466743937
 10
611.6240014215737
 20
220.0037501586697
 10
611.6388262823948
 20
219.9875694647675
 10
611.6543163444027
 20
219.9720838181706
 10
611.6704348688284
 20
219.9573201414701
 10
611.6871451169029
 20
219.9433053572569
 10
611.7090853151298
 20
219.9266791580011
 10
611.731926409765
 20
219.9112722897368
 10
611.7555950756833
 20
219.8971381557235
 10
611.7743321512618
 20
219.8871574187081
 10
611.7935353679361
 20
219.8779538716952
 10
611.813166002904
 20
219.8695532189089
 10
611.8331853333634
 20
219.8619811645732
 10
611.8527775596774
 20
219.8555004872478
 10
611.8727122476375
 20
219.8498093052079
 10
611.8929453805168
 20
219.8449298128554
 10
611.9134329415884
 20
219.8408842045921
 10
611.9347757148593
 20
219.8376079014508
 10
611.9563589262617
 20
219.835245231623
 10
611.9781209099305
 20
219.8338143304651
 10
612.0000000000001
 20
219.8333333333333
  0
LWPOLYLINE
  5
1C0
330
17A
100
AcDbEntity
  8
0
  6
Continuous
 62
     7
370
     9
100
AcDbPolyline
 90
       38
 70
     0
 43
0.0
 10
611.5
 20
129.6666666666667
 10
611.5002695915081
 20
129.650267134416
 10
611.5010762086741
 20
129.633887463486
 10
611.5024166154607
 20
129.6175670187016
 10
611.504319769566
 20
129.6010880402041
 10
611.5067633696822
 20
129.5847089141186
 10
611.5097379289821
 20
129.5684673707365
 10
611.5144893848357
 20
129.5471822353161
 10
611.5201437927619
 20
129.5261930907342
 10
611.5266665721957
 20
129.5055687519642
 10
611.534023142572
 20
129.4853780339798
 10
611.5425343983476
 20
129.4648667513917
 10
611.5519009647905
 20
129.4448477217836
 10
611.562079900003
 20
129.4253702845339
 10
611.5730282620873
 20
129.4064837790209
 10
611.5847149297238
 20
129.3882117007864
 10
611.5971315902268
 20
129.370533260505
 10
611.6102398765316
 20
129.353480007727
 10
611.6240014215737
 20
129.337083492003
 10
611.6388262823948
 20
129.3209027981009
 10
611.6543163444027
 20
129.3054171515039
 10
611.6704348688284
 20
129.2906534748034
 10
611.6871451169029
 20
129.2766386905903
 10
611.7090853151298
 20
129.2600124913344
 10
611.7319264097652
 20
129.2446056230702
 10
611.7555950756833
 20
129.2304714890569
 10
611.7743321512618
 20
129.2204907520415
 10
611.7935353679361
 20
129.2112872050286
 10
611.813166002904
 20
129.2028865522422
 10
611.8331853333634
 20
129.1953144979065
 10
611.8527775596774
 20
129.1888338205812
 10
611.8727122476375
 20
129.1831426385413
 10
611.8929453805168
 20
129.1782631461887
 10
611.9134329415884
 20
129.1742175379255
 10
611.9347757148593
 20
129.1709412347841
 10
611.9563589262617
 20
129.1685785649563
 10
611.9781209099305
 20
129.1671476637984
 10
612.0000000000001
 20
129.1666666666667
  0
LINE
  5
1C1
330
17A
100
AcDbEntity
  8
0
  6
Continuous
 62
     7
370
     9
100
AcDbLine
 10
613.0000000000001
 20
125.8333333333333
 30
0.0
 11
612.0000000000001
 21
125.8333333333333
 31
0.0
  0
LWPOLYLINE
  5
1C2
330
17A
100
AcDbEntity
  8
0
  6
Continuous
 62
     7
370
     9
100
AcDbPolyline
 90
       37
 70
     0
 43
0.0
 10
612.0000000000001
 20
250.5
 10
611.9775844224218
 20
250.4994962354535
 10
611.9553034190993
 20
250.4979971471987
 10
611.9332250373668
 20
250.4955210433123
 10
611.9109670817855
 20
250.4920083967837
 10
611.888980024212
 20
250.4875178798013
 10
611.8673234246477
 20
250.4820756438079
 10
611.8466869642524
 20
250.4759137248203
 10
611.8263947102267
 20
250.4688912293911
 10
611.8064894184034
 20
250.4610340551401
 10
611.7870138446156
 20
250.4523680996873
 10
611.7674586867876
 20
250.4426325306578
 10
611.7483717673698
 20
250.4320665245999
 10
611.7297907828283
 20
250.420697029655
 10
611.7117534296289
 20
250.4085509939644
 10
611.6904576142358
 20
250.3926610039057
 10
611.6700094971757
 20
250.375640018806
 10
611.6504740894694
 20
250.3575355057453
 10
611.636119662453
 20
250.3429144086556
 10
611.6223295002826
 20
250.327663802742
 10
611.6091355933488
 20
250.3118079864849
 10
611.5965699320427
 20
250.2953712583648
 10
611.5821227683821
 20
250.2745494092229
 10
611.5686646095428
 20
250.2528805080447
 10
611.5562613600155
 20
250.2304257350765
 10
611.5474551496043
 20
250.2126064811534
 10
611.5393155432802
 20
250.1943371360883
 10
611.531874197868
 20
250.1756604817928
 10
611.5251627701922
 20
250.1566193001786
 10
611.5194728068591
 20
250.1381721986757
 10
611.5144734474673
 20
250.1194165360233
 10
611.5101871902015
 20
250.1004059674093
 10
611.5066365332466
 20
250.0811941480217
 10
611.5037482356736
 20
250.0610832029356
 10
611.5016726317315
 20
250.0407976651713
 10
611.5004198452353
 20
250.0204118318268
 10
611.5
 20
250.0
  0
LWPOLYLINE
  5
1C3
330
17A
100
AcDbEntity
  8
0
  6
Continuous
 62
     7
370
     9
100
AcDbPolyline
 90
       38
 70
     0
 43
0.0
 10
613.5
 20
250.0
 10
613.499730408492
 20
250.0163995322506
 10
613.4989237913261
 20
250.0327792031806
 10
613.4975833845394
 20
250.0490996479651
 10
613.4956802304341
 20
250.0655786264626
 10
613.4932366303178
 20
250.081957752548
 10
613.4902620710179
 20
250.0981992959302
 10
613.4855106151645
 20
250.1194844313506
 10
613.4798562072381
 20
250.1404735759326
 10
613.4733334278043
 20
250.1610979147025
 10
613.4659768574281
 20
250.1812886326869
 10
613.4574656016524
 20
250.2017999152749
 10
613.4480990352096
 20
250.221818944883
 10
613.4379200999971
 20
250.2412963821328
 10
613.4269717379128
 20
250.2601828876458
 10
613.4152850702764
 20
250.2784549658802
 10
613.4028684097733
 20
250.2961334061617
 10
613.3897601234685
 20
250.3131866589396
 10
613.3759985784263
 20
250.3295831746636
 10
613.3611737176052
 20
250.3457638685658
 10
613.3456836555973
 20
250.3612495151627
 10
613.3295651311718
 20
250.3760131918633
 10
613.3128548830972
 20
250.3900279760764
 10
613.2909146848704
 20
250.4066541753322
 10
613.2680735902351
 20
250.4220610435965
 10
613.2444049243168
 20
250.4361951776098
 10
613.2256678487383
 20
250.4461759146252
 10
613.206464632064
 20
250.4553794616381
 10
613.1868339970961
 20
250.4637801144244
 10
613.1668146666367
 20
250.4713521687601
 10
613.1472224403227
 20
250.4778328460855
 10
613.1272877523626
 20
250.4835240281254
 10
613.1070546194832
 20
250.488403520478
 10
613.0865670584116
 20
250.4924491287412
 10
613.0652242851409
 20
250.4957254318826
 10
613.0436410737383
 20
250.4980881017103
 10
613.0218790900697
 20
250.4995190028682
 10
613.0000000000001
 20
250.5
  0
LINE
  5
1C4
330
17A
100
AcDbEntity
  8
0
  6
Continuous
 62
     7
370
     9
100
AcDbLine
 10
613.0000000000001
 20
193.8333333333333
 30
0.0
 11
612.0000000000001
 21
193.8333333333333
 31
0.0
  0
LWPOLYLINE
  5
1C5
330
17A
100
AcDbEntity
  8
0
  6
Continuous
 62
     7
370
     9
100
AcDbPolyline
 90
       37
 70
     0
 43
0.0
 10
613.0000000000001
 20
95.16666666666666
 10
613.0224155775782
 20
95.16717043121311
 10
613.0446965809008
 20
95.16866951946795
 10
613.0667749626333
 20
95.17114562335435
 10
613.0890329182145
 20
95.17465826988294
 10
613.111019975788
 20
95.17914878686543
 10
613.1326765753524
 20
95.18459102285881
 10
613.1533130357478
 20
95.19075294184637
 10
613.1736052897735
 20
95.19777543727561
 10
613.1935105815967
 20
95.2056326115266
 10
613.2129861553846
 20
95.21429856697932
 10
613.2325413132124
 20
95.22403413600894
 10
613.2516282326302
 20
95.23460014206678
 10
613.2702092171718
 20
95.24596963701164
 10
613.2882465703711
 20
95.25811567270232
 10
613.3095423857643
 20
95.27400566276106
 10
613.3299905028244
 20
95.29102664786068
 10
613.3495259105308
 20
95.30913116092135
 10
613.363880337547
 20
95.3237522580111
 10
613.3776704997175
 20
95.33900286392473
 10
613.3908644066512
 20
95.35485868018182
 10
613.4034300679574
 20
95.37129540830195
 10
613.417877231618
 20
95.39211725744384
 10
613.4313353904572
 20
95.41378615862202
 10
613.4437386399845
 20
95.43624093159019
 10
613.4525448503958
 20
95.45406018551326
 10
613.4606844567198
 20
95.47232953057835
 10
613.468125802132
 20
95.49100618487383
 10
613.4748372298079
 20
95.51004736648805
 10
613.4805271931409
 20
95.52849446799088
 10
613.4855265525329
 20
95.54725013064332
 10
613.4898128097987
 20
95.56626069925734
 10
613.4933634667535
 20
95.58547251864505
 10
613.4962517643265
 20
95.60558346373108
 10
613.4983273682686
 20
95.62586900149537
 10
613.4995801547647
 20
95.64625483483992
 10
613.5
 20
95.66666666666666
  0
LWPOLYLINE
  5
1C6
330
17A
100
AcDbEntity
  8
0
  6
Continuous
 62
     7
370
     9
100
AcDbPolyline
 90
       38
 70
     0
 43
0.0
 10
611.5
 20
95.66666666666664
 10
611.5002695915081
 20
95.65026713441601
 10
611.5010762086741
 20
95.63388746348602
 10
611.5024166154607
 20
95.61756701870158
 10
611.504319769566
 20
95.60108804020406
 10
611.5067633696822
 20
95.58470891411861
 10
611.5097379289821
 20
95.56846737073651
 10
611.5144893848357
 20
95.54718223531613
 10
611.5201437927619
 20
95.52619309073415
 10
611.5266665721957
 20
95.50556875196416
 10
611.534023142572
 20
95.4853780339798
 10
611.5425343983476
 20
95.46486675139174
 10
611.5519009647905
 20
95.44484772178366
 10
611.562079900003
 20
95.4253702845339
 10
611.5730282620873
 20
95.40648377902089
 10
611.5847149297238
 20
95.38821170078643
 10
611.5971315902268
 20
95.37053326050498
 10
611.6102398765316
 20
95.353480007727
 10
611.6240014215737
 20
95.337083492003
 10
611.6388262823948
 20
95.32090279810089
 10
611.6543163444027
 20
95.30541715150397
 10
611.6704348688284
 20
95.2906534748034
 10
611.6871451169029
 20
95.27663869059025
 10
611.7090853151298
 20
95.26001249133445
 10
611.731926409765
 20
95.24460562307017
 10
611.7555950756833
 20
95.23047148905688
 10
611.7743321512618
 20
95.22049075204147
 10
611.7935353679361
 20
95.21128720502857
 10
611.813166002904
 20
95.20288655224222
 10
611.8331853333634
 20
95.19531449790652
 10
611.8527775596774
 20
95.18883382058117
 10
611.8727122476375
 20
95.18314263854127
 10
611.8929453805168
 20
95.17826314618871
 10
611.9134329415884
 20
95.17421753792544
 10
611.9347757148593
 20
95.17094123478408
 10
611.9563589262617
 20
95.16857856495633
 10
611.9781209099305
 20
95.16714766379845
 10
612.0000000000001
 20
95.16666666666666
  0
LWPOLYLINE
  5
1C7
330
17A
100
AcDbEntity
  8
0
  6
Continuous
 62
     7
370
     9
100
AcDbPolyline
 90
       38
 70
     0
 43
0.0
 10
611.5
 20
209.0
 10
611.5002695915081
 20
208.9836004677493
 10
611.5010762086741
 20
208.9672207968193
 10
611.5024166154607
 20
208.9509003520349
 10
611.504319769566
 20
208.9344213735374
 10
611.5067633696822
 20
208.9180422474519
 10
611.5097379289821
 20
208.9018007040698
 10
611.5144893848357
 20
208.8805155686495
 10
611.5201437927619
 20
208.8595264240675
 10
611.5266665721957
 20
208.8389020852975
 10
611.534023142572
 20
208.8187113673131
 10
611.5425343983476
 20
208.798200084725
 10
611.5519009647905
 20
208.778181055117
 10
611.562079900003
 20
208.7587036178672
 10
611.5730282620873
 20
208.7398171123542
 10
611.5847149297238
 20
208.7215450341198
 10
611.5971315902268
 20
208.7038665938383
 10
611.6102398765316
 20
208.6868133410604
 10
611.6240014215737
 20
208.6704168253364
 10
611.6388262823948
 20
208.6542361314342
 10
611.6543163444027
 20
208.6387504848373
 10
611.6704348688284
 20
208.6239868081367
 10
611.6871451169029
 20
208.6099720239236
 10
611.7090853151298
 20
208.5933458246678
 10
611.731926409765
 20
208.5779389564035
 10
611.7555950756833
 20
208.5638048223902
 10
611.7743321512618
 20
208.5538240853748
 10
611.7935353679361
 20
208.5446205383619
 10
611.813166002904
 20
208.5362198855756
 10
611.8331853333634
 20
208.5286478312399
 10
611.8527775596774
 20
208.5221671539145
 10
611.8727122476375
 20
208.5164759718746
 10
611.8929453805168
 20
208.511596479522
 10
611.9134329415884
 20
208.5075508712588
 10
611.9347757148593
 20
208.5042745681175
 10
611.9563589262617
 20
208.5019118982897
 10
611.9781209099305
 20
208.5004809971318
 10
612.0000000000001
 20
208.5
  0
LWPOLYLINE
  5
1C8
330
17A
100
AcDbEntity
  8
0
  6
Continuous
 62
     7
370
     9
100
AcDbPolyline
 90
       38
 70
     0
 43
0.0
 10
611.5
 20
141.0
 10
611.5002695915081
 20
140.9836004677494
 10
611.5010762086741
 20
140.9672207968193
 10
611.5024166154607
 20
140.9509003520349
 10
611.504319769566
 20
140.9344213735374
 10
611.5067633696822
 20
140.918042247452
 10
611.5097379289821
 20
140.9018007040698
 10
611.5144893848357
 20
140.8805155686494
 10
611.5201437927619
 20
140.8595264240675
 10
611.5266665721957
 20
140.8389020852975
 10
611.534023142572
 20
140.8187113673131
 10
611.5425343983476
 20
140.7982000847251
 10
611.5519009647905
 20
140.778181055117
 10
611.562079900003
 20
140.7587036178672
 10
611.5730282620873
 20
140.7398171123542
 10
611.5847149297238
 20
140.7215450341198
 10
611.5971315902268
 20
140.7038665938383
 10
611.6102398765316
 20
140.6868133410603
 10
611.6240014215737
 20
140.6704168253363
 10
611.6388262823948
 20
140.6542361314342
 10
611.6543163444027
 20
140.6387504848373
 10
611.6704348688284
 20
140.6239868081367
 10
611.6871451169029
 20
140.6099720239236
 10
611.7090853151298
 20
140.5933458246678
 10
611.7319264097652
 20
140.5779389564035
 10
611.7555950756833
 20
140.5638048223902
 10
611.7743321512618
 20
140.5538240853748
 10
611.7935353679361
 20
140.5446205383619
 10
611.813166002904
 20
140.5362198855756
 10
611.8331853333634
 20
140.5286478312399
 10
611.8527775596774
 20
140.5221671539145
 10
611.8727122476375
 20
140.5164759718746
 10
611.8929453805168
 20
140.511596479522
 10
611.9134329415884
 20
140.5075508712588
 10
611.9347757148593
 20
140.5042745681174
 10
611.9563589262617
 20
140.5019118982896
 10
611.9781209099305
 20
140.5004809971318
 10
612.0000000000001
 20
140.5
  0
LINE
  5
1C9
330
17A
100
AcDbEntity
  8
0
  6
Continuous
 62
     7
370
     9
100
AcDbLine
 10
612.0000000000001
 20
140.5
 30
0.0
 11
613.0000000000001
 21
140.5
 31
0.0
  0
LWPOLYLINE
  5
1CA
330
17A
100
AcDbEntity
  8
0
  6
Continuous
 62
     7
370
     9
100
AcDbPolyline
 90
       37
 70
     0
 43
0.0
 10
612.0000000000001
 20
114.5
 10
611.9775844224218
 20
114.4994962354535
 10
611.9553034190993
 20
114.4979971471987
 10
611.9332250373668
 20
114.4955210433123
 10
611.9109670817855
 20
114.4920083967837
 10
611.888980024212
 20
114.4875178798012
 10
611.8673234246477
 20
114.4820756438078
 10
611.8466869642523
 20
114.4759137248203
 10
611.8263947102267
 20
114.468891229391
 10
611.8064894184034
 20
114.4610340551401
 10
611.7870138446156
 20
114.4523680996873
 10
611.7674586867876
 20
114.4426325306577
 10
611.7483717673698
 20
114.4320665245999
 10
611.7297907828283
 20
114.420697029655
 10
611.7117534296289
 20
114.4085509939644
 10
611.6904576142358
 20
114.3926610039056
 10
611.6700094971757
 20
114.375640018806
 10
611.6504740894694
 20
114.3575355057453
 10
611.636119662453
 20
114.3429144086556
 10
611.6223295002826
 20
114.3276638027419
 10
611.6091355933488
 20
114.3118079864848
 10
611.5965699320427
 20
114.2953712583647
 10
611.5821227683821
 20
114.2745494092228
 10
611.5686646095428
 20
114.2528805080446
 10
611.5562613600155
 20
114.2304257350764
 10
611.5474551496043
 20
114.2126064811534
 10
611.5393155432802
 20
114.1943371360883
 10
611.531874197868
 20
114.1756604817928
 10
611.5251627701922
 20
114.1566193001786
 10
611.5194728068591
 20
114.1381721986757
 10
611.5144734474673
 20
114.1194165360233
 10
611.5101871902015
 20
114.1004059674093
 10
611.5066365332466
 20
114.0811941480216
 10
611.5037482356736
 20
114.0610832029356
 10
611.5016726317315
 20
114.0407976651713
 10
611.5004198452353
 20
114.0204118318267
 10
611.5
 20
114.0
  0
LWPOLYLINE
  5
1CB
330
17A
100
AcDbEntity
  8
0
  6
Continuous
 62
     7
370
     9
100
AcDbPolyline
 90
       37
 70
     0
 43
0.0
 10
612.0000000000001
 20
216.5
 10
611.9775844224218
 20
216.4994962354536
 10
611.9553034190993
 20
216.4979971471987
 10
611.9332250373668
 20
216.4955210433123
 10
611.9109670817855
 20
216.4920083967837
 10
611.888980024212
 20
216.4875178798012
 10
611.8673234246477
 20
216.4820756438079
 10
611.8466869642524
 20
216.4759137248203
 10
611.8263947102267
 20
216.4688912293911
 10
611.8064894184034
 20
216.4610340551401
 10
611.7870138446156
 20
216.4523680996873
 10
611.7674586867876
 20
216.4426325306577
 10
611.7483717673698
 20
216.4320665245999
 10
611.7297907828283
 20
216.420697029655
 10
611.7117534296289
 20
216.4085509939644
 10
611.6904576142358
 20
216.3926610039056
 10
611.6700094971757
 20
216.375640018806
 10
611.6504740894694
 20
216.3575355057453
 10
611.636119662453
 20
216.3429144086556
 10
611.6223295002826
 20
216.3276638027419
 10
611.6091355933488
 20
216.3118079864849
 10
611.5965699320427
 20
216.2953712583647
 10
611.5821227683821
 20
216.2745494092229
 10
611.5686646095428
 20
216.2528805080446
 10
611.5562613600155
 20
216.2304257350764
 10
611.5474551496043
 20
216.2126064811534
 10
611.5393155432802
 20
216.1943371360883
 10
611.531874197868
 20
216.1756604817928
 10
611.5251627701922
 20
216.1566193001786
 10
611.5194728068591
 20
216.1381721986758
 10
611.5144734474673
 20
216.1194165360234
 10
611.5101871902015
 20
216.1004059674093
 10
611.5066365332466
 20
216.0811941480216
 10
611.5037482356736
 20
216.0610832029356
 10
611.5016726317315
 20
216.0407976651713
 10
611.5004198452353
 20
216.0204118318267
 10
611.5
 20
216.0
  0
LWPOLYLINE
  5
1CC
330
17A
100
AcDbEntity
  8
0
  6
Continuous
 62
     7
370
     9
100
AcDbPolyline
 90
       37
 70
     0
 43
0.0
 10
612.0000000000001
 20
159.8333333333333
 10
611.9775844224218
 20
159.8328295687868
 10
611.9553034190993
 20
159.831330480532
 10
611.9332250373668
 20
159.8288543766456
 10
611.9109670817855
 20
159.8253417301171
 10
611.888980024212
 20
159.8208512131345
 10
611.8673234246477
 20
159.8154089771412
 10
611.8466869642523
 20
159.8092470581536
 10
611.8263947102267
 20
159.8022245627243
 10
611.8064894184034
 20
159.7943673884734
 10
611.7870138446156
 20
159.7857014330207
 10
611.7674586867876
 20
159.7759658639911
 10
611.7483717673698
 20
159.7653998579332
 10
611.7297907828283
 20
159.7540303629883
 10
611.7117534296289
 20
159.7418843272977
 10
611.6904576142358
 20
159.7259943372389
 10
611.6700094971757
 20
159.7089733521393
 10
611.6504740894694
 20
159.6908688390786
 10
611.636119662453
 20
159.6762477419889
 10
611.6223295002826
 20
159.6609971360753
 10
611.6091355933488
 20
159.6451413198182
 10
611.5965699320427
 20
159.628704591698
 10
611.5821227683821
 20
159.6078827425562
 10
611.5686646095428
 20
159.5862138413779
 10
611.5562613600155
 20
159.5637590684098
 10
611.5474551496043
 20
159.5459398144867
 10
611.5393155432802
 20
159.5276704694216
 10
611.531874197868
 20
159.5089938151261
 10
611.5251627701922
 20
159.489952633512
 10
611.5194728068591
 20
159.4715055320091
 10
611.5144734474673
 20
159.4527498693567
 10
611.5101871902015
 20
159.4337393007426
 10
611.5066365332466
 20
159.414527481355
 10
611.5037482356736
 20
159.3944165362689
 10
611.5016726317315
 20
159.3741309985046
 10
611.5004198452353
 20
159.3537451651601
 10
611.5
 20
159.3333333333333
  0
LWPOLYLINE
  5
1CD
330
17A
100
AcDbEntity
  8
0
  6
Continuous
 62
     7
370
     9
100
AcDbPolyline
 90
       37
 70
     0
 43
0.0
 10
612.0000000000001
 20
182.5
 10
611.9775844224218
 20
182.4994962354536
 10
611.9553034190993
 20
182.4979971471987
 10
611.9332250373668
 20
182.4955210433123
 10
611.9109670817855
 20
182.4920083967837
 10
611.888980024212
 20
182.4875178798012
 10
611.8673234246477
 20
182.4820756438079
 10
611.8466869642524
 20
182.4759137248203
 10
611.8263947102267
 20
182.4688912293911
 10
611.8064894184034
 20
182.4610340551401
 10
611.7870138446156
 20
182.4523680996873
 10
611.7674586867876
 20
182.4426325306577
 10
611.7483717673698
 20
182.4320665245999
 10
611.7297907828283
 20
182.420697029655
 10
611.7117534296289
 20
182.4085509939644
 10
611.6904576142358
 20
182.3926610039056
 10
611.6700094971757
 20
182.375640018806
 10
611.6504740894694
 20
182.3575355057453
 10
611.636119662453
 20
182.3429144086556
 10
611.6223295002826
 20
182.3276638027419
 10
611.6091355933488
 20
182.3118079864848
 10
611.5965699320427
 20
182.2953712583647
 10
611.5821227683821
 20
182.2745494092229
 10
611.5686646095428
 20
182.2528805080446
 10
611.5562613600155
 20
182.2304257350764
 10
611.5474551496043
 20
182.2126064811534
 10
611.5393155432802
 20
182.1943371360883
 10
611.531874197868
 20
182.1756604817928
 10
611.5251627701922
 20
182.1566193001786
 10
611.5194728068591
 20
182.1381721986758
 10
611.5144734474673
 20
182.1194165360234
 10
611.5101871902015
 20
182.1004059674093
 10
611.5066365332466
 20
182.0811941480216
 10
611.5037482356736
 20
182.0610832029356
 10
611.5016726317315
 20
182.0407976651713
 10
611.5004198452353
 20
182.0204118318268
 10
611.5
 20
182.0
  0
LINE
  5
1CE
330
17A
100
AcDbEntity
  8
0
  6
Continuous
 62
     7
370
     9
100
AcDbLine
 10
613.0000000000001
 20
80.49999999999999
 30
0.0
 11
612.0000000000001
 21
80.49999999999999
 31
0.0
  0
LWPOLYLINE
  5
1CF
330
17A
100
AcDbEntity
  8
0
  6
Continuous
 62
     7
370
     9
100
AcDbPolyline
 90
       38
 70
     0
 43
0.0
 10
611.5
 20
197.6666666666667
 10
611.5002695915081
 20
197.650267134416
 10
611.5010762086741
 20
197.633887463486
 10
611.5024166154607
 20
197.6175670187015
 10
611.504319769566
 20
197.601088040204
 10
611.5067633696822
 20
197.5847089141186
 10
611.5097379289821
 20
197.5684673707365
 10
611.5144893848357
 20
197.5471822353161
 10
611.5201437927619
 20
197.5261930907341
 10
611.5266665721957
 20
197.5055687519641
 10
611.534023142572
 20
197.4853780339797
 10
611.5425343983476
 20
197.4648667513917
 10
611.5519009647905
 20
197.4448477217836
 10
611.562079900003
 20
197.4253702845339
 10
611.5730282620873
 20
197.4064837790209
 10
611.5847149297238
 20
197.3882117007864
 10
611.5971315902268
 20
197.370533260505
 10
611.6102398765316
 20
197.353480007727
 10
611.6240014215737
 20
197.337083492003
 10
611.6388262823948
 20
197.3209027981009
 10
611.6543163444027
 20
197.305417151504
 10
611.6704348688284
 20
197.2906534748034
 10
611.6871451169029
 20
197.2766386905903
 10
611.7090853151298
 20
197.2600124913345
 10
611.731926409765
 20
197.2446056230702
 10
611.7555950756833
 20
197.2304714890569
 10
611.7743321512618
 20
197.2204907520415
 10
611.7935353679361
 20
197.2112872050286
 10
611.813166002904
 20
197.2028865522422
 10
611.8331853333634
 20
197.1953144979065
 10
611.8527775596774
 20
197.1888338205812
 10
611.8727122476375
 20
197.1831426385413
 10
611.8929453805168
 20
197.1782631461887
 10
611.9134329415884
 20
197.1742175379254
 10
611.9347757148593
 20
197.1709412347841
 10
611.9563589262617
 20
197.1685785649563
 10
611.9781209099305
 20
197.1671476637984
 10
612.0000000000001
 20
197.1666666666667
  0
LWPOLYLINE
  5
1D0
330
17A
100
AcDbEntity
  8
0
  6
Continuous
 62
     7
370
     9
100
AcDbPolyline
 90
       37
 70
     0
 43
0.0
 10
613.0000000000001
 20
197.1666666666667
 10
613.0224155775782
 20
197.1671704312132
 10
613.0446965809008
 20
197.168669519468
 10
613.0667749626333
 20
197.1711456233544
 10
613.0890329182145
 20
197.1746582698829
 10
613.111019975788
 20
197.1791487868654
 10
613.1326765753524
 20
197.1845910228588
 10
613.1533130357478
 20
197.1907529418464
 10
613.1736052897734
 20
197.1977754372756
 10
613.1935105815967
 20
197.2056326115266
 10
613.2129861553846
 20
197.2142985669793
 10
613.2325413132124
 20
197.224034136009
 10
613.2516282326302
 20
197.2346001420668
 10
613.2702092171719
 20
197.2459696370117
 10
613.2882465703711
 20
197.2581156727023
 10
613.3095423857643
 20
197.2740056627611
 10
613.3299905028244
 20
197.2910266478607
 10
613.3495259105307
 20
197.3091311609214
 10
613.363880337547
 20
197.3237522580111
 10
613.3776704997175
 20
197.3390028639247
 10
613.3908644066512
 20
197.3548586801818
 10
613.4034300679574
 20
197.3712954083019
 10
613.417877231618
 20
197.3921172574439
 10
613.4313353904572
 20
197.413786158622
 10
613.4437386399845
 20
197.4362409315902
 10
613.4525448503958
 20
197.4540601855133
 10
613.4606844567198
 20
197.4723295305784
 10
613.468125802132
 20
197.4910061848739
 10
613.4748372298079
 20
197.5100473664881
 10
613.4805271931409
 20
197.5284944679909
 10
613.4855265525329
 20
197.5472501306433
 10
613.4898128097987
 20
197.5662606992574
 10
613.4933634667535
 20
197.585472518645
 10
613.4962517643265
 20
197.6055834637311
 10
613.4983273682686
 20
197.6258690014954
 10
613.4995801547647
 20
197.6462548348399
 10
613.5
 20
197.6666666666667
  0
LWPOLYLINE
  5
1D1
330
17A
100
AcDbEntity
  8
0
  6
Continuous
 62
     7
370
     9
100
AcDbPolyline
 90
       38
 70
     0
 43
0.0
 10
611.5
 20
175.0
 10
611.5002695915081
 20
174.9836004677493
 10
611.5010762086741
 20
174.9672207968193
 10
611.5024166154607
 20
174.9509003520349
 10
611.504319769566
 20
174.9344213735374
 10
611.5067633696822
 20
174.918042247452
 10
611.5097379289821
 20
174.9018007040698
 10
611.5144893848357
 20
174.8805155686495
 10
611.5201437927619
 20
174.8595264240675
 10
611.5266665721957
 20
174.8389020852975
 10
611.534023142572
 20
174.8187113673131
 10
611.5425343983476
 20
174.7982000847251
 10
611.5519009647905
 20
174.778181055117
 10
611.562079900003
 20
174.7587036178673
 10
611.5730282620873
 20
174.7398171123542
 10
611.5847149297238
 20
174.7215450341198
 10
611.5971315902268
 20
174.7038665938383
 10
611.6102398765316
 20
174.6868133410603
 10
611.6240014215737
 20
174.6704168253363
 10
611.6388262823948
 20
174.6542361314342
 10
611.6543163444027
 20
174.6387504848373
 10
611.6704348688284
 20
174.6239868081367
 10
611.6871451169029
 20
174.6099720239236
 10
611.7090853151298
 20
174.5933458246678
 10
611.7319264097652
 20
174.5779389564035
 10
611.7555950756833
 20
174.5638048223902
 10
611.7743321512618
 20
174.5538240853748
 10
611.7935353679361
 20
174.5446205383619
 10
611.813166002904
 20
174.5362198855756
 10
611.8331853333634
 20
174.5286478312399
 10
611.8527775596774
 20
174.5221671539145
 10
611.8727122476375
 20
174.5164759718746
 10
611.8929453805168
 20
174.511596479522
 10
611.9134329415884
 20
174.5075508712588
 10
611.9347757148593
 20
174.5042745681174
 10
611.9563589262617
 20
174.5019118982897
 10
611.9781209099305
 20
174.5004809971318
 10
612.0000000000001
 20
174.5
  0
LINE
  5
1D2
330
17A
100
AcDbEntity
  8
0
  6
Continuous
 62
     7
370
     9
100
AcDbLine
 10
612.0000000000001
 20
174.5
 30
0.0
 11
613.0000000000001
 21
174.5
 31
0.0
  0
LWPOLYLINE
  5
1D3
330
17A
100
AcDbEntity
  8
0
  6
Continuous
 62
     7
370
     9
100
AcDbPolyline
 90
       38
 70
     0
 43
0.0
 10
613.5
 20
170.6666666666667
 10
613.499730408492
 20
170.6830661989173
 10
613.4989237913261
 20
170.6994458698473
 10
613.4975833845394
 20
170.7157663146318
 10
613.4956802304341
 20
170.7322452931293
 10
613.4932366303178
 20
170.7486244192147
 10
613.4902620710179
 20
170.7648659625968
 10
613.4855106151645
 20
170.7861510980172
 10
613.4798562072381
 20
170.8071402425992
 10
613.4733334278043
 20
170.8277645813692
 10
613.4659768574281
 20
170.8479552993535
 10
613.4574656016525
 20
170.8684665819416
 10
613.4480990352096
 20
170.8884856115497
 10
613.4379200999971
 20
170.9079630487994
 10
613.4269717379128
 20
170.9268495543124
 10
613.4152850702764
 20
170.9451216325469
 10
613.4028684097733
 20
170.9628000728283
 10
613.3897601234685
 20
170.9798533256063
 10
613.3759985784263
 20
170.9962498413303
 10
613.3611737176052
 20
171.0124305352325
 10
613.3456836555973
 20
171.0279161818293
 10
613.3295651311718
 20
171.0426798585299
 10
613.3128548830972
 20
171.0566946427431
 10
613.2909146848704
 20
171.0733208419989
 10
613.2680735902351
 20
171.0887277102632
 10
613.2444049243168
 20
171.1028618442764
 10
613.2256678487383
 20
171.1128425812919
 10
613.206464632064
 20
171.1220461283048
 10
613.1868339970961
 20
171.1304467810911
 10
613.1668146666367
 20
171.1380188354268
 10
613.1472224403227
 20
171.1444995127521
 10
613.1272877523626
 20
171.150190694792
 10
613.1070546194832
 20
171.1550701871446
 10
613.0865670584116
 20
171.1591157954079
 10
613.0652242851409
 20
171.1623920985492
 10
613.0436410737383
 20
171.164754768377
 10
613.0218790900697
 20
171.1661856695349
 10
613.0000000000001
 20
171.1666666666667
  0
LWPOLYLINE
  5
1D4
330
17A
100
AcDbEntity
  8
0
  6
Continuous
 62
     7
370
     9
100
AcDbPolyline
 90
       37
 70
     0
 43
0.0
 10
612.0000000000001
 20
171.1666666666667
 10
611.9775844224218
 20
171.1661629021202
 10
611.9553034190993
 20
171.1646638138654
 10
611.9332250373668
 20
171.162187709979
 10
611.9109670817855
 20
171.1586750634504
 10
611.888980024212
 20
171.1541845464679
 10
611.8673234246477
 20
171.1487423104745
 10
611.8466869642523
 20
171.1425803914869
 10
611.8263947102267
 20
171.1355578960577
 10
611.8064894184034
 20
171.1277007218067
 10
611.7870138446156
 20
171.119034766354
 10
611.7674586867876
 20
171.1092991973244
 10
611.7483717673698
 20
171.0987331912665
 10
611.7297907828283
 20
171.0873636963217
 10
611.7117534296289
 20
171.075217660631
 10
611.6904576142358
 20
171.0593276705723
 10
611.6700094971757
 20
171.0423066854727
 10
611.6504740894694
 20
171.024202172412
 10
611.636119662453
 20
171.0095810753222
 10
611.6223295002826
 20
170.9943304694086
 10
611.6091355933488
 20
170.9784746531515
 10
611.5965699320427
 20
170.9620379250314
 10
611.5821227683821
 20
170.9412160758895
 10
611.5686646095428
 20
170.9195471747113
 10
611.5562613600155
 20
170.8970924017431
 10
611.5474551496043
 20
170.87927314782
 10
611.5393155432802
 20
170.861003802755
 10
611.531874197868
 20
170.8423271484595
 10
611.5251627701922
 20
170.8232859668452
 10
611.5194728068591
 20
170.8048388653424
 10
611.5144734474673
 20
170.78608320269
 10
611.5101871902015
 20
170.767072634076
 10
611.5066365332466
 20
170.7478608146883
 10
611.5037482356736
 20
170.7277498696023
 10
611.5016726317315
 20
170.7074643318379
 10
611.5004198452353
 20
170.6870784984934
 10
611.5
 20
170.6666666666667
  0
LINE
  5
1D5
330
17A
100
AcDbEntity
  8
0
  6
Continuous
 62
     7
370
     9
100
AcDbLine
 10
613.0
 20
205.1666666666667
 30
0.0
 11
612.0
 21
205.1666666666667
 31
0.0
  0
LINE
  5
1D6
330
17A
100
AcDbEntity
  8
0
  6
Continuous
 62
     7
370
     9
100
AcDbLine
 10
613.0000000000001
 20
91.83333333333331
 30
0.0
 11
612.0000000000001
 21
91.83333333333331
 31
0.0
  0
LWPOLYLINE
  5
1D7
330
17A
100
AcDbEntity
  8
0
  6
Continuous
 62
     7
370
     9
100
AcDbPolyline
 90
       38
 70
     0
 43
0.0
 10
613.5
 20
91.33333333333331
 10
613.499730408492
 20
91.34973286558396
 10
613.4989237913261
 20
91.36611253651397
 10
613.4975833845394
 20
91.38243298129842
 10
613.4956802304341
 20
91.39891195979594
 10
613.4932366303178
 20
91.41529108588138
 10
613.4902620710179
 20
91.43153262926349
 10
613.4855106151645
 20
91.45281776468386
 10
613.4798562072381
 20
91.47380690926583
 10
613.4733334278043
 20
91.49443124803582
 10
613.4659768574281
 20
91.5146219660202
 10
613.4574656016524
 20
91.53513324860826
 10
613.4480990352096
 20
91.55515227821634
 10
613.4379200999971
 20
91.57462971546609
 10
613.4269717379128
 20
91.59351622097911
 10
613.4152850702764
 20
91.61178829921357
 10
613.4028684097733
 20
91.62946673949503
 10
613.3897601234685
 20
91.646519992273
 10
613.3759985784263
 20
91.66291650799698
 10
613.3611737176052
 20
91.67909720189911
 10
613.3456836555973
 20
91.694582848496
 10
613.3295651311718
 20
91.70934652519658
 10
613.3128548830972
 20
91.72336130940974
 10
613.2909146848702
 20
91.73998750866555
 10
613.2680735902351
 20
91.75539437692981
 10
613.2444049243168
 20
91.7695285109431
 10
613.2256678487383
 20
91.77950924795852
 10
613.2064646320639
 20
91.78871279497142
 10
613.1868339970961
 20
91.79711344775775
 10
613.1668146666367
 20
91.80468550209348
 10
613.1472224403227
 20
91.8111661794188
 10
613.1272877523626
 20
91.81685736145873
 10
613.1070546194832
 20
91.82173685381129
 10
613.0865670584116
 20
91.82578246207454
 10
613.0652242851409
 20
91.8290587652159
 10
613.0436410737383
 20
91.83142143504365
 10
613.0218790900697
 20
91.83285233620153
 10
613.0000000000001
 20
91.83333333333331
  0
LWPOLYLINE
  5
1D8
330
17A
100
AcDbEntity
  8
0
  6
Continuous
 62
     7
370
     9
100
AcDbPolyline
 90
       37
 70
     0
 43
0.0
 10
612.0000000000001
 20
91.83333333333331
 10
611.9775844224218
 20
91.83282956878686
 10
611.9553034190993
 20
91.83133048053203
 10
611.9332250373668
 20
91.82885437664565
 10
611.9109670817855
 20
91.82534173011706
 10
611.888980024212
 20
91.82085121313456
 10
611.8673234246477
 20
91.81540897714117
 10
611.8466869642523
 20
91.80924705815362
 10
611.8263947102267
 20
91.80222456272436
 10
611.8064894184034
 20
91.79436738847339
 10
611.7870138446156
 20
91.78570143302066
 10
611.7674586867876
 20
91.77596586399105
 10
611.7483717673698
 20
91.7653998579332
 10
611.7297907828283
 20
91.75403036298835
 10
611.7117534296289
 20
91.74188432729768
 10
611.6904576142358
 20
91.72599433723893
 10
611.6700094971757
 20
91.70897335213931
 10
611.6504740894694
 20
91.69086883907863
 10
611.636119662453
 20
91.67624774198889
 10
611.6223295002826
 20
91.66099713607525
 10
611.6091355933488
 20
91.64514131981815
 10
611.5965699320427
 20
91.62870459169804
 10
611.5821227683821
 20
91.60788274255616
 10
611.5686646095428
 20
91.58621384137797
 10
611.5562613600155
 20
91.56375906840977
 10
611.5474551496043
 20
91.54593981448672
 10
611.5393155432802
 20
91.52767046942164
 10
611.531874197868
 20
91.50899381512616
 10
611.5251627701922
 20
91.48995263351193
 10
611.5194728068591
 20
91.47150553200909
 10
611.5144734474673
 20
91.45274986935667
 10
611.5101871902015
 20
91.43373930074264
 10
611.5066365332466
 20
91.41452748135495
 10
611.5037482356736
 20
91.39441653626892
 10
611.5016726317315
 20
91.37413099850461
 10
611.5004198452353
 20
91.35374516516006
 10
611.5
 20
91.33333333333331
  0
LWPOLYLINE
  5
1D9
330
17A
100
AcDbEntity
  8
0
  6
Continuous
 62
     7
370
     9
100
AcDbPolyline
 90
       37
 70
     0
 43
0.0
 10
612.0000000000001
 20
239.1666666666667
 10
611.9775844224218
 20
239.1661629021202
 10
611.9553034190993
 20
239.1646638138654
 10
611.9332250373668
 20
239.162187709979
 10
611.9109670817855
 20
239.1586750634504
 10
611.888980024212
 20
239.1541845464679
 10
611.8673234246477
 20
239.1487423104745
 10
611.8466869642524
 20
239.142580391487
 10
611.8263947102267
 20
239.1355578960577
 10
611.8064894184034
 20
239.1277007218067
 10
611.7870138446156
 20
239.119034766354
 10
611.7674586867876
 20
239.1092991973244
 10
611.7483717673698
 20
239.0987331912665
 10
611.7297907828283
 20
239.0873636963217
 10
611.7117534296289
 20
239.075217660631
 10
611.6904576142358
 20
239.0593276705723
 10
611.6700094971757
 20
239.0423066854727
 10
611.6504740894694
 20
239.024202172412
 10
611.636119662453
 20
239.0095810753222
 10
611.6223295002826
 20
238.9943304694086
 10
611.6091355933488
 20
238.9784746531515
 10
611.5965699320427
 20
238.9620379250314
 10
611.5821227683821
 20
238.9412160758895
 10
611.5686646095428
 20
238.9195471747113
 10
611.5562613600155
 20
238.8970924017431
 10
611.5474551496043
 20
238.8792731478201
 10
611.5393155432802
 20
238.861003802755
 10
611.531874197868
 20
238.8423271484595
 10
611.5251627701922
 20
238.8232859668452
 10
611.5194728068591
 20
238.8048388653424
 10
611.5144734474673
 20
238.78608320269
 10
611.5101871902015
 20
238.767072634076
 10
611.5066365332466
 20
238.7478608146883
 10
611.5037482356736
 20
238.7277498696023
 10
611.5016726317315
 20
238.7074643318379
 10
611.5004198452353
 20
238.6870784984934
 10
611.5
 20
238.6666666666667
  0
LWPOLYLINE
  5
1DA
330
17A
100
AcDbEntity
  8
0
  6
Continuous
 62
     7
370
     9
100
AcDbPolyline
 90
       38
 70
     0
 43
0.0
 10
613.5
 20
159.3333333333333
 10
613.499730408492
 20
159.3497328655839
 10
613.4989237913261
 20
159.366112536514
 10
613.4975833845394
 20
159.3824329812984
 10
613.4956802304341
 20
159.3989119597959
 10
613.4932366303178
 20
159.4152910858814
 10
613.4902620710179
 20
159.4315326292635
 10
613.4855106151645
 20
159.4528177646839
 10
613.4798562072381
 20
159.4738069092658
 10
613.4733334278043
 20
159.4944312480358
 10
613.4659768574281
 20
159.5146219660202
 10
613.4574656016525
 20
159.5351332486082
 10
613.4480990352096
 20
159.5551522782163
 10
613.4379200999971
 20
159.5746297154661
 10
613.4269717379128
 20
159.5935162209791
 10
613.4152850702764
 20
159.6117882992135
 10
613.4028684097733
 20
159.629466739495
 10
613.3897601234685
 20
159.646519992273
 10
613.3759985784263
 20
159.662916507997
 10
613.3611737176052
 20
159.6790972018991
 10
613.3456836555973
 20
159.694582848496
 10
613.3295651311718
 20
159.7093465251966
 10
613.3128548830972
 20
159.7233613094097
 10
613.2909146848704
 20
159.7399875086656
 10
613.2680735902351
 20
159.7553943769298
 10
613.2444049243168
 20
159.7695285109431
 10
613.2256678487383
 20
159.7795092479585
 10
613.206464632064
 20
159.7887127949714
 10
613.1868339970961
 20
159.7971134477578
 10
613.1668146666367
 20
159.8046855020935
 10
613.1472224403227
 20
159.8111661794188
 10
613.1272877523626
 20
159.8168573614587
 10
613.1070546194832
 20
159.8217368538113
 10
613.0865670584116
 20
159.8257824620745
 10
613.0652242851409
 20
159.8290587652159
 10
613.0436410737383
 20
159.8314214350436
 10
613.0218790900697
 20
159.8328523362015
 10
613.0000000000001
 20
159.8333333333333
  0
LWPOLYLINE
  5
1DB
330
17A
100
AcDbEntity
  8
0
  6
Continuous
 62
     7
370
     9
100
AcDbPolyline
 90
       38
 70
     0
 43
0.0
 10
613.5
 20
182.0
 10
613.499730408492
 20
182.0163995322506
 10
613.4989237913261
 20
182.0327792031806
 10
613.4975833845394
 20
182.0490996479651
 10
613.4956802304341
 20
182.0655786264626
 10
613.4932366303178
 20
182.0819577525481
 10
613.4902620710179
 20
182.0981992959302
 10
613.4855106151645
 20
182.1194844313506
 10
613.4798562072381
 20
182.1404735759325
 10
613.4733334278043
 20
182.1610979147025
 10
613.4659768574281
 20
182.1812886326869
 10
613.4574656016524
 20
182.2017999152749
 10
613.4480990352096
 20
182.221818944883
 10
613.4379200999971
 20
182.2412963821328
 10
613.4269717379128
 20
182.2601828876458
 10
613.4152850702764
 20
182.2784549658802
 10
613.4028684097733
 20
182.2961334061617
 10
613.3897601234685
 20
182.3131866589396
 10
613.3759985784263
 20
182.3295831746636
 10
613.3611737176052
 20
182.3457638685658
 10
613.3456836555973
 20
182.3612495151627
 10
613.3295651311718
 20
182.3760131918633
 10
613.3128548830972
 20
182.3900279760764
 10
613.2909146848704
 20
182.4066541753322
 10
613.2680735902351
 20
182.4220610435965
 10
613.2444049243168
 20
182.4361951776098
 10
613.2256678487383
 20
182.4461759146252
 10
613.206464632064
 20
182.4553794616381
 10
613.1868339970961
 20
182.4637801144244
 10
613.1668146666367
 20
182.4713521687601
 10
613.1472224403227
 20
182.4778328460855
 10
613.1272877523626
 20
182.4835240281254
 10
613.1070546194832
 20
182.488403520478
 10
613.0865670584116
 20
182.4924491287412
 10
613.0652242851409
 20
182.4957254318826
 10
613.0436410737384
 20
182.4980881017103
 10
613.0218790900697
 20
182.4995190028682
 10
613.0000000000001
 20
182.5
  0
LWPOLYLINE
  5
1DC
330
17A
100
AcDbEntity
  8
0
  6
Continuous
 62
     7
370
     9
100
AcDbPolyline
 90
       38
 70
     0
 43
0.0
 10
611.5
 20
72.99999999999999
 10
611.5002695915081
 20
72.98360046774934
 10
611.5010762086741
 20
72.96722079681935
 10
611.5024166154607
 20
72.95090035203489
 10
611.504319769566
 20
72.93442137353738
 10
611.5067633696822
 20
72.91804224745194
 10
611.5097379289821
 20
72.90180070406983
 10
611.5144893848357
 20
72.88051556864947
 10
611.5201437927619
 20
72.85952642406748
 10
611.5266665721957
 20
72.8389020852975
 10
611.534023142572
 20
72.81871136731311
 10
611.5425343983476
 20
72.79820008472507
 10
611.5519009647905
 20
72.77818105511699
 10
611.562079900003
 20
72.75870361786724
 10
611.5730282620873
 20
72.73981711235422
 10
611.5847149297238
 20
72.72154503411976
 10
611.5971315902268
 20
72.7038665938383
 10
611.6102398765316
 20
72.68681334106033
 10
611.6240014215737
 20
72.67041682533635
 10
611.6388262823948
 20
72.6542361314342
 10
611.6543163444027
 20
72.6387504848373
 10
611.6704348688284
 20
72.62398680813672
 10
611.6871451169029
 20
72.60997202392358
 10
611.7090853151298
 20
72.59334582466778
 10
611.731926409765
 20
72.5779389564035
 10
611.7555950756833
 20
72.56380482239021
 10
611.7743321512618
 20
72.5538240853748
 10
611.7935353679361
 20
72.5446205383619
 10
611.813166002904
 20
72.53621988557555
 10
611.8331853333634
 20
72.52864783123985
 10
611.8527775596774
 20
72.52216715391451
 10
611.8727122476375
 20
72.5164759718746
 10
611.8929453805168
 20
72.51159647952204
 10
611.9134329415884
 20
72.50755087125877
 10
611.9347757148593
 20
72.50427456811742
 10
611.9563589262617
 20
72.50191189828966
 10
611.9781209099305
 20
72.50048099713179
 10
612.0000000000001
 20
72.5
  0
LINE
  5
1DD
330
17A
100
AcDbEntity
  8
0
  6
Continuous
 62
     7
370
     9
100
AcDbLine
 10
612.0000000000001
 20
72.5
 30
0.0
 11
613.0000000000001
 21
72.5
 31
0.0
  0
LINE
  5
1DE
330
17A
100
AcDbEntity
  8
0
  6
Continuous
 62
     7
370
     9
100
AcDbLine
 10
610.5
 20
252.5
 30
0.0
 11
614.5
 21
252.5
 31
0.0
  0
LWPOLYLINE
  5
1DF
330
17A
100
AcDbEntity
  8
0
  6
Continuous
 62
     7
370
     9
100
AcDbPolyline
 90
       37
 70
     0
 43
0.0
 10
613.0000000000001
 20
174.5
 10
613.0224155775782
 20
174.5005037645465
 10
613.0446965809008
 20
174.5020028528013
 10
613.0667749626333
 20
174.5044789566877
 10
613.0890329182145
 20
174.5079916032163
 10
613.111019975788
 20
174.5124821201988
 10
613.1326765753524
 20
174.5179243561921
 10
613.1533130357478
 20
174.5240862751797
 10
613.1736052897735
 20
174.5311087706089
 10
613.1935105815967
 20
174.5389659448599
 10
613.2129861553846
 20
174.5476319003127
 10
613.2325413132124
 20
174.5573674693423
 10
613.2516282326302
 20
174.5679334754001
 10
613.2702092171718
 20
174.579302970345
 10
613.2882465703711
 20
174.5914490060356
 10
613.3095423857643
 20
174.6073389960944
 10
613.3299905028244
 20
174.624359981194
 10
613.3495259105307
 20
174.6424644942547
 10
613.363880337547
 20
174.6570855913445
 10
613.3776704997175
 20
174.6723361972581
 10
613.3908644066512
 20
174.6881920135152
 10
613.4034300679574
 20
174.7046287416353
 10
613.417877231618
 20
174.7254505907772
 10
613.4313353904572
 20
174.7471194919554
 10
613.4437386399845
 20
174.7695742649236
 10
613.4525448503958
 20
174.7873935188466
 10
613.4606844567198
 20
174.8056628639117
 10
613.468125802132
 20
174.8243395182072
 10
613.4748372298079
 20
174.8433806998214
 10
613.4805271931409
 20
174.8618278013242
 10
613.4855265525329
 20
174.8805834639767
 10
613.4898128097987
 20
174.8995940325907
 10
613.4933634667535
 20
174.9188058519784
 10
613.4962517643265
 20
174.9389167970644
 10
613.4983273682686
 20
174.9592023348287
 10
613.4995801547647
 20
174.9795881681733
 10
613.5
 20
175.0
  0
LINE
  5
1E0
330
17A
100
AcDbEntity
  8
0
  6
Continuous
 62
     7
370
     9
100
AcDbLine
 10
613.0000000000001
 20
148.5
 30
0.0
 11
612.0000000000001
 21
148.5
 31
0.0
  0
LWPOLYLINE
  5
1E1
330
17A
100
AcDbEntity
  8
0
  6
Continuous
 62
     7
370
     9
100
AcDbPolyline
 90
       38
 70
     0
 43
0.0
 10
613.5
 20
148.0
 10
613.499730408492
 20
148.0163995322507
 10
613.4989237913261
 20
148.0327792031806
 10
613.4975833845394
 20
148.0490996479651
 10
613.4956802304341
 20
148.0655786264626
 10
613.4932366303178
 20
148.081957752548
 10
613.4902620710179
 20
148.0981992959302
 10
613.4855106151645
 20
148.1194844313505
 10
613.4798562072381
 20
148.1404735759325
 10
613.4733334278043
 20
148.1610979147025
 10
613.4659768574281
 20
148.1812886326869
 10
613.4574656016525
 20
148.2017999152749
 10
613.4480990352096
 20
148.221818944883
 10
613.4379200999971
 20
148.2412963821327
 10
613.4269717379128
 20
148.2601828876458
 10
613.4152850702764
 20
148.2784549658802
 10
613.4028684097733
 20
148.2961334061617
 10
613.3897601234685
 20
148.3131866589397
 10
613.3759985784263
 20
148.3295831746637
 10
613.3611737176052
 20
148.3457638685658
 10
613.3456836555973
 20
148.3612495151627
 10
613.3295651311718
 20
148.3760131918633
 10
613.3128548830972
 20
148.3900279760764
 10
613.2909146848704
 20
148.4066541753322
 10
613.2680735902351
 20
148.4220610435965
 10
613.2444049243168
 20
148.4361951776098
 10
613.2256678487383
 20
148.4461759146252
 10
613.206464632064
 20
148.4553794616381
 10
613.1868339970961
 20
148.4637801144244
 10
613.1668146666367
 20
148.4713521687601
 10
613.1472224403227
 20
148.4778328460854
 10
613.1272877523626
 20
148.4835240281254
 10
613.1070546194832
 20
148.4884035204779
 10
613.0865670584116
 20
148.4924491287412
 10
613.0652242851409
 20
148.4957254318826
 10
613.0436410737383
 20
148.4980881017103
 10
613.0218790900697
 20
148.4995190028682
 10
613.0000000000001
 20
148.5
  0
LWPOLYLINE
  5
1E2
330
17A
100
AcDbEntity
  8
0
  6
Continuous
 62
     7
370
     9
100
AcDbPolyline
 90
       37
 70
     0
 43
0.0
 10
612.0000000000001
 20
148.5
 10
611.9775844224218
 20
148.4994962354536
 10
611.9553034190993
 20
148.4979971471987
 10
611.9332250373668
 20
148.4955210433123
 10
611.9109670817855
 20
148.4920083967837
 10
611.888980024212
 20
148.4875178798012
 10
611.8673234246477
 20
148.4820756438078
 10
611.8466869642523
 20
148.4759137248203
 10
611.8263947102267
 20
148.4688912293911
 10
611.8064894184034
 20
148.4610340551401
 10
611.7870138446156
 20
148.4523680996873
 10
611.7674586867876
 20
148.4426325306577
 10
611.7483717673698
 20
148.4320665245999
 10
611.7297907828283
 20
148.420697029655
 10
611.7117534296289
 20
148.4085509939644
 10
611.6904576142358
 20
148.3926610039056
 10
611.6700094971757
 20
148.375640018806
 10
611.6504740894694
 20
148.3575355057453
 10
611.636119662453
 20
148.3429144086555
 10
611.6223295002826
 20
148.3276638027419
 10
611.6091355933488
 20
148.3118079864848
 10
611.5965699320427
 20
148.2953712583647
 10
611.5821227683821
 20
148.2745494092228
 10
611.5686646095428
 20
148.2528805080446
 10
611.5562613600155
 20
148.2304257350764
 10
611.5474551496043
 20
148.2126064811534
 10
611.5393155432802
 20
148.1943371360883
 10
611.531874197868
 20
148.1756604817928
 10
611.5251627701922
 20
148.1566193001786
 10
611.5194728068591
 20
148.1381721986758
 10
611.5144734474673
 20
148.1194165360234
 10
611.5101871902015
 20
148.1004059674093
 10
611.5066365332466
 20
148.0811941480216
 10
611.5037482356736
 20
148.0610832029356
 10
611.5016726317315
 20
148.0407976651713
 10
611.5004198452353
 20
148.0204118318267
 10
611.5
 20
148.0
  0
LWPOLYLINE
  5
1E3
330
17A
100
AcDbEntity
  8
0
  6
Continuous
 62
     7
370
     9
100
AcDbPolyline
 90
       37
 70
     0
 43
0.0
 10
613.0000000000001
 20
72.5
 10
613.0224155775782
 20
72.50050376454647
 10
613.0446965809008
 20
72.50200285280128
 10
613.0667749626333
 20
72.50447895668768
 10
613.0890329182145
 20
72.50799160321627
 10
613.111019975788
 20
72.51248212019875
 10
613.1326765753524
 20
72.51792435619214
 10
613.1533130357478
 20
72.5240862751797
 10
613.1736052897735
 20
72.53110877060895
 10
613.1935105815967
 20
72.53896594485992
 10
613.2129861553846
 20
72.54763190031265
 10
613.2325413132124
 20
72.55736746934227
 10
613.2516282326302
 20
72.56793347540011
 10
613.2702092171718
 20
72.57930297034497
 10
613.2882465703711
 20
72.59144900603565
 10
613.3095423857643
 20
72.6073389960944
 10
613.3299905028244
 20
72.624359981194
 10
613.3495259105307
 20
72.64246449425468
 10
613.363880337547
 20
72.65708559134443
 10
613.3776704997175
 20
72.67233619725808
 10
613.3908644066512
 20
72.68819201351516
 10
613.4034300679574
 20
72.70462874163528
 10
613.417877231618
 20
72.72545059077717
 10
613.4313353904572
 20
72.74711949195536
 10
613.4437386399845
 20
72.76957426492355
 10
613.4525448503958
 20
72.78739351884661
 10
613.4606844567198
 20
72.80566286391168
 10
613.468125802132
 20
72.82433951820715
 10
613.4748372298079
 20
72.84338069982138
 10
613.4805271931409
 20
72.86182780132422
 10
613.4855265525329
 20
72.88058346397666
 10
613.4898128097987
 20
72.89959403259068
 10
613.4933634667535
 20
72.91880585197838
 10
613.4962517643265
 20
72.93891679706441
 10
613.4983273682686
 20
72.95920233482872
 10
613.4995801547647
 20
72.97958816817327
 10
613.5
 20
73.0
  0
LWPOLYLINE
  5
1E4
330
17A
100
AcDbEntity
  8
0
  6
Continuous
 62
     7
370
     9
100
AcDbPolyline
 90
       38
 70
     0
 43
0.0
 10
613.5
 20
227.3333333333333
 10
613.499730408492
 20
227.349732865584
 10
613.4989237913261
 20
227.366112536514
 10
613.4975833845394
 20
227.3824329812984
 10
613.4956802304341
 20
227.398911959796
 10
613.4932366303178
 20
227.4152910858814
 10
613.4902620710179
 20
227.4315326292635
 10
613.4855106151645
 20
227.4528177646839
 10
613.4798562072381
 20
227.4738069092658
 10
613.4733334278043
 20
227.4944312480359
 10
613.4659768574281
 20
227.5146219660202
 10
613.4574656016524
 20
227.5351332486083
 10
613.4480990352096
 20
227.5551522782164
 10
613.4379200999971
 20
227.5746297154661
 10
613.4269717379128
 20
227.5935162209791
 10
613.4152850702764
 20
227.6117882992135
 10
613.4028684097733
 20
227.629466739495
 10
613.3897601234685
 20
227.646519992273
 10
613.3759985784263
 20
227.662916507997
 10
613.3611737176052
 20
227.6790972018991
 10
613.3456836555973
 20
227.694582848496
 10
613.3295651311718
 20
227.7093465251966
 10
613.3128548830972
 20
227.7233613094097
 10
613.2909146848704
 20
227.7399875086655
 10
613.2680735902351
 20
227.7553943769298
 10
613.2444049243168
 20
227.7695285109431
 10
613.2256678487383
 20
227.7795092479585
 10
613.206464632064
 20
227.7887127949714
 10
613.1868339970961
 20
227.7971134477578
 10
613.1668146666367
 20
227.8046855020935
 10
613.1472224403227
 20
227.8111661794188
 10
613.1272877523626
 20
227.8168573614587
 10
613.1070546194832
 20
227.8217368538113
 10
613.0865670584116
 20
227.8257824620746
 10
613.0652242851409
 20
227.8290587652159
 10
613.0436410737383
 20
227.8314214350436
 10
613.0218790900697
 20
227.8328523362015
 10
613.0000000000001
 20
227.8333333333333
  0
LINE
  5
1E5
330
17A
100
AcDbEntity
  8
0
  6
Continuous
 62
     7
370
     9
100
AcDbLine
 10
612.0000000000001
 20
95.16666666666666
 30
0.0
 11
613.0000000000001
 21
95.16666666666666
 31
0.0
  0
LWPOLYLINE
  5
1E6
330
17A
100
AcDbEntity
  8
0
  6
Continuous
 62
     7
370
     9
100
AcDbPolyline
 90
       37
 70
     0
 43
0.0
 10
613.0000000000001
 20
208.5
 10
613.0224155775782
 20
208.5005037645465
 10
613.0446965809008
 20
208.5020028528013
 10
613.0667749626333
 20
208.5044789566877
 10
613.0890329182145
 20
208.5079916032163
 10
613.111019975788
 20
208.5124821201988
 10
613.1326765753524
 20
208.5179243561921
 10
613.1533130357478
 20
208.5240862751797
 10
613.1736052897734
 20
208.5311087706089
 10
613.1935105815967
 20
208.5389659448599
 10
613.2129861553846
 20
208.5476319003127
 10
613.2325413132124
 20
208.5573674693423
 10
613.2516282326302
 20
208.5679334754001
 10
613.2702092171719
 20
208.579302970345
 10
613.2882465703711
 20
208.5914490060356
 10
613.3095423857643
 20
208.6073389960944
 10
613.3299905028244
 20
208.624359981194
 10
613.3495259105307
 20
208.6424644942547
 10
613.363880337547
 20
208.6570855913444
 10
613.3776704997175
 20
208.6723361972581
 10
613.3908644066512
 20
208.6881920135152
 10
613.4034300679574
 20
208.7046287416353
 10
613.417877231618
 20
208.7254505907772
 10
613.4313353904572
 20
208.7471194919554
 10
613.4437386399845
 20
208.7695742649236
 10
613.4525448503958
 20
208.7873935188466
 10
613.4606844567198
 20
208.8056628639117
 10
613.468125802132
 20
208.8243395182072
 10
613.4748372298079
 20
208.8433806998214
 10
613.4805271931409
 20
208.8618278013242
 10
613.4855265525329
 20
208.8805834639767
 10
613.4898128097987
 20
208.8995940325907
 10
613.4933634667535
 20
208.9188058519784
 10
613.4962517643265
 20
208.9389167970644
 10
613.4983273682686
 20
208.9592023348287
 10
613.4995801547647
 20
208.9795881681733
 10
613.5
 20
209.0
  0
LWPOLYLINE
  5
1E7
330
17A
100
AcDbEntity
  8
0
  6
Continuous
 62
     7
370
     9
100
AcDbPolyline
 90
       38
 70
     0
 43
0.0
 10
613.5
 20
114.0
 10
613.499730408492
 20
114.0163995322506
 10
613.4989237913261
 20
114.0327792031806
 10
613.4975833845394
 20
114.0490996479651
 10
613.4956802304341
 20
114.0655786264626
 10
613.4932366303178
 20
114.081957752548
 10
613.4902620710179
 20
114.0981992959301
 10
613.4855106151645
 20
114.1194844313505
 10
613.4798562072381
 20
114.1404735759325
 10
613.4733334278043
 20
114.1610979147025
 10
613.4659768574281
 20
114.1812886326869
 10
613.4574656016524
 20
114.2017999152749
 10
613.4480990352096
 20
114.221818944883
 10
613.4379200999971
 20
114.2412963821327
 10
613.4269717379128
 20
114.2601828876458
 10
613.4152850702764
 20
114.2784549658802
 10
613.4028684097733
 20
114.2961334061617
 10
613.3897601234685
 20
114.3131866589397
 10
613.3759985784263
 20
114.3295831746637
 10
613.3611737176052
 20
114.3457638685658
 10
613.3456836555973
 20
114.3612495151627
 10
613.3295651311718
 20
114.3760131918633
 10
613.3128548830972
 20
114.3900279760764
 10
613.2909146848702
 20
114.4066541753322
 10
613.2680735902351
 20
114.4220610435965
 10
613.2444049243168
 20
114.4361951776098
 10
613.2256678487383
 20
114.4461759146252
 10
613.2064646320639
 20
114.4553794616381
 10
613.1868339970961
 20
114.4637801144244
 10
613.1668146666367
 20
114.4713521687601
 10
613.1472224403227
 20
114.4778328460855
 10
613.1272877523626
 20
114.4835240281254
 10
613.1070546194832
 20
114.488403520478
 10
613.0865670584116
 20
114.4924491287412
 10
613.0652242851409
 20
114.4957254318826
 10
613.0436410737383
 20
114.4980881017103
 10
613.0218790900697
 20
114.4995190028682
 10
613.0000000000001
 20
114.5
  0
LWPOLYLINE
  5
1E8
330
17A
100
AcDbEntity
  8
0
  6
Continuous
 62
     7
370
     9
100
AcDbPolyline
 90
       37
 70
     0
 43
0.0
 10
612.0000000000001
 20
103.1666666666667
 10
611.9775844224218
 20
103.1661629021202
 10
611.9553034190993
 20
103.1646638138653
 10
611.9332250373668
 20
103.162187709979
 10
611.9109670817855
 20
103.1586750634504
 10
611.888980024212
 20
103.1541845464679
 10
611.8673234246477
 20
103.1487423104745
 10
611.8466869642523
 20
103.1425803914869
 10
611.8263947102267
 20
103.1355578960577
 10
611.8064894184034
 20
103.1277007218067
 10
611.7870138446156
 20
103.119034766354
 10
611.7674586867876
 20
103.1092991973244
 10
611.7483717673698
 20
103.0987331912665
 10
611.7297907828283
 20
103.0873636963217
 10
611.7117534296289
 20
103.075217660631
 10
611.6904576142358
 20
103.0593276705723
 10
611.6700094971757
 20
103.0423066854727
 10
611.6504740894694
 20
103.024202172412
 10
611.636119662453
 20
103.0095810753222
 10
611.6223295002826
 20
102.9943304694086
 10
611.6091355933488
 20
102.9784746531515
 10
611.5965699320427
 20
102.9620379250314
 10
611.5821227683821
 20
102.9412160758895
 10
611.5686646095428
 20
102.9195471747113
 10
611.5562613600155
 20
102.8970924017431
 10
611.5474551496043
 20
102.8792731478201
 10
611.5393155432802
 20
102.861003802755
 10
611.531874197868
 20
102.8423271484595
 10
611.5251627701922
 20
102.8232859668453
 10
611.5194728068591
 20
102.8048388653424
 10
611.5144734474673
 20
102.78608320269
 10
611.5101871902015
 20
102.767072634076
 10
611.5066365332466
 20
102.7478608146883
 10
611.5037482356736
 20
102.7277498696023
 10
611.5016726317315
 20
102.7074643318379
 10
611.5004198452353
 20
102.6870784984934
 10
611.5
 20
102.6666666666667
  0
LWPOLYLINE
  5
1E9
330
17A
100
AcDbEntity
  8
0
  6
Continuous
 62
     7
370
     9
100
AcDbPolyline
 90
       37
 70
     0
 43
0.0
 10
612.0000000000001
 20
227.8333333333333
 10
611.9775844224218
 20
227.8328295687869
 10
611.9553034190993
 20
227.831330480532
 10
611.9332250373668
 20
227.8288543766457
 10
611.9109670817855
 20
227.8253417301171
 10
611.888980024212
 20
227.8208512131346
 10
611.8673234246477
 20
227.8154089771412
 10
611.8466869642524
 20
227.8092470581536
 10
611.8263947102267
 20
227.8022245627243
 10
611.8064894184034
 20
227.7943673884734
 10
611.7870138446156
 20
227.7857014330207
 10
611.7674586867876
 20
227.7759658639911
 10
611.7483717673698
 20
227.7653998579333
 10
611.7297907828283
 20
227.7540303629883
 10
611.7117534296289
 20
227.7418843272977
 10
611.6904576142358
 20
227.725994337239
 10
611.6700094971757
 20
227.7089733521393
 10
611.6504740894694
 20
227.6908688390787
 10
611.636119662453
 20
227.6762477419889
 10
611.6223295002826
 20
227.6609971360753
 10
611.6091355933488
 20
227.6451413198182
 10
611.5965699320427
 20
227.6287045916981
 10
611.5821227683821
 20
227.6078827425562
 10
611.5686646095428
 20
227.586213841378
 10
611.5562613600155
 20
227.5637590684098
 10
611.5474551496043
 20
227.5459398144867
 10
611.5393155432802
 20
227.5276704694216
 10
611.531874197868
 20
227.5089938151262
 10
611.5251627701922
 20
227.4899526335119
 10
611.5194728068591
 20
227.4715055320091
 10
611.5144734474673
 20
227.4527498693567
 10
611.5101871902015
 20
227.4337393007426
 10
611.5066365332466
 20
227.414527481355
 10
611.5037482356736
 20
227.3944165362689
 10
611.5016726317315
 20
227.3741309985046
 10
611.5004198452353
 20
227.3537451651601
 10
611.5
 20
227.3333333333333
  0
LWPOLYLINE
  5
1EA
330
17A
100
AcDbEntity
  8
0
  6
Continuous
 62
     7
370
     9
100
AcDbPolyline
 90
       38
 70
     0
 43
0.0
 10
613.5
 20
79.99999999999999
 10
613.499730408492
 20
80.01639953225063
 10
613.4989237913261
 20
80.03277920318064
 10
613.4975833845394
 20
80.04909964796508
 10
613.4956802304341
 20
80.0655786264626
 10
613.4932366303178
 20
80.08195775254805
 10
613.4902620710179
 20
80.09819929593014
 10
613.4855106151645
 20
80.11948443135053
 10
613.4798562072381
 20
80.1404735759325
 10
613.4733334278043
 20
80.16109791470248
 10
613.4659768574281
 20
80.18128863268686
 10
613.4574656016525
 20
80.20179991527492
 10
613.4480990352096
 20
80.221818944883
 10
613.4379200999971
 20
80.24129638213276
 10
613.4269717379128
 20
80.26018288764577
 10
613.4152850702764
 20
80.27845496588021
 10
613.4028684097733
 20
80.29613340616169
 10
613.3897601234685
 20
80.31318665893966
 10
613.3759985784263
 20
80.32958317466364
 10
613.3611737176052
 20
80.34576386856577
 10
613.3456836555973
 20
80.36124951516268
 10
613.3295651311718
 20
80.37601319186325
 10
613.3128548830972
 20
80.3900279760764
 10
613.2909146848702
 20
80.4066541753322
 10
613.2680735902351
 20
80.42206104359647
 10
613.2444049243168
 20
80.43619517760978
 10
613.2256678487383
 20
80.44617591462517
 10
613.2064646320639
 20
80.45537946163809
 10
613.1868339970961
 20
80.46378011442442
 10
613.1668146666367
 20
80.47135216876013
 10
613.1472224403227
 20
80.47783284608548
 10
613.1272877523626
 20
80.48352402812539
 10
613.1070546194832
 20
80.48840352047795
 10
613.0865670584116
 20
80.4924491287412
 10
613.0652242851409
 20
80.49572543188258
 10
613.0436410737383
 20
80.49808810171031
 10
613.0218790900697
 20
80.4995190028682
 10
613.0000000000001
 20
80.49999999999999
  0
LWPOLYLINE
  5
1EB
330
17A
100
AcDbEntity
  8
0
  6
Continuous
 62
     7
370
     9
100
AcDbPolyline
 90
       37
 70
     0
 43
0.0
 10
612.0000000000001
 20
80.49999999999999
 10
611.9775844224218
 20
80.49949623545355
 10
611.9553034190993
 20
80.4979971471987
 10
611.9332250373668
 20
80.49552104331231
 10
611.9109670817855
 20
80.49200839678372
 10
611.888980024212
 20
80.48751787980125
 10
611.8673234246477
 20
80.48207564380785
 10
611.8466869642523
 20
80.47591372482029
 10
611.8263947102267
 20
80.46889122939105
 10
611.8064894184034
 20
80.46103405514008
 10
611.7870138446156
 20
80.45236809968733
 10
611.7674586867876
 20
80.44263253065772
 10
611.7483717673698
 20
80.43206652459989
 10
611.7297907828283
 20
80.42069702965502
 10
611.7117534296289
 20
80.40855099396435
 10
611.6904576142358
 20
80.3926610039056
 10
611.6700094971757
 20
80.37564001880598
 10
611.6504740894694
 20
80.3575355057453
 10
611.636119662453
 20
80.34291440865556
 10
611.6223295002826
 20
80.32766380274192
 10
611.6091355933488
 20
80.31180798648482
 10
611.5965699320427
 20
80.29537125836471
 10
611.5821227683821
 20
80.27454940922281
 10
611.5686646095428
 20
80.25288050804463
 10
611.5562613600155
 20
80.23042573507645
 10
611.5474551496043
 20
80.21260648115339
 10
611.5393155432802
 20
80.1943371360883
 10
611.531874197868
 20
80.17566048179282
 10
611.5251627701922
 20
80.1566193001786
 10
611.5194728068591
 20
80.13817219867575
 10
611.5144734474673
 20
80.11941653602334
 10
611.5101871902015
 20
80.1004059674093
 10
611.5066365332466
 20
80.0811941480216
 10
611.5037482356736
 20
80.06108320293558
 10
611.5016726317315
 20
80.04079766517127
 10
611.5004198452353
 20
80.02041183182673
 10
611.5
 20
79.99999999999999
  0
LWPOLYLINE
  5
1EC
330
17A
100
AcDbEntity
  8
0
  6
Continuous
 62
     7
370
     9
100
AcDbPolyline
 90
       37
 70
     0
 43
0.0
 10
613.0000000000001
 20
185.8333333333333
 10
613.0224155775782
 20
185.8338370978798
 10
613.0446965809008
 20
185.8353361861346
 10
613.0667749626333
 20
185.837812290021
 10
613.0890329182145
 20
185.8413249365496
 10
613.111019975788
 20
185.8458154535321
 10
613.1326765753524
 20
185.8512576895255
 10
613.1533130357478
 20
185.8574196085131
 10
613.1736052897734
 20
185.8644421039423
 10
613.1935105815967
 20
185.8722992781933
 10
613.2129861553846
 20
185.880965233646
 10
613.2325413132124
 20
185.8907008026756
 10
613.2516282326302
 20
185.9012668087335
 10
613.2702092171719
 20
185.9126363036783
 10
613.2882465703711
 20
185.924782339369
 10
613.3095423857643
 20
185.9406723294278
 10
613.3299905028244
 20
185.9576933145273
 10
613.3495259105307
 20
185.975797827588
 10
613.363880337547
 20
185.9904189246778
 10
613.3776704997175
 20
186.0056695305914
 10
613.3908644066512
 20
186.0215253468485
 10
613.4034300679574
 20
186.0379620749686
 10
613.417877231618
 20
186.0587839241105
 10
613.4313353904572
 20
186.0804528252887
 10
613.4437386399845
 20
186.1029075982569
 10
613.4525448503958
 20
186.12072685218
 10
613.4606844567198
 20
186.1389961972451
 10
613.468125802132
 20
186.1576728515405
 10
613.4748372298079
 20
186.1767140331548
 10
613.4805271931409
 20
186.1951611346576
 10
613.4855265525329
 20
186.21391679731
 10
613.4898128097987
 20
186.232927365924
 10
613.4933634667535
 20
186.2521391853117
 10
613.4962517643265
 20
186.2722501303977
 10
613.4983273682686
 20
186.2925356681621
 10
613.4995801547647
 20
186.3129215015066
 10
613.5
 20
186.3333333333333
  0
LWPOLYLINE
  5
1ED
330
17A
100
AcDbEntity
  8
0
  6
Continuous
 62
     7
370
     9
100
AcDbPolyline
 90
       38
 70
     0
 43
0.0
 10
613.5
 20
102.6666666666667
 10
613.499730408492
 20
102.6830661989173
 10
613.4989237913261
 20
102.6994458698473
 10
613.4975833845394
 20
102.7157663146318
 10
613.4956802304341
 20
102.7322452931293
 10
613.4932366303178
 20
102.7486244192147
 10
613.4902620710179
 20
102.7648659625968
 10
613.4855106151645
 20
102.7861510980172
 10
613.4798562072381
 20
102.8071402425992
 10
613.4733334278043
 20
102.8277645813692
 10
613.4659768574281
 20
102.8479552993535
 10
613.4574656016524
 20
102.8684665819416
 10
613.4480990352096
 20
102.8884856115497
 10
613.4379200999971
 20
102.9079630487994
 10
613.4269717379128
 20
102.9268495543124
 10
613.4152850702764
 20
102.9451216325469
 10
613.4028684097733
 20
102.9628000728284
 10
613.3897601234685
 20
102.9798533256063
 10
613.3759985784263
 20
102.9962498413303
 10
613.3611737176052
 20
103.0124305352325
 10
613.3456836555973
 20
103.0279161818294
 10
613.3295651311718
 20
103.0426798585299
 10
613.3128548830972
 20
103.0566946427431
 10
613.2909146848702
 20
103.0733208419989
 10
613.2680735902351
 20
103.0887277102631
 10
613.2444049243168
 20
103.1028618442764
 10
613.2256678487383
 20
103.1128425812918
 10
613.2064646320639
 20
103.1220461283048
 10
613.1868339970961
 20
103.1304467810911
 10
613.1668146666367
 20
103.1380188354268
 10
613.1472224403227
 20
103.1444995127521
 10
613.1272877523626
 20
103.1501906947921
 10
613.1070546194832
 20
103.1550701871446
 10
613.0865670584116
 20
103.1591157954079
 10
613.0652242851409
 20
103.1623920985492
 10
613.0436410737383
 20
103.164754768377
 10
613.0218790900697
 20
103.1661856695349
 10
613.0000000000001
 20
103.1666666666667
  0
LINE
  5
1EE
330
17A
100
AcDbEntity
  8
0
  6
Continuous
 62
     7
370
     9
100
AcDbLine
 10
612.0000000000001
 20
117.8333333333333
 30
0.0
 11
613.0000000000001
 21
117.8333333333333
 31
0.0
  0
LINE
  5
1EF
330
17A
100
AcDbEntity
  8
0
  6
Continuous
 62
     7
370
     9
100
AcDbLine
 10
612.0000000000001
 20
129.1666666666667
 30
0.0
 11
613.0000000000001
 21
129.1666666666667
 31
0.0
  0
LWPOLYLINE
  5
1F0
330
17A
100
AcDbEntity
  8
0
  6
Continuous
 62
     7
370
     9
100
AcDbPolyline
 90
       37
 70
     0
 43
0.0
 10
613.0000000000001
 20
219.8333333333333
 10
613.0224155775782
 20
219.8338370978798
 10
613.0446965809008
 20
219.8353361861346
 10
613.0667749626333
 20
219.837812290021
 10
613.0890329182145
 20
219.8413249365497
 10
613.111019975788
 20
219.8458154535321
 10
613.1326765753524
 20
219.8512576895255
 10
613.1533130357478
 20
219.857419608513
 10
613.1736052897734
 20
219.8644421039423
 10
613.1935105815967
 20
219.8722992781932
 10
613.2129861553846
 20
219.880965233646
 10
613.2325413132124
 20
219.8907008026756
 10
613.2516282326302
 20
219.9012668087335
 10
613.2702092171719
 20
219.9126363036783
 10
613.2882465703711
 20
219.924782339369
 10
613.3095423857643
 20
219.9406723294278
 10
613.3299905028244
 20
219.9576933145273
 10
613.3495259105307
 20
219.975797827588
 10
613.363880337547
 20
219.9904189246777
 10
613.3776704997175
 20
220.0056695305914
 10
613.3908644066512
 20
220.0215253468485
 10
613.4034300679574
 20
220.0379620749686
 10
613.417877231618
 20
220.0587839241105
 10
613.4313353904572
 20
220.0804528252887
 10
613.4437386399845
 20
220.1029075982569
 10
613.4525448503958
 20
220.12072685218
 10
613.4606844567198
 20
220.1389961972451
 10
613.468125802132
 20
220.1576728515405
 10
613.4748372298079
 20
220.1767140331548
 10
613.4805271931409
 20
220.1951611346576
 10
613.4855265525329
 20
220.21391679731
 10
613.4898128097987
 20
220.232927365924
 10
613.4933634667535
 20
220.2521391853117
 10
613.4962517643265
 20
220.2722501303977
 10
613.4983273682686
 20
220.292535668162
 10
613.4995801547647
 20
220.3129215015066
 10
613.5
 20
220.3333333333333
  0
LINE
  5
1F1
330
17A
100
AcDbEntity
  8
0
  6
Continuous
 62
     7
370
     9
100
AcDbLine
 10
611.5
 20
79.99999999999999
 30
0.0
 11
611.5
 21
72.99999999999999
 31
0.0
  0
LINE
  5
1F2
330
17A
100
AcDbEntity
  8
0
  6
Continuous
 62
     7
370
     9
100
AcDbLine
 10
611.5
 20
91.33333333333331
 30
0.0
 11
611.5
 21
84.33333333333331
 31
0.0
  0
LINE
  5
1F3
330
17A
100
AcDbEntity
  8
0
  6
Continuous
 62
     7
370
     9
100
AcDbLine
 10
611.5
 20
114.0
 30
0.0
 11
611.5
 21
107.0
 31
0.0
  0
LINE
  5
1F4
330
17A
100
AcDbEntity
  8
0
  6
Continuous
 62
     7
370
     9
100
AcDbLine
 10
611.5
 20
102.6666666666667
 30
0.0
 11
611.5
 21
95.66666666666664
 31
0.0
  0
LINE
  5
1F5
330
17A
100
AcDbEntity
  8
0
  6
Continuous
 62
     7
370
     9
100
AcDbLine
 10
611.5
 20
125.3333333333333
 30
0.0
 11
611.5
 21
118.3333333333333
 31
0.0
  0
LINE
  5
1F6
330
17A
100
AcDbEntity
  8
0
  6
Continuous
 62
     7
370
     9
100
AcDbLine
 10
611.5
 20
136.6666666666667
 30
0.0
 11
611.5
 21
129.6666666666667
 31
0.0
  0
LINE
  5
1F7
330
17A
100
AcDbEntity
  8
0
  6
Continuous
 62
     7
370
     9
100
AcDbLine
 10
611.5
 20
159.3333333333333
 30
0.0
 11
611.5
 21
152.3333333333333
 31
0.0
  0
LINE
  5
1F8
330
17A
100
AcDbEntity
  8
0
  6
Continuous
 62
     7
370
     9
100
AcDbLine
 10
611.5
 20
148.0
 30
0.0
 11
611.5
 21
141.0
 31
0.0
  0
LINE
  5
1F9
330
17A
100
AcDbEntity
  8
0
  6
Continuous
 62
     7
370
     9
100
AcDbLine
 10
611.5
 20
170.6666666666667
 30
0.0
 11
611.5
 21
163.6666666666667
 31
0.0
  0
LINE
  5
1FA
330
17A
100
AcDbEntity
  8
0
  6
Continuous
 62
     7
370
     9
100
AcDbLine
 10
611.5
 20
193.3333333333333
 30
0.0
 11
611.5
 21
186.3333333333333
 31
0.0
  0
LINE
  5
1FB
330
17A
100
AcDbEntity
  8
0
  6
Continuous
 62
     7
370
     9
100
AcDbLine
 10
611.5
 20
182.0
 30
0.0
 11
611.5
 21
175.0
 31
0.0
  0
LINE
  5
1FC
330
17A
100
AcDbEntity
  8
0
  6
Continuous
 62
     7
370
     9
100
AcDbLine
 10
611.5
 20
204.6666666666667
 30
0.0
 11
611.5
 21
197.6666666666667
 31
0.0
  0
LINE
  5
1FD
330
17A
100
AcDbEntity
  8
0
  6
Continuous
 62
     7
370
     9
100
AcDbLine
 10
611.5
 20
227.3333333333333
 30
0.0
 11
611.5
 21
220.3333333333333
 31
0.0
  0
LINE
  5
1FE
330
17A
100
AcDbEntity
  8
0
  6
Continuous
 62
     7
370
     9
100
AcDbLine
 10
611.5
 20
216.0
 30
0.0
 11
611.5
 21
209.0
 31
0.0
  0
LINE
  5
1FF
330
17A
100
AcDbEntity
  8
0
  6
Continuous
 62
     7
370
     9
100
AcDbLine
 10
611.5
 20
238.6666666666667
 30
0.0
 11
611.5
 21
231.6666666666667
 31
0.0
  0
LINE
  5
200
330
17A
100
AcDbEntity
  8
0
  6
Continuous
 62
     7
370
     9
100
AcDbLine
 10
611.5
 20
250.0
 30
0.0
 11
611.5
 21
243.0
 31
0.0
  0
LINE
  5
201
330
17A
100
AcDbEntity
  8
0
  6
Continuous
 62
     7
370
     9
100
AcDbLine
 10
613.5
 20
175.0
 30
0.0
 11
613.5
 21
182.0
 31
0.0
  0
LINE
  5
202
330
17A
100
AcDbEntity
  8
0
  6
Continuous
 62
     7
370
     9
100
AcDbLine
 10
613.5
 20
152.3333333333333
 30
0.0
 11
613.5
 21
159.3333333333333
 31
0.0
  0
LINE
  5
203
330
17A
100
AcDbEntity
  8
0
  6
Continuous
 62
     7
370
     9
100
AcDbLine
 10
613.5
 20
107.0
 30
0.0
 11
613.5
 21
114.0
 31
0.0
  0
LINE
  5
204
330
17A
100
AcDbEntity
  8
0
  6
Continuous
 62
     7
370
     9
100
AcDbLine
 10
613.5
 20
163.6666666666667
 30
0.0
 11
613.5
 21
170.6666666666667
 31
0.0
  0
LINE
  5
205
330
17A
100
AcDbEntity
  8
0
  6
Continuous
 62
     7
370
     9
100
AcDbLine
 10
613.5
 20
118.3333333333333
 30
0.0
 11
613.5
 21
125.3333333333333
 31
0.0
  0
LINE
  5
206
330
17A
100
AcDbEntity
  8
0
  6
Continuous
 62
     7
370
     9
100
AcDbLine
 10
613.5
 20
141.0
 30
0.0
 11
613.5
 21
148.0
 31
0.0
  0
LINE
  5
207
330
17A
100
AcDbEntity
  8
0
  6
Continuous
 62
     7
370
     9
100
AcDbLine
 10
613.5
 20
129.6666666666667
 30
0.0
 11
613.5
 21
136.6666666666666
 31
0.0
  0
LINE
  5
208
330
17A
100
AcDbEntity
  8
0
  6
Continuous
 62
     7
370
     9
100
AcDbLine
 10
613.5
 20
95.66666666666666
 30
0.0
 11
613.5
 21
102.6666666666667
 31
0.0
  0
LINE
  5
209
330
17A
100
AcDbEntity
  8
0
  6
Continuous
 62
     7
370
     9
100
AcDbLine
 10
613.5
 20
186.3333333333333
 30
0.0
 11
613.5
 21
193.3333333333333
 31
0.0
  0
LINE
  5
20A
330
17A
100
AcDbEntity
  8
0
  6
Continuous
 62
     7
370
     9
100
AcDbLine
 10
613.5
 20
197.6666666666667
 30
0.0
 11
613.5
 21
204.6666666666667
 31
0.0
  0
LINE
  5
20B
330
17A
100
AcDbEntity
  8
0
  6
Continuous
 62
     7
370
     9
100
AcDbLine
 10
613.5
 20
209.0
 30
0.0
 11
613.5
 21
216.0
 31
0.0
  0
LINE
  5
20C
330
17A
100
AcDbEntity
  8
0
  6
Continuous
 62
     7
370
     9
100
AcDbLine
 10
613.5
 20
243.0
 30
0.0
 11
613.5
 21
250.0
 31
0.0
  0
LINE
  5
20D
330
17A
100
AcDbEntity
  8
0
  6
Continuous
 62
     7
370
     9
100
AcDbLine
 10
613.5
 20
73.0
 30
0.0
 11
613.5
 21
79.99999999999999
 31
0.0
  0
LINE
  5
20E
330
17A
100
AcDbEntity
  8
0
  6
Continuous
 62
     7
370
     9
100
AcDbLine
 10
613.5
 20
220.3333333333333
 30
0.0
 11
613.5
 21
227.3333333333333
 31
0.0
  0
LINE
  5
20F
330
17A
100
AcDbEntity
  8
0
  6
Continuous
 62
     7
370
     9
100
AcDbLine
 10
613.5
 20
231.6666666666667
 30
0.0
 11
613.5
 21
238.6666666666667
 31
0.0
  0
LINE
  5
210
330
17A
100
AcDbEntity
  8
0
  6
Continuous
 62
     7
370
     9
100
AcDbLine
 10
613.5
 20
84.33333333333333
 30
0.0
 11
613.5
 21
91.33333333333331
 31
0.0
  0
LINE
  5
211
330
17A
100
AcDbEntity
  8
0
  6
Continuous
 62
     7
370
     9
100
AcDbLine
 10
615.9641016151378
 20
71.15063509461092
 30
0.0
 11
625.0000000000001
 21
55.49999999999999
 31
0.0
  0
LINE
  5
212
330
17A
100
AcDbEntity
  8
0
  6
Continuous
 62
     7
370
     9
100
AcDbLine
 10
600.0000000000001
 20
55.49999999999999
 30
0.0
 11
609.0358983848623
 21
71.15063509461092
 31
0.0
  0
LINE
  5
213
330
17A
100
AcDbEntity
  8
0
  6
Continuous
 62
     7
370
     9
100
AcDbLine
 10
616.0
 20
71.08845726811985
 30
0.0
 11
616.0
 21
251.0
 31
0.0
  0
LINE
  5
214
330
17A
100
AcDbEntity
  8
0
  6
Continuous
 62
     7
370
     9
100
AcDbLine
 10
609.0000000000001
 20
251.0
 30
0.0
 11
609.0000000000001
 21
71.08845726811985
 31
0.0
  0
ARC
  5
215
330
17A
100
AcDbEntity
  8
0
  6
Continuous
 62
     7
370
     9
100
AcDbCircle
 10
614.5
 20
251.0
 30
0.0
 40
1.5
100
AcDbArc
 50
0.0
 51
90.0
  0
ARC
  5
216
330
17A
100
AcDbEntity
  8
0
  6
Continuous
 62
     7
370
     9
100
AcDbCircle
 10
610.5
 20
251.0
 30
0.0
 40
1.500000000000001
100
AcDbArc
 50
90.0
 51
180.0
  0
ENDBLK
  5
220
330
17A
100
AcDbEntity
  8
0
100
AcDbBlockEnd
  0
ENDSEC
  0
SECTION
  2
ENTITIES
  0
MTEXT
  5
6F
330
1F
100
AcDbEntity
  8
0
 62
     7
100
AcDbMText
 10
607.7045454545454
 20
30.18636363636363
 30
0.0
 40
3.0
 41
0.0
 71
     1
 72
     1
  1
{\fＭＳ ゴシック;CP-200}
 73
     1
 44
1.0
  0
INSERT
  5
93
330
1F
100
AcDbEntity
  8
0
  6
Continuous
 62
     7
370
     9
100
AcDbBlockReference
  2
D_FRAME_VIEW@1707
 10
0.0
 20
0.0
 30
0.0
  0
INSERT
  5
171
330
1F
100
AcDbEntity
  8
0
  6
Continuous
 62
     7
370
     9
100
AcDbBlockReference
  2
D_FRAME_VIEW@1665
 10
0.0
 20
0.0
 30
0.0
  0
INSERT
  5
173
330
1F
100
AcDbEntity
  8
0
 62
     7
100
AcDbBlockReference
  2
D_FRAME_DRAWING@17
 10
0.0
 20
0.0
 30
0.0
  0
INSERT
  5
217
330
1F
100
AcDbEntity
  8
0
  6
Continuous
 62
     7
370
     9
100
AcDbBlockReference
  2
D_FRAME_VIEW@1287
 10
0.0
 20
0.0
 30
0.0
  0
ENDSEC
  0
SECTION
  2
OBJECTS
  0
DICTIONARY
  5
C
330
0
100
AcDbDictionary
281
     1
  3
ACAD_GROUP
350
D
  3
ACAD_LAYOUT
350
1A
  3
ACAD_MATERIAL
350
43
  3
ACAD_MLEADERSTYLE
350
6B
  3
ACAD_MLINESTYLE
350
17
  3
ACAD_PLOTSETTINGS
350
19
  3
ACAD_PLOTSTYLENAME
350
E
  3
ACAD_SCALELIST
350
47
  3
ACAD_TABLESTYLE
350
69
  3
ACAD_VISUALSTYLE
350
2A
  3
AcDbVariableDictionary
350
218
  0
DICTIONARY
  5
221
330
8
100
AcDbDictionary
280
     1
281
     1
  3
ACAD_XREC_ROUNDTRIP
360
222
  0
DICTIONARY
  5
D
102
{ACAD_REACTORS
330
C
102
}
330
C
100
AcDbDictionary
281
     1
  0
DICTIONARY
  5
1A
102
{ACAD_REACTORS
330
C
102
}
330
C
100
AcDbDictionary
281
     1
  3
Layout1
350
1E
  3
Layout2
350
26
  3
Model
350
22
  0
DICTIONARY
  5
43
102
{ACAD_REACTORS
330
C
102
}
330
C
100
AcDbDictionary
281
     1
  3
ByBlock
350
45
  3
ByLayer
350
44
  3
Global
350
46
  0
DICTIONARY
  5
6B
102
{ACAD_REACTORS
330
C
102
}
330
C
100
AcDbDictionary
281
     1
  3
Standard
350
6C
  0
DICTIONARY
  5
17
102
{ACAD_REACTORS
330
C
102
}
330
C
100
AcDbDictionary
281
     1
  3
Standard
350
18
  0
DICTIONARY
  5
19
102
{ACAD_REACTORS
330
C
102
}
330
C
100
AcDbDictionary
281
     1
  0
ACDBDICTIONARYWDFLT
  5
E
102
{ACAD_REACTORS
330
C
102
}
330
C
100
AcDbDictionary
281
     1
  3
Normal
350
F
100
AcDbDictionaryWithDefault
340
F
  0
DICTIONARY
  5
47
102
{ACAD_REACTORS
330
C
102
}
330
C
100
AcDbDictionary
281
     1
  3
A0
350
48
  3
A1
350
49
  3
A2
350
4A
  3
A3
350
4B
  3
A4
350
4C
  3
A5
350
4D
  3
A6
350
4E
  3
A7
350
4F
  3
A8
350
50
  3
A9
350
51
  3
B0
350
52
  3
B1
350
53
  3
B2
350
54
  3
B3
350
55
  3
B4
350
56
  3
B5
350
57
  3
B6
350
58
  3
B7
350
59
  3
B8
350
5A
  3
B9
350
5B
  3
C0
350
5C
  3
C1
350
5D
  3
C2
350
5E
  3
C3
350
5F
  3
C4
350
60
  3
C5
350
61
  3
C6
350
62
  3
C7
350
63
  3
C8
350
64
  3
C9
350
65
  3
D0
350
66
  3
D1
350
67
  3
D2
350
68
  0
DICTIONARY
  5
69
102
{ACAD_REACTORS
330
C
102
}
330
C
100
AcDbDictionary
281
     1
  3
Standard
350
6A
  0
DICTIONARY
  5
2A
102
{ACAD_REACTORS
330
C
102
}
330
C
100
AcDbDictionary
281
     1
  3
2dWireframe
350
2F
  3
Basic
350
32
  3
Brighten
350
36
  3
ColorChange
350
3A
  3
Conceptual
350
34
  3
Dim
350
35
  3
EdgeColorOff
350
3D
  3
Facepattern
350
39
  3
Flat
350
2B
  3
FlatWithEdges
350
2C
  3
Gouraud
350
2D
  3
GouraudWithEdges
350
2E
  3
Hidden
350
31
  3
JitterOff
350
3B
  3
Linepattern
350
38
  3
OverhangOff
350
3C
  3
Realistic
350
33
  3
Shaded
350
42
  3
Shaded with edges
350
41
  3
Shades of Gray
350
3E
  3
Sketchy
350
3F
  3
Thicken
350
37
  3
Wireframe
350
30
  3
X-Ray
350
40
  0
DICTIONARY
  5
218
102
{ACAD_REACTORS
330
C
102
}
330
C
100
AcDbDictionary
281
     1
  3
CANNOSCALE
350
223
  3
CMLEADERSTYLE
350
21A
  3
CTABLESTYLE
350
219
  3
DIMASSOC
350
21D
  3
HIDETEXT
350
21E
  3
MSLTSCALE
350
224
  0
XRECORD
  5
222
102
{ACAD_REACTORS
330
221
102
}
330
221
100
AcDbXrecord
280
     1
102
VTR_0.000_0.000_1.000_1.000_VISUALSTYLE
340
2F
102
VTR_0.000_0.000_1.000_1.000_GRIDDISPLAY
 70
     3
102
VTR_0.000_0.000_1.000_1.000_GRIDMAJOR
 70
     5
102
VTR_0.000_0.000_1.000_1.000_DEFAULTLIGHTING
280
     1
102
VTR_0.000_0.000_1.000_1.000_DEFAULTLIGHTINGTYPE
 70
     1
102
VTR_0.000_0.000_1.000_1.000_BRIGHTNESS
141
0.0
102
VTR_0.000_0.000_1.000_1.000_CONTRAST
142
0.0
  0
LAYOUT
  5
1E
102
{ACAD_REACTORS
330
1A
102
}
330
1A
100
AcDbPlotSettings
  1

  2
none_device
  4

  6

 40
0.0
 41
0.0
 42
0.0
 43
0.0
 44
0.0
 45
0.0
 46
0.0
 47
0.0
 48
0.0
 49
0.0
140
0.0
141
0.0
142
1.0
143
1.0
 70
   688
 72
     0
 73
     0
 74
     5
  7

 75
    16
147
1.0
148
0.0
149
0.0
100
AcDbLayout
  1
Layout1
 70
     1
 71
     1
 10
0.0
 20
0.0
 11
12.0
 21
9.0
 12
0.0
 22
0.0
 32
0.0
 14
1.000000000000000E+20
 24
1.000000000000000E+20
 34
1.000000000000000E+20
 15
-1.000000000000000E+20
 25
-1.000000000000000E+20
 35
-1.000000000000000E+20
146
0.0
 13
0.0
 23
0.0
 33
0.0
 16
1.0
 26
0.0
 36
0.0
 17
0.0
 27
1.0
 37
0.0
 76
     0
330
1B
  0
LAYOUT
  5
26
102
{ACAD_REACTORS
330
1A
102
}
330
1A
100
AcDbPlotSettings
  1

  2
none_device
  4

  6

 40
0.0
 41
0.0
 42
0.0
 43
0.0
 44
0.0
 45
0.0
 46
0.0
 47
0.0
 48
0.0
 49
0.0
140
0.0
141
0.0
142
1.0
143
1.0
 70
   688
 72
     0
 73
     0
 74
     5
  7

 75
    16
147
1.0
148
0.0
149
0.0
100
AcDbLayout
  1
Layout2
 70
     1
 71
     2
 10
0.0
 20
0.0
 11
0.0
 21
0.0
 12
0.0
 22
0.0
 32
0.0
 14
0.0
 24
0.0
 34
0.0
 15
0.0
 25
0.0
 35
0.0
146
0.0
 13
0.0
 23
0.0
 33
0.0
 16
1.0
 26
0.0
 36
0.0
 17
0.0
 27
1.0
 37
0.0
 76
     0
330
23
  0
LAYOUT
  5
22
102
{ACAD_REACTORS
330
1A
102
}
330
1A
100
AcDbPlotSettings
  1

  2
none_device
  4
Letter_(8.50_x_11.00_Inches)
  6

 40
6.35
 41
6.35
 42
6.35000508
 43
6.35000508
 44
215.9
 45
279.4
 46
0.0
 47
0.0
 48
0.0
 49
0.0
140
0.0
141
0.0
142
1.0
143
1.0
 70
  1712
 72
     0
 73
     0
 74
     0
  7

 75
     0
147
1.0
148
0.0
149
0.0
100
AcDbLayout
  1
Model
 70
     1
 71
     0
 10
0.0
 20
0.0
 11
12.0
 21
9.0
 12
0.0
 22
0.0
 32
0.0
 14
0.0
 24
0.0
 34
0.0
 15
730.0
 25
330.0
 35
5.0
146
0.0
 13
0.0
 23
0.0
 33
0.0
 16
1.0
 26
0.0
 36
0.0
 17
0.0
 27
1.0
 37
0.0
 76
     0
330
1F
331
29
  0
MATERIAL
  5
45
102
{ACAD_REACTORS
330
43
102
}
102
{ACAD_XDICTIONARY
360
257
102
}
330
43
100
AcDbMaterial
  1
ByBlock
  0
MATERIAL
  5
44
102
{ACAD_REACTORS
330
43
102
}
102
{ACAD_XDICTIONARY
360
255
102
}
330
43
100
AcDbMaterial
  1
ByLayer
  0
MATERIAL
  5
46
102
{ACAD_REACTORS
330
43
102
}
102
{ACAD_XDICTIONARY
360
259
102
}
330
43
100
AcDbMaterial
  1
Global
  0
MLEADERSTYLE
  5
6C
102
{ACAD_REACTORS
330
6B
102
}
102
{ACAD_XDICTIONARY
360
25C
102
}
330
6B
100
AcDbMLeaderStyle
170
     2
171
     1
172
     0
 90
        2
 40
0.0
 41
0.0
173
     1
 91
-1056964608
340
14
 92
       -2
290
     1
 42
0.09
291
     1
 43
0.36
  3
Standard
341
0
 44
0.18
300

342
11
174
     1
178
     6
175
     1
176
     0
 93
-1056964608
 45
0.18
292
     0
297
     0
 46
0.18
343
0
 94
-1056964608
 47
1.0
 49
1.0
140
1.0
293
     1
141
0.0
294
     1
177
     0
142
1.0
295
     0
296
     0
143
0.125
1001
ACAD_MLEADERVER
1070
     2
  0
MLINESTYLE
  5
18
102
{ACAD_REACTORS
330
17
102
}
330
17
100
AcDbMlineStyle
  2
Standard
 70
     0
  3

 62
   256
 51
90.0
 52
90.0
 71
     2
 49
0.5
 62
   256
  6
BYLAYER
 49
-0.5
 62
   256
  6
BYLAYER
  0
ACDBPLACEHOLDER
  5
F
102
{ACAD_REACTORS
330
E
102
}
330
E
  0
SCALE
  5
48
102
{ACAD_REACTORS
330
47
102
}
330
47
100
AcDbScale
 70
     0
300
1:1
140
1.0
141
1.0
290
     1
  0
SCALE
  5
49
102
{ACAD_REACTORS
330
47
102
}
330
47
100
AcDbScale
 70
     0
300
1:2
140
1.0
141
2.0
290
     0
  0
SCALE
  5
4A
102
{ACAD_REACTORS
330
47
102
}
330
47
100
AcDbScale
 70
     0
300
1:4
140
1.0
141
4.0
290
     0
  0
SCALE
  5
4B
102
{ACAD_REACTORS
330
47
102
}
330
47
100
AcDbScale
 70
     0
300
1:5
140
1.0
141
5.0
290
     0
  0
SCALE
  5
4C
102
{ACAD_REACTORS
330
47
102
}
330
47
100
AcDbScale
 70
     0
300
1:8
140
1.0
141
8.0
290
     0
  0
SCALE
  5
4D
102
{ACAD_REACTORS
330
47
102
}
330
47
100
AcDbScale
 70
     0
300
1:10
140
1.0
141
10.0
290
     0
  0
SCALE
  5
4E
102
{ACAD_REACTORS
330
47
102
}
330
47
100
AcDbScale
 70
     0
300
1:16
140
1.0
141
16.0
290
     0
  0
SCALE
  5
4F
102
{ACAD_REACTORS
330
47
102
}
330
47
100
AcDbScale
 70
     0
300
1:20
140
1.0
141
20.0
290
     0
  0
SCALE
  5
50
102
{ACAD_REACTORS
330
47
102
}
330
47
100
AcDbScale
 70
     0
300
1:30
140
1.0
141
30.0
290
     0
  0
SCALE
  5
51
102
{ACAD_REACTORS
330
47
102
}
330
47
100
AcDbScale
 70
     0
300
1:40
140
1.0
141
40.0
290
     0
  0
SCALE
  5
52
102
{ACAD_REACTORS
330
47
102
}
330
47
100
AcDbScale
 70
     0
300
1:50
140
1.0
141
50.0
290
     0
  0
SCALE
  5
53
102
{ACAD_REACTORS
330
47
102
}
330
47
100
AcDbScale
 70
     0
300
1:100
140
1.0
141
100.0
290
     0
  0
SCALE
  5
54
102
{ACAD_REACTORS
330
47
102
}
330
47
100
AcDbScale
 70
     0
300
2:1
140
2.0
141
1.0
290
     0
  0
SCALE
  5
55
102
{ACAD_REACTORS
330
47
102
}
330
47
100
AcDbScale
 70
     0
300
4:1
140
4.0
141
1.0
290
     0
  0
SCALE
  5
56
102
{ACAD_REACTORS
330
47
102
}
330
47
100
AcDbScale
 70
     0
300
8:1
140
8.0
141
1.0
290
     0
  0
SCALE
  5
57
102
{ACAD_REACTORS
330
47
102
}
330
47
100
AcDbScale
 70
     0
300
10:1
140
10.0
141
1.0
290
     0
  0
SCALE
  5
58
102
{ACAD_REACTORS
330
47
102
}
330
47
100
AcDbScale
 70
     0
300
100:1
140
100.0
141
1.0
290
     0
  0
SCALE
  5
59
102
{ACAD_REACTORS
330
47
102
}
330
47
100
AcDbScale
 70
     0
300
1/128" = 1'-0"
140
0.0078125
141
12.0
290
     0
  0
SCALE
  5
5A
102
{ACAD_REACTORS
330
47
102
}
330
47
100
AcDbScale
 70
     0
300
1/64" = 1'-0"
140
0.015625
141
12.0
290
     0
  0
SCALE
  5
5B
102
{ACAD_REACTORS
330
47
102
}
330
47
100
AcDbScale
 70
     0
300
1/32" = 1'-0"
140
0.03125
141
12.0
290
     0
  0
SCALE
  5
5C
102
{ACAD_REACTORS
330
47
102
}
330
47
100
AcDbScale
 70
     0
300
1/16" = 1'-0"
140
0.0625
141
12.0
290
     0
  0
SCALE
  5
5D
102
{ACAD_REACTORS
330
47
102
}
330
47
100
AcDbScale
 70
     0
300
3/32" = 1'-0"
140
0.09375
141
12.0
290
     0
  0
SCALE
  5
5E
102
{ACAD_REACTORS
330
47
102
}
330
47
100
AcDbScale
 70
     0
300
1/8" = 1'-0"
140
0.125
141
12.0
290
     0
  0
SCALE
  5
5F
102
{ACAD_REACTORS
330
47
102
}
330
47
100
AcDbScale
 70
     0
300
3/16" = 1'-0"
140
0.1875
141
12.0
290
     0
  0
SCALE
  5
60
102
{ACAD_REACTORS
330
47
102
}
330
47
100
AcDbScale
 70
     0
300
1/4" = 1'-0"
140
0.25
141
12.0
290
     0
  0
SCALE
  5
61
102
{ACAD_REACTORS
330
47
102
}
330
47
100
AcDbScale
 70
     0
300
3/8" = 1'-0"
140
0.375
141
12.0
290
     0
  0
SCALE
  5
62
102
{ACAD_REACTORS
330
47
102
}
330
47
100
AcDbScale
 70
     0
300
1/2" = 1'-0"
140
0.5
141
12.0
290
     0
  0
SCALE
  5
63
102
{ACAD_REACTORS
330
47
102
}
330
47
100
AcDbScale
 70
     0
300
3/4" = 1'-0"
140
0.75
141
12.0
290
     0
  0
SCALE
  5
64
102
{ACAD_REACTORS
330
47
102
}
330
47
100
AcDbScale
 70
     0
300
1" = 1'-0"
140
1.0
141
12.0
290
     0
  0
SCALE
  5
65
102
{ACAD_REACTORS
330
47
102
}
330
47
100
AcDbScale
 70
     0
300
1-1/2" = 1'-0"
140
1.5
141
12.0
290
     0
  0
SCALE
  5
66
102
{ACAD_REACTORS
330
47
102
}
330
47
100
AcDbScale
 70
     0
300
3" = 1'-0"
140
3.0
141
12.0
290
     0
  0
SCALE
  5
67
102
{ACAD_REACTORS
330
47
102
}
330
47
100
AcDbScale
 70
     0
300
6" = 1'-0"
140
6.0
141
12.0
290
     0
  0
SCALE
  5
68
102
{ACAD_REACTORS
330
47
102
}
330
47
100
AcDbScale
 70
     0
300
1'-0" = 1'-0"
140
12.0
141
12.0
290
     0
  0
TABLESTYLE
  5
6A
102
{ACAD_REACTORS
330
69
102
}
330
69
100
AcDbTableStyle
  3
Standard
 70
     0
 71
     0
 40
0.06
 41
0.06
280
     0
281
     0
  7
Standard
140
0.18
170
     2
 62
     0
 63
   257
283
     0
274
    -2
284
     1
 64
     0
275
    -2
285
     1
 65
     0
276
    -2
286
     1
 66
     0
277
    -2
287
     1
 67
     0
278
    -2
288
     1
 68
     0
279
    -2
289
     1
 69
     0
  7
Standard
140
0.25
170
     5
 62
     0
 63
   257
283
     0
274
    -2
284
     1
 64
     0
275
    -2
285
     1
 65
     0
276
    -2
286
     1
 66
     0
277
    -2
287
     1
 67
     0
278
    -2
288
     1
 68
     0
279
    -2
289
     1
 69
     0
  7
Standard
140
0.18
170
     5
 62
     0
 63
   257
283
     0
274
    -2
284
     1
 64
     0
275
    -2
285
     1
 65
     0
276
    -2
286
     1
 66
     0
277
    -2
287
     1
 67
     0
278
    -2
288
     1
 68
     0
279
    -2
289
     1
 69
     0
  0
VISUALSTYLE
  5
2F
102
{ACAD_REACTORS
330
2A
102
}
102
{ACAD_XDICTIONARY
360
22D
102
}
330
2A
100
AcDbVisualStyle
  2
2dWireframe
 70
     4
 71
     0
 72
     2
 73
     0
 90
        0
 40
0.6
 41
30.0
 62
     5
 63
     7
 74
     1
 91
        4
 64
     7
 65
   257
 75
     1
175
     1
 42
1.0
 92
        0
 66
   257
 43
1.0
 76
     1
 77
     6
 78
     2
 67
     7
 79
     5
170
     0
171
     0
290
     0
174
     0
 93
        1
 44
0.0
173
     0
291
     0
 45
0.0
1001
ACAD
1000
AcDbSavedByObjectVersion
1070
     0
  0
VISUALSTYLE
  5
32
102
{ACAD_REACTORS
330
2A
102
}
102
{ACAD_XDICTIONARY
360
233
102
}
330
2A
100
AcDbVisualStyle
  2
Basic
 70
     7
 71
     1
 72
     0
 73
     1
 90
        0
 40
0.6
 41
30.0
 62
     5
 63
     7
 74
     0
 91
        4
 64
     7
 65
   257
 75
     1
175
     1
 42
1.0
 92
        8
 66
     7
 43
1.0
 76
     1
 77
     6
 78
     2
 67
     7
 79
     5
170
     0
171
     0
290
     0
174
     0
 93
        1
 44
0.0
173
     0
291
     1
 45
0.0
1001
ACAD
1000
AcDbSavedByObjectVersion
1070
     0
  0
VISUALSTYLE
  5
36
102
{ACAD_REACTORS
330
2A
102
}
102
{ACAD_XDICTIONARY
360
23B
102
}
330
2A
100
AcDbVisualStyle
  2
Brighten
 70
    12
 71
     2
 72
     2
 73
     0
 90
        0
 40
0.6
 41
30.0
 62
     5
 63
     7
 74
     1
 91
        4
 64
     7
 65
   257
 75
     1
175
     1
 42
1.0
 92
        8
 66
     7
 43
1.0
 76
     1
 77
     6
 78
     2
 67
     7
 79
     5
170
     0
171
     0
290
     0
174
     0
 93
        1
 44
50.0
173
     0
291
     1
 45
0.0
1001
ACAD
1000
AcDbSavedByObjectVersion
1070
     0
  0
VISUALSTYLE
  5
3A
102
{ACAD_REACTORS
330
2A
102
}
102
{ACAD_XDICTIONARY
360
243
102
}
330
2A
100
AcDbVisualStyle
  2
ColorChange
 70
    16
 71
     2
 72
     2
 73
     3
 90
        0
 40
0.6
 41
30.0
 62
     5
 63
     8
 74
     1
 91
        4
 64
     7
 65
   257
 75
     1
175
     1
 42
1.0
 92
        8
 66
     8
 43
1.0
 76
     1
 77
     6
 78
     2
 67
     7
 79
     5
170
     0
171
     0
290
     0
174
     0
 93
        1
 44
0.0
173
     0
291
     1
 45
0.0
1001
ACAD
1000
AcDbSavedByObjectVersion
1070
     0
  0
VISUALSTYLE
  5
34
102
{ACAD_REACTORS
330
2A
102
}
102
{ACAD_XDICTIONARY
360
237
102
}
330
2A
100
AcDbVisualStyle
  2
Conceptual
 70
     9
 71
     3
 72
     2
 73
     0
 90
        0
 40
0.6
 41
30.0
 62
     5
 63
     7
 74
     2
 91
        2
 64
     7
 65
   257
 75
     1
175
     1
 42
179.0
 92
        8
 66
     7
 43
1.0
 76
     1
 77
     6
 78
     2
 67
     7
 79
     3
170
     0
171
     0
290
     0
174
     0
 93
        1
 44
0.0
173
     0
291
     0
 45
0.0
1001
ACAD
1000
AcDbSavedByObjectVersion
1070
     0
  0
VISUALSTYLE
  5
35
102
{ACAD_REACTORS
330
2A
102
}
102
{ACAD_XDICTIONARY
360
239
102
}
330
2A
100
AcDbVisualStyle
  2
Dim
 70
    11
 71
     2
 72
     2
 73
     0
 90
        0
 40
0.6
 41
30.0
 62
     5
 63
     7
 74
     1
 91
        4
 64
     7
 65
   257
 75
     1
175
     1
 42
1.0
 92
        8
 66
     7
 43
1.0
 76
     1
 77
     6
 78
     2
 67
     7
 79
     5
170
     0
171
     0
290
     0
174
     0
 93
        1
 44
-50.0
173
     0
291
     1
 45
0.0
1001
ACAD
1000
AcDbSavedByObjectVersion
1070
     0
  0
VISUALSTYLE
  5
3D
102
{ACAD_REACTORS
330
2A
102
}
102
{ACAD_XDICTIONARY
360
249
102
}
330
2A
100
AcDbVisualStyle
  2
EdgeColorOff
 70
    22
 71
     2
 72
     2
 73
     0
 90
        0
 40
0.6
 41
30.0
 62
     5
 63
     7
 74
     1
 91
        4
 64
     7
 65
   257
 75
     1
175
     1
 42
1.0
 92
        8
 66
     7
 43
1.0
 76
     1
 77
     6
 78
     2
 67
     7
 79
     5
170
     0
171
     0
290
     0
174
     0
 93
        1
 44
0.0
173
     0
291
     1
 45
0.0
1001
ACAD
1000
AcDbSavedByObjectVersion
1070
     0
  0
VISUALSTYLE
  5
39
102
{ACAD_REACTORS
330
2A
102
}
102
{ACAD_XDICTIONARY
360
241
102
}
330
2A
100
AcDbVisualStyle
  2
Facepattern
 70
    15
 71
     2
 72
     2
 73
     0
 90
        0
 40
0.6
 41
30.0
 62
     5
 63
     7
 74
     1
 91
        4
 64
     7
 65
   257
 75
     1
175
     1
 42
1.0
 92
        8
 66
     7
 43
1.0
 76
     1
 77
     6
 78
     2
 67
     7
 79
     5
170
     0
171
     0
290
     0
174
     0
 93
        1
 44
0.0
173
     0
291
     1
 45
0.0
1001
ACAD
1000
AcDbSavedByObjectVersion
1070
     0
  0
VISUALSTYLE
  5
2B
102
{ACAD_REACTORS
330
2A
102
}
102
{ACAD_XDICTIONARY
360
225
102
}
330
2A
100
AcDbVisualStyle
  2
Flat
 70
     0
 71
     2
 72
     1
 73
     1
 90
        2
 40
0.6
 41
30.0
 62
     5
 63
     7
 74
     0
 91
        0
 64
     7
 65
   257
 75
     1
175
     1
 42
1.0
 92
        8
 66
     7
 43
1.0
 76
     1
 77
     6
 78
     2
 67
     7
 79
     5
170
     0
171
     0
290
     0
174
     0
 93
       13
 44
0.0
173
     0
291
     1
 45
0.0
1001
ACAD
1000
AcDbSavedByObjectVersion
1070
     0
  0
VISUALSTYLE
  5
2C
102
{ACAD_REACTORS
330
2A
102
}
102
{ACAD_XDICTIONARY
360
227
102
}
330
2A
100
AcDbVisualStyle
  2
FlatWithEdges
 70
     1
 71
     2
 72
     1
 73
     1
 90
        2
 40
0.6
 41
30.0
 62
     5
 63
     7
 74
     1
 91
        0
 64
     7
 65
   257
 75
     1
175
     1
 42
1.0
 92
        0
 66
   257
 43
1.0
 76
     1
 77
     6
 78
     2
 67
     7
 79
     5
170
     0
171
     0
290
     0
174
     0
 93
       13
 44
0.0
173
     0
291
     1
 45
0.0
1001
ACAD
1000
AcDbSavedByObjectVersion
1070
     0
  0
VISUALSTYLE
  5
2D
102
{ACAD_REACTORS
330
2A
102
}
102
{ACAD_XDICTIONARY
360
229
102
}
330
2A
100
AcDbVisualStyle
  2
Gouraud
 70
     2
 71
     2
 72
     2
 73
     1
 90
        2
 40
0.6
 41
30.0
 62
     5
 63
     7
 74
     0
 91
        0
 64
     7
 65
   257
 75
     1
175
     1
 42
1.0
 92
        0
 66
     7
 43
1.0
 76
     1
 77
     6
 78
     2
 67
     7
 79
     5
170
     0
171
     0
290
     0
174
     0
 93
       13
 44
0.0
173
     0
291
     1
 45
0.0
1001
ACAD
1000
AcDbSavedByObjectVersion
1070
     0
  0
VISUALSTYLE
  5
2E
102
{ACAD_REACTORS
330
2A
102
}
102
{ACAD_XDICTIONARY
360
22B
102
}
330
2A
100
AcDbVisualStyle
  2
GouraudWithEdges
 70
     3
 71
     2
 72
     2
 73
     1
 90
        2
 40
0.6
 41
30.0
 62
     5
 63
     7
 74
     1
 91
        0
 64
     7
 65
   257
 75
     1
175
     1
 42
1.0
 92
        0
 66
   257
 43
1.0
 76
     1
 77
     6
 78
     2
 67
     7
 79
     5
170
     0
171
     0
290
     0
174
     0
 93
       13
 44
0.0
173
     0
291
     1
 45
0.0
1001
ACAD
1000
AcDbSavedByObjectVersion
1070
     0
  0
VISUALSTYLE
  5
31
102
{ACAD_REACTORS
330
2A
102
}
102
{ACAD_XDICTIONARY
360
231
102
}
330
2A
100
AcDbVisualStyle
  2
Hidden
 70
     6
 71
     1
 72
     2
 73
     2
 90
        0
 40
0.6
 41
30.0
 62
     5
 63
     7
 74
     2
 91
        2
 64
     7
 65
   257
 75
     2
175
     1
 42
40.0
 92
        0
 66
   257
 43
1.0
 76
     1
 77
     6
 78
     2
 67
     7
 79
     3
170
     0
171
     0
290
     0
174
     0
 93
        1
 44
0.0
173
     0
291
     0
 45
0.0
1001
ACAD
1000
AcDbSavedByObjectVersion
1070
     0
  0
VISUALSTYLE
  5
3B
102
{ACAD_REACTORS
330
2A
102
}
102
{ACAD_XDICTIONARY
360
245
102
}
330
2A
100
AcDbVisualStyle
  2
JitterOff
 70
    20
 71
     2
 72
     2
 73
     0
 90
        0
 40
0.6
 41
30.0
 62
     5
 63
     7
 74
     1
 91
        4
 64
     7
 65
   257
 75
     1
175
     1
 42
1.0
 92
       10
 66
     7
 43
1.0
 76
     1
 77
     6
 78
     2
 67
     7
 79
     5
170
     0
171
     0
290
     0
174
     0
 93
        1
 44
0.0
173
     0
291
     1
 45
0.0
1001
ACAD
1000
AcDbSavedByObjectVersion
1070
     0
  0
VISUALSTYLE
  5
38
102
{ACAD_REACTORS
330
2A
102
}
102
{ACAD_XDICTIONARY
360
23F
102
}
330
2A
100
AcDbVisualStyle
  2
Linepattern
 70
    14
 71
     2
 72
     2
 73
     0
 90
        0
 40
0.6
 41
30.0
 62
     5
 63
     7
 74
     1
 91
        4
 64
     7
 65
   257
 75
     7
175
     7
 42
1.0
 92
        8
 66
     7
 43
1.0
 76
     1
 77
     6
 78
     2
 67
     7
 79
     5
170
     0
171
     0
290
     0
174
     0
 93
        1
 44
0.0
173
     0
291
     1
 45
0.0
1001
ACAD
1000
AcDbSavedByObjectVersion
1070
     0
  0
VISUALSTYLE
  5
3C
102
{ACAD_REACTORS
330
2A
102
}
102
{ACAD_XDICTIONARY
360
247
102
}
330
2A
100
AcDbVisualStyle
  2
OverhangOff
 70
    21
 71
     2
 72
     2
 73
     0
 90
        0
 40
0.6
 41
30.0
 62
     5
 63
     7
 74
     1
 91
        4
 64
     7
 65
   257
 75
     1
175
     1
 42
1.0
 92
        9
 66
     7
 43
1.0
 76
     1
 77
     6
 78
     2
 67
     7
 79
     5
170
     0
171
     0
290
     0
174
     0
 93
        1
 44
0.0
173
     0
291
     1
 45
0.0
1001
ACAD
1000
AcDbSavedByObjectVersion
1070
     0
  0
VISUALSTYLE
  5
33
102
{ACAD_REACTORS
330
2A
102
}
102
{ACAD_XDICTIONARY
360
235
102
}
330
2A
100
AcDbVisualStyle
  2
Realistic
 70
     8
 71
     2
 72
     3
 73
     0
 90
        2
 40
0.6
 41
30.0
 62
     5
 63
     7
 74
     0
 91
        0
 64
     7
 65
   257
 75
     1
175
     1
 42
1.0
 92
        8
 66
   257
 43
1.0
 76
     1
 77
     6
 78
     2
 67
     7
 79
     3
170
     0
171
     0
290
     0
174
     0
 93
       13
 44
0.0
173
     0
291
     0
 45
0.0
1001
ACAD
1000
AcDbSavedByObjectVersion
1070
     0
  0
VISUALSTYLE
  5
42
102
{ACAD_REACTORS
330
2A
102
}
102
{ACAD_XDICTIONARY
360
253
102
}
330
2A
100
AcDbVisualStyle
  2
Shaded
 70
    27
 71
     2
 72
     2
 73
     1
 90
        2
 40
0.6
 41
30.0
 62
     5
 63
     7
 74
     0
 91
        4
 64
     7
 65
   257
 75
     1
175
     1
 42
1.0
 92
        8
 66
   257
 43
1.0
 76
     1
 77
     6
 78
     2
 67
     8
 79
     3
170
     0
171
     0
290
     0
174
     0
 93
        5
 44
0.0
173
     0
291
     0
 45
0.0
1001
ACAD
1000
AcDbSavedByObjectVersion
1070
     0
  0
VISUALSTYLE
  5
41
102
{ACAD_REACTORS
330
2A
102
}
102
{ACAD_XDICTIONARY
360
251
102
}
330
2A
100
AcDbVisualStyle
  2
Shaded with edges
 70
    26
 71
     2
 72
     2
 73
     1
 90
        2
 40
0.6
 41
30.0
 62
     5
 63
     7
 74
     1
 91
       10
 64
     7
 65
   257
 75
     2
175
     1
 42
1.0
 92
        8
 66
   257
 43
1.0
 76
     1
 77
     6
 78
     2
 67
     7
 79
     3
170
     0
171
     0
290
     0
174
     0
 93
        5
 44
0.0
173
     0
291
     0
 45
0.0
1001
ACAD
1000
AcDbSavedByObjectVersion
1070
     0
  0
VISUALSTYLE
  5
3E
102
{ACAD_REACTORS
330
2A
102
}
102
{ACAD_XDICTIONARY
360
24B
102
}
330
2A
100
AcDbVisualStyle
  2
Shades of Gray
 70
    23
 71
     2
 72
     2
 73
     3
 90
        0
 40
0.6
 41
30.0
 62
     5
 63
     7
 74
     2
 91
        2
 64
     7
 65
     7
 75
     1
175
     1
 42
40.0
 92
        8
 66
     7
 43
1.0
 76
     1
 77
     6
 78
     2
 67
     7
 79
     3
170
     0
171
     0
290
     0
174
     0
 93
        1
 44
0.0
173
     0
291
     0
 45
0.0
1001
ACAD
1000
AcDbSavedByObjectVersion
1070
     0
  0
VISUALSTYLE
  5
3F
102
{ACAD_REACTORS
330
2A
102
}
102
{ACAD_XDICTIONARY
360
24D
102
}
330
2A
100
AcDbVisualStyle
  2
Sketchy
 70
    24
 71
     1
 72
     2
 73
     2
 90
        0
 40
0.6
 41
30.0
 62
     5
 63
     7
 74
     2
 91
        2
 64
     7
 65
     7
 75
     1
175
     1
 42
40.0
 92
       11
 66
     7
 43
1.0
 76
     1
 77
     6
 78
     2
 67
     7
 79
     6
170
     0
171
     0
290
     0
174
     0
 93
        1
 44
0.0
173
     0
291
     0
 45
0.0
1001
ACAD
1000
AcDbSavedByObjectVersion
1070
     0
  0
VISUALSTYLE
  5
37
102
{ACAD_REACTORS
330
2A
102
}
102
{ACAD_XDICTIONARY
360
23D
102
}
330
2A
100
AcDbVisualStyle
  2
Thicken
 70
    13
 71
     2
 72
     2
 73
     0
 90
        0
 40
0.6
 41
30.0
 62
     5
 63
     7
 74
     1
 91
        4
 64
     7
 65
   257
 75
     1
175
     1
 42
1.0
 92
       12
 66
     7
 43
1.0
 76
     1
 77
     6
 78
     2
 67
     7
 79
     5
170
     0
171
     0
290
     0
174
     0
 93
        1
 44
0.0
173
     0
291
     1
 45
0.0
1001
ACAD
1000
AcDbSavedByObjectVersion
1070
     0
  0
VISUALSTYLE
  5
30
102
{ACAD_REACTORS
330
2A
102
}
102
{ACAD_XDICTIONARY
360
22F
102
}
330
2A
100
AcDbVisualStyle
  2
Wireframe
 70
     5
 71
     0
 72
     2
 73
     0
 90
        0
 40
0.6
 41
30.0
 62
     5
 63
     7
 74
     1
 91
        4
 64
     7
 65
   257
 75
     1
175
     1
 42
1.0
 92
        0
 66
   257
 43
1.0
 76
     1
 77
     6
 78
     2
 67
     7
 79
     3
170
     0
171
     0
290
     0
174
     0
 93
        1
 44
0.0
173
     0
291
     0
 45
0.0
1001
ACAD
1000
AcDbSavedByObjectVersion
1070
     0
  0
VISUALSTYLE
  5
40
102
{ACAD_REACTORS
330
2A
102
}
102
{ACAD_XDICTIONARY
360
24F
102
}
330
2A
100
AcDbVisualStyle
  2
X-Ray
 70
    25
 71
     2
 72
     2
 73
     1
 90
        1
 40
0.5
 41
30.0
 62
     5
 63
     7
 74
     1
 91
        0
 64
     7
 65
   257
 75
     1
175
     1
 42
1.0
 92
        8
 66
     7
 43
1.0
 76
     1
 77
     6
 78
     2
 67
     7
 79
     3
170
     0
171
     0
290
     0
174
     0
 93
       13
 44
0.0
173
     0
291
     0
 45
0.0
1001
ACAD
1000
AcDbSavedByObjectVersion
1070
     0
  0
DICTIONARYVAR
  5
223
102
{ACAD_REACTORS
330
218
102
}
330
218
100
DictionaryVariables
280
     0
  1
1:1
  0
DICTIONARYVAR
  5
21A
102
{ACAD_REACTORS
330
218
102
}
330
218
100
DictionaryVariables
280
     0
  1
Standard
  0
DICTIONARYVAR
  5
219
102
{ACAD_REACTORS
330
218
102
}
330
218
100
DictionaryVariables
280
     0
  1
Standard
  0
DICTIONARYVAR
  5
21D
102
{ACAD_REACTORS
330
218
102
}
330
218
100
DictionaryVariables
280
     0
  1
2
  0
DICTIONARYVAR
  5
21E
102
{ACAD_REACTORS
330
218
102
}
330
218
100
DictionaryVariables
280
     0
  1
1
  0
DICTIONARYVAR
  5
224
102
{ACAD_REACTORS
330
218
102
}
330
218
100
DictionaryVariables
280
     0
  1
1
  0
DICTIONARY
  5
257
330
45
100
AcDbDictionary
280
     1
281
     1
  3
ACAD_XREC_ROUNDTRIP
360
258
  0
DICTIONARY
  5
255
330
44
100
AcDbDictionary
280
     1
281
     1
  3
ACAD_XREC_ROUNDTRIP
360
256
  0
DICTIONARY
  5
259
330
46
100
AcDbDictionary
280
     1
281
     1
  3
ACAD_XREC_ROUNDTRIP
360
25A
  0
DICTIONARY
  5
25C
330
6C
100
AcDbDictionary
280
     1
281
     1
  3
ACAD_XREC_ROUNDTRIP
360
25D
  0
DICTIONARY
  5
22D
330
2F
100
AcDbDictionary
280
     1
281
     1
  3
ACAD_XREC_ROUNDTRIP
360
22E
  0
DICTIONARY
  5
233
330
32
100
AcDbDictionary
280
     1
281
     1
  3
ACAD_XREC_ROUNDTRIP
360
234
  0
DICTIONARY
  5
23B
330
36
100
AcDbDictionary
280
     1
281
     1
  3
ACAD_XREC_ROUNDTRIP
360
23C
  0
DICTIONARY
  5
243
330
3A
100
AcDbDictionary
280
     1
281
     1
  3
ACAD_XREC_ROUNDTRIP
360
244
  0
DICTIONARY
  5
237
330
34
100
AcDbDictionary
280
     1
281
     1
  3
ACAD_XREC_ROUNDTRIP
360
238
  0
DICTIONARY
  5
239
330
35
100
AcDbDictionary
280
     1
281
     1
  3
ACAD_XREC_ROUNDTRIP
360
23A
  0
DICTIONARY
  5
249
330
3D
100
AcDbDictionary
280
     1
281
     1
  3
ACAD_XREC_ROUNDTRIP
360
24A
  0
DICTIONARY
  5
241
330
39
100
AcDbDictionary
280
     1
281
     1
  3
ACAD_XREC_ROUNDTRIP
360
242
  0
DICTIONARY
  5
225
330
2B
100
AcDbDictionary
280
     1
281
     1
  3
ACAD_XREC_ROUNDTRIP
360
226
  0
DICTIONARY
  5
227
330
2C
100
AcDbDictionary
280
     1
281
     1
  3
ACAD_XREC_ROUNDTRIP
360
228
  0
DICTIONARY
  5
229
330
2D
100
AcDbDictionary
280
     1
281
     1
  3
ACAD_XREC_ROUNDTRIP
360
22A
  0
DICTIONARY
  5
22B
330
2E
100
AcDbDictionary
280
     1
281
     1
  3
ACAD_XREC_ROUNDTRIP
360
22C
  0
DICTIONARY
  5
231
330
31
100
AcDbDictionary
280
     1
281
     1
  3
ACAD_XREC_ROUNDTRIP
360
232
  0
DICTIONARY
  5
245
330
3B
100
AcDbDictionary
280
     1
281
     1
  3
ACAD_XREC_ROUNDTRIP
360
246
  0
DICTIONARY
  5
23F
330
38
100
AcDbDictionary
280
     1
281
     1
  3
ACAD_XREC_ROUNDTRIP
360
240
  0
DICTIONARY
  5
247
330
3C
100
AcDbDictionary
280
     1
281
     1
  3
ACAD_XREC_ROUNDTRIP
360
248
  0
DICTIONARY
  5
235
330
33
100
AcDbDictionary
280
     1
281
     1
  3
ACAD_XREC_ROUNDTRIP
360
236
  0
DICTIONARY
  5
253
330
42
100
AcDbDictionary
280
     1
281
     1
  3
ACAD_XREC_ROUNDTRIP
360
254
  0
DICTIONARY
  5
251
330
41
100
AcDbDictionary
280
     1
281
     1
  3
ACAD_XREC_ROUNDTRIP
360
252
  0
DICTIONARY
  5
24B
330
3E
100
AcDbDictionary
280
     1
281
     1
  3
ACAD_XREC_ROUNDTRIP
360
24C
  0
DICTIONARY
  5
24D
330
3F
100
AcDbDictionary
280
     1
281
     1
  3
ACAD_XREC_ROUNDTRIP
360
24E
  0
DICTIONARY
  5
23D
330
37
100
AcDbDictionary
280
     1
281
     1
  3
ACAD_XREC_ROUNDTRIP
360
23E
  0
DICTIONARY
  5
22F
330
30
100
AcDbDictionary
280
     1
281
     1
  3
ACAD_XREC_ROUNDTRIP
360
230
  0
DICTIONARY
  5
24F
330
40
100
AcDbDictionary
280
     1
281
     1
  3
ACAD_XREC_ROUNDTRIP
360
250
  0
XRECORD
  5
258
102
{ACAD_REACTORS
330
257
102
}
330
257
100
AcDbXrecord
280
     1
102
MATERIAL
148
0.0
149
0.0
149
0.0
 93
        0
 94
      127
282
     0
 72
     1
 77
     1
171
     1
175
     1
179
     1
273
     0
  0
XRECORD
  5
256
102
{ACAD_REACTORS
330
255
102
}
330
255
100
AcDbXrecord
280
     1
102
MATERIAL
148
0.0
149
0.0
149
0.0
 93
        0
 94
      127
282
     0
 72
     1
 77
     1
171
     1
175
     1
179
     1
273
     0
  0
XRECORD
  5
25A
102
{ACAD_REACTORS
330
259
102
}
330
259
100
AcDbXrecord
280
     1
102
MATERIAL
148
0.0
149
0.0
149
0.0
 93
        0
 94
      127
282
     0
 72
     1
 77
     1
171
     1
175
     1
179
     1
273
     0
  0
XRECORD
  5
25D
102
{ACAD_REACTORS
330
25C
102
}
330
25C
100
AcDbXrecord
280
     1
102
ACAD_ROUNDTRIP_2010_MLEADER_STYLE
  0
XRECORD
  5
22E
102
{ACAD_REACTORS
330
22D
102
}
330
22D
100
AcDbXrecord
280
     1
102
RTVSPropertyOp0
 70
     1
102
RTVSPropertyOp1
 70
     1
102
RTVSPropertyOp2
 70
     1
102
RTVSPropertyOp3
 70
     1
102
RTVSPropertyOp4
 70
     1
102
RTVSPropertyOp5
 70
     1
102
RTVSPropertyOp6
 70
     1
102
RTVSPropertyOp7
 70
     1
102
RTVSPropertyOp8
 70
     1
102
RTVSPropertyOp9
 70
     1
102
RTVSPropertyOp10
 70
     1
102
RTVSPropertyOp11
 70
     1
102
RTVSPropertyOp12
 70
     1
102
RTVSPropertyOp13
 70
     1
102
RTVSPropertyOp14
 70
     1
102
RTVSPropertyOp15
 70
     1
102
RTVSPropertyOp16
 70
     1
102
RTVSPropertyOp17
 70
     1
102
RTVSPropertyOp18
 70
     1
102
RTVSPropertyOp19
 70
     1
102
RTVSPropertyOp20
 70
     1
102
RTVSPropertyOp21
 70
     1
102
RTVSPropertyOp22
 70
     1
102
RTVSPropertyOp23
 70
     1
102
RTVSPropertyOp24
 70
     1
102
RTVSPropertyOp25
 70
     1
102
RTVSPropertyOp26
 70
     1
102
RTVSPropertyOp27
 70
     1
102
RTVSPropertyOp28
 70
     1
102
RTVSPropertyOp29
 70
     1
102
RTVSPropertyOp30
 70
     1
102
RTVSPropertyOp31
 70
     1
102
RTVSPropertyOp32
 70
     1
102
RTVSPropertyOp33
 70
     1
102
RTVSPropertyOp34
 70
     1
102
RTVSPropertyOp35
 70
     1
102
RTVSPropertyOp36
 70
     1
102
RTVSPropertyOp37
 70
     1
102
RTVSPropertyOp38
 70
     1
102
RTVSPropertyOp39
 70
     1
102
RTVSPropertyOp40
 70
     1
102
RTVSPropertyOp41
 70
     1
102
RTVSPropertyOp42
 70
     1
102
RTVSPropertyOp43
 70
     1
102
RTVSPropertyOp44
 70
     1
102
RTVSPropertyOp45
 70
     1
102
RTVSPropertyOp46
 70
     1
102
RTVSPropertyOp47
 70
     1
102
RTVSPropertyOp48
 70
     1
102
RTVSPropertyOp49
 70
     1
102
RTVSPropertyOp50
 70
     1
102
RTVSPropertyOp51
 70
     0
102
RTVSPropertyOp52
 70
     0
102
RTVSPropertyOp53
 70
     1
102
RTVSPropertyOp54
 70
     1
102
RTVSPropertyOp55
 70
     1
102
RTVSPropertyOp56
 70
     1
102
RTVSPropertyOp57
 70
     1
102
RTVSPost2010Prop28
280
     1
102
RTVSPost2010PropOp28
 70
     1
102
RTVSPost2010Prop29
280
     1
102
RTVSPost2010PropOp29
 70
     1
102
RTVSPost2010Prop30
280
     0
102
RTVSPost2010PropOp30
 70
     1
102
RTVSPost2010Prop31
280
     0
102
RTVSPost2010PropOp31
 70
     1
102
RTVSPost2010Prop32
280
     0
102
RTVSPost2010PropOp32
 70
     1
102
RTVSPost2010Prop33
280
     0
102
RTVSPost2010PropOp33
 70
     1
102
RTVSPost2010Prop34
280
     0
102
RTVSPost2010PropOp34
 70
     1
102
RTVSPost2010Prop35
280
     0
102
RTVSPost2010PropOp35
 70
     1
102
RTVSPost2010Prop36
280
     0
102
RTVSPost2010PropOp36
 70
     1
102
RTVSPost2010Prop37
 90
       50
102
RTVSPost2010PropOp37
 70
     1
102
RTVSPost2010Prop38
140
0.0
102
RTVSPost2010PropOp38
 70
     1
102
RTVSPost2010Prop39
140
1.0
102
RTVSPost2010PropOp39
 70
     1
102
RTVSPost2010Prop40
 90
        0
102
RTVSPost2010PropOp40
 70
     1
102
RTVSPost2010Prop41ColorIndex
 90
       18
102
RTVSPost2010Prop41ColorRGB
 90
        0
102
RTVSPost2010PropOp41
 70
     1
102
RTVSPost2010Prop42
 90
       50
102
RTVSPost2010PropOp42
 70
     1
102
RTVSPost2010Prop43
 90
        3
102
RTVSPost2010PropOp43
 70
     1
102
RTVSPost2010Prop44ColorIndex
 90
        5
102
RTVSPost2010Prop44ColorRGB
 90
      255
102
RTVSPost2010PropOp44
 70
     1
102
RTVSPost2010Prop45
280
     0
102
RTVSPost2010PropOp45
 70
     1
102
RTVSPost2010Prop46
 90
       50
102
RTVSPost2010PropOp46
 70
     1
102
RTVSPost2010Prop47
 90
       50
102
RTVSPost2010PropOp47
 70
     1
102
RTVSPost2010Prop48
 90
       50
102
RTVSPost2010PropOp48
 70
     1
102
RTVSPost2010Prop49
280
     0
102
RTVSPost2010PropOp49
 70
     1
102
RTVSPost2010Prop50
 90
       50
102
RTVSPost2010PropOp50
 70
     1
102
RTVSPost2010Prop51ColorIndex
 90
      256
102
RTVSPost2010Prop51ColorRGB
 90
-16777216
102
RTVSPost2010PropOp51
 70
     0
102
RTVSPost2010Prop52
140
1.0
102
RTVSPost2010PropOp52
 70
     0
102
RTVSPost2010Prop53
 90
        2
102
RTVSPost2010PropOp53
 70
     1
102
RTVSPost2010Prop54
  1
strokes_ogs.tif
102
RTVSPost2010PropOp54
 70
     1
102
RTVSPost2010Prop55
280
     0
102
RTVSPost2010PropOp55
 70
     1
102
RTVSPost2010Prop56
140
1.0
102
RTVSPost2010PropOp56
 70
     1
102
RTVSPost2010Prop57
140
1.0
102
RTVSPost2010PropOp57
 70
     1
  0
XRECORD
  5
234
102
{ACAD_REACTORS
330
233
102
}
330
233
100
AcDbXrecord
280
     1
102
RTVSPropertyOp0
 70
     1
102
RTVSPropertyOp1
 70
     1
102
RTVSPropertyOp2
 70
     1
102
RTVSPropertyOp3
 70
     1
102
RTVSPropertyOp4
 70
     1
102
RTVSPropertyOp5
 70
     1
102
RTVSPropertyOp6
 70
     1
102
RTVSPropertyOp7
 70
     1
102
RTVSPropertyOp8
 70
     1
102
RTVSPropertyOp9
 70
     1
102
RTVSPropertyOp10
 70
     1
102
RTVSPropertyOp11
 70
     1
102
RTVSPropertyOp12
 70
     1
102
RTVSPropertyOp13
 70
     1
102
RTVSPropertyOp14
 70
     1
102
RTVSPropertyOp15
 70
     1
102
RTVSPropertyOp16
 70
     1
102
RTVSPropertyOp17
 70
     1
102
RTVSPropertyOp18
 70
     1
102
RTVSPropertyOp19
 70
     1
102
RTVSPropertyOp20
 70
     1
102
RTVSPropertyOp21
 70
     1
102
RTVSPropertyOp22
 70
     1
102
RTVSPropertyOp23
 70
     1
102
RTVSPropertyOp24
 70
     1
102
RTVSPropertyOp25
 70
     1
102
RTVSPropertyOp26
 70
     1
102
RTVSPropertyOp27
 70
     1
102
RTVSPropertyOp28
 70
     1
102
RTVSPropertyOp29
 70
     1
102
RTVSPropertyOp30
 70
     1
102
RTVSPropertyOp31
 70
     1
102
RTVSPropertyOp32
 70
     1
102
RTVSPropertyOp33
 70
     1
102
RTVSPropertyOp34
 70
     1
102
RTVSPropertyOp35
 70
     1
102
RTVSPropertyOp36
 70
     1
102
RTVSPropertyOp37
 70
     1
102
RTVSPropertyOp38
 70
     1
102
RTVSPropertyOp39
 70
     1
102
RTVSPropertyOp40
 70
     1
102
RTVSPropertyOp41
 70
     1
102
RTVSPropertyOp42
 70
     1
102
RTVSPropertyOp43
 70
     1
102
RTVSPropertyOp44
 70
     1
102
RTVSPropertyOp45
 70
     1
102
RTVSPropertyOp46
 70
     1
102
RTVSPropertyOp47
 70
     1
102
RTVSPropertyOp48
 70
     1
102
RTVSPropertyOp49
 70
     1
102
RTVSPropertyOp50
 70
     1
102
RTVSPropertyOp51
 70
     0
102
RTVSPropertyOp52
 70
     0
102
RTVSPropertyOp53
 70
     1
102
RTVSPropertyOp54
 70
     1
102
RTVSPropertyOp55
 70
     1
102
RTVSPropertyOp56
 70
     1
102
RTVSPropertyOp57
 70
     1
102
RTVSPost2010Prop28
280
     0
102
RTVSPost2010PropOp28
 70
     1
102
RTVSPost2010Prop29
280
     1
102
RTVSPost2010PropOp29
 70
     1
102
RTVSPost2010Prop30
280
     1
102
RTVSPost2010PropOp30
 70
     1
102
RTVSPost2010Prop31
280
     0
102
RTVSPost2010PropOp31
 70
     1
102
RTVSPost2010Prop32
280
     0
102
RTVSPost2010PropOp32
 70
     1
102
RTVSPost2010Prop33
280
     0
102
RTVSPost2010PropOp33
 70
     1
102
RTVSPost2010Prop34
280
     0
102
RTVSPost2010PropOp34
 70
     1
102
RTVSPost2010Prop35
280
     0
102
RTVSPost2010PropOp35
 70
     1
102
RTVSPost2010Prop36
280
     0
102
RTVSPost2010PropOp36
 70
     1
102
RTVSPost2010Prop37
 90
       50
102
RTVSPost2010PropOp37
 70
     1
102
RTVSPost2010Prop38
140
0.0
102
RTVSPost2010PropOp38
 70
     1
102
RTVSPost2010Prop39
140
1.0
102
RTVSPost2010PropOp39
 70
     1
102
RTVSPost2010Prop40
 90
        0
102
RTVSPost2010PropOp40
 70
     1
102
RTVSPost2010Prop41ColorIndex
 90
       18
102
RTVSPost2010Prop41ColorRGB
 90
        0
102
RTVSPost2010PropOp41
 70
     1
102
RTVSPost2010Prop42
 90
       50
102
RTVSPost2010PropOp42
 70
     1
102
RTVSPost2010Prop43
 90
        3
102
RTVSPost2010PropOp43
 70
     1
102
RTVSPost2010Prop44ColorIndex
 90
        5
102
RTVSPost2010Prop44ColorRGB
 90
      255
102
RTVSPost2010PropOp44
 70
     1
102
RTVSPost2010Prop45
280
     0
102
RTVSPost2010PropOp45
 70
     1
102
RTVSPost2010Prop46
 90
       50
102
RTVSPost2010PropOp46
 70
     1
102
RTVSPost2010Prop47
 90
       50
102
RTVSPost2010PropOp47
 70
     1
102
RTVSPost2010Prop48
 90
       50
102
RTVSPost2010PropOp48
 70
     1
102
RTVSPost2010Prop49
280
     0
102
RTVSPost2010PropOp49
 70
     1
102
RTVSPost2010Prop50
 90
       50
102
RTVSPost2010PropOp50
 70
     1
102
RTVSPost2010Prop51ColorIndex
 90
      256
102
RTVSPost2010Prop51ColorRGB
 90
-16777216
102
RTVSPost2010PropOp51
 70
     0
102
RTVSPost2010Prop52
140
1.0
102
RTVSPost2010PropOp52
 70
     0
102
RTVSPost2010Prop53
 90
        2
102
RTVSPost2010PropOp53
 70
     1
102
RTVSPost2010Prop54
  1
strokes_ogs.tif
102
RTVSPost2010PropOp54
 70
     1
102
RTVSPost2010Prop55
280
     0
102
RTVSPost2010PropOp55
 70
     1
102
RTVSPost2010Prop56
140
1.0
102
RTVSPost2010PropOp56
 70
     1
102
RTVSPost2010Prop57
140
1.0
102
RTVSPost2010PropOp57
 70
     1
  0
XRECORD
  5
23C
102
{ACAD_REACTORS
330
23B
102
}
330
23B
100
AcDbXrecord
280
     1
102
RTVSPropertyOp0
 70
     1
102
RTVSPropertyOp1
 70
     1
102
RTVSPropertyOp2
 70
     1
102
RTVSPropertyOp3
 70
     1
102
RTVSPropertyOp4
 70
     1
102
RTVSPropertyOp5
 70
     1
102
RTVSPropertyOp6
 70
     1
102
RTVSPropertyOp7
 70
     1
102
RTVSPropertyOp8
 70
     1
102
RTVSPropertyOp9
 70
     1
102
RTVSPropertyOp10
 70
     1
102
RTVSPropertyOp11
 70
     1
102
RTVSPropertyOp12
 70
     1
102
RTVSPropertyOp13
 70
     1
102
RTVSPropertyOp14
 70
     1
102
RTVSPropertyOp15
 70
     1
102
RTVSPropertyOp16
 70
     1
102
RTVSPropertyOp17
 70
     1
102
RTVSPropertyOp18
 70
     1
102
RTVSPropertyOp19
 70
     1
102
RTVSPropertyOp20
 70
     1
102
RTVSPropertyOp21
 70
     1
102
RTVSPropertyOp22
 70
     1
102
RTVSPropertyOp23
 70
     1
102
RTVSPropertyOp24
 70
     1
102
RTVSPropertyOp25
 70
     1
102
RTVSPropertyOp26
 70
     1
102
RTVSPropertyOp27
 70
     1
102
RTVSPropertyOp28
 70
     1
102
RTVSPropertyOp29
 70
     1
102
RTVSPropertyOp30
 70
     1
102
RTVSPropertyOp31
 70
     1
102
RTVSPropertyOp32
 70
     1
102
RTVSPropertyOp33
 70
     1
102
RTVSPropertyOp34
 70
     1
102
RTVSPropertyOp35
 70
     1
102
RTVSPropertyOp36
 70
     1
102
RTVSPropertyOp37
 70
     1
102
RTVSPropertyOp38
 70
     1
102
RTVSPropertyOp39
 70
     1
102
RTVSPropertyOp40
 70
     1
102
RTVSPropertyOp41
 70
     1
102
RTVSPropertyOp42
 70
     1
102
RTVSPropertyOp43
 70
     1
102
RTVSPropertyOp44
 70
     1
102
RTVSPropertyOp45
 70
     1
102
RTVSPropertyOp46
 70
     1
102
RTVSPropertyOp47
 70
     1
102
RTVSPropertyOp48
 70
     1
102
RTVSPropertyOp49
 70
     1
102
RTVSPropertyOp50
 70
     1
102
RTVSPropertyOp51
 70
     0
102
RTVSPropertyOp52
 70
     0
102
RTVSPropertyOp53
 70
     1
102
RTVSPropertyOp54
 70
     1
102
RTVSPropertyOp55
 70
     1
102
RTVSPropertyOp56
 70
     1
102
RTVSPropertyOp57
 70
     1
102
RTVSPost2010Prop28
280
     0
102
RTVSPost2010PropOp28
 70
     1
102
RTVSPost2010Prop29
280
     1
102
RTVSPost2010PropOp29
 70
     1
102
RTVSPost2010Prop30
280
     1
102
RTVSPost2010PropOp30
 70
     1
102
RTVSPost2010Prop31
280
     0
102
RTVSPost2010PropOp31
 70
     1
102
RTVSPost2010Prop32
280
     0
102
RTVSPost2010PropOp32
 70
     1
102
RTVSPost2010Prop33
280
     0
102
RTVSPost2010PropOp33
 70
     1
102
RTVSPost2010Prop34
280
     0
102
RTVSPost2010PropOp34
 70
     1
102
RTVSPost2010Prop35
280
     0
102
RTVSPost2010PropOp35
 70
     1
102
RTVSPost2010Prop36
280
     0
102
RTVSPost2010PropOp36
 70
     1
102
RTVSPost2010Prop37
 90
       50
102
RTVSPost2010PropOp37
 70
     1
102
RTVSPost2010Prop38
140
0.0
102
RTVSPost2010PropOp38
 70
     1
102
RTVSPost2010Prop39
140
1.0
102
RTVSPost2010PropOp39
 70
     1
102
RTVSPost2010Prop40
 90
        0
102
RTVSPost2010PropOp40
 70
     1
102
RTVSPost2010Prop41ColorIndex
 90
       18
102
RTVSPost2010Prop41ColorRGB
 90
        0
102
RTVSPost2010PropOp41
 70
     1
102
RTVSPost2010Prop42
 90
       50
102
RTVSPost2010PropOp42
 70
     1
102
RTVSPost2010Prop43
 90
        3
102
RTVSPost2010PropOp43
 70
     1
102
RTVSPost2010Prop44ColorIndex
 90
        5
102
RTVSPost2010Prop44ColorRGB
 90
      255
102
RTVSPost2010PropOp44
 70
     1
102
RTVSPost2010Prop45
280
     0
102
RTVSPost2010PropOp45
 70
     1
102
RTVSPost2010Prop46
 90
       50
102
RTVSPost2010PropOp46
 70
     1
102
RTVSPost2010Prop47
 90
       50
102
RTVSPost2010PropOp47
 70
     1
102
RTVSPost2010Prop48
 90
       50
102
RTVSPost2010PropOp48
 70
     1
102
RTVSPost2010Prop49
280
     0
102
RTVSPost2010PropOp49
 70
     1
102
RTVSPost2010Prop50
 90
       50
102
RTVSPost2010PropOp50
 70
     1
102
RTVSPost2010Prop51ColorIndex
 90
      256
102
RTVSPost2010Prop51ColorRGB
 90
-16777216
102
RTVSPost2010PropOp51
 70
     0
102
RTVSPost2010Prop52
140
1.0
102
RTVSPost2010PropOp52
 70
     0
102
RTVSPost2010Prop53
 90
        2
102
RTVSPost2010PropOp53
 70
     1
102
RTVSPost2010Prop54
  1
strokes_ogs.tif
102
RTVSPost2010PropOp54
 70
     1
102
RTVSPost2010Prop55
280
     0
102
RTVSPost2010PropOp55
 70
     1
102
RTVSPost2010Prop56
140
1.0
102
RTVSPost2010PropOp56
 70
     1
102
RTVSPost2010Prop57
140
1.0
102
RTVSPost2010PropOp57
 70
     1
  0
XRECORD
  5
244
102
{ACAD_REACTORS
330
243
102
}
330
243
100
AcDbXrecord
280
     1
102
RTVSPropertyOp0
 70
     1
102
RTVSPropertyOp1
 70
     1
102
RTVSPropertyOp2
 70
     1
102
RTVSPropertyOp3
 70
     1
102
RTVSPropertyOp4
 70
     1
102
RTVSPropertyOp5
 70
     1
102
RTVSPropertyOp6
 70
     1
102
RTVSPropertyOp7
 70
     1
102
RTVSPropertyOp8
 70
     1
102
RTVSPropertyOp9
 70
     1
102
RTVSPropertyOp10
 70
     1
102
RTVSPropertyOp11
 70
     1
102
RTVSPropertyOp12
 70
     1
102
RTVSPropertyOp13
 70
     1
102
RTVSPropertyOp14
 70
     1
102
RTVSPropertyOp15
 70
     1
102
RTVSPropertyOp16
 70
     1
102
RTVSPropertyOp17
 70
     1
102
RTVSPropertyOp18
 70
     1
102
RTVSPropertyOp19
 70
     1
102
RTVSPropertyOp20
 70
     1
102
RTVSPropertyOp21
 70
     1
102
RTVSPropertyOp22
 70
     1
102
RTVSPropertyOp23
 70
     1
102
RTVSPropertyOp24
 70
     1
102
RTVSPropertyOp25
 70
     1
102
RTVSPropertyOp26
 70
     1
102
RTVSPropertyOp27
 70
     1
102
RTVSPropertyOp28
 70
     1
102
RTVSPropertyOp29
 70
     1
102
RTVSPropertyOp30
 70
     1
102
RTVSPropertyOp31
 70
     1
102
RTVSPropertyOp32
 70
     1
102
RTVSPropertyOp33
 70
     1
102
RTVSPropertyOp34
 70
     1
102
RTVSPropertyOp35
 70
     1
102
RTVSPropertyOp36
 70
     1
102
RTVSPropertyOp37
 70
     1
102
RTVSPropertyOp38
 70
     1
102
RTVSPropertyOp39
 70
     1
102
RTVSPropertyOp40
 70
     1
102
RTVSPropertyOp41
 70
     1
102
RTVSPropertyOp42
 70
     1
102
RTVSPropertyOp43
 70
     1
102
RTVSPropertyOp44
 70
     1
102
RTVSPropertyOp45
 70
     1
102
RTVSPropertyOp46
 70
     1
102
RTVSPropertyOp47
 70
     1
102
RTVSPropertyOp48
 70
     1
102
RTVSPropertyOp49
 70
     1
102
RTVSPropertyOp50
 70
     1
102
RTVSPropertyOp51
 70
     0
102
RTVSPropertyOp52
 70
     0
102
RTVSPropertyOp53
 70
     1
102
RTVSPropertyOp54
 70
     1
102
RTVSPropertyOp55
 70
     1
102
RTVSPropertyOp56
 70
     1
102
RTVSPropertyOp57
 70
     1
102
RTVSPost2010Prop28
280
     0
102
RTVSPost2010PropOp28
 70
     1
102
RTVSPost2010Prop29
280
     1
102
RTVSPost2010PropOp29
 70
     1
102
RTVSPost2010Prop30
280
     1
102
RTVSPost2010PropOp30
 70
     1
102
RTVSPost2010Prop31
280
     0
102
RTVSPost2010PropOp31
 70
     1
102
RTVSPost2010Prop32
280
     0
102
RTVSPost2010PropOp32
 70
     1
102
RTVSPost2010Prop33
280
     0
102
RTVSPost2010PropOp33
 70
     1
102
RTVSPost2010Prop34
280
     0
102
RTVSPost2010PropOp34
 70
     1
102
RTVSPost2010Prop35
280
     0
102
RTVSPost2010PropOp35
 70
     1
102
RTVSPost2010Prop36
280
     0
102
RTVSPost2010PropOp36
 70
     1
102
RTVSPost2010Prop37
 90
       50
102
RTVSPost2010PropOp37
 70
     1
102
RTVSPost2010Prop38
140
0.0
102
RTVSPost2010PropOp38
 70
     1
102
RTVSPost2010Prop39
140
1.0
102
RTVSPost2010PropOp39
 70
     1
102
RTVSPost2010Prop40
 90
        0
102
RTVSPost2010PropOp40
 70
     1
102
RTVSPost2010Prop41ColorIndex
 90
       18
102
RTVSPost2010Prop41ColorRGB
 90
        0
102
RTVSPost2010PropOp41
 70
     1
102
RTVSPost2010Prop42
 90
       50
102
RTVSPost2010PropOp42
 70
     1
102
RTVSPost2010Prop43
 90
        3
102
RTVSPost2010PropOp43
 70
     1
102
RTVSPost2010Prop44ColorIndex
 90
        5
102
RTVSPost2010Prop44ColorRGB
 90
      255
102
RTVSPost2010PropOp44
 70
     1
102
RTVSPost2010Prop45
280
     0
102
RTVSPost2010PropOp45
 70
     1
102
RTVSPost2010Prop46
 90
       50
102
RTVSPost2010PropOp46
 70
     1
102
RTVSPost2010Prop47
 90
       50
102
RTVSPost2010PropOp47
 70
     1
102
RTVSPost2010Prop48
 90
       50
102
RTVSPost2010PropOp48
 70
     1
102
RTVSPost2010Prop49
280
     0
102
RTVSPost2010PropOp49
 70
     1
102
RTVSPost2010Prop50
 90
       50
102
RTVSPost2010PropOp50
 70
     1
102
RTVSPost2010Prop51ColorIndex
 90
      256
102
RTVSPost2010Prop51ColorRGB
 90
-16777216
102
RTVSPost2010PropOp51
 70
     0
102
RTVSPost2010Prop52
140
1.0
102
RTVSPost2010PropOp52
 70
     0
102
RTVSPost2010Prop53
 90
        2
102
RTVSPost2010PropOp53
 70
     1
102
RTVSPost2010Prop54
  1
strokes_ogs.tif
102
RTVSPost2010PropOp54
 70
     1
102
RTVSPost2010Prop55
280
     0
102
RTVSPost2010PropOp55
 70
     1
102
RTVSPost2010Prop56
140
1.0
102
RTVSPost2010PropOp56
 70
     1
102
RTVSPost2010Prop57
140
1.0
102
RTVSPost2010PropOp57
 70
     1
  0
XRECORD
  5
238
102
{ACAD_REACTORS
330
237
102
}
330
237
100
AcDbXrecord
280
     1
102
RTVSPropertyOp0
 70
     1
102
RTVSPropertyOp1
 70
     1
102
RTVSPropertyOp2
 70
     1
102
RTVSPropertyOp3
 70
     1
102
RTVSPropertyOp4
 70
     1
102
RTVSPropertyOp5
 70
     1
102
RTVSPropertyOp6
 70
     1
102
RTVSPropertyOp7
 70
     1
102
RTVSPropertyOp8
 70
     1
102
RTVSPropertyOp9
 70
     1
102
RTVSPropertyOp10
 70
     1
102
RTVSPropertyOp11
 70
     1
102
RTVSPropertyOp12
 70
     1
102
RTVSPropertyOp13
 70
     1
102
RTVSPropertyOp14
 70
     1
102
RTVSPropertyOp15
 70
     1
102
RTVSPropertyOp16
 70
     1
102
RTVSPropertyOp17
 70
     1
102
RTVSPropertyOp18
 70
     1
102
RTVSPropertyOp19
 70
     1
102
RTVSPropertyOp20
 70
     1
102
RTVSPropertyOp21
 70
     1
102
RTVSPropertyOp22
 70
     1
102
RTVSPropertyOp23
 70
     1
102
RTVSPropertyOp24
 70
     1
102
RTVSPropertyOp25
 70
     1
102
RTVSPropertyOp26
 70
     1
102
RTVSPropertyOp27
 70
     1
102
RTVSPropertyOp28
 70
     1
102
RTVSPropertyOp29
 70
     1
102
RTVSPropertyOp30
 70
     1
102
RTVSPropertyOp31
 70
     1
102
RTVSPropertyOp32
 70
     1
102
RTVSPropertyOp33
 70
     1
102
RTVSPropertyOp34
 70
     1
102
RTVSPropertyOp35
 70
     1
102
RTVSPropertyOp36
 70
     1
102
RTVSPropertyOp37
 70
     1
102
RTVSPropertyOp38
 70
     1
102
RTVSPropertyOp39
 70
     1
102
RTVSPropertyOp40
 70
     1
102
RTVSPropertyOp41
 70
     1
102
RTVSPropertyOp42
 70
     1
102
RTVSPropertyOp43
 70
     1
102
RTVSPropertyOp44
 70
     1
102
RTVSPropertyOp45
 70
     1
102
RTVSPropertyOp46
 70
     1
102
RTVSPropertyOp47
 70
     1
102
RTVSPropertyOp48
 70
     1
102
RTVSPropertyOp49
 70
     1
102
RTVSPropertyOp50
 70
     1
102
RTVSPropertyOp51
 70
     0
102
RTVSPropertyOp52
 70
     0
102
RTVSPropertyOp53
 70
     1
102
RTVSPropertyOp54
 70
     1
102
RTVSPropertyOp55
 70
     1
102
RTVSPropertyOp56
 70
     1
102
RTVSPropertyOp57
 70
     1
102
RTVSPost2010Prop28
280
     0
102
RTVSPost2010PropOp28
 70
     1
102
RTVSPost2010Prop29
280
     1
102
RTVSPost2010PropOp29
 70
     1
102
RTVSPost2010Prop30
280
     1
102
RTVSPost2010PropOp30
 70
     1
102
RTVSPost2010Prop31
280
     0
102
RTVSPost2010PropOp31
 70
     1
102
RTVSPost2010Prop32
280
     0
102
RTVSPost2010PropOp32
 70
     1
102
RTVSPost2010Prop33
280
     0
102
RTVSPost2010PropOp33
 70
     1
102
RTVSPost2010Prop34
280
     0
102
RTVSPost2010PropOp34
 70
     1
102
RTVSPost2010Prop35
280
     0
102
RTVSPost2010PropOp35
 70
     1
102
RTVSPost2010Prop36
280
     0
102
RTVSPost2010PropOp36
 70
     1
102
RTVSPost2010Prop37
 90
       50
102
RTVSPost2010PropOp37
 70
     1
102
RTVSPost2010Prop38
140
0.0
102
RTVSPost2010PropOp38
 70
     1
102
RTVSPost2010Prop39
140
1.0
102
RTVSPost2010PropOp39
 70
     1
102
RTVSPost2010Prop40
 90
        0
102
RTVSPost2010PropOp40
 70
     1
102
RTVSPost2010Prop41ColorIndex
 90
       18
102
RTVSPost2010Prop41ColorRGB
 90
        0
102
RTVSPost2010PropOp41
 70
     1
102
RTVSPost2010Prop42
 90
       50
102
RTVSPost2010PropOp42
 70
     1
102
RTVSPost2010Prop43
 90
        3
102
RTVSPost2010PropOp43
 70
     1
102
RTVSPost2010Prop44ColorIndex
 90
        5
102
RTVSPost2010Prop44ColorRGB
 90
      255
102
RTVSPost2010PropOp44
 70
     1
102
RTVSPost2010Prop45
280
     0
102
RTVSPost2010PropOp45
 70
     1
102
RTVSPost2010Prop46
 90
       50
102
RTVSPost2010PropOp46
 70
     1
102
RTVSPost2010Prop47
 90
       50
102
RTVSPost2010PropOp47
 70
     1
102
RTVSPost2010Prop48
 90
       50
102
RTVSPost2010PropOp48
 70
     1
102
RTVSPost2010Prop49
280
     0
102
RTVSPost2010PropOp49
 70
     1
102
RTVSPost2010Prop50
 90
       50
102
RTVSPost2010PropOp50
 70
     1
102
RTVSPost2010Prop51ColorIndex
 90
      256
102
RTVSPost2010Prop51ColorRGB
 90
-16777216
102
RTVSPost2010PropOp51
 70
     0
102
RTVSPost2010Prop52
140
1.0
102
RTVSPost2010PropOp52
 70
     0
102
RTVSPost2010Prop53
 90
        2
102
RTVSPost2010PropOp53
 70
     1
102
RTVSPost2010Prop54
  1
strokes_ogs.tif
102
RTVSPost2010PropOp54
 70
     1
102
RTVSPost2010Prop55
280
     0
102
RTVSPost2010PropOp55
 70
     1
102
RTVSPost2010Prop56
140
1.0
102
RTVSPost2010PropOp56
 70
     1
102
RTVSPost2010Prop57
140
1.0
102
RTVSPost2010PropOp57
 70
     1
  0
XRECORD
  5
23A
102
{ACAD_REACTORS
330
239
102
}
330
239
100
AcDbXrecord
280
     1
102
RTVSPropertyOp0
 70
     1
102
RTVSPropertyOp1
 70
     1
102
RTVSPropertyOp2
 70
     1
102
RTVSPropertyOp3
 70
     1
102
RTVSPropertyOp4
 70
     1
102
RTVSPropertyOp5
 70
     1
102
RTVSPropertyOp6
 70
     1
102
RTVSPropertyOp7
 70
     1
102
RTVSPropertyOp8
 70
     1
102
RTVSPropertyOp9
 70
     1
102
RTVSPropertyOp10
 70
     1
102
RTVSPropertyOp11
 70
     1
102
RTVSPropertyOp12
 70
     1
102
RTVSPropertyOp13
 70
     1
102
RTVSPropertyOp14
 70
     1
102
RTVSPropertyOp15
 70
     1
102
RTVSPropertyOp16
 70
     1
102
RTVSPropertyOp17
 70
     1
102
RTVSPropertyOp18
 70
     1
102
RTVSPropertyOp19
 70
     1
102
RTVSPropertyOp20
 70
     1
102
RTVSPropertyOp21
 70
     1
102
RTVSPropertyOp22
 70
     1
102
RTVSPropertyOp23
 70
     1
102
RTVSPropertyOp24
 70
     1
102
RTVSPropertyOp25
 70
     1
102
RTVSPropertyOp26
 70
     1
102
RTVSPropertyOp27
 70
     1
102
RTVSPropertyOp28
 70
     1
102
RTVSPropertyOp29
 70
     1
102
RTVSPropertyOp30
 70
     1
102
RTVSPropertyOp31
 70
     1
102
RTVSPropertyOp32
 70
     1
102
RTVSPropertyOp33
 70
     1
102
RTVSPropertyOp34
 70
     1
102
RTVSPropertyOp35
 70
     1
102
RTVSPropertyOp36
 70
     1
102
RTVSPropertyOp37
 70
     1
102
RTVSPropertyOp38
 70
     1
102
RTVSPropertyOp39
 70
     1
102
RTVSPropertyOp40
 70
     1
102
RTVSPropertyOp41
 70
     1
102
RTVSPropertyOp42
 70
     1
102
RTVSPropertyOp43
 70
     1
102
RTVSPropertyOp44
 70
     1
102
RTVSPropertyOp45
 70
     1
102
RTVSPropertyOp46
 70
     1
102
RTVSPropertyOp47
 70
     1
102
RTVSPropertyOp48
 70
     1
102
RTVSPropertyOp49
 70
     1
102
RTVSPropertyOp50
 70
     1
102
RTVSPropertyOp51
 70
     0
102
RTVSPropertyOp52
 70
     0
102
RTVSPropertyOp53
 70
     1
102
RTVSPropertyOp54
 70
     1
102
RTVSPropertyOp55
 70
     1
102
RTVSPropertyOp56
 70
     1
102
RTVSPropertyOp57
 70
     1
102
RTVSPost2010Prop28
280
     0
102
RTVSPost2010PropOp28
 70
     1
102
RTVSPost2010Prop29
280
     1
102
RTVSPost2010PropOp29
 70
     1
102
RTVSPost2010Prop30
280
     1
102
RTVSPost2010PropOp30
 70
     1
102
RTVSPost2010Prop31
280
     0
102
RTVSPost2010PropOp31
 70
     1
102
RTVSPost2010Prop32
280
     0
102
RTVSPost2010PropOp32
 70
     1
102
RTVSPost2010Prop33
280
     0
102
RTVSPost2010PropOp33
 70
     1
102
RTVSPost2010Prop34
280
     0
102
RTVSPost2010PropOp34
 70
     1
102
RTVSPost2010Prop35
280
     0
102
RTVSPost2010PropOp35
 70
     1
102
RTVSPost2010Prop36
280
     0
102
RTVSPost2010PropOp36
 70
     1
102
RTVSPost2010Prop37
 90
       50
102
RTVSPost2010PropOp37
 70
     1
102
RTVSPost2010Prop38
140
0.0
102
RTVSPost2010PropOp38
 70
     1
102
RTVSPost2010Prop39
140
1.0
102
RTVSPost2010PropOp39
 70
     1
102
RTVSPost2010Prop40
 90
        0
102
RTVSPost2010PropOp40
 70
     1
102
RTVSPost2010Prop41ColorIndex
 90
       18
102
RTVSPost2010Prop41ColorRGB
 90
        0
102
RTVSPost2010PropOp41
 70
     1
102
RTVSPost2010Prop42
 90
       50
102
RTVSPost2010PropOp42
 70
     1
102
RTVSPost2010Prop43
 90
        3
102
RTVSPost2010PropOp43
 70
     1
102
RTVSPost2010Prop44ColorIndex
 90
        5
102
RTVSPost2010Prop44ColorRGB
 90
      255
102
RTVSPost2010PropOp44
 70
     1
102
RTVSPost2010Prop45
280
     0
102
RTVSPost2010PropOp45
 70
     1
102
RTVSPost2010Prop46
 90
       50
102
RTVSPost2010PropOp46
 70
     1
102
RTVSPost2010Prop47
 90
       50
102
RTVSPost2010PropOp47
 70
     1
102
RTVSPost2010Prop48
 90
       50
102
RTVSPost2010PropOp48
 70
     1
102
RTVSPost2010Prop49
280
     0
102
RTVSPost2010PropOp49
 70
     1
102
RTVSPost2010Prop50
 90
       50
102
RTVSPost2010PropOp50
 70
     1
102
RTVSPost2010Prop51ColorIndex
 90
      256
102
RTVSPost2010Prop51ColorRGB
 90
-16777216
102
RTVSPost2010PropOp51
 70
     0
102
RTVSPost2010Prop52
140
1.0
102
RTVSPost2010PropOp52
 70
     0
102
RTVSPost2010Prop53
 90
        2
102
RTVSPost2010PropOp53
 70
     1
102
RTVSPost2010Prop54
  1
strokes_ogs.tif
102
RTVSPost2010PropOp54
 70
     1
102
RTVSPost2010Prop55
280
     0
102
RTVSPost2010PropOp55
 70
     1
102
RTVSPost2010Prop56
140
1.0
102
RTVSPost2010PropOp56
 70
     1
102
RTVSPost2010Prop57
140
1.0
102
RTVSPost2010PropOp57
 70
     1
  0
XRECORD
  5
24A
102
{ACAD_REACTORS
330
249
102
}
330
249
100
AcDbXrecord
280
     1
102
RTVSPropertyOp0
 70
     0
102
RTVSPropertyOp1
 70
     0
102
RTVSPropertyOp2
 70
     0
102
RTVSPropertyOp3
 70
     0
102
RTVSPropertyOp4
 70
     0
102
RTVSPropertyOp5
 70
     0
102
RTVSPropertyOp6
 70
     0
102
RTVSPropertyOp7
 70
     0
102
RTVSPropertyOp8
 70
     0
102
RTVSPropertyOp9
 70
     0
102
RTVSPropertyOp10
 70
     0
102
RTVSPropertyOp11
 70
     0
102
RTVSPropertyOp12
 70
     0
102
RTVSPropertyOp13
 70
     0
102
RTVSPropertyOp14
 70
     2
102
RTVSPropertyOp15
 70
     0
102
RTVSPropertyOp16
 70
     0
102
RTVSPropertyOp17
 70
     0
102
RTVSPropertyOp18
 70
     0
102
RTVSPropertyOp19
 70
     0
102
RTVSPropertyOp20
 70
     0
102
RTVSPropertyOp21
 70
     0
102
RTVSPropertyOp22
 70
     0
102
RTVSPropertyOp23
 70
     0
102
RTVSPropertyOp24
 70
     0
102
RTVSPropertyOp25
 70
     0
102
RTVSPropertyOp26
 70
     0
102
RTVSPropertyOp27
 70
     0
102
RTVSPropertyOp28
 70
     0
102
RTVSPropertyOp29
 70
     0
102
RTVSPropertyOp30
 70
     0
102
RTVSPropertyOp31
 70
     0
102
RTVSPropertyOp32
 70
     0
102
RTVSPropertyOp33
 70
     0
102
RTVSPropertyOp34
 70
     0
102
RTVSPropertyOp35
 70
     0
102
RTVSPropertyOp36
 70
     0
102
RTVSPropertyOp37
 70
     0
102
RTVSPropertyOp38
 70
     0
102
RTVSPropertyOp39
 70
     0
102
RTVSPropertyOp40
 70
     0
102
RTVSPropertyOp41
 70
     0
102
RTVSPropertyOp42
 70
     0
102
RTVSPropertyOp43
 70
     0
102
RTVSPropertyOp44
 70
     0
102
RTVSPropertyOp45
 70
     0
102
RTVSPropertyOp46
 70
     0
102
RTVSPropertyOp47
 70
     0
102
RTVSPropertyOp48
 70
     0
102
RTVSPropertyOp49
 70
     0
102
RTVSPropertyOp50
 70
     0
102
RTVSPropertyOp51
 70
     0
102
RTVSPropertyOp52
 70
     0
102
RTVSPropertyOp53
 70
     0
102
RTVSPropertyOp54
 70
     0
102
RTVSPropertyOp55
 70
     0
102
RTVSPropertyOp56
 70
     0
102
RTVSPropertyOp57
 70
     0
102
RTVSPost2010Prop28
280
     0
102
RTVSPost2010PropOp28
 70
     0
102
RTVSPost2010Prop29
280
     1
102
RTVSPost2010PropOp29
 70
     0
102
RTVSPost2010Prop30
280
     1
102
RTVSPost2010PropOp30
 70
     0
102
RTVSPost2010Prop31
280
     0
102
RTVSPost2010PropOp31
 70
     0
102
RTVSPost2010Prop32
280
     0
102
RTVSPost2010PropOp32
 70
     0
102
RTVSPost2010Prop33
280
     0
102
RTVSPost2010PropOp33
 70
     0
102
RTVSPost2010Prop34
280
     0
102
RTVSPost2010PropOp34
 70
     0
102
RTVSPost2010Prop35
280
     0
102
RTVSPost2010PropOp35
 70
     0
102
RTVSPost2010Prop36
280
     0
102
RTVSPost2010PropOp36
 70
     0
102
RTVSPost2010Prop37
 90
       50
102
RTVSPost2010PropOp37
 70
     0
102
RTVSPost2010Prop38
140
0.0
102
RTVSPost2010PropOp38
 70
     0
102
RTVSPost2010Prop39
140
1.0
102
RTVSPost2010PropOp39
 70
     0
102
RTVSPost2010Prop40
 90
        0
102
RTVSPost2010PropOp40
 70
     0
102
RTVSPost2010Prop41ColorIndex
 90
       18
102
RTVSPost2010Prop41ColorRGB
 90
        0
102
RTVSPost2010PropOp41
 70
     0
102
RTVSPost2010Prop42
 90
       50
102
RTVSPost2010PropOp42
 70
     0
102
RTVSPost2010Prop43
 90
        3
102
RTVSPost2010PropOp43
 70
     0
102
RTVSPost2010Prop44ColorIndex
 90
        5
102
RTVSPost2010Prop44ColorRGB
 90
      255
102
RTVSPost2010PropOp44
 70
     0
102
RTVSPost2010Prop45
280
     0
102
RTVSPost2010PropOp45
 70
     0
102
RTVSPost2010Prop46
 90
       50
102
RTVSPost2010PropOp46
 70
     0
102
RTVSPost2010Prop47
 90
       50
102
RTVSPost2010PropOp47
 70
     0
102
RTVSPost2010Prop48
 90
       50
102
RTVSPost2010PropOp48
 70
     0
102
RTVSPost2010Prop49
280
     0
102
RTVSPost2010PropOp49
 70
     0
102
RTVSPost2010Prop50
 90
       50
102
RTVSPost2010PropOp50
 70
     0
102
RTVSPost2010Prop51ColorIndex
 90
      256
102
RTVSPost2010Prop51ColorRGB
 90
-16777216
102
RTVSPost2010PropOp51
 70
     0
102
RTVSPost2010Prop52
140
1.0
102
RTVSPost2010PropOp52
 70
     0
102
RTVSPost2010Prop53
 90
        2
102
RTVSPost2010PropOp53
 70
     0
102
RTVSPost2010Prop54
  1
strokes_ogs.tif
102
RTVSPost2010PropOp54
 70
     0
102
RTVSPost2010Prop55
280
     0
102
RTVSPost2010PropOp55
 70
     0
102
RTVSPost2010Prop56
140
1.0
102
RTVSPost2010PropOp56
 70
     0
102
RTVSPost2010Prop57
140
1.0
102
RTVSPost2010PropOp57
 70
     0
  0
XRECORD
  5
242
102
{ACAD_REACTORS
330
241
102
}
330
241
100
AcDbXrecord
280
     1
102
RTVSPropertyOp0
 70
     1
102
RTVSPropertyOp1
 70
     1
102
RTVSPropertyOp2
 70
     1
102
RTVSPropertyOp3
 70
     1
102
RTVSPropertyOp4
 70
     1
102
RTVSPropertyOp5
 70
     1
102
RTVSPropertyOp6
 70
     1
102
RTVSPropertyOp7
 70
     1
102
RTVSPropertyOp8
 70
     1
102
RTVSPropertyOp9
 70
     1
102
RTVSPropertyOp10
 70
     1
102
RTVSPropertyOp11
 70
     1
102
RTVSPropertyOp12
 70
     1
102
RTVSPropertyOp13
 70
     1
102
RTVSPropertyOp14
 70
     1
102
RTVSPropertyOp15
 70
     1
102
RTVSPropertyOp16
 70
     1
102
RTVSPropertyOp17
 70
     1
102
RTVSPropertyOp18
 70
     1
102
RTVSPropertyOp19
 70
     1
102
RTVSPropertyOp20
 70
     1
102
RTVSPropertyOp21
 70
     1
102
RTVSPropertyOp22
 70
     1
102
RTVSPropertyOp23
 70
     1
102
RTVSPropertyOp24
 70
     1
102
RTVSPropertyOp25
 70
     1
102
RTVSPropertyOp26
 70
     1
102
RTVSPropertyOp27
 70
     1
102
RTVSPropertyOp28
 70
     1
102
RTVSPropertyOp29
 70
     1
102
RTVSPropertyOp30
 70
     1
102
RTVSPropertyOp31
 70
     1
102
RTVSPropertyOp32
 70
     1
102
RTVSPropertyOp33
 70
     1
102
RTVSPropertyOp34
 70
     1
102
RTVSPropertyOp35
 70
     1
102
RTVSPropertyOp36
 70
     1
102
RTVSPropertyOp37
 70
     1
102
RTVSPropertyOp38
 70
     1
102
RTVSPropertyOp39
 70
     1
102
RTVSPropertyOp40
 70
     1
102
RTVSPropertyOp41
 70
     1
102
RTVSPropertyOp42
 70
     1
102
RTVSPropertyOp43
 70
     1
102
RTVSPropertyOp44
 70
     1
102
RTVSPropertyOp45
 70
     1
102
RTVSPropertyOp46
 70
     1
102
RTVSPropertyOp47
 70
     1
102
RTVSPropertyOp48
 70
     1
102
RTVSPropertyOp49
 70
     1
102
RTVSPropertyOp50
 70
     1
102
RTVSPropertyOp51
 70
     0
102
RTVSPropertyOp52
 70
     0
102
RTVSPropertyOp53
 70
     1
102
RTVSPropertyOp54
 70
     1
102
RTVSPropertyOp55
 70
     1
102
RTVSPropertyOp56
 70
     1
102
RTVSPropertyOp57
 70
     1
102
RTVSPost2010Prop28
280
     0
102
RTVSPost2010PropOp28
 70
     1
102
RTVSPost2010Prop29
280
     1
102
RTVSPost2010PropOp29
 70
     1
102
RTVSPost2010Prop30
280
     1
102
RTVSPost2010PropOp30
 70
     1
102
RTVSPost2010Prop31
280
     0
102
RTVSPost2010PropOp31
 70
     1
102
RTVSPost2010Prop32
280
     0
102
RTVSPost2010PropOp32
 70
     1
102
RTVSPost2010Prop33
280
     0
102
RTVSPost2010PropOp33
 70
     1
102
RTVSPost2010Prop34
280
     0
102
RTVSPost2010PropOp34
 70
     1
102
RTVSPost2010Prop35
280
     0
102
RTVSPost2010PropOp35
 70
     1
102
RTVSPost2010Prop36
280
     0
102
RTVSPost2010PropOp36
 70
     1
102
RTVSPost2010Prop37
 90
       50
102
RTVSPost2010PropOp37
 70
     1
102
RTVSPost2010Prop38
140
0.0
102
RTVSPost2010PropOp38
 70
     1
102
RTVSPost2010Prop39
140
1.0
102
RTVSPost2010PropOp39
 70
     1
102
RTVSPost2010Prop40
 90
        0
102
RTVSPost2010PropOp40
 70
     1
102
RTVSPost2010Prop41ColorIndex
 90
       18
102
RTVSPost2010Prop41ColorRGB
 90
        0
102
RTVSPost2010PropOp41
 70
     1
102
RTVSPost2010Prop42
 90
       50
102
RTVSPost2010PropOp42
 70
     1
102
RTVSPost2010Prop43
 90
        3
102
RTVSPost2010PropOp43
 70
     1
102
RTVSPost2010Prop44ColorIndex
 90
        5
102
RTVSPost2010Prop44ColorRGB
 90
      255
102
RTVSPost2010PropOp44
 70
     1
102
RTVSPost2010Prop45
280
     0
102
RTVSPost2010PropOp45
 70
     1
102
RTVSPost2010Prop46
 90
       50
102
RTVSPost2010PropOp46
 70
     1
102
RTVSPost2010Prop47
 90
       50
102
RTVSPost2010PropOp47
 70
     1
102
RTVSPost2010Prop48
 90
       50
102
RTVSPost2010PropOp48
 70
     1
102
RTVSPost2010Prop49
280
     0
102
RTVSPost2010PropOp49
 70
     1
102
RTVSPost2010Prop50
 90
       50
102
RTVSPost2010PropOp50
 70
     1
102
RTVSPost2010Prop51ColorIndex
 90
      256
102
RTVSPost2010Prop51ColorRGB
 90
-16777216
102
RTVSPost2010PropOp51
 70
     0
102
RTVSPost2010Prop52
140
1.0
102
RTVSPost2010PropOp52
 70
     0
102
RTVSPost2010Prop53
 90
        2
102
RTVSPost2010PropOp53
 70
     1
102
RTVSPost2010Prop54
  1
strokes_ogs.tif
102
RTVSPost2010PropOp54
 70
     1
102
RTVSPost2010Prop55
280
     0
102
RTVSPost2010PropOp55
 70
     1
102
RTVSPost2010Prop56
140
1.0
102
RTVSPost2010PropOp56
 70
     1
102
RTVSPost2010Prop57
140
1.0
102
RTVSPost2010PropOp57
 70
     1
  0
XRECORD
  5
226
102
{ACAD_REACTORS
330
225
102
}
330
225
100
AcDbXrecord
280
     1
102
RTVSPropertyOp0
 70
     1
102
RTVSPropertyOp1
 70
     1
102
RTVSPropertyOp2
 70
     1
102
RTVSPropertyOp3
 70
     1
102
RTVSPropertyOp4
 70
     1
102
RTVSPropertyOp5
 70
     1
102
RTVSPropertyOp6
 70
     1
102
RTVSPropertyOp7
 70
     1
102
RTVSPropertyOp8
 70
     1
102
RTVSPropertyOp9
 70
     1
102
RTVSPropertyOp10
 70
     1
102
RTVSPropertyOp11
 70
     1
102
RTVSPropertyOp12
 70
     1
102
RTVSPropertyOp13
 70
     1
102
RTVSPropertyOp14
 70
     1
102
RTVSPropertyOp15
 70
     1
102
RTVSPropertyOp16
 70
     1
102
RTVSPropertyOp17
 70
     1
102
RTVSPropertyOp18
 70
     1
102
RTVSPropertyOp19
 70
     1
102
RTVSPropertyOp20
 70
     1
102
RTVSPropertyOp21
 70
     1
102
RTVSPropertyOp22
 70
     1
102
RTVSPropertyOp23
 70
     1
102
RTVSPropertyOp24
 70
     1
102
RTVSPropertyOp25
 70
     1
102
RTVSPropertyOp26
 70
     1
102
RTVSPropertyOp27
 70
     1
102
RTVSPropertyOp28
 70
     1
102
RTVSPropertyOp29
 70
     1
102
RTVSPropertyOp30
 70
     1
102
RTVSPropertyOp31
 70
     1
102
RTVSPropertyOp32
 70
     1
102
RTVSPropertyOp33
 70
     1
102
RTVSPropertyOp34
 70
     1
102
RTVSPropertyOp35
 70
     1
102
RTVSPropertyOp36
 70
     1
102
RTVSPropertyOp37
 70
     1
102
RTVSPropertyOp38
 70
     1
102
RTVSPropertyOp39
 70
     1
102
RTVSPropertyOp40
 70
     1
102
RTVSPropertyOp41
 70
     1
102
RTVSPropertyOp42
 70
     1
102
RTVSPropertyOp43
 70
     1
102
RTVSPropertyOp44
 70
     1
102
RTVSPropertyOp45
 70
     1
102
RTVSPropertyOp46
 70
     1
102
RTVSPropertyOp47
 70
     1
102
RTVSPropertyOp48
 70
     1
102
RTVSPropertyOp49
 70
     1
102
RTVSPropertyOp50
 70
     1
102
RTVSPropertyOp51
 70
     0
102
RTVSPropertyOp52
 70
     0
102
RTVSPropertyOp53
 70
     1
102
RTVSPropertyOp54
 70
     1
102
RTVSPropertyOp55
 70
     1
102
RTVSPropertyOp56
 70
     1
102
RTVSPropertyOp57
 70
     1
102
RTVSPost2010Prop28
280
     0
102
RTVSPost2010PropOp28
 70
     1
102
RTVSPost2010Prop29
280
     1
102
RTVSPost2010PropOp29
 70
     1
102
RTVSPost2010Prop30
280
     1
102
RTVSPost2010PropOp30
 70
     1
102
RTVSPost2010Prop31
280
     0
102
RTVSPost2010PropOp31
 70
     1
102
RTVSPost2010Prop32
280
     0
102
RTVSPost2010PropOp32
 70
     1
102
RTVSPost2010Prop33
280
     0
102
RTVSPost2010PropOp33
 70
     1
102
RTVSPost2010Prop34
280
     0
102
RTVSPost2010PropOp34
 70
     1
102
RTVSPost2010Prop35
280
     0
102
RTVSPost2010PropOp35
 70
     1
102
RTVSPost2010Prop36
280
     0
102
RTVSPost2010PropOp36
 70
     1
102
RTVSPost2010Prop37
 90
       50
102
RTVSPost2010PropOp37
 70
     1
102
RTVSPost2010Prop38
140
0.0
102
RTVSPost2010PropOp38
 70
     1
102
RTVSPost2010Prop39
140
1.0
102
RTVSPost2010PropOp39
 70
     1
102
RTVSPost2010Prop40
 90
        0
102
RTVSPost2010PropOp40
 70
     1
102
RTVSPost2010Prop41ColorIndex
 90
       18
102
RTVSPost2010Prop41ColorRGB
 90
        0
102
RTVSPost2010PropOp41
 70
     1
102
RTVSPost2010Prop42
 90
       50
102
RTVSPost2010PropOp42
 70
     1
102
RTVSPost2010Prop43
 90
        3
102
RTVSPost2010PropOp43
 70
     1
102
RTVSPost2010Prop44ColorIndex
 90
        5
102
RTVSPost2010Prop44ColorRGB
 90
      255
102
RTVSPost2010PropOp44
 70
     1
102
RTVSPost2010Prop45
280
     0
102
RTVSPost2010PropOp45
 70
     1
102
RTVSPost2010Prop46
 90
       50
102
RTVSPost2010PropOp46
 70
     1
102
RTVSPost2010Prop47
 90
       50
102
RTVSPost2010PropOp47
 70
     1
102
RTVSPost2010Prop48
 90
       50
102
RTVSPost2010PropOp48
 70
     1
102
RTVSPost2010Prop49
280
     0
102
RTVSPost2010PropOp49
 70
     1
102
RTVSPost2010Prop50
 90
       50
102
RTVSPost2010PropOp50
 70
     1
102
RTVSPost2010Prop51ColorIndex
 90
      256
102
RTVSPost2010Prop51ColorRGB
 90
-16777216
102
RTVSPost2010PropOp51
 70
     0
102
RTVSPost2010Prop52
140
1.0
102
RTVSPost2010PropOp52
 70
     0
102
RTVSPost2010Prop53
 90
        2
102
RTVSPost2010PropOp53
 70
     1
102
RTVSPost2010Prop54
  1
strokes_ogs.tif
102
RTVSPost2010PropOp54
 70
     1
102
RTVSPost2010Prop55
280
     0
102
RTVSPost2010PropOp55
 70
     1
102
RTVSPost2010Prop56
140
1.0
102
RTVSPost2010PropOp56
 70
     1
102
RTVSPost2010Prop57
140
1.0
102
RTVSPost2010PropOp57
 70
     1
  0
XRECORD
  5
228
102
{ACAD_REACTORS
330
227
102
}
330
227
100
AcDbXrecord
280
     1
102
RTVSPropertyOp0
 70
     1
102
RTVSPropertyOp1
 70
     1
102
RTVSPropertyOp2
 70
     1
102
RTVSPropertyOp3
 70
     1
102
RTVSPropertyOp4
 70
     1
102
RTVSPropertyOp5
 70
     1
102
RTVSPropertyOp6
 70
     1
102
RTVSPropertyOp7
 70
     1
102
RTVSPropertyOp8
 70
     1
102
RTVSPropertyOp9
 70
     1
102
RTVSPropertyOp10
 70
     1
102
RTVSPropertyOp11
 70
     1
102
RTVSPropertyOp12
 70
     1
102
RTVSPropertyOp13
 70
     1
102
RTVSPropertyOp14
 70
     1
102
RTVSPropertyOp15
 70
     1
102
RTVSPropertyOp16
 70
     1
102
RTVSPropertyOp17
 70
     1
102
RTVSPropertyOp18
 70
     1
102
RTVSPropertyOp19
 70
     1
102
RTVSPropertyOp20
 70
     1
102
RTVSPropertyOp21
 70
     1
102
RTVSPropertyOp22
 70
     1
102
RTVSPropertyOp23
 70
     1
102
RTVSPropertyOp24
 70
     1
102
RTVSPropertyOp25
 70
     1
102
RTVSPropertyOp26
 70
     1
102
RTVSPropertyOp27
 70
     1
102
RTVSPropertyOp28
 70
     1
102
RTVSPropertyOp29
 70
     1
102
RTVSPropertyOp30
 70
     1
102
RTVSPropertyOp31
 70
     1
102
RTVSPropertyOp32
 70
     1
102
RTVSPropertyOp33
 70
     1
102
RTVSPropertyOp34
 70
     1
102
RTVSPropertyOp35
 70
     1
102
RTVSPropertyOp36
 70
     1
102
RTVSPropertyOp37
 70
     1
102
RTVSPropertyOp38
 70
     1
102
RTVSPropertyOp39
 70
     1
102
RTVSPropertyOp40
 70
     1
102
RTVSPropertyOp41
 70
     1
102
RTVSPropertyOp42
 70
     1
102
RTVSPropertyOp43
 70
     1
102
RTVSPropertyOp44
 70
     1
102
RTVSPropertyOp45
 70
     1
102
RTVSPropertyOp46
 70
     1
102
RTVSPropertyOp47
 70
     1
102
RTVSPropertyOp48
 70
     1
102
RTVSPropertyOp49
 70
     1
102
RTVSPropertyOp50
 70
     1
102
RTVSPropertyOp51
 70
     0
102
RTVSPropertyOp52
 70
     0
102
RTVSPropertyOp53
 70
     1
102
RTVSPropertyOp54
 70
     1
102
RTVSPropertyOp55
 70
     1
102
RTVSPropertyOp56
 70
     1
102
RTVSPropertyOp57
 70
     1
102
RTVSPost2010Prop28
280
     0
102
RTVSPost2010PropOp28
 70
     1
102
RTVSPost2010Prop29
280
     1
102
RTVSPost2010PropOp29
 70
     1
102
RTVSPost2010Prop30
280
     1
102
RTVSPost2010PropOp30
 70
     1
102
RTVSPost2010Prop31
280
     0
102
RTVSPost2010PropOp31
 70
     1
102
RTVSPost2010Prop32
280
     0
102
RTVSPost2010PropOp32
 70
     1
102
RTVSPost2010Prop33
280
     0
102
RTVSPost2010PropOp33
 70
     1
102
RTVSPost2010Prop34
280
     0
102
RTVSPost2010PropOp34
 70
     1
102
RTVSPost2010Prop35
280
     0
102
RTVSPost2010PropOp35
 70
     1
102
RTVSPost2010Prop36
280
     0
102
RTVSPost2010PropOp36
 70
     1
102
RTVSPost2010Prop37
 90
       50
102
RTVSPost2010PropOp37
 70
     1
102
RTVSPost2010Prop38
140
0.0
102
RTVSPost2010PropOp38
 70
     1
102
RTVSPost2010Prop39
140
1.0
102
RTVSPost2010PropOp39
 70
     1
102
RTVSPost2010Prop40
 90
        0
102
RTVSPost2010PropOp40
 70
     1
102
RTVSPost2010Prop41ColorIndex
 90
       18
102
RTVSPost2010Prop41ColorRGB
 90
        0
102
RTVSPost2010PropOp41
 70
     1
102
RTVSPost2010Prop42
 90
       50
102
RTVSPost2010PropOp42
 70
     1
102
RTVSPost2010Prop43
 90
        3
102
RTVSPost2010PropOp43
 70
     1
102
RTVSPost2010Prop44ColorIndex
 90
        5
102
RTVSPost2010Prop44ColorRGB
 90
      255
102
RTVSPost2010PropOp44
 70
     1
102
RTVSPost2010Prop45
280
     0
102
RTVSPost2010PropOp45
 70
     1
102
RTVSPost2010Prop46
 90
       50
102
RTVSPost2010PropOp46
 70
     1
102
RTVSPost2010Prop47
 90
       50
102
RTVSPost2010PropOp47
 70
     1
102
RTVSPost2010Prop48
 90
       50
102
RTVSPost2010PropOp48
 70
     1
102
RTVSPost2010Prop49
280
     0
102
RTVSPost2010PropOp49
 70
     1
102
RTVSPost2010Prop50
 90
       50
102
RTVSPost2010PropOp50
 70
     1
102
RTVSPost2010Prop51ColorIndex
 90
      256
102
RTVSPost2010Prop51ColorRGB
 90
-16777216
102
RTVSPost2010PropOp51
 70
     0
102
RTVSPost2010Prop52
140
1.0
102
RTVSPost2010PropOp52
 70
     0
102
RTVSPost2010Prop53
 90
        2
102
RTVSPost2010PropOp53
 70
     1
102
RTVSPost2010Prop54
  1
strokes_ogs.tif
102
RTVSPost2010PropOp54
 70
     1
102
RTVSPost2010Prop55
280
     0
102
RTVSPost2010PropOp55
 70
     1
102
RTVSPost2010Prop56
140
1.0
102
RTVSPost2010PropOp56
 70
     1
102
RTVSPost2010Prop57
140
1.0
102
RTVSPost2010PropOp57
 70
     1
  0
XRECORD
  5
22A
102
{ACAD_REACTORS
330
229
102
}
330
229
100
AcDbXrecord
280
     1
102
RTVSPropertyOp0
 70
     1
102
RTVSPropertyOp1
 70
     1
102
RTVSPropertyOp2
 70
     1
102
RTVSPropertyOp3
 70
     1
102
RTVSPropertyOp4
 70
     1
102
RTVSPropertyOp5
 70
     1
102
RTVSPropertyOp6
 70
     1
102
RTVSPropertyOp7
 70
     1
102
RTVSPropertyOp8
 70
     1
102
RTVSPropertyOp9
 70
     1
102
RTVSPropertyOp10
 70
     1
102
RTVSPropertyOp11
 70
     1
102
RTVSPropertyOp12
 70
     1
102
RTVSPropertyOp13
 70
     1
102
RTVSPropertyOp14
 70
     1
102
RTVSPropertyOp15
 70
     1
102
RTVSPropertyOp16
 70
     1
102
RTVSPropertyOp17
 70
     1
102
RTVSPropertyOp18
 70
     1
102
RTVSPropertyOp19
 70
     1
102
RTVSPropertyOp20
 70
     1
102
RTVSPropertyOp21
 70
     1
102
RTVSPropertyOp22
 70
     1
102
RTVSPropertyOp23
 70
     1
102
RTVSPropertyOp24
 70
     1
102
RTVSPropertyOp25
 70
     1
102
RTVSPropertyOp26
 70
     1
102
RTVSPropertyOp27
 70
     1
102
RTVSPropertyOp28
 70
     1
102
RTVSPropertyOp29
 70
     1
102
RTVSPropertyOp30
 70
     1
102
RTVSPropertyOp31
 70
     1
102
RTVSPropertyOp32
 70
     1
102
RTVSPropertyOp33
 70
     1
102
RTVSPropertyOp34
 70
     1
102
RTVSPropertyOp35
 70
     1
102
RTVSPropertyOp36
 70
     1
102
RTVSPropertyOp37
 70
     1
102
RTVSPropertyOp38
 70
     1
102
RTVSPropertyOp39
 70
     1
102
RTVSPropertyOp40
 70
     1
102
RTVSPropertyOp41
 70
     1
102
RTVSPropertyOp42
 70
     1
102
RTVSPropertyOp43
 70
     1
102
RTVSPropertyOp44
 70
     1
102
RTVSPropertyOp45
 70
     1
102
RTVSPropertyOp46
 70
     1
102
RTVSPropertyOp47
 70
     1
102
RTVSPropertyOp48
 70
     1
102
RTVSPropertyOp49
 70
     1
102
RTVSPropertyOp50
 70
     1
102
RTVSPropertyOp51
 70
     0
102
RTVSPropertyOp52
 70
     0
102
RTVSPropertyOp53
 70
     1
102
RTVSPropertyOp54
 70
     1
102
RTVSPropertyOp55
 70
     1
102
RTVSPropertyOp56
 70
     1
102
RTVSPropertyOp57
 70
     1
102
RTVSPost2010Prop28
280
     0
102
RTVSPost2010PropOp28
 70
     1
102
RTVSPost2010Prop29
280
     1
102
RTVSPost2010PropOp29
 70
     1
102
RTVSPost2010Prop30
280
     1
102
RTVSPost2010PropOp30
 70
     1
102
RTVSPost2010Prop31
280
     0
102
RTVSPost2010PropOp31
 70
     1
102
RTVSPost2010Prop32
280
     0
102
RTVSPost2010PropOp32
 70
     1
102
RTVSPost2010Prop33
280
     0
102
RTVSPost2010PropOp33
 70
     1
102
RTVSPost2010Prop34
280
     0
102
RTVSPost2010PropOp34
 70
     1
102
RTVSPost2010Prop35
280
     0
102
RTVSPost2010PropOp35
 70
     1
102
RTVSPost2010Prop36
280
     0
102
RTVSPost2010PropOp36
 70
     1
102
RTVSPost2010Prop37
 90
       50
102
RTVSPost2010PropOp37
 70
     1
102
RTVSPost2010Prop38
140
0.0
102
RTVSPost2010PropOp38
 70
     1
102
RTVSPost2010Prop39
140
1.0
102
RTVSPost2010PropOp39
 70
     1
102
RTVSPost2010Prop40
 90
        0
102
RTVSPost2010PropOp40
 70
     1
102
RTVSPost2010Prop41ColorIndex
 90
       18
102
RTVSPost2010Prop41ColorRGB
 90
        0
102
RTVSPost2010PropOp41
 70
     1
102
RTVSPost2010Prop42
 90
       50
102
RTVSPost2010PropOp42
 70
     1
102
RTVSPost2010Prop43
 90
        3
102
RTVSPost2010PropOp43
 70
     1
102
RTVSPost2010Prop44ColorIndex
 90
        5
102
RTVSPost2010Prop44ColorRGB
 90
      255
102
RTVSPost2010PropOp44
 70
     1
102
RTVSPost2010Prop45
280
     0
102
RTVSPost2010PropOp45
 70
     1
102
RTVSPost2010Prop46
 90
       50
102
RTVSPost2010PropOp46
 70
     1
102
RTVSPost2010Prop47
 90
       50
102
RTVSPost2010PropOp47
 70
     1
102
RTVSPost2010Prop48
 90
       50
102
RTVSPost2010PropOp48
 70
     1
102
RTVSPost2010Prop49
280
     0
102
RTVSPost2010PropOp49
 70
     1
102
RTVSPost2010Prop50
 90
       50
102
RTVSPost2010PropOp50
 70
     1
102
RTVSPost2010Prop51ColorIndex
 90
      256
102
RTVSPost2010Prop51ColorRGB
 90
-16777216
102
RTVSPost2010PropOp51
 70
     0
102
RTVSPost2010Prop52
140
1.0
102
RTVSPost2010PropOp52
 70
     0
102
RTVSPost2010Prop53
 90
        2
102
RTVSPost2010PropOp53
 70
     1
102
RTVSPost2010Prop54
  1
strokes_ogs.tif
102
RTVSPost2010PropOp54
 70
     1
102
RTVSPost2010Prop55
280
     0
102
RTVSPost2010PropOp55
 70
     1
102
RTVSPost2010Prop56
140
1.0
102
RTVSPost2010PropOp56
 70
     1
102
RTVSPost2010Prop57
140
1.0
102
RTVSPost2010PropOp57
 70
     1
  0
XRECORD
  5
22C
102
{ACAD_REACTORS
330
22B
102
}
330
22B
100
AcDbXrecord
280
     1
102
RTVSPropertyOp0
 70
     1
102
RTVSPropertyOp1
 70
     1
102
RTVSPropertyOp2
 70
     1
102
RTVSPropertyOp3
 70
     1
102
RTVSPropertyOp4
 70
     1
102
RTVSPropertyOp5
 70
     1
102
RTVSPropertyOp6
 70
     1
102
RTVSPropertyOp7
 70
     1
102
RTVSPropertyOp8
 70
     1
102
RTVSPropertyOp9
 70
     1
102
RTVSPropertyOp10
 70
     1
102
RTVSPropertyOp11
 70
     1
102
RTVSPropertyOp12
 70
     1
102
RTVSPropertyOp13
 70
     1
102
RTVSPropertyOp14
 70
     1
102
RTVSPropertyOp15
 70
     1
102
RTVSPropertyOp16
 70
     1
102
RTVSPropertyOp17
 70
     1
102
RTVSPropertyOp18
 70
     1
102
RTVSPropertyOp19
 70
     1
102
RTVSPropertyOp20
 70
     1
102
RTVSPropertyOp21
 70
     1
102
RTVSPropertyOp22
 70
     1
102
RTVSPropertyOp23
 70
     1
102
RTVSPropertyOp24
 70
     1
102
RTVSPropertyOp25
 70
     1
102
RTVSPropertyOp26
 70
     1
102
RTVSPropertyOp27
 70
     1
102
RTVSPropertyOp28
 70
     1
102
RTVSPropertyOp29
 70
     1
102
RTVSPropertyOp30
 70
     1
102
RTVSPropertyOp31
 70
     1
102
RTVSPropertyOp32
 70
     1
102
RTVSPropertyOp33
 70
     1
102
RTVSPropertyOp34
 70
     1
102
RTVSPropertyOp35
 70
     1
102
RTVSPropertyOp36
 70
     1
102
RTVSPropertyOp37
 70
     1
102
RTVSPropertyOp38
 70
     1
102
RTVSPropertyOp39
 70
     1
102
RTVSPropertyOp40
 70
     1
102
RTVSPropertyOp41
 70
     1
102
RTVSPropertyOp42
 70
     1
102
RTVSPropertyOp43
 70
     1
102
RTVSPropertyOp44
 70
     1
102
RTVSPropertyOp45
 70
     1
102
RTVSPropertyOp46
 70
     1
102
RTVSPropertyOp47
 70
     1
102
RTVSPropertyOp48
 70
     1
102
RTVSPropertyOp49
 70
     1
102
RTVSPropertyOp50
 70
     1
102
RTVSPropertyOp51
 70
     0
102
RTVSPropertyOp52
 70
     0
102
RTVSPropertyOp53
 70
     1
102
RTVSPropertyOp54
 70
     1
102
RTVSPropertyOp55
 70
     1
102
RTVSPropertyOp56
 70
     1
102
RTVSPropertyOp57
 70
     1
102
RTVSPost2010Prop28
280
     0
102
RTVSPost2010PropOp28
 70
     1
102
RTVSPost2010Prop29
280
     1
102
RTVSPost2010PropOp29
 70
     1
102
RTVSPost2010Prop30
280
     1
102
RTVSPost2010PropOp30
 70
     1
102
RTVSPost2010Prop31
280
     0
102
RTVSPost2010PropOp31
 70
     1
102
RTVSPost2010Prop32
280
     0
102
RTVSPost2010PropOp32
 70
     1
102
RTVSPost2010Prop33
280
     0
102
RTVSPost2010PropOp33
 70
     1
102
RTVSPost2010Prop34
280
     0
102
RTVSPost2010PropOp34
 70
     1
102
RTVSPost2010Prop35
280
     0
102
RTVSPost2010PropOp35
 70
     1
102
RTVSPost2010Prop36
280
     0
102
RTVSPost2010PropOp36
 70
     1
102
RTVSPost2010Prop37
 90
       50
102
RTVSPost2010PropOp37
 70
     1
102
RTVSPost2010Prop38
140
0.0
102
RTVSPost2010PropOp38
 70
     1
102
RTVSPost2010Prop39
140
1.0
102
RTVSPost2010PropOp39
 70
     1
102
RTVSPost2010Prop40
 90
        0
102
RTVSPost2010PropOp40
 70
     1
102
RTVSPost2010Prop41ColorIndex
 90
       18
102
RTVSPost2010Prop41ColorRGB
 90
        0
102
RTVSPost2010PropOp41
 70
     1
102
RTVSPost2010Prop42
 90
       50
102
RTVSPost2010PropOp42
 70
     1
102
RTVSPost2010Prop43
 90
        3
102
RTVSPost2010PropOp43
 70
     1
102
RTVSPost2010Prop44ColorIndex
 90
        5
102
RTVSPost2010Prop44ColorRGB
 90
      255
102
RTVSPost2010PropOp44
 70
     1
102
RTVSPost2010Prop45
280
     0
102
RTVSPost2010PropOp45
 70
     1
102
RTVSPost2010Prop46
 90
       50
102
RTVSPost2010PropOp46
 70
     1
102
RTVSPost2010Prop47
 90
       50
102
RTVSPost2010PropOp47
 70
     1
102
RTVSPost2010Prop48
 90
       50
102
RTVSPost2010PropOp48
 70
     1
102
RTVSPost2010Prop49
280
     0
102
RTVSPost2010PropOp49
 70
     1
102
RTVSPost2010Prop50
 90
       50
102
RTVSPost2010PropOp50
 70
     1
102
RTVSPost2010Prop51ColorIndex
 90
      256
102
RTVSPost2010Prop51ColorRGB
 90
-16777216
102
RTVSPost2010PropOp51
 70
     0
102
RTVSPost2010Prop52
140
1.0
102
RTVSPost2010PropOp52
 70
     0
102
RTVSPost2010Prop53
 90
        2
102
RTVSPost2010PropOp53
 70
     1
102
RTVSPost2010Prop54
  1
strokes_ogs.tif
102
RTVSPost2010PropOp54
 70
     1
102
RTVSPost2010Prop55
280
     0
102
RTVSPost2010PropOp55
 70
     1
102
RTVSPost2010Prop56
140
1.0
102
RTVSPost2010PropOp56
 70
     1
102
RTVSPost2010Prop57
140
1.0
102
RTVSPost2010PropOp57
 70
     1
  0
XRECORD
  5
232
102
{ACAD_REACTORS
330
231
102
}
330
231
100
AcDbXrecord
280
     1
102
RTVSPropertyOp0
 70
     1
102
RTVSPropertyOp1
 70
     1
102
RTVSPropertyOp2
 70
     1
102
RTVSPropertyOp3
 70
     1
102
RTVSPropertyOp4
 70
     1
102
RTVSPropertyOp5
 70
     1
102
RTVSPropertyOp6
 70
     1
102
RTVSPropertyOp7
 70
     1
102
RTVSPropertyOp8
 70
     1
102
RTVSPropertyOp9
 70
     1
102
RTVSPropertyOp10
 70
     1
102
RTVSPropertyOp11
 70
     1
102
RTVSPropertyOp12
 70
     1
102
RTVSPropertyOp13
 70
     1
102
RTVSPropertyOp14
 70
     1
102
RTVSPropertyOp15
 70
     1
102
RTVSPropertyOp16
 70
     1
102
RTVSPropertyOp17
 70
     1
102
RTVSPropertyOp18
 70
     1
102
RTVSPropertyOp19
 70
     1
102
RTVSPropertyOp20
 70
     1
102
RTVSPropertyOp21
 70
     1
102
RTVSPropertyOp22
 70
     1
102
RTVSPropertyOp23
 70
     1
102
RTVSPropertyOp24
 70
     1
102
RTVSPropertyOp25
 70
     1
102
RTVSPropertyOp26
 70
     1
102
RTVSPropertyOp27
 70
     1
102
RTVSPropertyOp28
 70
     1
102
RTVSPropertyOp29
 70
     1
102
RTVSPropertyOp30
 70
     1
102
RTVSPropertyOp31
 70
     1
102
RTVSPropertyOp32
 70
     1
102
RTVSPropertyOp33
 70
     1
102
RTVSPropertyOp34
 70
     1
102
RTVSPropertyOp35
 70
     1
102
RTVSPropertyOp36
 70
     1
102
RTVSPropertyOp37
 70
     1
102
RTVSPropertyOp38
 70
     1
102
RTVSPropertyOp39
 70
     1
102
RTVSPropertyOp40
 70
     1
102
RTVSPropertyOp41
 70
     1
102
RTVSPropertyOp42
 70
     1
102
RTVSPropertyOp43
 70
     1
102
RTVSPropertyOp44
 70
     1
102
RTVSPropertyOp45
 70
     1
102
RTVSPropertyOp46
 70
     1
102
RTVSPropertyOp47
 70
     1
102
RTVSPropertyOp48
 70
     1
102
RTVSPropertyOp49
 70
     1
102
RTVSPropertyOp50
 70
     1
102
RTVSPropertyOp51
 70
     0
102
RTVSPropertyOp52
 70
     0
102
RTVSPropertyOp53
 70
     1
102
RTVSPropertyOp54
 70
     1
102
RTVSPropertyOp55
 70
     1
102
RTVSPropertyOp56
 70
     1
102
RTVSPropertyOp57
 70
     1
102
RTVSPost2010Prop28
280
     0
102
RTVSPost2010PropOp28
 70
     1
102
RTVSPost2010Prop29
280
     1
102
RTVSPost2010PropOp29
 70
     1
102
RTVSPost2010Prop30
280
     1
102
RTVSPost2010PropOp30
 70
     1
102
RTVSPost2010Prop31
280
     0
102
RTVSPost2010PropOp31
 70
     1
102
RTVSPost2010Prop32
280
     0
102
RTVSPost2010PropOp32
 70
     1
102
RTVSPost2010Prop33
280
     0
102
RTVSPost2010PropOp33
 70
     1
102
RTVSPost2010Prop34
280
     0
102
RTVSPost2010PropOp34
 70
     1
102
RTVSPost2010Prop35
280
     0
102
RTVSPost2010PropOp35
 70
     1
102
RTVSPost2010Prop36
280
     0
102
RTVSPost2010PropOp36
 70
     1
102
RTVSPost2010Prop37
 90
       50
102
RTVSPost2010PropOp37
 70
     1
102
RTVSPost2010Prop38
140
0.0
102
RTVSPost2010PropOp38
 70
     1
102
RTVSPost2010Prop39
140
1.0
102
RTVSPost2010PropOp39
 70
     1
102
RTVSPost2010Prop40
 90
        0
102
RTVSPost2010PropOp40
 70
     1
102
RTVSPost2010Prop41ColorIndex
 90
       18
102
RTVSPost2010Prop41ColorRGB
 90
        0
102
RTVSPost2010PropOp41
 70
     1
102
RTVSPost2010Prop42
 90
       50
102
RTVSPost2010PropOp42
 70
     1
102
RTVSPost2010Prop43
 90
        3
102
RTVSPost2010PropOp43
 70
     1
102
RTVSPost2010Prop44ColorIndex
 90
        5
102
RTVSPost2010Prop44ColorRGB
 90
      255
102
RTVSPost2010PropOp44
 70
     1
102
RTVSPost2010Prop45
280
     0
102
RTVSPost2010PropOp45
 70
     1
102
RTVSPost2010Prop46
 90
       50
102
RTVSPost2010PropOp46
 70
     1
102
RTVSPost2010Prop47
 90
       50
102
RTVSPost2010PropOp47
 70
     1
102
RTVSPost2010Prop48
 90
       50
102
RTVSPost2010PropOp48
 70
     1
102
RTVSPost2010Prop49
280
     0
102
RTVSPost2010PropOp49
 70
     1
102
RTVSPost2010Prop50
 90
       50
102
RTVSPost2010PropOp50
 70
     1
102
RTVSPost2010Prop51ColorIndex
 90
      256
102
RTVSPost2010Prop51ColorRGB
 90
-16777216
102
RTVSPost2010PropOp51
 70
     0
102
RTVSPost2010Prop52
140
1.0
102
RTVSPost2010PropOp52
 70
     0
102
RTVSPost2010Prop53
 90
        2
102
RTVSPost2010PropOp53
 70
     1
102
RTVSPost2010Prop54
  1
strokes_ogs.tif
102
RTVSPost2010PropOp54
 70
     1
102
RTVSPost2010Prop55
280
     0
102
RTVSPost2010PropOp55
 70
     1
102
RTVSPost2010Prop56
140
1.0
102
RTVSPost2010PropOp56
 70
     1
102
RTVSPost2010Prop57
140
1.0
102
RTVSPost2010PropOp57
 70
     1
  0
XRECORD
  5
246
102
{ACAD_REACTORS
330
245
102
}
330
245
100
AcDbXrecord
280
     1
102
RTVSPropertyOp0
 70
     0
102
RTVSPropertyOp1
 70
     0
102
RTVSPropertyOp2
 70
     0
102
RTVSPropertyOp3
 70
     0
102
RTVSPropertyOp4
 70
     0
102
RTVSPropertyOp5
 70
     0
102
RTVSPropertyOp6
 70
     0
102
RTVSPropertyOp7
 70
     0
102
RTVSPropertyOp8
 70
     0
102
RTVSPropertyOp9
 70
     0
102
RTVSPropertyOp10
 70
     0
102
RTVSPropertyOp11
 70
     0
102
RTVSPropertyOp12
 70
     0
102
RTVSPropertyOp13
 70
     0
102
RTVSPropertyOp14
 70
     2
102
RTVSPropertyOp15
 70
     0
102
RTVSPropertyOp16
 70
     0
102
RTVSPropertyOp17
 70
     0
102
RTVSPropertyOp18
 70
     0
102
RTVSPropertyOp19
 70
     0
102
RTVSPropertyOp20
 70
     0
102
RTVSPropertyOp21
 70
     0
102
RTVSPropertyOp22
 70
     0
102
RTVSPropertyOp23
 70
     0
102
RTVSPropertyOp24
 70
     0
102
RTVSPropertyOp25
 70
     0
102
RTVSPropertyOp26
 70
     0
102
RTVSPropertyOp27
 70
     0
102
RTVSPropertyOp28
 70
     0
102
RTVSPropertyOp29
 70
     0
102
RTVSPropertyOp30
 70
     0
102
RTVSPropertyOp31
 70
     0
102
RTVSPropertyOp32
 70
     0
102
RTVSPropertyOp33
 70
     0
102
RTVSPropertyOp34
 70
     0
102
RTVSPropertyOp35
 70
     0
102
RTVSPropertyOp36
 70
     0
102
RTVSPropertyOp37
 70
     0
102
RTVSPropertyOp38
 70
     0
102
RTVSPropertyOp39
 70
     0
102
RTVSPropertyOp40
 70
     0
102
RTVSPropertyOp41
 70
     0
102
RTVSPropertyOp42
 70
     0
102
RTVSPropertyOp43
 70
     0
102
RTVSPropertyOp44
 70
     0
102
RTVSPropertyOp45
 70
     0
102
RTVSPropertyOp46
 70
     0
102
RTVSPropertyOp47
 70
     0
102
RTVSPropertyOp48
 70
     0
102
RTVSPropertyOp49
 70
     0
102
RTVSPropertyOp50
 70
     0
102
RTVSPropertyOp51
 70
     0
102
RTVSPropertyOp52
 70
     0
102
RTVSPropertyOp53
 70
     0
102
RTVSPropertyOp54
 70
     0
102
RTVSPropertyOp55
 70
     0
102
RTVSPropertyOp56
 70
     0
102
RTVSPropertyOp57
 70
     0
102
RTVSPost2010Prop28
280
     0
102
RTVSPost2010PropOp28
 70
     0
102
RTVSPost2010Prop29
280
     1
102
RTVSPost2010PropOp29
 70
     0
102
RTVSPost2010Prop30
280
     1
102
RTVSPost2010PropOp30
 70
     0
102
RTVSPost2010Prop31
280
     0
102
RTVSPost2010PropOp31
 70
     0
102
RTVSPost2010Prop32
280
     0
102
RTVSPost2010PropOp32
 70
     0
102
RTVSPost2010Prop33
280
     0
102
RTVSPost2010PropOp33
 70
     0
102
RTVSPost2010Prop34
280
     0
102
RTVSPost2010PropOp34
 70
     0
102
RTVSPost2010Prop35
280
     0
102
RTVSPost2010PropOp35
 70
     0
102
RTVSPost2010Prop36
280
     0
102
RTVSPost2010PropOp36
 70
     0
102
RTVSPost2010Prop37
 90
       50
102
RTVSPost2010PropOp37
 70
     0
102
RTVSPost2010Prop38
140
0.0
102
RTVSPost2010PropOp38
 70
     0
102
RTVSPost2010Prop39
140
1.0
102
RTVSPost2010PropOp39
 70
     0
102
RTVSPost2010Prop40
 90
        0
102
RTVSPost2010PropOp40
 70
     0
102
RTVSPost2010Prop41ColorIndex
 90
       18
102
RTVSPost2010Prop41ColorRGB
 90
        0
102
RTVSPost2010PropOp41
 70
     0
102
RTVSPost2010Prop42
 90
       50
102
RTVSPost2010PropOp42
 70
     0
102
RTVSPost2010Prop43
 90
        3
102
RTVSPost2010PropOp43
 70
     0
102
RTVSPost2010Prop44ColorIndex
 90
        5
102
RTVSPost2010Prop44ColorRGB
 90
      255
102
RTVSPost2010PropOp44
 70
     0
102
RTVSPost2010Prop45
280
     0
102
RTVSPost2010PropOp45
 70
     0
102
RTVSPost2010Prop46
 90
       50
102
RTVSPost2010PropOp46
 70
     0
102
RTVSPost2010Prop47
 90
       50
102
RTVSPost2010PropOp47
 70
     0
102
RTVSPost2010Prop48
 90
       50
102
RTVSPost2010PropOp48
 70
     0
102
RTVSPost2010Prop49
280
     0
102
RTVSPost2010PropOp49
 70
     0
102
RTVSPost2010Prop50
 90
       50
102
RTVSPost2010PropOp50
 70
     0
102
RTVSPost2010Prop51ColorIndex
 90
      256
102
RTVSPost2010Prop51ColorRGB
 90
-16777216
102
RTVSPost2010PropOp51
 70
     0
102
RTVSPost2010Prop52
140
1.0
102
RTVSPost2010PropOp52
 70
     0
102
RTVSPost2010Prop53
 90
        2
102
RTVSPost2010PropOp53
 70
     0
102
RTVSPost2010Prop54
  1
strokes_ogs.tif
102
RTVSPost2010PropOp54
 70
     0
102
RTVSPost2010Prop55
280
     0
102
RTVSPost2010PropOp55
 70
     0
102
RTVSPost2010Prop56
140
1.0
102
RTVSPost2010PropOp56
 70
     0
102
RTVSPost2010Prop57
140
1.0
102
RTVSPost2010PropOp57
 70
     0
  0
XRECORD
  5
240
102
{ACAD_REACTORS
330
23F
102
}
330
23F
100
AcDbXrecord
280
     1
102
RTVSPropertyOp0
 70
     1
102
RTVSPropertyOp1
 70
     1
102
RTVSPropertyOp2
 70
     1
102
RTVSPropertyOp3
 70
     1
102
RTVSPropertyOp4
 70
     1
102
RTVSPropertyOp5
 70
     1
102
RTVSPropertyOp6
 70
     1
102
RTVSPropertyOp7
 70
     1
102
RTVSPropertyOp8
 70
     1
102
RTVSPropertyOp9
 70
     1
102
RTVSPropertyOp10
 70
     1
102
RTVSPropertyOp11
 70
     1
102
RTVSPropertyOp12
 70
     1
102
RTVSPropertyOp13
 70
     1
102
RTVSPropertyOp14
 70
     1
102
RTVSPropertyOp15
 70
     1
102
RTVSPropertyOp16
 70
     1
102
RTVSPropertyOp17
 70
     1
102
RTVSPropertyOp18
 70
     1
102
RTVSPropertyOp19
 70
     1
102
RTVSPropertyOp20
 70
     1
102
RTVSPropertyOp21
 70
     1
102
RTVSPropertyOp22
 70
     1
102
RTVSPropertyOp23
 70
     1
102
RTVSPropertyOp24
 70
     1
102
RTVSPropertyOp25
 70
     1
102
RTVSPropertyOp26
 70
     1
102
RTVSPropertyOp27
 70
     1
102
RTVSPropertyOp28
 70
     1
102
RTVSPropertyOp29
 70
     1
102
RTVSPropertyOp30
 70
     1
102
RTVSPropertyOp31
 70
     1
102
RTVSPropertyOp32
 70
     1
102
RTVSPropertyOp33
 70
     1
102
RTVSPropertyOp34
 70
     1
102
RTVSPropertyOp35
 70
     1
102
RTVSPropertyOp36
 70
     1
102
RTVSPropertyOp37
 70
     1
102
RTVSPropertyOp38
 70
     1
102
RTVSPropertyOp39
 70
     1
102
RTVSPropertyOp40
 70
     1
102
RTVSPropertyOp41
 70
     1
102
RTVSPropertyOp42
 70
     1
102
RTVSPropertyOp43
 70
     1
102
RTVSPropertyOp44
 70
     1
102
RTVSPropertyOp45
 70
     1
102
RTVSPropertyOp46
 70
     1
102
RTVSPropertyOp47
 70
     1
102
RTVSPropertyOp48
 70
     1
102
RTVSPropertyOp49
 70
     1
102
RTVSPropertyOp50
 70
     1
102
RTVSPropertyOp51
 70
     0
102
RTVSPropertyOp52
 70
     0
102
RTVSPropertyOp53
 70
     1
102
RTVSPropertyOp54
 70
     1
102
RTVSPropertyOp55
 70
     1
102
RTVSPropertyOp56
 70
     1
102
RTVSPropertyOp57
 70
     1
102
RTVSPost2010Prop28
280
     0
102
RTVSPost2010PropOp28
 70
     1
102
RTVSPost2010Prop29
280
     1
102
RTVSPost2010PropOp29
 70
     1
102
RTVSPost2010Prop30
280
     1
102
RTVSPost2010PropOp30
 70
     1
102
RTVSPost2010Prop31
280
     0
102
RTVSPost2010PropOp31
 70
     1
102
RTVSPost2010Prop32
280
     0
102
RTVSPost2010PropOp32
 70
     1
102
RTVSPost2010Prop33
280
     0
102
RTVSPost2010PropOp33
 70
     1
102
RTVSPost2010Prop34
280
     0
102
RTVSPost2010PropOp34
 70
     1
102
RTVSPost2010Prop35
280
     0
102
RTVSPost2010PropOp35
 70
     1
102
RTVSPost2010Prop36
280
     0
102
RTVSPost2010PropOp36
 70
     1
102
RTVSPost2010Prop37
 90
       50
102
RTVSPost2010PropOp37
 70
     1
102
RTVSPost2010Prop38
140
0.0
102
RTVSPost2010PropOp38
 70
     1
102
RTVSPost2010Prop39
140
1.0
102
RTVSPost2010PropOp39
 70
     1
102
RTVSPost2010Prop40
 90
        0
102
RTVSPost2010PropOp40
 70
     1
102
RTVSPost2010Prop41ColorIndex
 90
       18
102
RTVSPost2010Prop41ColorRGB
 90
        0
102
RTVSPost2010PropOp41
 70
     1
102
RTVSPost2010Prop42
 90
       50
102
RTVSPost2010PropOp42
 70
     1
102
RTVSPost2010Prop43
 90
        3
102
RTVSPost2010PropOp43
 70
     1
102
RTVSPost2010Prop44ColorIndex
 90
        5
102
RTVSPost2010Prop44ColorRGB
 90
      255
102
RTVSPost2010PropOp44
 70
     1
102
RTVSPost2010Prop45
280
     0
102
RTVSPost2010PropOp45
 70
     1
102
RTVSPost2010Prop46
 90
       50
102
RTVSPost2010PropOp46
 70
     1
102
RTVSPost2010Prop47
 90
       50
102
RTVSPost2010PropOp47
 70
     1
102
RTVSPost2010Prop48
 90
       50
102
RTVSPost2010PropOp48
 70
     1
102
RTVSPost2010Prop49
280
     0
102
RTVSPost2010PropOp49
 70
     1
102
RTVSPost2010Prop50
 90
       50
102
RTVSPost2010PropOp50
 70
     1
102
RTVSPost2010Prop51ColorIndex
 90
      256
102
RTVSPost2010Prop51ColorRGB
 90
-16777216
102
RTVSPost2010PropOp51
 70
     0
102
RTVSPost2010Prop52
140
1.0
102
RTVSPost2010PropOp52
 70
     0
102
RTVSPost2010Prop53
 90
        2
102
RTVSPost2010PropOp53
 70
     1
102
RTVSPost2010Prop54
  1
strokes_ogs.tif
102
RTVSPost2010PropOp54
 70
     1
102
RTVSPost2010Prop55
280
     0
102
RTVSPost2010PropOp55
 70
     1
102
RTVSPost2010Prop56
140
1.0
102
RTVSPost2010PropOp56
 70
     1
102
RTVSPost2010Prop57
140
1.0
102
RTVSPost2010PropOp57
 70
     1
  0
XRECORD
  5
248
102
{ACAD_REACTORS
330
247
102
}
330
247
100
AcDbXrecord
280
     1
102
RTVSPropertyOp0
 70
     0
102
RTVSPropertyOp1
 70
     0
102
RTVSPropertyOp2
 70
     0
102
RTVSPropertyOp3
 70
     0
102
RTVSPropertyOp4
 70
     0
102
RTVSPropertyOp5
 70
     0
102
RTVSPropertyOp6
 70
     0
102
RTVSPropertyOp7
 70
     0
102
RTVSPropertyOp8
 70
     0
102
RTVSPropertyOp9
 70
     0
102
RTVSPropertyOp10
 70
     0
102
RTVSPropertyOp11
 70
     0
102
RTVSPropertyOp12
 70
     0
102
RTVSPropertyOp13
 70
     0
102
RTVSPropertyOp14
 70
     2
102
RTVSPropertyOp15
 70
     0
102
RTVSPropertyOp16
 70
     0
102
RTVSPropertyOp17
 70
     0
102
RTVSPropertyOp18
 70
     0
102
RTVSPropertyOp19
 70
     0
102
RTVSPropertyOp20
 70
     0
102
RTVSPropertyOp21
 70
     0
102
RTVSPropertyOp22
 70
     0
102
RTVSPropertyOp23
 70
     0
102
RTVSPropertyOp24
 70
     0
102
RTVSPropertyOp25
 70
     0
102
RTVSPropertyOp26
 70
     0
102
RTVSPropertyOp27
 70
     0
102
RTVSPropertyOp28
 70
     0
102
RTVSPropertyOp29
 70
     0
102
RTVSPropertyOp30
 70
     0
102
RTVSPropertyOp31
 70
     0
102
RTVSPropertyOp32
 70
     0
102
RTVSPropertyOp33
 70
     0
102
RTVSPropertyOp34
 70
     0
102
RTVSPropertyOp35
 70
     0
102
RTVSPropertyOp36
 70
     0
102
RTVSPropertyOp37
 70
     0
102
RTVSPropertyOp38
 70
     0
102
RTVSPropertyOp39
 70
     0
102
RTVSPropertyOp40
 70
     0
102
RTVSPropertyOp41
 70
     0
102
RTVSPropertyOp42
 70
     0
102
RTVSPropertyOp43
 70
     0
102
RTVSPropertyOp44
 70
     0
102
RTVSPropertyOp45
 70
     0
102
RTVSPropertyOp46
 70
     0
102
RTVSPropertyOp47
 70
     0
102
RTVSPropertyOp48
 70
     0
102
RTVSPropertyOp49
 70
     0
102
RTVSPropertyOp50
 70
     0
102
RTVSPropertyOp51
 70
     0
102
RTVSPropertyOp52
 70
     0
102
RTVSPropertyOp53
 70
     0
102
RTVSPropertyOp54
 70
     0
102
RTVSPropertyOp55
 70
     0
102
RTVSPropertyOp56
 70
     0
102
RTVSPropertyOp57
 70
     0
102
RTVSPost2010Prop28
280
     0
102
RTVSPost2010PropOp28
 70
     0
102
RTVSPost2010Prop29
280
     1
102
RTVSPost2010PropOp29
 70
     0
102
RTVSPost2010Prop30
280
     1
102
RTVSPost2010PropOp30
 70
     0
102
RTVSPost2010Prop31
280
     0
102
RTVSPost2010PropOp31
 70
     0
102
RTVSPost2010Prop32
280
     0
102
RTVSPost2010PropOp32
 70
     0
102
RTVSPost2010Prop33
280
     0
102
RTVSPost2010PropOp33
 70
     0
102
RTVSPost2010Prop34
280
     0
102
RTVSPost2010PropOp34
 70
     0
102
RTVSPost2010Prop35
280
     0
102
RTVSPost2010PropOp35
 70
     0
102
RTVSPost2010Prop36
280
     0
102
RTVSPost2010PropOp36
 70
     0
102
RTVSPost2010Prop37
 90
       50
102
RTVSPost2010PropOp37
 70
     0
102
RTVSPost2010Prop38
140
0.0
102
RTVSPost2010PropOp38
 70
     0
102
RTVSPost2010Prop39
140
1.0
102
RTVSPost2010PropOp39
 70
     0
102
RTVSPost2010Prop40
 90
        0
102
RTVSPost2010PropOp40
 70
     0
102
RTVSPost2010Prop41ColorIndex
 90
       18
102
RTVSPost2010Prop41ColorRGB
 90
        0
102
RTVSPost2010PropOp41
 70
     0
102
RTVSPost2010Prop42
 90
       50
102
RTVSPost2010PropOp42
 70
     0
102
RTVSPost2010Prop43
 90
        3
102
RTVSPost2010PropOp43
 70
     0
102
RTVSPost2010Prop44ColorIndex
 90
        5
102
RTVSPost2010Prop44ColorRGB
 90
      255
102
RTVSPost2010PropOp44
 70
     0
102
RTVSPost2010Prop45
280
     0
102
RTVSPost2010PropOp45
 70
     0
102
RTVSPost2010Prop46
 90
       50
102
RTVSPost2010PropOp46
 70
     0
102
RTVSPost2010Prop47
 90
       50
102
RTVSPost2010PropOp47
 70
     0
102
RTVSPost2010Prop48
 90
       50
102
RTVSPost2010PropOp48
 70
     0
102
RTVSPost2010Prop49
280
     0
102
RTVSPost2010PropOp49
 70
     0
102
RTVSPost2010Prop50
 90
       50
102
RTVSPost2010PropOp50
 70
     0
102
RTVSPost2010Prop51ColorIndex
 90
      256
102
RTVSPost2010Prop51ColorRGB
 90
-16777216
102
RTVSPost2010PropOp51
 70
     0
102
RTVSPost2010Prop52
140
1.0
102
RTVSPost2010PropOp52
 70
     0
102
RTVSPost2010Prop53
 90
        2
102
RTVSPost2010PropOp53
 70
     0
102
RTVSPost2010Prop54
  1
strokes_ogs.tif
102
RTVSPost2010PropOp54
 70
     0
102
RTVSPost2010Prop55
280
     0
102
RTVSPost2010PropOp55
 70
     0
102
RTVSPost2010Prop56
140
1.0
102
RTVSPost2010PropOp56
 70
     0
102
RTVSPost2010Prop57
140
1.0
102
RTVSPost2010PropOp57
 70
     0
  0
XRECORD
  5
236
102
{ACAD_REACTORS
330
235
102
}
330
235
100
AcDbXrecord
280
     1
102
RTVSPropertyOp0
 70
     1
102
RTVSPropertyOp1
 70
     1
102
RTVSPropertyOp2
 70
     1
102
RTVSPropertyOp3
 70
     1
102
RTVSPropertyOp4
 70
     1
102
RTVSPropertyOp5
 70
     1
102
RTVSPropertyOp6
 70
     1
102
RTVSPropertyOp7
 70
     1
102
RTVSPropertyOp8
 70
     1
102
RTVSPropertyOp9
 70
     1
102
RTVSPropertyOp10
 70
     1
102
RTVSPropertyOp11
 70
     1
102
RTVSPropertyOp12
 70
     1
102
RTVSPropertyOp13
 70
     1
102
RTVSPropertyOp14
 70
     1
102
RTVSPropertyOp15
 70
     1
102
RTVSPropertyOp16
 70
     1
102
RTVSPropertyOp17
 70
     1
102
RTVSPropertyOp18
 70
     1
102
RTVSPropertyOp19
 70
     1
102
RTVSPropertyOp20
 70
     1
102
RTVSPropertyOp21
 70
     1
102
RTVSPropertyOp22
 70
     1
102
RTVSPropertyOp23
 70
     1
102
RTVSPropertyOp24
 70
     1
102
RTVSPropertyOp25
 70
     1
102
RTVSPropertyOp26
 70
     1
102
RTVSPropertyOp27
 70
     1
102
RTVSPropertyOp28
 70
     1
102
RTVSPropertyOp29
 70
     1
102
RTVSPropertyOp30
 70
     1
102
RTVSPropertyOp31
 70
     1
102
RTVSPropertyOp32
 70
     1
102
RTVSPropertyOp33
 70
     1
102
RTVSPropertyOp34
 70
     1
102
RTVSPropertyOp35
 70
     1
102
RTVSPropertyOp36
 70
     1
102
RTVSPropertyOp37
 70
     1
102
RTVSPropertyOp38
 70
     1
102
RTVSPropertyOp39
 70
     1
102
RTVSPropertyOp40
 70
     1
102
RTVSPropertyOp41
 70
     1
102
RTVSPropertyOp42
 70
     1
102
RTVSPropertyOp43
 70
     1
102
RTVSPropertyOp44
 70
     1
102
RTVSPropertyOp45
 70
     1
102
RTVSPropertyOp46
 70
     1
102
RTVSPropertyOp47
 70
     1
102
RTVSPropertyOp48
 70
     1
102
RTVSPropertyOp49
 70
     1
102
RTVSPropertyOp50
 70
     1
102
RTVSPropertyOp51
 70
     0
102
RTVSPropertyOp52
 70
     0
102
RTVSPropertyOp53
 70
     1
102
RTVSPropertyOp54
 70
     1
102
RTVSPropertyOp55
 70
     1
102
RTVSPropertyOp56
 70
     1
102
RTVSPropertyOp57
 70
     1
102
RTVSPost2010Prop28
280
     0
102
RTVSPost2010PropOp28
 70
     1
102
RTVSPost2010Prop29
280
     1
102
RTVSPost2010PropOp29
 70
     1
102
RTVSPost2010Prop30
280
     1
102
RTVSPost2010PropOp30
 70
     1
102
RTVSPost2010Prop31
280
     0
102
RTVSPost2010PropOp31
 70
     1
102
RTVSPost2010Prop32
280
     0
102
RTVSPost2010PropOp32
 70
     1
102
RTVSPost2010Prop33
280
     0
102
RTVSPost2010PropOp33
 70
     1
102
RTVSPost2010Prop34
280
     0
102
RTVSPost2010PropOp34
 70
     1
102
RTVSPost2010Prop35
280
     0
102
RTVSPost2010PropOp35
 70
     1
102
RTVSPost2010Prop36
280
     0
102
RTVSPost2010PropOp36
 70
     1
102
RTVSPost2010Prop37
 90
       50
102
RTVSPost2010PropOp37
 70
     1
102
RTVSPost2010Prop38
140
0.0
102
RTVSPost2010PropOp38
 70
     1
102
RTVSPost2010Prop39
140
1.0
102
RTVSPost2010PropOp39
 70
     1
102
RTVSPost2010Prop40
 90
        0
102
RTVSPost2010PropOp40
 70
     1
102
RTVSPost2010Prop41ColorIndex
 90
       18
102
RTVSPost2010Prop41ColorRGB
 90
        0
102
RTVSPost2010PropOp41
 70
     1
102
RTVSPost2010Prop42
 90
       50
102
RTVSPost2010PropOp42
 70
     1
102
RTVSPost2010Prop43
 90
        3
102
RTVSPost2010PropOp43
 70
     1
102
RTVSPost2010Prop44ColorIndex
 90
        5
102
RTVSPost2010Prop44ColorRGB
 90
      255
102
RTVSPost2010PropOp44
 70
     1
102
RTVSPost2010Prop45
280
     0
102
RTVSPost2010PropOp45
 70
     1
102
RTVSPost2010Prop46
 90
       50
102
RTVSPost2010PropOp46
 70
     1
102
RTVSPost2010Prop47
 90
       50
102
RTVSPost2010PropOp47
 70
     1
102
RTVSPost2010Prop48
 90
       50
102
RTVSPost2010PropOp48
 70
     1
102
RTVSPost2010Prop49
280
     0
102
RTVSPost2010PropOp49
 70
     1
102
RTVSPost2010Prop50
 90
       50
102
RTVSPost2010PropOp50
 70
     1
102
RTVSPost2010Prop51ColorIndex
 90
      256
102
RTVSPost2010Prop51ColorRGB
 90
-16777216
102
RTVSPost2010PropOp51
 70
     0
102
RTVSPost2010Prop52
140
1.0
102
RTVSPost2010PropOp52
 70
     0
102
RTVSPost2010Prop53
 90
        2
102
RTVSPost2010PropOp53
 70
     1
102
RTVSPost2010Prop54
  1
strokes_ogs.tif
102
RTVSPost2010PropOp54
 70
     1
102
RTVSPost2010Prop55
280
     0
102
RTVSPost2010PropOp55
 70
     1
102
RTVSPost2010Prop56
140
1.0
102
RTVSPost2010PropOp56
 70
     1
102
RTVSPost2010Prop57
140
1.0
102
RTVSPost2010PropOp57
 70
     1
  0
XRECORD
  5
254
102
{ACAD_REACTORS
330
253
102
}
330
253
100
AcDbXrecord
280
     1
102
RTVSPropertyOp0
 70
     1
102
RTVSPropertyOp1
 70
     1
102
RTVSPropertyOp2
 70
     1
102
RTVSPropertyOp3
 70
     1
102
RTVSPropertyOp4
 70
     1
102
RTVSPropertyOp5
 70
     1
102
RTVSPropertyOp6
 70
     1
102
RTVSPropertyOp7
 70
     1
102
RTVSPropertyOp8
 70
     1
102
RTVSPropertyOp9
 70
     1
102
RTVSPropertyOp10
 70
     1
102
RTVSPropertyOp11
 70
     1
102
RTVSPropertyOp12
 70
     1
102
RTVSPropertyOp13
 70
     1
102
RTVSPropertyOp14
 70
     1
102
RTVSPropertyOp15
 70
     1
102
RTVSPropertyOp16
 70
     1
102
RTVSPropertyOp17
 70
     1
102
RTVSPropertyOp18
 70
     1
102
RTVSPropertyOp19
 70
     1
102
RTVSPropertyOp20
 70
     1
102
RTVSPropertyOp21
 70
     1
102
RTVSPropertyOp22
 70
     1
102
RTVSPropertyOp23
 70
     1
102
RTVSPropertyOp24
 70
     1
102
RTVSPropertyOp25
 70
     1
102
RTVSPropertyOp26
 70
     1
102
RTVSPropertyOp27
 70
     1
102
RTVSPropertyOp28
 70
     1
102
RTVSPropertyOp29
 70
     1
102
RTVSPropertyOp30
 70
     1
102
RTVSPropertyOp31
 70
     1
102
RTVSPropertyOp32
 70
     1
102
RTVSPropertyOp33
 70
     1
102
RTVSPropertyOp34
 70
     1
102
RTVSPropertyOp35
 70
     1
102
RTVSPropertyOp36
 70
     1
102
RTVSPropertyOp37
 70
     1
102
RTVSPropertyOp38
 70
     1
102
RTVSPropertyOp39
 70
     1
102
RTVSPropertyOp40
 70
     1
102
RTVSPropertyOp41
 70
     1
102
RTVSPropertyOp42
 70
     1
102
RTVSPropertyOp43
 70
     1
102
RTVSPropertyOp44
 70
     1
102
RTVSPropertyOp45
 70
     1
102
RTVSPropertyOp46
 70
     1
102
RTVSPropertyOp47
 70
     1
102
RTVSPropertyOp48
 70
     1
102
RTVSPropertyOp49
 70
     1
102
RTVSPropertyOp50
 70
     1
102
RTVSPropertyOp51
 70
     0
102
RTVSPropertyOp52
 70
     0
102
RTVSPropertyOp53
 70
     1
102
RTVSPropertyOp54
 70
     1
102
RTVSPropertyOp55
 70
     1
102
RTVSPropertyOp56
 70
     1
102
RTVSPropertyOp57
 70
     1
102
RTVSPost2010Prop28
280
     0
102
RTVSPost2010PropOp28
 70
     1
102
RTVSPost2010Prop29
280
     1
102
RTVSPost2010PropOp29
 70
     1
102
RTVSPost2010Prop30
280
     1
102
RTVSPost2010PropOp30
 70
     1
102
RTVSPost2010Prop31
280
     0
102
RTVSPost2010PropOp31
 70
     1
102
RTVSPost2010Prop32
280
     0
102
RTVSPost2010PropOp32
 70
     1
102
RTVSPost2010Prop33
280
     0
102
RTVSPost2010PropOp33
 70
     1
102
RTVSPost2010Prop34
280
     0
102
RTVSPost2010PropOp34
 70
     1
102
RTVSPost2010Prop35
280
     0
102
RTVSPost2010PropOp35
 70
     1
102
RTVSPost2010Prop36
280
     0
102
RTVSPost2010PropOp36
 70
     1
102
RTVSPost2010Prop37
 90
       50
102
RTVSPost2010PropOp37
 70
     1
102
RTVSPost2010Prop38
140
0.0
102
RTVSPost2010PropOp38
 70
     1
102
RTVSPost2010Prop39
140
1.0
102
RTVSPost2010PropOp39
 70
     1
102
RTVSPost2010Prop40
 90
        0
102
RTVSPost2010PropOp40
 70
     1
102
RTVSPost2010Prop41ColorIndex
 90
       18
102
RTVSPost2010Prop41ColorRGB
 90
        0
102
RTVSPost2010PropOp41
 70
     1
102
RTVSPost2010Prop42
 90
       50
102
RTVSPost2010PropOp42
 70
     1
102
RTVSPost2010Prop43
 90
        3
102
RTVSPost2010PropOp43
 70
     1
102
RTVSPost2010Prop44ColorIndex
 90
        5
102
RTVSPost2010Prop44ColorRGB
 90
      255
102
RTVSPost2010PropOp44
 70
     1
102
RTVSPost2010Prop45
280
     0
102
RTVSPost2010PropOp45
 70
     1
102
RTVSPost2010Prop46
 90
       50
102
RTVSPost2010PropOp46
 70
     1
102
RTVSPost2010Prop47
 90
       50
102
RTVSPost2010PropOp47
 70
     1
102
RTVSPost2010Prop48
 90
       50
102
RTVSPost2010PropOp48
 70
     1
102
RTVSPost2010Prop49
280
     0
102
RTVSPost2010PropOp49
 70
     1
102
RTVSPost2010Prop50
 90
       50
102
RTVSPost2010PropOp50
 70
     1
102
RTVSPost2010Prop51ColorIndex
 90
      256
102
RTVSPost2010Prop51ColorRGB
 90
-16777216
102
RTVSPost2010PropOp51
 70
     0
102
RTVSPost2010Prop52
140
1.0
102
RTVSPost2010PropOp52
 70
     0
102
RTVSPost2010Prop53
 90
        2
102
RTVSPost2010PropOp53
 70
     1
102
RTVSPost2010Prop54
  1
strokes_ogs.tif
102
RTVSPost2010PropOp54
 70
     1
102
RTVSPost2010Prop55
280
     0
102
RTVSPost2010PropOp55
 70
     1
102
RTVSPost2010Prop56
140
1.0
102
RTVSPost2010PropOp56
 70
     1
102
RTVSPost2010Prop57
140
1.0
102
RTVSPost2010PropOp57
 70
     1
  0
XRECORD
  5
252
102
{ACAD_REACTORS
330
251
102
}
330
251
100
AcDbXrecord
280
     1
102
RTVSPropertyOp0
 70
     1
102
RTVSPropertyOp1
 70
     1
102
RTVSPropertyOp2
 70
     1
102
RTVSPropertyOp3
 70
     1
102
RTVSPropertyOp4
 70
     1
102
RTVSPropertyOp5
 70
     1
102
RTVSPropertyOp6
 70
     1
102
RTVSPropertyOp7
 70
     1
102
RTVSPropertyOp8
 70
     1
102
RTVSPropertyOp9
 70
     1
102
RTVSPropertyOp10
 70
     1
102
RTVSPropertyOp11
 70
     1
102
RTVSPropertyOp12
 70
     1
102
RTVSPropertyOp13
 70
     1
102
RTVSPropertyOp14
 70
     1
102
RTVSPropertyOp15
 70
     1
102
RTVSPropertyOp16
 70
     1
102
RTVSPropertyOp17
 70
     1
102
RTVSPropertyOp18
 70
     1
102
RTVSPropertyOp19
 70
     1
102
RTVSPropertyOp20
 70
     1
102
RTVSPropertyOp21
 70
     1
102
RTVSPropertyOp22
 70
     1
102
RTVSPropertyOp23
 70
     1
102
RTVSPropertyOp24
 70
     1
102
RTVSPropertyOp25
 70
     1
102
RTVSPropertyOp26
 70
     1
102
RTVSPropertyOp27
 70
     1
102
RTVSPropertyOp28
 70
     1
102
RTVSPropertyOp29
 70
     1
102
RTVSPropertyOp30
 70
     1
102
RTVSPropertyOp31
 70
     1
102
RTVSPropertyOp32
 70
     1
102
RTVSPropertyOp33
 70
     1
102
RTVSPropertyOp34
 70
     1
102
RTVSPropertyOp35
 70
     1
102
RTVSPropertyOp36
 70
     1
102
RTVSPropertyOp37
 70
     1
102
RTVSPropertyOp38
 70
     1
102
RTVSPropertyOp39
 70
     1
102
RTVSPropertyOp40
 70
     1
102
RTVSPropertyOp41
 70
     1
102
RTVSPropertyOp42
 70
     1
102
RTVSPropertyOp43
 70
     1
102
RTVSPropertyOp44
 70
     1
102
RTVSPropertyOp45
 70
     1
102
RTVSPropertyOp46
 70
     1
102
RTVSPropertyOp47
 70
     1
102
RTVSPropertyOp48
 70
     1
102
RTVSPropertyOp49
 70
     1
102
RTVSPropertyOp50
 70
     1
102
RTVSPropertyOp51
 70
     0
102
RTVSPropertyOp52
 70
     0
102
RTVSPropertyOp53
 70
     1
102
RTVSPropertyOp54
 70
     1
102
RTVSPropertyOp55
 70
     1
102
RTVSPropertyOp56
 70
     1
102
RTVSPropertyOp57
 70
     1
102
RTVSPost2010Prop28
280
     0
102
RTVSPost2010PropOp28
 70
     1
102
RTVSPost2010Prop29
280
     1
102
RTVSPost2010PropOp29
 70
     1
102
RTVSPost2010Prop30
280
     1
102
RTVSPost2010PropOp30
 70
     1
102
RTVSPost2010Prop31
280
     0
102
RTVSPost2010PropOp31
 70
     1
102
RTVSPost2010Prop32
280
     0
102
RTVSPost2010PropOp32
 70
     1
102
RTVSPost2010Prop33
280
     0
102
RTVSPost2010PropOp33
 70
     1
102
RTVSPost2010Prop34
280
     0
102
RTVSPost2010PropOp34
 70
     1
102
RTVSPost2010Prop35
280
     0
102
RTVSPost2010PropOp35
 70
     1
102
RTVSPost2010Prop36
280
     0
102
RTVSPost2010PropOp36
 70
     1
102
RTVSPost2010Prop37
 90
       50
102
RTVSPost2010PropOp37
 70
     1
102
RTVSPost2010Prop38
140
0.0
102
RTVSPost2010PropOp38
 70
     1
102
RTVSPost2010Prop39
140
1.0
102
RTVSPost2010PropOp39
 70
     1
102
RTVSPost2010Prop40
 90
        0
102
RTVSPost2010PropOp40
 70
     1
102
RTVSPost2010Prop41ColorIndex
 90
       18
102
RTVSPost2010Prop41ColorRGB
 90
        0
102
RTVSPost2010PropOp41
 70
     1
102
RTVSPost2010Prop42
 90
       50
102
RTVSPost2010PropOp42
 70
     1
102
RTVSPost2010Prop43
 90
        3
102
RTVSPost2010PropOp43
 70
     1
102
RTVSPost2010Prop44ColorIndex
 90
        5
102
RTVSPost2010Prop44ColorRGB
 90
      255
102
RTVSPost2010PropOp44
 70
     1
102
RTVSPost2010Prop45
280
     0
102
RTVSPost2010PropOp45
 70
     1
102
RTVSPost2010Prop46
 90
       50
102
RTVSPost2010PropOp46
 70
     1
102
RTVSPost2010Prop47
 90
       50
102
RTVSPost2010PropOp47
 70
     1
102
RTVSPost2010Prop48
 90
       50
102
RTVSPost2010PropOp48
 70
     1
102
RTVSPost2010Prop49
280
     0
102
RTVSPost2010PropOp49
 70
     1
102
RTVSPost2010Prop50
 90
       50
102
RTVSPost2010PropOp50
 70
     1
102
RTVSPost2010Prop51ColorIndex
 90
      256
102
RTVSPost2010Prop51ColorRGB
 90
-16777216
102
RTVSPost2010PropOp51
 70
     0
102
RTVSPost2010Prop52
140
1.0
102
RTVSPost2010PropOp52
 70
     0
102
RTVSPost2010Prop53
 90
        2
102
RTVSPost2010PropOp53
 70
     1
102
RTVSPost2010Prop54
  1
strokes_ogs.tif
102
RTVSPost2010PropOp54
 70
     1
102
RTVSPost2010Prop55
280
     0
102
RTVSPost2010PropOp55
 70
     1
102
RTVSPost2010Prop56
140
1.0
102
RTVSPost2010PropOp56
 70
     1
102
RTVSPost2010Prop57
140
1.0
102
RTVSPost2010PropOp57
 70
     1
  0
XRECORD
  5
24C
102
{ACAD_REACTORS
330
24B
102
}
330
24B
100
AcDbXrecord
280
     1
102
RTVSPropertyOp0
 70
     1
102
RTVSPropertyOp1
 70
     1
102
RTVSPropertyOp2
 70
     1
102
RTVSPropertyOp3
 70
     1
102
RTVSPropertyOp4
 70
     1
102
RTVSPropertyOp5
 70
     1
102
RTVSPropertyOp6
 70
     1
102
RTVSPropertyOp7
 70
     1
102
RTVSPropertyOp8
 70
     1
102
RTVSPropertyOp9
 70
     1
102
RTVSPropertyOp10
 70
     1
102
RTVSPropertyOp11
 70
     1
102
RTVSPropertyOp12
 70
     1
102
RTVSPropertyOp13
 70
     1
102
RTVSPropertyOp14
 70
     1
102
RTVSPropertyOp15
 70
     1
102
RTVSPropertyOp16
 70
     1
102
RTVSPropertyOp17
 70
     1
102
RTVSPropertyOp18
 70
     1
102
RTVSPropertyOp19
 70
     1
102
RTVSPropertyOp20
 70
     1
102
RTVSPropertyOp21
 70
     1
102
RTVSPropertyOp22
 70
     1
102
RTVSPropertyOp23
 70
     1
102
RTVSPropertyOp24
 70
     1
102
RTVSPropertyOp25
 70
     1
102
RTVSPropertyOp26
 70
     1
102
RTVSPropertyOp27
 70
     1
102
RTVSPropertyOp28
 70
     1
102
RTVSPropertyOp29
 70
     1
102
RTVSPropertyOp30
 70
     1
102
RTVSPropertyOp31
 70
     1
102
RTVSPropertyOp32
 70
     1
102
RTVSPropertyOp33
 70
     1
102
RTVSPropertyOp34
 70
     1
102
RTVSPropertyOp35
 70
     1
102
RTVSPropertyOp36
 70
     1
102
RTVSPropertyOp37
 70
     1
102
RTVSPropertyOp38
 70
     1
102
RTVSPropertyOp39
 70
     1
102
RTVSPropertyOp40
 70
     1
102
RTVSPropertyOp41
 70
     1
102
RTVSPropertyOp42
 70
     1
102
RTVSPropertyOp43
 70
     1
102
RTVSPropertyOp44
 70
     1
102
RTVSPropertyOp45
 70
     1
102
RTVSPropertyOp46
 70
     1
102
RTVSPropertyOp47
 70
     1
102
RTVSPropertyOp48
 70
     1
102
RTVSPropertyOp49
 70
     1
102
RTVSPropertyOp50
 70
     1
102
RTVSPropertyOp51
 70
     0
102
RTVSPropertyOp52
 70
     0
102
RTVSPropertyOp53
 70
     1
102
RTVSPropertyOp54
 70
     1
102
RTVSPropertyOp55
 70
     1
102
RTVSPropertyOp56
 70
     1
102
RTVSPropertyOp57
 70
     1
102
RTVSPost2010Prop28
280
     0
102
RTVSPost2010PropOp28
 70
     1
102
RTVSPost2010Prop29
280
     1
102
RTVSPost2010PropOp29
 70
     1
102
RTVSPost2010Prop30
280
     1
102
RTVSPost2010PropOp30
 70
     1
102
RTVSPost2010Prop31
280
     0
102
RTVSPost2010PropOp31
 70
     1
102
RTVSPost2010Prop32
280
     0
102
RTVSPost2010PropOp32
 70
     1
102
RTVSPost2010Prop33
280
     0
102
RTVSPost2010PropOp33
 70
     1
102
RTVSPost2010Prop34
280
     0
102
RTVSPost2010PropOp34
 70
     1
102
RTVSPost2010Prop35
280
     0
102
RTVSPost2010PropOp35
 70
     1
102
RTVSPost2010Prop36
280
     0
102
RTVSPost2010PropOp36
 70
     1
102
RTVSPost2010Prop37
 90
       50
102
RTVSPost2010PropOp37
 70
     1
102
RTVSPost2010Prop38
140
0.0
102
RTVSPost2010PropOp38
 70
     1
102
RTVSPost2010Prop39
140
1.0
102
RTVSPost2010PropOp39
 70
     1
102
RTVSPost2010Prop40
 90
        0
102
RTVSPost2010PropOp40
 70
     1
102
RTVSPost2010Prop41ColorIndex
 90
       18
102
RTVSPost2010Prop41ColorRGB
 90
        0
102
RTVSPost2010PropOp41
 70
     1
102
RTVSPost2010Prop42
 90
       50
102
RTVSPost2010PropOp42
 70
     1
102
RTVSPost2010Prop43
 90
        3
102
RTVSPost2010PropOp43
 70
     1
102
RTVSPost2010Prop44ColorIndex
 90
        5
102
RTVSPost2010Prop44ColorRGB
 90
      255
102
RTVSPost2010PropOp44
 70
     1
102
RTVSPost2010Prop45
280
     0
102
RTVSPost2010PropOp45
 70
     1
102
RTVSPost2010Prop46
 90
       50
102
RTVSPost2010PropOp46
 70
     1
102
RTVSPost2010Prop47
 90
       50
102
RTVSPost2010PropOp47
 70
     1
102
RTVSPost2010Prop48
 90
       50
102
RTVSPost2010PropOp48
 70
     1
102
RTVSPost2010Prop49
280
     0
102
RTVSPost2010PropOp49
 70
     1
102
RTVSPost2010Prop50
 90
       50
102
RTVSPost2010PropOp50
 70
     1
102
RTVSPost2010Prop51ColorIndex
 90
      256
102
RTVSPost2010Prop51ColorRGB
 90
-16777216
102
RTVSPost2010PropOp51
 70
     0
102
RTVSPost2010Prop52
140
1.0
102
RTVSPost2010PropOp52
 70
     0
102
RTVSPost2010Prop53
 90
        2
102
RTVSPost2010PropOp53
 70
     1
102
RTVSPost2010Prop54
  1
strokes_ogs.tif
102
RTVSPost2010PropOp54
 70
     1
102
RTVSPost2010Prop55
280
     0
102
RTVSPost2010PropOp55
 70
     1
102
RTVSPost2010Prop56
140
1.0
102
RTVSPost2010PropOp56
 70
     1
102
RTVSPost2010Prop57
140
1.0
102
RTVSPost2010PropOp57
 70
     1
  0
XRECORD
  5
24E
102
{ACAD_REACTORS
330
24D
102
}
330
24D
100
AcDbXrecord
280
     1
102
RTVSPropertyOp0
 70
     1
102
RTVSPropertyOp1
 70
     1
102
RTVSPropertyOp2
 70
     1
102
RTVSPropertyOp3
 70
     1
102
RTVSPropertyOp4
 70
     1
102
RTVSPropertyOp5
 70
     1
102
RTVSPropertyOp6
 70
     1
102
RTVSPropertyOp7
 70
     1
102
RTVSPropertyOp8
 70
     1
102
RTVSPropertyOp9
 70
     1
102
RTVSPropertyOp10
 70
     1
102
RTVSPropertyOp11
 70
     1
102
RTVSPropertyOp12
 70
     1
102
RTVSPropertyOp13
 70
     1
102
RTVSPropertyOp14
 70
     1
102
RTVSPropertyOp15
 70
     1
102
RTVSPropertyOp16
 70
     1
102
RTVSPropertyOp17
 70
     1
102
RTVSPropertyOp18
 70
     1
102
RTVSPropertyOp19
 70
     1
102
RTVSPropertyOp20
 70
     1
102
RTVSPropertyOp21
 70
     1
102
RTVSPropertyOp22
 70
     1
102
RTVSPropertyOp23
 70
     1
102
RTVSPropertyOp24
 70
     1
102
RTVSPropertyOp25
 70
     1
102
RTVSPropertyOp26
 70
     1
102
RTVSPropertyOp27
 70
     1
102
RTVSPropertyOp28
 70
     1
102
RTVSPropertyOp29
 70
     1
102
RTVSPropertyOp30
 70
     1
102
RTVSPropertyOp31
 70
     1
102
RTVSPropertyOp32
 70
     1
102
RTVSPropertyOp33
 70
     1
102
RTVSPropertyOp34
 70
     1
102
RTVSPropertyOp35
 70
     1
102
RTVSPropertyOp36
 70
     1
102
RTVSPropertyOp37
 70
     1
102
RTVSPropertyOp38
 70
     1
102
RTVSPropertyOp39
 70
     1
102
RTVSPropertyOp40
 70
     1
102
RTVSPropertyOp41
 70
     1
102
RTVSPropertyOp42
 70
     1
102
RTVSPropertyOp43
 70
     1
102
RTVSPropertyOp44
 70
     1
102
RTVSPropertyOp45
 70
     1
102
RTVSPropertyOp46
 70
     1
102
RTVSPropertyOp47
 70
     1
102
RTVSPropertyOp48
 70
     1
102
RTVSPropertyOp49
 70
     1
102
RTVSPropertyOp50
 70
     1
102
RTVSPropertyOp51
 70
     0
102
RTVSPropertyOp52
 70
     0
102
RTVSPropertyOp53
 70
     1
102
RTVSPropertyOp54
 70
     1
102
RTVSPropertyOp55
 70
     1
102
RTVSPropertyOp56
 70
     1
102
RTVSPropertyOp57
 70
     1
102
RTVSPost2010Prop28
280
     0
102
RTVSPost2010PropOp28
 70
     1
102
RTVSPost2010Prop29
280
     1
102
RTVSPost2010PropOp29
 70
     1
102
RTVSPost2010Prop30
280
     1
102
RTVSPost2010PropOp30
 70
     1
102
RTVSPost2010Prop31
280
     0
102
RTVSPost2010PropOp31
 70
     1
102
RTVSPost2010Prop32
280
     0
102
RTVSPost2010PropOp32
 70
     1
102
RTVSPost2010Prop33
280
     0
102
RTVSPost2010PropOp33
 70
     1
102
RTVSPost2010Prop34
280
     0
102
RTVSPost2010PropOp34
 70
     1
102
RTVSPost2010Prop35
280
     0
102
RTVSPost2010PropOp35
 70
     1
102
RTVSPost2010Prop36
280
     0
102
RTVSPost2010PropOp36
 70
     1
102
RTVSPost2010Prop37
 90
       50
102
RTVSPost2010PropOp37
 70
     1
102
RTVSPost2010Prop38
140
0.0
102
RTVSPost2010PropOp38
 70
     1
102
RTVSPost2010Prop39
140
1.0
102
RTVSPost2010PropOp39
 70
     1
102
RTVSPost2010Prop40
 90
        0
102
RTVSPost2010PropOp40
 70
     1
102
RTVSPost2010Prop41ColorIndex
 90
       18
102
RTVSPost2010Prop41ColorRGB
 90
        0
102
RTVSPost2010PropOp41
 70
     1
102
RTVSPost2010Prop42
 90
       50
102
RTVSPost2010PropOp42
 70
     1
102
RTVSPost2010Prop43
 90
        3
102
RTVSPost2010PropOp43
 70
     1
102
RTVSPost2010Prop44ColorIndex
 90
        5
102
RTVSPost2010Prop44ColorRGB
 90
      255
102
RTVSPost2010PropOp44
 70
     1
102
RTVSPost2010Prop45
280
     0
102
RTVSPost2010PropOp45
 70
     1
102
RTVSPost2010Prop46
 90
       50
102
RTVSPost2010PropOp46
 70
     1
102
RTVSPost2010Prop47
 90
       50
102
RTVSPost2010PropOp47
 70
     1
102
RTVSPost2010Prop48
 90
       50
102
RTVSPost2010PropOp48
 70
     1
102
RTVSPost2010Prop49
280
     0
102
RTVSPost2010PropOp49
 70
     1
102
RTVSPost2010Prop50
 90
       50
102
RTVSPost2010PropOp50
 70
     1
102
RTVSPost2010Prop51ColorIndex
 90
      256
102
RTVSPost2010Prop51ColorRGB
 90
-16777216
102
RTVSPost2010PropOp51
 70
     0
102
RTVSPost2010Prop52
140
1.0
102
RTVSPost2010PropOp52
 70
     0
102
RTVSPost2010Prop53
 90
        2
102
RTVSPost2010PropOp53
 70
     1
102
RTVSPost2010Prop54
  1
strokes_ogs.tif
102
RTVSPost2010PropOp54
 70
     1
102
RTVSPost2010Prop55
280
     0
102
RTVSPost2010PropOp55
 70
     1
102
RTVSPost2010Prop56
140
1.0
102
RTVSPost2010PropOp56
 70
     1
102
RTVSPost2010Prop57
140
1.0
102
RTVSPost2010PropOp57
 70
     1
  0
XRECORD
  5
23E
102
{ACAD_REACTORS
330
23D
102
}
330
23D
100
AcDbXrecord
280
     1
102
RTVSPropertyOp0
 70
     1
102
RTVSPropertyOp1
 70
     1
102
RTVSPropertyOp2
 70
     1
102
RTVSPropertyOp3
 70
     1
102
RTVSPropertyOp4
 70
     1
102
RTVSPropertyOp5
 70
     1
102
RTVSPropertyOp6
 70
     1
102
RTVSPropertyOp7
 70
     1
102
RTVSPropertyOp8
 70
     1
102
RTVSPropertyOp9
 70
     1
102
RTVSPropertyOp10
 70
     1
102
RTVSPropertyOp11
 70
     1
102
RTVSPropertyOp12
 70
     1
102
RTVSPropertyOp13
 70
     1
102
RTVSPropertyOp14
 70
     1
102
RTVSPropertyOp15
 70
     1
102
RTVSPropertyOp16
 70
     1
102
RTVSPropertyOp17
 70
     1
102
RTVSPropertyOp18
 70
     1
102
RTVSPropertyOp19
 70
     1
102
RTVSPropertyOp20
 70
     1
102
RTVSPropertyOp21
 70
     1
102
RTVSPropertyOp22
 70
     1
102
RTVSPropertyOp23
 70
     1
102
RTVSPropertyOp24
 70
     1
102
RTVSPropertyOp25
 70
     1
102
RTVSPropertyOp26
 70
     1
102
RTVSPropertyOp27
 70
     1
102
RTVSPropertyOp28
 70
     1
102
RTVSPropertyOp29
 70
     1
102
RTVSPropertyOp30
 70
     1
102
RTVSPropertyOp31
 70
     1
102
RTVSPropertyOp32
 70
     1
102
RTVSPropertyOp33
 70
     1
102
RTVSPropertyOp34
 70
     1
102
RTVSPropertyOp35
 70
     1
102
RTVSPropertyOp36
 70
     1
102
RTVSPropertyOp37
 70
     1
102
RTVSPropertyOp38
 70
     1
102
RTVSPropertyOp39
 70
     1
102
RTVSPropertyOp40
 70
     1
102
RTVSPropertyOp41
 70
     1
102
RTVSPropertyOp42
 70
     1
102
RTVSPropertyOp43
 70
     1
102
RTVSPropertyOp44
 70
     1
102
RTVSPropertyOp45
 70
     1
102
RTVSPropertyOp46
 70
     1
102
RTVSPropertyOp47
 70
     1
102
RTVSPropertyOp48
 70
     1
102
RTVSPropertyOp49
 70
     1
102
RTVSPropertyOp50
 70
     1
102
RTVSPropertyOp51
 70
     0
102
RTVSPropertyOp52
 70
     0
102
RTVSPropertyOp53
 70
     1
102
RTVSPropertyOp54
 70
     1
102
RTVSPropertyOp55
 70
     1
102
RTVSPropertyOp56
 70
     1
102
RTVSPropertyOp57
 70
     1
102
RTVSPost2010Prop28
280
     0
102
RTVSPost2010PropOp28
 70
     1
102
RTVSPost2010Prop29
280
     1
102
RTVSPost2010PropOp29
 70
     1
102
RTVSPost2010Prop30
280
     1
102
RTVSPost2010PropOp30
 70
     1
102
RTVSPost2010Prop31
280
     0
102
RTVSPost2010PropOp31
 70
     1
102
RTVSPost2010Prop32
280
     0
102
RTVSPost2010PropOp32
 70
     1
102
RTVSPost2010Prop33
280
     0
102
RTVSPost2010PropOp33
 70
     1
102
RTVSPost2010Prop34
280
     0
102
RTVSPost2010PropOp34
 70
     1
102
RTVSPost2010Prop35
280
     0
102
RTVSPost2010PropOp35
 70
     1
102
RTVSPost2010Prop36
280
     0
102
RTVSPost2010PropOp36
 70
     1
102
RTVSPost2010Prop37
 90
       50
102
RTVSPost2010PropOp37
 70
     1
102
RTVSPost2010Prop38
140
0.0
102
RTVSPost2010PropOp38
 70
     1
102
RTVSPost2010Prop39
140
1.0
102
RTVSPost2010PropOp39
 70
     1
102
RTVSPost2010Prop40
 90
        0
102
RTVSPost2010PropOp40
 70
     1
102
RTVSPost2010Prop41ColorIndex
 90
       18
102
RTVSPost2010Prop41ColorRGB
 90
        0
102
RTVSPost2010PropOp41
 70
     1
102
RTVSPost2010Prop42
 90
       50
102
RTVSPost2010PropOp42
 70
     1
102
RTVSPost2010Prop43
 90
        3
102
RTVSPost2010PropOp43
 70
     1
102
RTVSPost2010Prop44ColorIndex
 90
        5
102
RTVSPost2010Prop44ColorRGB
 90
      255
102
RTVSPost2010PropOp44
 70
     1
102
RTVSPost2010Prop45
280
     0
102
RTVSPost2010PropOp45
 70
     1
102
RTVSPost2010Prop46
 90
       50
102
RTVSPost2010PropOp46
 70
     1
102
RTVSPost2010Prop47
 90
       50
102
RTVSPost2010PropOp47
 70
     1
102
RTVSPost2010Prop48
 90
       50
102
RTVSPost2010PropOp48
 70
     1
102
RTVSPost2010Prop49
280
     0
102
RTVSPost2010PropOp49
 70
     1
102
RTVSPost2010Prop50
 90
       50
102
RTVSPost2010PropOp50
 70
     1
102
RTVSPost2010Prop51ColorIndex
 90
      256
102
RTVSPost2010Prop51ColorRGB
 90
-16777216
102
RTVSPost2010PropOp51
 70
     0
102
RTVSPost2010Prop52
140
1.0
102
RTVSPost2010PropOp52
 70
     0
102
RTVSPost2010Prop53
 90
        2
102
RTVSPost2010PropOp53
 70
     1
102
RTVSPost2010Prop54
  1
strokes_ogs.tif
102
RTVSPost2010PropOp54
 70
     1
102
RTVSPost2010Prop55
280
     0
102
RTVSPost2010PropOp55
 70
     1
102
RTVSPost2010Prop56
140
1.0
102
RTVSPost2010PropOp56
 70
     1
102
RTVSPost2010Prop57
140
1.0
102
RTVSPost2010PropOp57
 70
     1
  0
XRECORD
  5
230
102
{ACAD_REACTORS
330
22F
102
}
330
22F
100
AcDbXrecord
280
     1
102
RTVSPropertyOp0
 70
     1
102
RTVSPropertyOp1
 70
     1
102
RTVSPropertyOp2
 70
     1
102
RTVSPropertyOp3
 70
     1
102
RTVSPropertyOp4
 70
     1
102
RTVSPropertyOp5
 70
     1
102
RTVSPropertyOp6
 70
     1
102
RTVSPropertyOp7
 70
     1
102
RTVSPropertyOp8
 70
     1
102
RTVSPropertyOp9
 70
     1
102
RTVSPropertyOp10
 70
     1
102
RTVSPropertyOp11
 70
     1
102
RTVSPropertyOp12
 70
     1
102
RTVSPropertyOp13
 70
     1
102
RTVSPropertyOp14
 70
     1
102
RTVSPropertyOp15
 70
     1
102
RTVSPropertyOp16
 70
     1
102
RTVSPropertyOp17
 70
     1
102
RTVSPropertyOp18
 70
     1
102
RTVSPropertyOp19
 70
     1
102
RTVSPropertyOp20
 70
     1
102
RTVSPropertyOp21
 70
     1
102
RTVSPropertyOp22
 70
     1
102
RTVSPropertyOp23
 70
     1
102
RTVSPropertyOp24
 70
     1
102
RTVSPropertyOp25
 70
     1
102
RTVSPropertyOp26
 70
     1
102
RTVSPropertyOp27
 70
     1
102
RTVSPropertyOp28
 70
     1
102
RTVSPropertyOp29
 70
     1
102
RTVSPropertyOp30
 70
     1
102
RTVSPropertyOp31
 70
     1
102
RTVSPropertyOp32
 70
     1
102
RTVSPropertyOp33
 70
     1
102
RTVSPropertyOp34
 70
     1
102
RTVSPropertyOp35
 70
     1
102
RTVSPropertyOp36
 70
     1
102
RTVSPropertyOp37
 70
     1
102
RTVSPropertyOp38
 70
     1
102
RTVSPropertyOp39
 70
     1
102
RTVSPropertyOp40
 70
     1
102
RTVSPropertyOp41
 70
     1
102
RTVSPropertyOp42
 70
     1
102
RTVSPropertyOp43
 70
     1
102
RTVSPropertyOp44
 70
     1
102
RTVSPropertyOp45
 70
     1
102
RTVSPropertyOp46
 70
     1
102
RTVSPropertyOp47
 70
     1
102
RTVSPropertyOp48
 70
     1
102
RTVSPropertyOp49
 70
     1
102
RTVSPropertyOp50
 70
     1
102
RTVSPropertyOp51
 70
     0
102
RTVSPropertyOp52
 70
     0
102
RTVSPropertyOp53
 70
     1
102
RTVSPropertyOp54
 70
     1
102
RTVSPropertyOp55
 70
     1
102
RTVSPropertyOp56
 70
     1
102
RTVSPropertyOp57
 70
     1
102
RTVSPost2010Prop28
280
     0
102
RTVSPost2010PropOp28
 70
     1
102
RTVSPost2010Prop29
280
     1
102
RTVSPost2010PropOp29
 70
     1
102
RTVSPost2010Prop30
280
     1
102
RTVSPost2010PropOp30
 70
     1
102
RTVSPost2010Prop31
280
     0
102
RTVSPost2010PropOp31
 70
     1
102
RTVSPost2010Prop32
280
     0
102
RTVSPost2010PropOp32
 70
     1
102
RTVSPost2010Prop33
280
     0
102
RTVSPost2010PropOp33
 70
     1
102
RTVSPost2010Prop34
280
     0
102
RTVSPost2010PropOp34
 70
     1
102
RTVSPost2010Prop35
280
     0
102
RTVSPost2010PropOp35
 70
     1
102
RTVSPost2010Prop36
280
     0
102
RTVSPost2010PropOp36
 70
     1
102
RTVSPost2010Prop37
 90
       50
102
RTVSPost2010PropOp37
 70
     1
102
RTVSPost2010Prop38
140
0.0
102
RTVSPost2010PropOp38
 70
     1
102
RTVSPost2010Prop39
140
1.0
102
RTVSPost2010PropOp39
 70
     1
102
RTVSPost2010Prop40
 90
        0
102
RTVSPost2010PropOp40
 70
     1
102
RTVSPost2010Prop41ColorIndex
 90
       18
102
RTVSPost2010Prop41ColorRGB
 90
        0
102
RTVSPost2010PropOp41
 70
     1
102
RTVSPost2010Prop42
 90
       50
102
RTVSPost2010PropOp42
 70
     1
102
RTVSPost2010Prop43
 90
        3
102
RTVSPost2010PropOp43
 70
     1
102
RTVSPost2010Prop44ColorIndex
 90
        5
102
RTVSPost2010Prop44ColorRGB
 90
      255
102
RTVSPost2010PropOp44
 70
     1
102
RTVSPost2010Prop45
280
     0
102
RTVSPost2010PropOp45
 70
     1
102
RTVSPost2010Prop46
 90
       50
102
RTVSPost2010PropOp46
 70
     1
102
RTVSPost2010Prop47
 90
       50
102
RTVSPost2010PropOp47
 70
     1
102
RTVSPost2010Prop48
 90
       50
102
RTVSPost2010PropOp48
 70
     1
102
RTVSPost2010Prop49
280
     0
102
RTVSPost2010PropOp49
 70
     1
102
RTVSPost2010Prop50
 90
       50
102
RTVSPost2010PropOp50
 70
     1
102
RTVSPost2010Prop51ColorIndex
 90
      256
102
RTVSPost2010Prop51ColorRGB
 90
-16777216
102
RTVSPost2010PropOp51
 70
     0
102
RTVSPost2010Prop52
140
1.0
102
RTVSPost2010PropOp52
 70
     0
102
RTVSPost2010Prop53
 90
        2
102
RTVSPost2010PropOp53
 70
     1
102
RTVSPost2010Prop54
  1
strokes_ogs.tif
102
RTVSPost2010PropOp54
 70
     1
102
RTVSPost2010Prop55
280
     0
102
RTVSPost2010PropOp55
 70
     1
102
RTVSPost2010Prop56
140
1.0
102
RTVSPost2010PropOp56
 70
     1
102
RTVSPost2010Prop57
140
1.0
102
RTVSPost2010PropOp57
 70
     1
  0
XRECORD
  5
250
102
{ACAD_REACTORS
330
24F
102
}
330
24F
100
AcDbXrecord
280
     1
102
RTVSPropertyOp0
 70
     1
102
RTVSPropertyOp1
 70
     1
102
RTVSPropertyOp2
 70
     1
102
RTVSPropertyOp3
 70
     1
102
RTVSPropertyOp4
 70
     1
102
RTVSPropertyOp5
 70
     1
102
RTVSPropertyOp6
 70
     1
102
RTVSPropertyOp7
 70
     1
102
RTVSPropertyOp8
 70
     1
102
RTVSPropertyOp9
 70
     1
102
RTVSPropertyOp10
 70
     1
102
RTVSPropertyOp11
 70
     1
102
RTVSPropertyOp12
 70
     1
102
RTVSPropertyOp13
 70
     1
102
RTVSPropertyOp14
 70
     1
102
RTVSPropertyOp15
 70
     1
102
RTVSPropertyOp16
 70
     1
102
RTVSPropertyOp17
 70
     1
102
RTVSPropertyOp18
 70
     1
102
RTVSPropertyOp19
 70
     1
102
RTVSPropertyOp20
 70
     1
102
RTVSPropertyOp21
 70
     1
102
RTVSPropertyOp22
 70
     1
102
RTVSPropertyOp23
 70
     1
102
RTVSPropertyOp24
 70
     1
102
RTVSPropertyOp25
 70
     1
102
RTVSPropertyOp26
 70
     1
102
RTVSPropertyOp27
 70
     1
102
RTVSPropertyOp28
 70
     1
102
RTVSPropertyOp29
 70
     1
102
RTVSPropertyOp30
 70
     1
102
RTVSPropertyOp31
 70
     1
102
RTVSPropertyOp32
 70
     1
102
RTVSPropertyOp33
 70
     1
102
RTVSPropertyOp34
 70
     1
102
RTVSPropertyOp35
 70
     1
102
RTVSPropertyOp36
 70
     1
102
RTVSPropertyOp37
 70
     1
102
RTVSPropertyOp38
 70
     1
102
RTVSPropertyOp39
 70
     1
102
RTVSPropertyOp40
 70
     1
102
RTVSPropertyOp41
 70
     1
102
RTVSPropertyOp42
 70
     1
102
RTVSPropertyOp43
 70
     1
102
RTVSPropertyOp44
 70
     1
102
RTVSPropertyOp45
 70
     1
102
RTVSPropertyOp46
 70
     1
102
RTVSPropertyOp47
 70
     1
102
RTVSPropertyOp48
 70
     1
102
RTVSPropertyOp49
 70
     1
102
RTVSPropertyOp50
 70
     1
102
RTVSPropertyOp51
 70
     0
102
RTVSPropertyOp52
 70
     0
102
RTVSPropertyOp53
 70
     1
102
RTVSPropertyOp54
 70
     1
102
RTVSPropertyOp55
 70
     1
102
RTVSPropertyOp56
 70
     1
102
RTVSPropertyOp57
 70
     1
102
RTVSPost2010Prop28
280
     0
102
RTVSPost2010PropOp28
 70
     1
102
RTVSPost2010Prop29
280
     1
102
RTVSPost2010PropOp29
 70
     1
102
RTVSPost2010Prop30
280
     1
102
RTVSPost2010PropOp30
 70
     1
102
RTVSPost2010Prop31
280
     0
102
RTVSPost2010PropOp31
 70
     1
102
RTVSPost2010Prop32
280
     0
102
RTVSPost2010PropOp32
 70
     1
102
RTVSPost2010Prop33
280
     0
102
RTVSPost2010PropOp33
 70
     1
102
RTVSPost2010Prop34
280
     0
102
RTVSPost2010PropOp34
 70
     1
102
RTVSPost2010Prop35
280
     0
102
RTVSPost2010PropOp35
 70
     1
102
RTVSPost2010Prop36
280
     0
102
RTVSPost2010PropOp36
 70
     1
102
RTVSPost2010Prop37
 90
       50
102
RTVSPost2010PropOp37
 70
     1
102
RTVSPost2010Prop38
140
0.0
102
RTVSPost2010PropOp38
 70
     1
102
RTVSPost2010Prop39
140
1.0
102
RTVSPost2010PropOp39
 70
     1
102
RTVSPost2010Prop40
 90
        0
102
RTVSPost2010PropOp40
 70
     1
102
RTVSPost2010Prop41ColorIndex
 90
       18
102
RTVSPost2010Prop41ColorRGB
 90
        0
102
RTVSPost2010PropOp41
 70
     1
102
RTVSPost2010Prop42
 90
       50
102
RTVSPost2010PropOp42
 70
     1
102
RTVSPost2010Prop43
 90
        3
102
RTVSPost2010PropOp43
 70
     1
102
RTVSPost2010Prop44ColorIndex
 90
        5
102
RTVSPost2010Prop44ColorRGB
 90
      255
102
RTVSPost2010PropOp44
 70
     1
102
RTVSPost2010Prop45
280
     0
102
RTVSPost2010PropOp45
 70
     1
102
RTVSPost2010Prop46
 90
       50
102
RTVSPost2010PropOp46
 70
     1
102
RTVSPost2010Prop47
 90
       50
102
RTVSPost2010PropOp47
 70
     1
102
RTVSPost2010Prop48
 90
       50
102
RTVSPost2010PropOp48
 70
     1
102
RTVSPost2010Prop49
280
     0
102
RTVSPost2010PropOp49
 70
     1
102
RTVSPost2010Prop50
 90
       50
102
RTVSPost2010PropOp50
 70
     1
102
RTVSPost2010Prop51ColorIndex
 90
      256
102
RTVSPost2010Prop51ColorRGB
 90
-16777216
102
RTVSPost2010PropOp51
 70
     0
102
RTVSPost2010Prop52
140
1.0
102
RTVSPost2010PropOp52
 70
     0
102
RTVSPost2010Prop53
 90
        2
102
RTVSPost2010PropOp53
 70
     1
102
RTVSPost2010Prop54
  1
strokes_ogs.tif
102
RTVSPost2010PropOp54
 70
     1
102
RTVSPost2010Prop55
280
     0
102
RTVSPost2010PropOp55
 70
     1
102
RTVSPost2010Prop56
140
1.0
102
RTVSPost2010PropOp56
 70
     1
102
RTVSPost2010Prop57
140
1.0
102
RTVSPost2010PropOp57
 70
     1
  0
ENDSEC
  0
EOF
