  0
SECTION
  2
HEADER
  9
$ACADVER
  1
AC1006
  9
$DWGCODEPAGE
  3
ansi_932
  9
$INSBASE
 10
0.0
 20
0.0
 30
0.0
  9
$EXTMIN
 10
1074.0
 20
36.7840909090909
  9
$EXTMAX
 10
1314.0
 20
237.0
  9
$LIMMIN
 10
0.0
 20
0.0
  9
$LIMMAX
 10
12.0
 20
9.0
  9
$ORTHOMODE
 70
     0
  9
$REGENMODE
 70
     1
  9
$FILLMODE
 70
     1
  9
$QTEXTMODE
 70
     0
  9
$MIRRTEXT
 70
     1
  9
$DRAGMODE
 70
     2
  9
$LTSCALE
 40
1.0
  9
$OSMODE
 70
    37
  9
$ATTMODE
 70
     1
  9
$TEXTSIZE
 40
0.2
  9
$TRACEWID
 40
0.05
  9
$TEXTSTYLE
  7
STANDARD
  9
$CLAYER
  8
0
  9
$CELTYPE
  6
BYLAYER
  9
$CECOLOR
 62
   256
  9
$DIMSCALE
 40
1.0
  9
$DIMASZ
 40
3.0
  9
$DIMEXO
 40
0.0625
  9
$DIMDLI
 40
0.38
  9
$DIMRND
 40
0.0
  9
$DIMDLE
 40
0.0
  9
$DIMEXE
 40
1.5
  9
$DIMTP
 40
0.0
  9
$DIMTM
 40
0.0
  9
$DIMTXT
 40
3.0
  9
$DIMCEN
 40
0.09
  9
$DIMTSZ
 40
0.0
  9
$DIMTOL
 70
     0
  9
$DIMLIM
 70
     0
  9
$DIMTIH
 70
     1
  9
$DIMTOH
 70
     1
  9
$DIMSE1
 70
     0
  9
$DIMSE2
 70
     0
  9
$DIMTAD
 70
     1
  9
$DIMZIN
 70
     0
  9
$DIMBLK
  1

  9
$DIMASO
 70
     1
  9
$DIMSHO
 70
     1
  9
$DIMPOST
  1

  9
$DIMAPOST
  1

  9
$DIMALT
 70
     0
  9
$DIMALTD
 70
     2
  9
$DIMALTF
 40
25.4
  9
$DIMLFAC
 40
1.0
  9
$DIMTOFL
 70
     0
  9
$DIMTVP
 40
0.0
  9
$DIMTIX
 70
     0
  9
$DIMSOXD
 70
     0
  9
$DIMSAH
 70
     0
  9
$DIMBLK1
  1

  9
$DIMBLK2
  1

  9
$LUNITS
 70
     2
  9
$LUPREC
 70
     4
  9
$SKETCHINC
 40
0.1
  9
$FILLETRAD
 40
0.5
  9
$AUNITS
 70
     0
  9
$AUPREC
 70
     0
  9
$MENU
  1
.
  9
$ELEVATION
 40
0.0
  9
$THICKNESS
 40
0.0
  9
$LIMCHECK
 70
     0
  9
$CHAMFERA
 40
0.0
  9
$CHAMFERB
 40
0.0
  9
$SKPOLY
 70
     0
  9
$TDCREATE
 40
2460234.67680294
  9
$TDUPDATE
 40
2460234.676803264
  9
$TDINDWG
 40
0.0000000116
  9
$TDUSRTIMER
 40
0.0000000116
  9
$USRTIMER
 70
     1
  9
$ANGBASE
 50
0.0
  9
$ANGDIR
 70
     0
  9
$PDMODE
 70
     0
  9
$PDSIZE
 40
0.0
  9
$PLINEWID
 40
0.0
  9
$COORDS
 70
     1
  9
$SPLFRAME
 70
     0
  9
$SPLINETYPE
 70
     6
  9
$SPLINESEGS
 70
     8
  9
$ATTDIA
 70
     0
  9
$ATTREQ
 70
     1
  9
$HANDLING
 70
     1
  9
$HANDSEED
  5
298
  9
$SURFTAB1
 70
     6
  9
$SURFTAB2
 70
     6
  9
$SURFTYPE
 70
     6
  9
$SURFU
 70
     6
  9
$SURFV
 70
     6
  9
$UCSNAME
  2

  9
$UCSORG
 10
0.0
 20
0.0
 30
0.0
  9
$UCSXDIR
 10
1.0
 20
0.0
 30
0.0
  9
$UCSYDIR
 10
0.0
 20
1.0
 30
0.0
  9
$USERI1
 70
     0
  9
$USERI2
 70
     0
  9
$USERI3
 70
     0
  9
$USERI4
 70
     0
  9
$USERI5
 70
     0
  9
$USERR1
 40
0.0
  9
$USERR2
 40
0.0
  9
$USERR3
 40
0.0
  9
$USERR4
 40
0.0
  9
$USERR5
 40
0.0
  9
$WORLDVIEW
 70
     1
  0
ENDSEC
  0
SECTION
  2
TABLES
  0
TABLE
  2
VPORT
 70
     1
  0
VPORT
  2
*ACTIVE
 70
     0
 10
0.0
 20
0.0
 11
1.0
 21
1.0
 12
1194.0
 22
136.8920454545454
 13
0.0
 23
0.0
 14
0.5
 24
0.5
 15
0.5
 25
0.5
 16
0.0
 26
0.0
 36
1.0
 17
0.0
 27
0.0
 37
0.0
 40
200.2159090909091
 41
1.6
 42
50.0
 43
0.0
 44
0.0
 50
0.0
 51
0.0
 71
     0
 72
   100
 73
     1
 74
     3
 75
     0
 76
     0
 77
     0
 78
     0
  0
ENDTAB
  0
TABLE
  2
LTYPE
 70
     2
  0
LTYPE
  2
CONTINUOUS
 70
     0
  3
Solid line
 72
    65
 73
     0
 40
0.0
  0
LTYPE
  2
CENTER
 70
     0
  3

 72
    65
 73
     0
 40
0.0
  0
ENDTAB
  0
TABLE
  2
LAYER
 70
     2
  0
LAYER
  2
0
 70
     0
 62
     7
  6
CONTINUOUS
  0
LAYER
  2
1
 70
     0
 62
     7
  6
CONTINUOUS
  0
ENDTAB
  0
TABLE
  2
STYLE
 70
     2
  0
STYLE
  2
STANDARD
 70
     0
 40
0.0
 41
1.0
 50
0.0
 71
     0
 42
0.2
  3
txt
  4

  0
STYLE
  2
ＭＳ_ゴシック
 70
     0
 40
0.0
 41
1.0
 50
0.0
 71
     0
 42
0.2
  3
ＭＳ ゴシック.shx
  4

  0
ENDTAB
  0
TABLE
  2
VIEW
 70
     0
  0
ENDTAB
  0
TABLE
  2
UCS
 70
     0
  0
ENDTAB
  0
ENDSEC
  0
SECTION
  2
BLOCKS
  0
BLOCK
  8
0
  2
D_FRAME_VIEW_2644
 70
     0
 10
0.0
 20
0.0
 30
0.0
  0
LINE
  5
76
  8
1
  6
CONTINUOUS
 62
     7
 10
1312.0
 20
208.0
 30
0.0
 11
1310.0
 21
208.0
 31
0.0
  0
LINE
  5
77
  8
1
  6
CONTINUOUS
 62
     7
 10
1310.0
 20
85.99999999999999
 30
0.0
 11
1312.0
 21
85.99999999999999
 31
0.0
  0
LINE
  5
78
  8
1
  6
CONTINUOUS
 62
     7
 10
1312.0
 20
208.0
 30
0.0
 11
1312.0
 21
86.0
 31
0.0
  0
LINE
  5
79
  8
1
  6
CONTINUOUS
 62
     7
 10
1310.0
 20
208.0
 30
0.0
 11
1310.0
 21
86.0
 31
0.0
  0
LINE
  5
7A
  8
1
  6
CONTINUOUS
 62
     7
 10
1310.0
 20
210.0
 30
0.0
 11
1312.0
 21
210.0
 31
0.0
  0
LINE
  5
7B
  8
1
  6
CONTINUOUS
 62
     7
 10
1312.0
 20
210.0
 30
0.0
 11
1312.0
 21
208.0
 31
0.0
  0
LINE
  5
7C
  8
1
  6
CONTINUOUS
 62
     7
 10
1310.0
 20
208.0
 30
0.0
 11
1310.0
 21
210.0
 31
0.0
  0
LINE
  5
7D
  8
1
  6
CONTINUOUS
 62
     7
 10
1312.0
 20
83.99999999999999
 30
0.0
 11
1310.0
 21
83.99999999999999
 31
0.0
  0
LINE
  5
7E
  8
1
  6
CONTINUOUS
 62
     7
 10
1312.0
 20
85.99999999999999
 30
0.0
 11
1312.0
 21
83.99999999999999
 31
0.0
  0
LINE
  5
7F
  8
1
  6
CONTINUOUS
 62
     7
 10
1310.0
 20
83.99999999999999
 30
0.0
 11
1310.0
 21
85.99999999999999
 31
0.0
  0
LINE
  5
80
  8
1
  6
CONTINUOUS
 62
     7
 10
1312.0
 20
58.99999999999999
 30
0.0
 11
1310.0
 21
58.99999999999999
 31
0.0
  0
LINE
  5
81
  8
1
  6
CONTINUOUS
 62
     7
 10
1312.0
 20
83.99999999999999
 30
0.0
 11
1312.0
 21
58.99999999999999
 31
0.0
  0
LINE
  5
82
  8
1
  6
CONTINUOUS
 62
     7
 10
1310.0
 20
83.99999999999999
 30
0.0
 11
1310.0
 21
58.99999999999999
 31
0.0
  0
LINE
  5
83
  8
1
  6
CONTINUOUS
 62
     7
 10
1312.0
 20
235.0
 30
0.0
 11
1310.0
 21
235.0
 31
0.0
  0
LINE
  5
84
  8
1
  6
CONTINUOUS
 62
     7
 10
1312.0
 20
235.0
 30
0.0
 11
1312.0
 21
210.0
 31
0.0
  0
LINE
  5
85
  8
1
  6
CONTINUOUS
 62
     7
 10
1310.0
 20
235.0
 30
0.0
 11
1310.0
 21
210.0
 31
0.0
  0
ENDBLK
  8
0
  0
BLOCK
  8
0
  2
D_FRAME_VIEW_2022
 70
     0
 10
0.0
 20
0.0
 30
0.0
  0
ARC
  5
8A
  8
1
  6
CONTINUOUS
 62
     7
 10
1167.0
 20
217.0
 30
0.0
 40
15.005
 50
277.6596871038931
 51
306.8555798155976
  0
LINE
  5
8B
  8
1
  6
CONTINUOUS
 62
     7
 10
1176.0
 20
204.9937505856325
 30
0.0
 11
1176.0
 21
205.0062505862428
 31
0.0
  0
ARC
  5
8C
  8
1
  6
CONTINUOUS
 62
     7
 10
1167.0
 20
217.0
 30
0.0
 40
14.995
 50
277.6648259460882
 51
306.8842277111298
  0
LINE
  5
8D
  8
1
  6
CONTINUOUS
 62
     7
 10
1169.0
 20
202.1389763138605
 30
0.0
 11
1169.0
 21
202.1288862219402
 31
0.0
  0
ARC
  5
8E
  8
1
  6
CONTINUOUS
 62
     7
 10
1178.0
 20
217.0
 30
0.0
 40
11.505
 50
280.01101268312
 51
304.9889873168799
  0
LINE
  5
8F
  8
1
  6
CONTINUOUS
 62
     7
 10
1184.59718534793
 20
207.5743875273242
 30
0.0
 11
1184.590004856686
 21
207.581568018568
 31
0.0
  0
ARC
  5
90
  8
1
  6
CONTINUOUS
 62
     7
 10
1178.0
 20
217.0
 30
0.0
 40
11.495
 50
280.0198115386288
 51
304.9801884613712
  0
LINE
  5
91
  8
1
  6
CONTINUOUS
 62
     7
 10
1180.0
 20
205.6803257555705
 30
0.0
 11
1180.0
 21
205.6701710074688
 31
0.0
  0
ARC
  5
92
  8
1
  6
CONTINUOUS
 62
     7
 10
1178.0
 20
217.0
 30
0.0
 40
11.505
 50
325.0110126831199
 51
349.9889873168799
  0
LINE
  5
93
  8
1
  6
CONTINUOUS
 62
     7
 10
1189.329828992531
 20
215.0
 30
0.0
 11
1189.319674244429
 21
215.0
 31
0.0
  0
ARC
  5
94
  8
1
  6
CONTINUOUS
 62
     7
 10
1178.0
 20
217.0
 30
0.0
 40
11.495
 50
325.0198115386288
 51
349.9801884613711
  0
LINE
  5
95
  8
1
  6
CONTINUOUS
 62
     7
 10
1187.418431981432
 20
210.4099951433143
 30
0.0
 11
1187.425612472676
 21
210.4028146520703
 31
0.0
  0
ARC
  5
96
  8
1
  6
CONTINUOUS
 62
     7
 10
1178.0
 20
217.0
 30
0.0
 40
11.505
 50
10.01101268312011
 51
34.98898731687979
  0
LINE
  5
97
  8
1
  6
CONTINUOUS
 62
     7
 10
1187.425612472676
 20
223.5971853479297
 30
0.0
 11
1187.418431981432
 21
223.5900048566857
 31
0.0
  0
ARC
  5
98
  8
1
  6
CONTINUOUS
 62
     7
 10
1178.0
 20
217.0
 30
0.0
 40
11.495
 50
10.01981153862891
 51
34.98018846137104
  0
LINE
  5
99
  8
1
  6
CONTINUOUS
 62
     7
 10
1189.31967424443
 20
219.0
 30
0.0
 11
1189.329828992531
 21
219.0
 31
0.0
  0
ARC
  5
9A
  8
1
  6
CONTINUOUS
 62
     7
 10
1178.0
 20
217.0
 30
0.0
 40
11.505
 50
55.01101268312008
 51
79.98898731688001
  0
LINE
  5
9B
  8
1
  6
CONTINUOUS
 62
     7
 10
1180.0
 20
228.3298289925312
 30
0.0
 11
1180.0
 21
228.3196742444295
 31
0.0
  0
ARC
  5
9C
  8
1
  6
CONTINUOUS
 62
     7
 10
1178.0
 20
217.0
 30
0.0
 40
11.49499999999999
 50
55.01981153862891
 51
79.98018846137097
  0
LINE
  5
9D
  8
1
  6
CONTINUOUS
 62
     7
 10
1184.590004856686
 20
226.4184319814318
 30
0.0
 11
1184.59718534793
 21
226.4256124726758
 31
0.0
  0
ARC
  5
9E
  8
1
  6
CONTINUOUS
 62
     7
 10
1167.0
 20
217.0
 30
0.0
 40
15.005
 50
53.14442018440237
 51
82.34031289610687
  0
LINE
  5
9F
  8
1
  6
CONTINUOUS
 62
     7
 10
1169.0
 20
231.8711137780598
 30
0.0
 11
1169.0
 21
231.8610236861395
 31
0.0
  0
ARC
  5
A0
  8
1
  6
CONTINUOUS
 62
     7
 10
1167.0
 20
217.0
 30
0.0
 40
14.995
 50
53.11577228887029
 51
82.33517405391177
  0
LINE
  5
A1
  8
1
  6
CONTINUOUS
 62
     7
 10
1176.0
 20
228.9937494137572
 30
0.0
 11
1176.0
 21
229.0062494143675
 31
0.0
  0
ARC
  5
A2
  8
1
  6
CONTINUOUS
 62
     7
 10
1179.75
 20
77.25
 30
0.0
 40
2.004999999999999
 50
14.44062321298978
 51
90.00000000000038
  0
LINE
  5
A3
  8
1
  6
CONTINUOUS
 62
     7
 10
1179.75
 20
79.25500000000002
 30
0.0
 11
1178.75
 21
79.255
 31
0.0
  0
LINE
  5
A4
  8
1
  6
CONTINUOUS
 62
     7
 10
1178.75
 20
79.255
 30
0.0
 11
1178.75
 21
79.245
 31
0.0
  0
LINE
  5
A5
  8
1
  6
CONTINUOUS
 62
     7
 10
1178.75
 20
79.245
 30
0.0
 11
1179.75
 21
79.24499999999999
 31
0.0
  0
ARC
  5
A6
  8
1
  6
CONTINUOUS
 62
     7
 10
1179.75
 20
77.25
 30
0.0
 40
1.994999999999997
 50
14.51459224556834
 51
90.0
  0
LINE
  5
A7
  8
1
  6
CONTINUOUS
 62
     7
 10
1181.681327263827
 20
77.75000000000001
 30
0.0
 11
1181.691655221711
 21
77.75000000000001
 31
0.0
  0
ARC
  5
A8
  8
1
  6
CONTINUOUS
 62
     7
 10
1179.75
 20
216.75
 30
0.0
 40
1.995
 50
270.0
 51
345.4854077544317
  0
LINE
  5
A9
  8
1
  6
CONTINUOUS
 62
     7
 10
1179.75
 20
214.755
 30
0.0
 11
1178.75
 21
214.755
 31
0.0
  0
LINE
  5
AA
  8
1
  6
CONTINUOUS
 62
     7
 10
1178.75
 20
214.755
 30
0.0
 11
1178.75
 21
214.7449999999999
 31
0.0
  0
LINE
  5
AB
  8
1
  6
CONTINUOUS
 62
     7
 10
1178.75
 20
214.7449999999999
 30
0.0
 11
1179.75
 21
214.7449999999999
 31
0.0
  0
ARC
  5
AC
  8
1
  6
CONTINUOUS
 62
     7
 10
1179.75
 20
216.75
 30
0.0
 40
2.004999999999993
 50
269.9999999999994
 51
345.5593767870103
  0
LINE
  5
AD
  8
1
  6
CONTINUOUS
 62
     7
 10
1181.691655221711
 20
216.25
 30
0.0
 11
1181.681327263827
 21
216.25
 31
0.0
  0
LINE
  5
AE
  8
1
  6
CONTINUOUS
 62
     7
 10
1177.25
 20
79.25500000000002
 30
0.0
 11
1176.25
 21
79.25500000000001
 31
0.0
  0
ARC
  5
AF
  8
1
  6
CONTINUOUS
 62
     7
 10
1176.25
 20
77.25
 30
0.0
 40
2.005000000000007
 50
89.99999999999994
 51
165.559376787011
  0
LINE
  5
B0
  8
1
  6
CONTINUOUS
 62
     7
 10
1174.308344778289
 20
77.74999999999999
 30
0.0
 11
1174.318672736173
 21
77.75
 31
0.0
  0
ARC
  5
B1
  8
1
  6
CONTINUOUS
 62
     7
 10
1176.25
 20
77.25
 30
0.0
 40
1.994999999999997
 50
90.0
 51
165.4854077544321
  0
LINE
  5
B2
  8
1
  6
CONTINUOUS
 62
     7
 10
1176.25
 20
79.245
 30
0.0
 11
1177.25
 21
79.24499999999999
 31
0.0
  0
LINE
  5
B3
  8
1
  6
CONTINUOUS
 62
     7
 10
1177.25
 20
79.24499999999999
 30
0.0
 11
1177.25
 21
79.25500000000002
 31
0.0
  0
LINE
  5
B4
  8
1
  6
CONTINUOUS
 62
     7
 10
1177.25
 20
214.755
 30
0.0
 11
1176.25
 21
214.755
 31
0.0
  0
ARC
  5
B5
  8
1
  6
CONTINUOUS
 62
     7
 10
1176.25
 20
216.75
 30
0.0
 40
1.994999999999997
 50
194.5145922455679
 51
270.0
  0
LINE
  5
B6
  8
1
  6
CONTINUOUS
 62
     7
 10
1174.318672736173
 20
216.25
 30
0.0
 11
1174.308344778289
 21
216.25
 31
0.0
  0
ARC
  5
B7
  8
1
  6
CONTINUOUS
 62
     7
 10
1176.25
 20
216.75
 30
0.0
 40
2.005000000000006
 50
194.4406232129894
 51
270.0000000000001
  0
LINE
  5
B8
  8
1
  6
CONTINUOUS
 62
     7
 10
1176.25
 20
214.7449999999999
 30
0.0
 11
1177.25
 21
214.7449999999999
 31
0.0
  0
LINE
  5
B9
  8
1
  6
CONTINUOUS
 62
     7
 10
1177.25
 20
214.7449999999999
 30
0.0
 11
1177.25
 21
214.755
 31
0.0
  0
LINE
  5
BA
  8
1
  6
CONTINUOUS
 62
     7
 10
1177.25
 20
74.75499999999991
 30
0.0
 11
1176.25
 21
74.75499999999991
 31
0.0
  0
ARC
  5
BB
  8
1
  6
CONTINUOUS
 62
     7
 10
1176.25
 20
76.7499999999999
 30
0.0
 40
1.994999999999997
 50
194.514592245567
 51
269.9999999999995
  0
LINE
  5
BC
  8
1
  6
CONTINUOUS
 62
     7
 10
1174.318672736173
 20
76.24999999999993
 30
0.0
 11
1174.308344778289
 21
76.24999999999993
 31
0.0
  0
ARC
  5
BD
  8
1
  6
CONTINUOUS
 62
     7
 10
1176.25
 20
76.7499999999999
 30
0.0
 40
2.004999999999998
 50
194.4406232129886
 51
270.0000000000004
  0
LINE
  5
BE
  8
1
  6
CONTINUOUS
 62
     7
 10
1176.25
 20
74.74499999999989
 30
0.0
 11
1177.25
 21
74.7449999999999
 31
0.0
  0
LINE
  5
BF
  8
1
  6
CONTINUOUS
 62
     7
 10
1177.25
 20
74.7449999999999
 30
0.0
 11
1177.25
 21
74.75499999999991
 31
0.0
  0
LINE
  5
C0
  8
1
  6
CONTINUOUS
 62
     7
 10
1177.25
 20
219.2550000000001
 30
0.0
 11
1176.25
 21
219.2550000000001
 31
0.0
  0
ARC
  5
C1
  8
1
  6
CONTINUOUS
 62
     7
 10
1176.25
 20
217.2500000000001
 30
0.0
 40
2.004999999999993
 50
89.99999999999966
 51
165.5593767870114
  0
LINE
  5
C2
  8
1
  6
CONTINUOUS
 62
     7
 10
1174.308344778289
 20
217.7500000000001
 30
0.0
 11
1174.318672736173
 21
217.7500000000001
 31
0.0
  0
ARC
  5
C3
  8
1
  6
CONTINUOUS
 62
     7
 10
1176.25
 20
217.2500000000001
 30
0.0
 40
1.994999999999999
 50
90.00000000000045
 51
165.4854077544326
  0
LINE
  5
C4
  8
1
  6
CONTINUOUS
 62
     7
 10
1176.25
 20
219.2450000000001
 30
0.0
 11
1177.25
 21
219.2450000000001
 31
0.0
  0
LINE
  5
C5
  8
1
  6
CONTINUOUS
 62
     7
 10
1177.25
 20
219.2450000000001
 30
0.0
 11
1177.25
 21
219.2550000000001
 31
0.0
  0
ARC
  5
C6
  8
1
  6
CONTINUOUS
 62
     7
 10
1179.75
 20
76.74999999999999
 30
0.0
 40
2.005000000000007
 50
269.9999999999997
 51
345.5593767870108
  0
LINE
  5
C7
  8
1
  6
CONTINUOUS
 62
     7
 10
1181.691655221711
 20
76.24999999999999
 30
0.0
 11
1181.681327263827
 21
76.24999999999999
 31
0.0
  0
ARC
  5
C8
  8
1
  6
CONTINUOUS
 62
     7
 10
1179.75
 20
76.74999999999999
 30
0.0
 40
1.995
 50
269.9999999999998
 51
345.4854077544321
  0
LINE
  5
C9
  8
1
  6
CONTINUOUS
 62
     7
 10
1179.75
 20
74.75500000000001
 30
0.0
 11
1178.75
 21
74.75499999999998
 31
0.0
  0
LINE
  5
CA
  8
1
  6
CONTINUOUS
 62
     7
 10
1178.75
 20
74.75499999999998
 30
0.0
 11
1178.75
 21
74.74499999999998
 31
0.0
  0
LINE
  5
CB
  8
1
  6
CONTINUOUS
 62
     7
 10
1178.75
 20
74.74499999999998
 30
0.0
 11
1179.75
 21
74.74499999999998
 31
0.0
  0
LINE
  5
CC
  8
1
  6
CONTINUOUS
 62
     7
 10
1178.75
 20
219.255
 30
0.0
 11
1178.75
 21
219.245
 31
0.0
  0
LINE
  5
CD
  8
1
  6
CONTINUOUS
 62
     7
 10
1178.75
 20
219.245
 30
0.0
 11
1179.75
 21
219.245
 31
0.0
  0
ARC
  5
CE
  8
1
  6
CONTINUOUS
 62
     7
 10
1179.75
 20
217.25
 30
0.0
 40
1.994999999999997
 50
14.51459224556783
 51
90.0000000000003
  0
LINE
  5
CF
  8
1
  6
CONTINUOUS
 62
     7
 10
1181.681327263827
 20
217.75
 30
0.0
 11
1181.691655221711
 21
217.75
 31
0.0
  0
ARC
  5
D0
  8
1
  6
CONTINUOUS
 62
     7
 10
1179.75
 20
217.25
 30
0.0
 40
2.005
 50
14.44062321298892
 51
90.00000000000028
  0
LINE
  5
D1
  8
1
  6
CONTINUOUS
 62
     7
 10
1179.75
 20
219.255
 30
0.0
 11
1178.75
 21
219.255
 31
0.0
  0
LINE
  5
D2
  8
1
  6
CONTINUOUS
 62
     7
 10
1222.0
 20
205.505
 30
0.0
 11
1215.5
 21
205.505
 31
0.0
  0
LINE
  5
D3
  8
1
  6
CONTINUOUS
 62
     7
 10
1215.5
 20
205.505
 30
0.0
 11
1215.5
 21
205.495
 31
0.0
  0
LINE
  5
D4
  8
1
  6
CONTINUOUS
 62
     7
 10
1215.5
 20
205.495
 30
0.0
 11
1222.0
 21
205.495
 31
0.0
  0
LINE
  5
D5
  8
1
  6
CONTINUOUS
 62
     7
 10
1222.0
 20
205.495
 30
0.0
 11
1222.0
 21
205.505
 31
0.0
  0
LINE
  5
D6
  8
1
  6
CONTINUOUS
 62
     7
 10
1204.071443452413
 20
88.50499999999997
 30
0.0
 11
1212.5
 21
88.505
 31
0.0
  0
ARC
  5
D7
  8
1
  6
CONTINUOUS
 62
     7
 10
1207.5
 20
76.99999999999999
 30
0.0
 40
12.005
 50
106.5943609612476
 51
112.8222507016094
  0
LINE
  5
D8
  8
1
  6
CONTINUOUS
 62
     7
 10
1202.848617427271
 20
88.0564309414074
 30
0.0
 11
1202.843577900957
 21
88.06515965702904
 31
0.0
  0
ARC
  5
D9
  8
1
  6
CONTINUOUS
 62
     7
 10
1207.5
 20
76.99999999999999
 30
0.0
 40
11.995
 50
106.6013255023403
 51
112.8162352091263
  0
LINE
  5
DA
  8
1
  6
CONTINUOUS
 62
     7
 10
1212.5
 20
88.495
 30
0.0
 11
1204.072902102361
 21
88.49499999999999
 31
0.0
  0
LINE
  5
DB
  8
1
  6
CONTINUOUS
 62
     7
 10
1212.5
 20
88.505
 30
0.0
 11
1212.5
 21
88.49500000000002
 31
0.0
  0
LINE
  5
DC
  8
1
  6
CONTINUOUS
 62
     7
 10
1129.928556547587
 20
205.495
 30
0.0
 11
1121.5
 21
205.495
 31
0.0
  0
ARC
  5
DD
  8
1
  6
CONTINUOUS
 62
     7
 10
1126.5
 20
217.0
 30
0.0
 40
12.005
 50
286.5943609612476
 51
292.8222507016094
  0
LINE
  5
DE
  8
1
  6
CONTINUOUS
 62
     7
 10
1131.151382572729
 20
205.9435690585926
 30
0.0
 11
1131.156422099043
 21
205.9348403429709
 31
0.0
  0
ARC
  5
DF
  8
1
  6
CONTINUOUS
 62
     7
 10
1126.5
 20
217.0
 30
0.0
 40
11.995
 50
286.6013255023403
 51
292.8162352091263
  0
LINE
  5
E0
  8
1
  6
CONTINUOUS
 62
     7
 10
1121.5
 20
205.505
 30
0.0
 11
1129.927097897639
 21
205.505
 31
0.0
  0
LINE
  5
E1
  8
1
  6
CONTINUOUS
 62
     7
 10
1121.5
 20
205.495
 30
0.0
 11
1121.5
 21
205.505
 31
0.0
  0
LINE
  5
E2
  8
1
  6
CONTINUOUS
 62
     7
 10
1195.599158643188
 20
78.50000000000001
 30
0.0
 11
1195.589079590561
 21
78.5
 31
0.0
  0
ARC
  5
E3
  8
1
  6
CONTINUOUS
 62
     7
 10
1207.5
 20
77.0
 30
0.0
 40
11.995
 50
127.1837647908736
 51
172.8162352091263
  0
LINE
  5
E4
  8
1
  6
CONTINUOUS
 62
     7
 10
1200.245501689604
 20
86.56515965702906
 30
0.0
 11
1200.250541215917
 21
86.55643094140741
 31
0.0
  0
ARC
  5
E5
  8
1
  6
CONTINUOUS
 62
     7
 10
1207.5
 20
77.0
 30
0.0
 40
12.005
 50
127.1777492983906
 51
172.8222507016094
  0
LINE
  5
E6
  8
1
  6
CONTINUOUS
 62
     7
 10
1138.400841356812
 20
215.5
 30
0.0
 11
1138.41092040944
 21
215.5
 31
0.0
  0
ARC
  5
E7
  8
1
  6
CONTINUOUS
 62
     7
 10
1126.5
 20
217.0
 30
0.0
 40
11.995
 50
307.1837647908736
 51
352.8162352091263
  0
LINE
  5
E8
  8
1
  6
CONTINUOUS
 62
     7
 10
1133.754498310396
 20
207.4348403429709
 30
0.0
 11
1133.749458784083
 21
207.4435690585926
 31
0.0
  0
ARC
  5
E9
  8
1
  6
CONTINUOUS
 62
     7
 10
1126.5
 20
217.0
 30
0.0
 40
12.005
 50
307.1777492983906
 51
352.8222507016094
  0
LINE
  5
EA
  8
1
  6
CONTINUOUS
 62
     7
 10
1200.250541215917
 20
67.4435690585926
 30
0.0
 11
1200.245501689604
 21
67.43484034297086
 31
0.0
  0
ARC
  5
EB
  8
1
  6
CONTINUOUS
 62
     7
 10
1207.5
 20
77.0
 30
0.0
 40
11.995
 50
187.1837647908737
 51
232.8162352091263
  0
LINE
  5
EC
  8
1
  6
CONTINUOUS
 62
     7
 10
1195.589079590561
 20
75.49999999999999
 30
0.0
 11
1195.599158643188
 21
75.5
 31
0.0
  0
ARC
  5
ED
  8
1
  6
CONTINUOUS
 62
     7
 10
1207.5
 20
77.0
 30
0.0
 40
12.005
 50
187.1777492983906
 51
232.8222507016095
  0
LINE
  5
EE
  8
1
  6
CONTINUOUS
 62
     7
 10
1133.749458784083
 20
226.5564309414074
 30
0.0
 11
1133.754498310396
 21
226.5651596570291
 31
0.0
  0
ARC
  5
EF
  8
1
  6
CONTINUOUS
 62
     7
 10
1126.5
 20
217.0
 30
0.0
 40
11.995
 50
7.183764790873695
 51
52.8162352091263
  0
LINE
  5
F0
  8
1
  6
CONTINUOUS
 62
     7
 10
1138.41092040944
 20
218.5
 30
0.0
 11
1138.400841356812
 21
218.5
 31
0.0
  0
ARC
  5
F1
  8
1
  6
CONTINUOUS
 62
     7
 10
1126.5
 20
217.0
 30
0.0
 40
12.005
 50
7.177749298390665
 51
52.82225070160951
  0
LINE
  5
F2
  8
1
  6
CONTINUOUS
 62
     7
 10
1212.5
 20
228.495
 30
0.0
 11
1212.5
 21
228.505
 31
0.0
  0
LINE
  5
F3
  8
1
  6
CONTINUOUS
 62
     7
 10
1212.5
 20
228.505
 30
0.0
 11
1204.071443452413
 21
228.505
 31
0.0
  0
ARC
  5
F4
  8
1
  6
CONTINUOUS
 62
     7
 10
1207.5
 20
217.0
 30
0.0
 40
12.005
 50
106.5943609612476
 51
112.8222507016094
  0
LINE
  5
F5
  8
1
  6
CONTINUOUS
 62
     7
 10
1202.843577900957
 20
228.0651596570291
 30
0.0
 11
1202.848617427271
 21
228.0564309414074
 31
0.0
  0
ARC
  5
F6
  8
1
  6
CONTINUOUS
 62
     7
 10
1207.5
 20
217.0
 30
0.0
 40
11.995
 50
106.6013255023404
 51
112.8162352091264
  0
LINE
  5
F7
  8
1
  6
CONTINUOUS
 62
     7
 10
1204.072902102361
 20
228.495
 30
0.0
 11
1212.5
 21
228.495
 31
0.0
  0
LINE
  5
F8
  8
1
  6
CONTINUOUS
 62
     7
 10
1222.0
 20
228.505
 30
0.0
 11
1215.5
 21
228.505
 31
0.0
  0
LINE
  5
F9
  8
1
  6
CONTINUOUS
 62
     7
 10
1215.5
 20
228.505
 30
0.0
 11
1215.5
 21
228.495
 31
0.0
  0
LINE
  5
FA
  8
1
  6
CONTINUOUS
 62
     7
 10
1215.5
 20
228.495
 30
0.0
 11
1222.0
 21
228.495
 31
0.0
  0
LINE
  5
FB
  8
1
  6
CONTINUOUS
 62
     7
 10
1222.0
 20
228.495
 30
0.0
 11
1222.0
 21
228.505
 31
0.0
  0
LINE
  5
FC
  8
1
  6
CONTINUOUS
 62
     7
 10
1221.0
 20
203.005
 30
0.0
 11
1207.0
 21
203.005
 31
0.0
  0
LINE
  5
FD
  8
1
  6
CONTINUOUS
 62
     7
 10
1207.0
 20
203.005
 30
0.0
 11
1207.0
 21
202.995
 31
0.0
  0
LINE
  5
FE
  8
1
  6
CONTINUOUS
 62
     7
 10
1207.0
 20
202.995
 30
0.0
 11
1221.0
 21
202.995
 31
0.0
  0
LINE
  5
FF
  8
1
  6
CONTINUOUS
 62
     7
 10
1221.0
 20
202.995
 30
0.0
 11
1221.0
 21
203.005
 31
0.0
  0
LINE
  5
100
  8
1
  6
CONTINUOUS
 62
     7
 10
1196.619826777076
 20
88.20860034767006
 30
0.0
 11
1196.612682431983
 21
88.21574469276285
 31
0.0
  0
ARC
  5
101
  8
1
  6
CONTINUOUS
 62
     7
 10
1205.0
 20
77.00000000000001
 30
0.0
 40
13.995
 50
98.21616531560471
 51
126.7838346843954
  0
LINE
  5
102
  8
1
  6
CONTINUOUS
 62
     7
 10
1203.0
 20
90.86145825661933
 30
0.0
 11
1203.0
 21
90.8513546268948
 31
0.0
  0
ARC
  5
103
  8
1
  6
CONTINUOUS
 62
     7
 10
1205.0
 20
77.00000000000001
 30
0.0
 40
14.00499999999999
 50
98.21025821952469
 51
126.7897417804755
  0
LINE
  5
104
  8
1
  6
CONTINUOUS
 62
     7
 10
1137.380173222924
 20
205.7913996523299
 30
0.0
 11
1137.387317568017
 21
205.7842553072371
 31
0.0
  0
ARC
  5
105
  8
1
  6
CONTINUOUS
 62
     7
 10
1129.0
 20
217.0
 30
0.0
 40
13.995
 50
278.2161653156047
 51
306.7838346843954
  0
LINE
  5
106
  8
1
  6
CONTINUOUS
 62
     7
 10
1131.0
 20
203.1385417433806
 30
0.0
 11
1131.0
 21
203.1486453731052
 31
0.0
  0
ARC
  5
107
  8
1
  6
CONTINUOUS
 62
     7
 10
1129.0
 20
217.0
 30
0.0
 40
14.00499999999999
 50
278.2102582195247
 51
306.7897417804754
  0
LINE
  5
108
  8
1
  6
CONTINUOUS
 62
     7
 10
1191.148645373105
 20
79.0
 30
0.0
 11
1191.138541743381
 21
79.0
 31
0.0
  0
ARC
  5
109
  8
1
  6
CONTINUOUS
 62
     7
 10
1205.0
 20
77.00000000000001
 30
0.0
 40
13.99499999999999
 50
143.2161653156047
 51
171.7838346843954
  0
LINE
  5
10A
  8
1
  6
CONTINUOUS
 62
     7
 10
1193.784255307237
 20
85.3873175680167
 30
0.0
 11
1193.79139965233
 21
85.38017322292387
 31
0.0
  0
ARC
  5
10B
  8
1
  6
CONTINUOUS
 62
     7
 10
1205.0
 20
77.00000000000001
 30
0.0
 40
14.005
 50
143.2102582195247
 51
171.7897417804755
  0
LINE
  5
10C
  8
1
  6
CONTINUOUS
 62
     7
 10
1142.851354626895
 20
215.0
 30
0.0
 11
1142.861458256619
 21
215.0
 31
0.0
  0
ARC
  5
10D
  8
1
  6
CONTINUOUS
 62
     7
 10
1129.0
 20
217.0
 30
0.0
 40
13.99499999999999
 50
323.2161653156047
 51
351.7838346843953
  0
LINE
  5
10E
  8
1
  6
CONTINUOUS
 62
     7
 10
1140.215744692763
 20
208.6126824319833
 30
0.0
 11
1140.20860034767
 21
208.6198267770761
 31
0.0
  0
ARC
  5
10F
  8
1
  6
CONTINUOUS
 62
     7
 10
1129.0
 20
217.0
 30
0.0
 40
14.005
 50
323.2102582195248
 51
351.7897417804754
  0
LINE
  5
110
  8
1
  6
CONTINUOUS
 62
     7
 10
1193.79139965233
 20
68.61982677707611
 30
0.0
 11
1193.784255307237
 21
68.61268243198334
 31
0.0
  0
ARC
  5
111
  8
1
  6
CONTINUOUS
 62
     7
 10
1205.0
 20
77.0
 30
0.0
 40
13.99499999999999
 50
188.2161653156048
 51
216.7838346843954
  0
LINE
  5
112
  8
1
  6
CONTINUOUS
 62
     7
 10
1191.138541743381
 20
74.99999999999999
 30
0.0
 11
1191.148645373105
 21
74.99999999999999
 31
0.0
  0
ARC
  5
113
  8
1
  6
CONTINUOUS
 62
     7
 10
1205.0
 20
77.0
 30
0.0
 40
14.00499999999999
 50
188.2102582195247
 51
216.7897417804753
  0
LINE
  5
114
  8
1
  6
CONTINUOUS
 62
     7
 10
1140.20860034767
 20
225.3801732229239
 30
0.0
 11
1140.215744692763
 21
225.3873175680166
 31
0.0
  0
ARC
  5
115
  8
1
  6
CONTINUOUS
 62
     7
 10
1129.0
 20
217.0
 30
0.0
 40
13.99499999999999
 50
8.216165315604803
 51
36.78383468439539
  0
LINE
  5
116
  8
1
  6
CONTINUOUS
 62
     7
 10
1142.861458256619
 20
219.0
 30
0.0
 11
1142.851354626895
 21
219.0
 31
0.0
  0
ARC
  5
117
  8
1
  6
CONTINUOUS
 62
     7
 10
1129.0
 20
217.0
 30
0.0
 40
14.00499999999999
 50
8.210258219524746
 51
36.78974178047537
  0
LINE
  5
118
  8
1
  6
CONTINUOUS
 62
     7
 10
1203.0
 20
230.8513546268948
 30
0.0
 11
1203.0
 21
230.8614582566193
 31
0.0
  0
ARC
  5
119
  8
1
  6
CONTINUOUS
 62
     7
 10
1205.0
 20
217.0
 30
0.0
 40
14.00500000000001
 50
98.21025821952468
 51
126.7897417804753
  0
LINE
  5
11A
  8
1
  6
CONTINUOUS
 62
     7
 10
1196.612682431983
 20
228.2157446927629
 30
0.0
 11
1196.619826777076
 21
228.20860034767
 31
0.0
  0
ARC
  5
11B
  8
1
  6
CONTINUOUS
 62
     7
 10
1205.0
 20
217.0
 30
0.0
 40
13.995
 50
98.21616531560471
 51
126.7838346843953
  0
LINE
  5
11C
  8
1
  6
CONTINUOUS
 62
     7
 10
1221.0
 20
231.005
 30
0.0
 11
1207.0
 21
231.005
 31
0.0
  0
LINE
  5
11D
  8
1
  6
CONTINUOUS
 62
     7
 10
1207.0
 20
231.005
 30
0.0
 11
1207.0
 21
230.995
 31
0.0
  0
LINE
  5
11E
  8
1
  6
CONTINUOUS
 62
     7
 10
1207.0
 20
230.995
 30
0.0
 11
1221.0
 21
230.995
 31
0.0
  0
LINE
  5
11F
  8
1
  6
CONTINUOUS
 62
     7
 10
1221.0
 20
230.995
 30
0.0
 11
1221.0
 21
231.005
 31
0.0
  0
ARC
  5
120
  8
1
  6
CONTINUOUS
 62
     7
 10
1209.25
 20
77.25
 30
0.0
 40
1.994999999999997
 50
14.51459224556754
 51
90.0
  0
LINE
  5
121
  8
1
  6
CONTINUOUS
 62
     7
 10
1211.181327263826
 20
77.74999999999999
 30
0.0
 11
1211.191655221711
 21
77.75
 31
0.0
  0
ARC
  5
122
  8
1
  6
CONTINUOUS
 62
     7
 10
1209.25
 20
77.25
 30
0.0
 40
2.005000000000008
 50
14.44062321298929
 51
89.99999999999999
  0
LINE
  5
123
  8
1
  6
CONTINUOUS
 62
     7
 10
1209.25
 20
79.25500000000002
 30
0.0
 11
1208.25
 21
79.255
 31
0.0
  0
LINE
  5
124
  8
1
  6
CONTINUOUS
 62
     7
 10
1208.25
 20
79.255
 30
0.0
 11
1208.25
 21
79.24499999999999
 31
0.0
  0
LINE
  5
125
  8
1
  6
CONTINUOUS
 62
     7
 10
1208.25
 20
79.24499999999999
 30
0.0
 11
1209.25
 21
79.24499999999999
 31
0.0
  0
LINE
  5
126
  8
1
  6
CONTINUOUS
 62
     7
 10
1208.25
 20
214.755
 30
0.0
 11
1208.25
 21
214.7449999999999
 31
0.0
  0
LINE
  5
127
  8
1
  6
CONTINUOUS
 62
     7
 10
1208.25
 20
214.7449999999999
 30
0.0
 11
1209.25
 21
214.7449999999999
 31
0.0
  0
ARC
  5
128
  8
1
  6
CONTINUOUS
 62
     7
 10
1209.25
 20
216.75
 30
0.0
 40
2.005000000000007
 50
270.0
 51
345.5593767870108
  0
LINE
  5
129
  8
1
  6
CONTINUOUS
 62
     7
 10
1211.191655221712
 20
216.25
 30
0.0
 11
1211.181327263827
 21
216.25
 31
0.0
  0
ARC
  5
12A
  8
1
  6
CONTINUOUS
 62
     7
 10
1209.25
 20
216.75
 30
0.0
 40
1.994999999999995
 50
270.0
 51
345.4854077544321
  0
LINE
  5
12B
  8
1
  6
CONTINUOUS
 62
     7
 10
1209.25
 20
214.755
 30
0.0
 11
1208.25
 21
214.755
 31
0.0
  0
LINE
  5
12C
  8
1
  6
CONTINUOUS
 62
     7
 10
1206.75
 20
79.245
 30
0.0
 11
1206.75
 21
79.25500000000002
 31
0.0
  0
LINE
  5
12D
  8
1
  6
CONTINUOUS
 62
     7
 10
1206.75
 20
79.25500000000002
 30
0.0
 11
1205.75
 21
79.255
 31
0.0
  0
ARC
  5
12E
  8
1
  6
CONTINUOUS
 62
     7
 10
1205.75
 20
77.24999999999999
 30
0.0
 40
2.005000000000007
 50
90.0
 51
165.5593767870098
  0
LINE
  5
12F
  8
1
  6
CONTINUOUS
 62
     7
 10
1203.808344778288
 20
77.75000000000001
 30
0.0
 11
1203.818672736173
 21
77.75000000000001
 31
0.0
  0
ARC
  5
130
  8
1
  6
CONTINUOUS
 62
     7
 10
1205.75
 20
77.24999999999999
 30
0.0
 40
1.995000000000002
 50
89.99999999999977
 51
165.4854077544313
  0
LINE
  5
131
  8
1
  6
CONTINUOUS
 62
     7
 10
1205.75
 20
79.24499999999999
 30
0.0
 11
1206.75
 21
79.245
 31
0.0
  0
ARC
  5
132
  8
1
  6
CONTINUOUS
 62
     7
 10
1205.75
 20
216.75
 30
0.0
 40
1.994999999999997
 50
194.5145922455686
 51
270.0000000000002
  0
LINE
  5
133
  8
1
  6
CONTINUOUS
 62
     7
 10
1203.818672736174
 20
216.25
 30
0.0
 11
1203.808344778289
 21
216.25
 31
0.0
  0
ARC
  5
134
  8
1
  6
CONTINUOUS
 62
     7
 10
1205.75
 20
216.75
 30
0.0
 40
2.005000000000002
 50
194.4406232129902
 51
270.0
  0
LINE
  5
135
  8
1
  6
CONTINUOUS
 62
     7
 10
1205.75
 20
214.745
 30
0.0
 11
1206.75
 21
214.7449999999999
 31
0.0
  0
LINE
  5
136
  8
1
  6
CONTINUOUS
 62
     7
 10
1206.75
 20
214.7449999999999
 30
0.0
 11
1206.75
 21
214.755
 31
0.0
  0
LINE
  5
137
  8
1
  6
CONTINUOUS
 62
     7
 10
1206.75
 20
214.755
 30
0.0
 11
1205.75
 21
214.755
 31
0.0
  0
ARC
  5
138
  8
1
  6
CONTINUOUS
 62
     7
 10
1209.25
 20
76.74999999999999
 30
0.0
 40
2.005000000000007
 50
270.0
 51
345.5593767870106
  0
LINE
  5
139
  8
1
  6
CONTINUOUS
 62
     7
 10
1211.191655221712
 20
76.24999999999999
 30
0.0
 11
1211.181327263827
 21
76.25
 31
0.0
  0
ARC
  5
13A
  8
1
  6
CONTINUOUS
 62
     7
 10
1209.25
 20
76.74999999999999
 30
0.0
 40
1.995000000000005
 50
270.0
 51
345.4854077544326
  0
LINE
  5
13B
  8
1
  6
CONTINUOUS
 62
     7
 10
1209.25
 20
74.75500000000001
 30
0.0
 11
1208.25
 21
74.75499999999998
 31
0.0
  0
LINE
  5
13C
  8
1
  6
CONTINUOUS
 62
     7
 10
1208.25
 20
74.75499999999998
 30
0.0
 11
1208.25
 21
74.745
 31
0.0
  0
LINE
  5
13D
  8
1
  6
CONTINUOUS
 62
     7
 10
1208.25
 20
74.745
 30
0.0
 11
1209.25
 21
74.74499999999998
 31
0.0
  0
LINE
  5
13E
  8
1
  6
CONTINUOUS
 62
     7
 10
1208.25
 20
219.255
 30
0.0
 11
1208.25
 21
219.245
 31
0.0
  0
LINE
  5
13F
  8
1
  6
CONTINUOUS
 62
     7
 10
1208.25
 20
219.245
 30
0.0
 11
1209.25
 21
219.245
 31
0.0
  0
ARC
  5
140
  8
1
  6
CONTINUOUS
 62
     7
 10
1209.25
 20
217.25
 30
0.0
 40
1.994999999999997
 50
14.51459224556743
 51
90.0
  0
LINE
  5
141
  8
1
  6
CONTINUOUS
 62
     7
 10
1211.181327263826
 20
217.75
 30
0.0
 11
1211.191655221711
 21
217.75
 31
0.0
  0
ARC
  5
142
  8
1
  6
CONTINUOUS
 62
     7
 10
1209.25
 20
217.25
 30
0.0
 40
2.004999999999999
 50
14.44062321298899
 51
90.00000000000001
  0
LINE
  5
143
  8
1
  6
CONTINUOUS
 62
     7
 10
1209.25
 20
219.255
 30
0.0
 11
1208.25
 21
219.255
 31
0.0
  0
LINE
  5
144
  8
1
  6
CONTINUOUS
 62
     7
 10
1235.0
 20
83.99999999999999
 30
0.0
 11
1225.0
 21
93.99999999999997
 31
0.0
  0
LINE
  5
145
  8
1
  6
CONTINUOUS
 62
     7
 10
1225.0
 20
93.99999999999997
 30
0.0
 11
1225.0
 21
58.99999999999999
 31
0.0
  0
LINE
  5
146
  8
1
  6
CONTINUOUS
 62
     7
 10
1225.0
 20
58.99999999999999
 30
0.0
 11
1109.0
 21
58.99999999999999
 31
0.0
  0
LINE
  5
147
  8
1
  6
CONTINUOUS
 62
     7
 10
1109.0
 20
58.99999999999999
 30
0.0
 11
1109.0
 21
93.99999999999997
 31
0.0
  0
LINE
  5
148
  8
1
  6
CONTINUOUS
 62
     7
 10
1109.0
 20
93.99999999999997
 30
0.0
 11
1099.0
 21
83.99999999999999
 31
0.0
  0
LINE
  5
149
  8
1
  6
CONTINUOUS
 62
     7
 10
1099.0
 20
83.99999999999999
 30
0.0
 11
1076.0
 21
83.99999999999999
 31
0.0
  0
LINE
  5
14A
  8
1
  6
CONTINUOUS
 62
     7
 10
1074.0
 20
85.99999999999999
 30
0.0
 11
1076.0
 21
83.99999999999999
 31
0.0
  0
LINE
  5
14B
  8
1
  6
CONTINUOUS
 62
     7
 10
1074.0
 20
85.99999999999999
 30
0.0
 11
1074.0
 21
208.0
 31
0.0
  0
LINE
  5
14C
  8
1
  6
CONTINUOUS
 62
     7
 10
1076.0
 20
210.0
 30
0.0
 11
1074.0
 21
208.0
 31
0.0
  0
LINE
  5
14D
  8
1
  6
CONTINUOUS
 62
     7
 10
1076.0
 20
210.0
 30
0.0
 11
1099.0
 21
210.0
 31
0.0
  0
LINE
  5
14E
  8
1
  6
CONTINUOUS
 62
     7
 10
1099.0
 20
210.0
 30
0.0
 11
1109.0
 21
200.0
 31
0.0
  0
LINE
  5
14F
  8
1
  6
CONTINUOUS
 62
     7
 10
1109.0
 20
200.0
 30
0.0
 11
1109.0
 21
235.0
 31
0.0
  0
LINE
  5
150
  8
1
  6
CONTINUOUS
 62
     7
 10
1109.0
 20
235.0
 30
0.0
 11
1225.0
 21
235.0
 31
0.0
  0
LINE
  5
151
  8
1
  6
CONTINUOUS
 62
     7
 10
1225.0
 20
235.0
 30
0.0
 11
1225.0
 21
200.0
 31
0.0
  0
LINE
  5
152
  8
1
  6
CONTINUOUS
 62
     7
 10
1225.0
 20
200.0
 30
0.0
 11
1235.0
 21
210.0
 31
0.0
  0
LINE
  5
153
  8
1
  6
CONTINUOUS
 62
     7
 10
1235.0
 20
210.0
 30
0.0
 11
1258.0
 21
210.0
 31
0.0
  0
LINE
  5
154
  8
1
  6
CONTINUOUS
 62
     7
 10
1260.0
 20
208.0
 30
0.0
 11
1258.0
 21
210.0
 31
0.0
  0
LINE
  5
155
  8
1
  6
CONTINUOUS
 62
     7
 10
1260.0
 20
208.0
 30
0.0
 11
1260.0
 21
86.0
 31
0.0
  0
LINE
  5
156
  8
1
  6
CONTINUOUS
 62
     7
 10
1258.0
 20
83.99999999999999
 30
0.0
 11
1260.0
 21
85.99999999999999
 31
0.0
  0
LINE
  5
157
  8
1
  6
CONTINUOUS
 62
     7
 10
1258.0
 20
83.99999999999999
 30
0.0
 11
1235.0
 21
83.99999999999999
 31
0.0
  0
ARC
  5
158
  8
1
  6
CONTINUOUS
 62
     7
 10
1124.75
 20
217.25
 30
0.0
 40
2.005000000000007
 50
90.0
 51
165.5593767870111
  0
LINE
  5
159
  8
1
  6
CONTINUOUS
 62
     7
 10
1122.808344778288
 20
217.75
 30
0.0
 11
1122.818672736173
 21
217.75
 31
0.0
  0
ARC
  5
15A
  8
1
  6
CONTINUOUS
 62
     7
 10
1124.75
 20
217.25
 30
0.0
 40
1.995000000000005
 50
90.0
 51
165.4854077544326
  0
LINE
  5
15B
  8
1
  6
CONTINUOUS
 62
     7
 10
1124.75
 20
219.245
 30
0.0
 11
1125.75
 21
219.245
 31
0.0
  0
LINE
  5
15C
  8
1
  6
CONTINUOUS
 62
     7
 10
1125.75
 20
219.245
 30
0.0
 11
1125.75
 21
219.255
 31
0.0
  0
LINE
  5
15D
  8
1
  6
CONTINUOUS
 62
     7
 10
1125.75
 20
219.255
 30
0.0
 11
1124.75
 21
219.255
 31
0.0
  0
LINE
  5
15E
  8
1
  6
CONTINUOUS
 62
     7
 10
1125.75
 20
74.745
 30
0.0
 11
1125.75
 21
74.755
 31
0.0
  0
LINE
  5
15F
  8
1
  6
CONTINUOUS
 62
     7
 10
1125.75
 20
74.755
 30
0.0
 11
1124.75
 21
74.75500000000001
 31
0.0
  0
ARC
  5
160
  8
1
  6
CONTINUOUS
 62
     7
 10
1124.75
 20
76.74999999999999
 30
0.0
 40
1.994999999999997
 50
194.5145922455674
 51
270.0
  0
LINE
  5
161
  8
1
  6
CONTINUOUS
 62
     7
 10
1122.818672736174
 20
76.25
 30
0.0
 11
1122.808344778289
 21
76.24999999999999
 31
0.0
  0
ARC
  5
162
  8
1
  6
CONTINUOUS
 62
     7
 10
1124.75
 20
76.74999999999999
 30
0.0
 40
2.005000000000002
 50
194.4406232129894
 51
270.0
  0
LINE
  5
163
  8
1
  6
CONTINUOUS
 62
     7
 10
1124.75
 20
74.74499999999998
 30
0.0
 11
1125.75
 21
74.745
 31
0.0
  0
LINE
  5
164
  8
1
  6
CONTINUOUS
 62
     7
 10
1127.25
 20
219.255
 30
0.0
 11
1127.25
 21
219.245
 31
0.0
  0
LINE
  5
165
  8
1
  6
CONTINUOUS
 62
     7
 10
1127.25
 20
219.245
 30
0.0
 11
1128.25
 21
219.245
 31
0.0
  0
ARC
  5
166
  8
1
  6
CONTINUOUS
 62
     7
 10
1128.25
 20
217.25
 30
0.0
 40
1.994999999999997
 50
14.51459224556754
 51
89.99999999999962
  0
LINE
  5
167
  8
1
  6
CONTINUOUS
 62
     7
 10
1130.181327263826
 20
217.75
 30
0.0
 11
1130.191655221711
 21
217.75
 31
0.0
  0
ARC
  5
168
  8
1
  6
CONTINUOUS
 62
     7
 10
1128.25
 20
217.25
 30
0.0
 40
2.005000000000005
 50
14.44062321298892
 51
89.99999999999999
  0
LINE
  5
169
  8
1
  6
CONTINUOUS
 62
     7
 10
1128.25
 20
219.255
 30
0.0
 11
1127.25
 21
219.255
 31
0.0
  0
ARC
  5
16A
  8
1
  6
CONTINUOUS
 62
     7
 10
1205.75
 20
217.25
 30
0.0
 40
2.005000000000007
 50
90.0
 51
165.5593767870112
  0
LINE
  5
16B
  8
1
  6
CONTINUOUS
 62
     7
 10
1203.808344778288
 20
217.75
 30
0.0
 11
1203.818672736173
 21
217.75
 31
0.0
  0
ARC
  5
16C
  8
1
  6
CONTINUOUS
 62
     7
 10
1205.75
 20
217.25
 30
0.0
 40
1.994999999999998
 50
90.00000000000045
 51
165.4854077544325
  0
LINE
  5
16D
  8
1
  6
CONTINUOUS
 62
     7
 10
1205.75
 20
219.245
 30
0.0
 11
1206.75
 21
219.245
 31
0.0
  0
LINE
  5
16E
  8
1
  6
CONTINUOUS
 62
     7
 10
1206.75
 20
219.245
 30
0.0
 11
1206.75
 21
219.255
 31
0.0
  0
LINE
  5
16F
  8
1
  6
CONTINUOUS
 62
     7
 10
1206.75
 20
219.255
 30
0.0
 11
1205.75
 21
219.255
 31
0.0
  0
ARC
  5
170
  8
1
  6
CONTINUOUS
 62
     7
 10
1128.25
 20
76.75
 30
0.0
 40
2.005000000000007
 50
270.0
 51
345.5593767870112
  0
LINE
  5
171
  8
1
  6
CONTINUOUS
 62
     7
 10
1130.191655221712
 20
76.25000000000001
 30
0.0
 11
1130.181327263827
 21
76.25000000000001
 31
0.0
  0
ARC
  5
172
  8
1
  6
CONTINUOUS
 62
     7
 10
1128.25
 20
76.75
 30
0.0
 40
1.994999999999998
 50
270.0000000000005
 51
345.4854077544324
  0
LINE
  5
173
  8
1
  6
CONTINUOUS
 62
     7
 10
1128.25
 20
74.755
 30
0.0
 11
1127.25
 21
74.75500000000001
 31
0.0
  0
LINE
  5
174
  8
1
  6
CONTINUOUS
 62
     7
 10
1127.25
 20
74.75500000000001
 30
0.0
 11
1127.25
 21
74.745
 31
0.0
  0
LINE
  5
175
  8
1
  6
CONTINUOUS
 62
     7
 10
1127.25
 20
74.745
 30
0.0
 11
1128.25
 21
74.74499999999999
 31
0.0
  0
LINE
  5
176
  8
1
  6
CONTINUOUS
 62
     7
 10
1206.75
 20
74.745
 30
0.0
 11
1206.75
 21
74.75500000000001
 31
0.0
  0
LINE
  5
177
  8
1
  6
CONTINUOUS
 62
     7
 10
1206.75
 20
74.75500000000001
 30
0.0
 11
1205.75
 21
74.755
 31
0.0
  0
ARC
  5
178
  8
1
  6
CONTINUOUS
 62
     7
 10
1205.75
 20
76.75
 30
0.0
 40
1.994999999999997
 50
194.5145922455675
 51
269.9999999999995
  0
LINE
  5
179
  8
1
  6
CONTINUOUS
 62
     7
 10
1203.818672736174
 20
76.25000000000001
 30
0.0
 11
1203.808344778289
 21
76.25000000000001
 31
0.0
  0
ARC
  5
17A
  8
1
  6
CONTINUOUS
 62
     7
 10
1205.75
 20
76.75
 30
0.0
 40
2.005000000000005
 50
194.4406232129889
 51
270.0
  0
LINE
  5
17B
  8
1
  6
CONTINUOUS
 62
     7
 10
1205.75
 20
74.74499999999999
 30
0.0
 11
1206.75
 21
74.745
 31
0.0
  0
LINE
  5
17C
  8
1
  6
CONTINUOUS
 62
     7
 10
1127.25
 20
214.755
 30
0.0
 11
1127.25
 21
214.7449999999999
 31
0.0
  0
LINE
  5
17D
  8
1
  6
CONTINUOUS
 62
     7
 10
1127.25
 20
214.7449999999999
 30
0.0
 11
1128.25
 21
214.745
 31
0.0
  0
ARC
  5
17E
  8
1
  6
CONTINUOUS
 62
     7
 10
1128.25
 20
216.75
 30
0.0
 40
2.005000000000007
 50
270.0
 51
345.5593767870098
  0
LINE
  5
17F
  8
1
  6
CONTINUOUS
 62
     7
 10
1130.191655221712
 20
216.25
 30
0.0
 11
1130.181327263827
 21
216.25
 31
0.0
  0
ARC
  5
180
  8
1
  6
CONTINUOUS
 62
     7
 10
1128.25
 20
216.75
 30
0.0
 40
1.995000000000002
 50
269.9999999999998
 51
345.4854077544313
  0
LINE
  5
181
  8
1
  6
CONTINUOUS
 62
     7
 10
1128.25
 20
214.755
 30
0.0
 11
1127.25
 21
214.755
 31
0.0
  0
ARC
  5
182
  8
1
  6
CONTINUOUS
 62
     7
 10
1128.25
 20
77.24999999999999
 30
0.0
 40
1.994999999999997
 50
14.51459224556868
 51
90.00000000000021
  0
LINE
  5
183
  8
1
  6
CONTINUOUS
 62
     7
 10
1130.181327263826
 20
77.75000000000001
 30
0.0
 11
1130.191655221711
 21
77.75000000000001
 31
0.0
  0
ARC
  5
184
  8
1
  6
CONTINUOUS
 62
     7
 10
1128.25
 20
77.24999999999999
 30
0.0
 40
2.005000000000002
 50
14.44062321299016
 51
89.99999999999999
  0
LINE
  5
185
  8
1
  6
CONTINUOUS
 62
     7
 10
1128.25
 20
79.255
 30
0.0
 11
1127.25
 21
79.25500000000002
 31
0.0
  0
LINE
  5
186
  8
1
  6
CONTINUOUS
 62
     7
 10
1127.25
 20
79.25500000000002
 30
0.0
 11
1127.25
 21
79.245
 31
0.0
  0
LINE
  5
187
  8
1
  6
CONTINUOUS
 62
     7
 10
1127.25
 20
79.245
 30
0.0
 11
1128.25
 21
79.24499999999998
 31
0.0
  0
ARC
  5
188
  8
1
  6
CONTINUOUS
 62
     7
 10
1124.75
 20
216.75
 30
0.0
 40
1.994999999999997
 50
194.5145922455679
 51
270.0
  0
LINE
  5
189
  8
1
  6
CONTINUOUS
 62
     7
 10
1122.818672736174
 20
216.25
 30
0.0
 11
1122.808344778289
 21
216.25
 31
0.0
  0
ARC
  5
18A
  8
1
  6
CONTINUOUS
 62
     7
 10
1124.75
 20
216.75
 30
0.0
 40
2.005000000000008
 50
194.4406232129892
 51
270.0
  0
LINE
  5
18B
  8
1
  6
CONTINUOUS
 62
     7
 10
1124.75
 20
214.7449999999999
 30
0.0
 11
1125.75
 21
214.7449999999999
 31
0.0
  0
LINE
  5
18C
  8
1
  6
CONTINUOUS
 62
     7
 10
1125.75
 20
214.7449999999999
 30
0.0
 11
1125.75
 21
214.755
 31
0.0
  0
LINE
  5
18D
  8
1
  6
CONTINUOUS
 62
     7
 10
1125.75
 20
214.755
 30
0.0
 11
1124.75
 21
214.755
 31
0.0
  0
LINE
  5
18E
  8
1
  6
CONTINUOUS
 62
     7
 10
1125.75
 20
79.24499999999998
 30
0.0
 11
1125.75
 21
79.25500000000001
 31
0.0
  0
LINE
  5
18F
  8
1
  6
CONTINUOUS
 62
     7
 10
1125.75
 20
79.25500000000001
 30
0.0
 11
1124.75
 21
79.25500000000002
 31
0.0
  0
ARC
  5
190
  8
1
  6
CONTINUOUS
 62
     7
 10
1124.75
 20
77.25
 30
0.0
 40
2.005000000000007
 50
90.0
 51
165.5593767870107
  0
LINE
  5
191
  8
1
  6
CONTINUOUS
 62
     7
 10
1122.808344778288
 20
77.75
 30
0.0
 11
1122.818672736173
 21
77.74999999999999
 31
0.0
  0
ARC
  5
192
  8
1
  6
CONTINUOUS
 62
     7
 10
1124.75
 20
77.25
 30
0.0
 40
1.994999999999998
 50
90.0
 51
165.4854077544325
  0
LINE
  5
193
  8
1
  6
CONTINUOUS
 62
     7
 10
1124.75
 20
79.24499999999999
 30
0.0
 11
1125.75
 21
79.24499999999998
 31
0.0
  0
LINE
  5
194
  8
1
  6
CONTINUOUS
 62
     7
 10
1127.0
 20
231.005
 30
0.0
 11
1127.0
 21
230.995
 31
0.0
  0
LINE
  5
195
  8
1
  6
CONTINUOUS
 62
     7
 10
1113.0
 20
231.005
 30
0.0
 11
1127.0
 21
231.005
 31
0.0
  0
LINE
  5
196
  8
1
  6
CONTINUOUS
 62
     7
 10
1113.0
 20
230.995
 30
0.0
 11
1113.0
 21
231.005
 31
0.0
  0
LINE
  5
197
  8
1
  6
CONTINUOUS
 62
     7
 10
1127.0
 20
230.995
 30
0.0
 11
1113.0
 21
230.995
 31
0.0
  0
LINE
  5
198
  8
1
  6
CONTINUOUS
 62
     7
 10
1207.0
 20
62.995
 30
0.0
 11
1207.0
 21
63.005
 31
0.0
  0
LINE
  5
199
  8
1
  6
CONTINUOUS
 62
     7
 10
1221.0
 20
62.995
 30
0.0
 11
1207.0
 21
62.995
 31
0.0
  0
LINE
  5
19A
  8
1
  6
CONTINUOUS
 62
     7
 10
1221.0
 20
63.005
 30
0.0
 11
1221.0
 21
62.995
 31
0.0
  0
LINE
  5
19B
  8
1
  6
CONTINUOUS
 62
     7
 10
1207.0
 20
63.005
 30
0.0
 11
1221.0
 21
63.005
 31
0.0
  0
LINE
  5
19C
  8
1
  6
CONTINUOUS
 62
     7
 10
1113.0
 20
62.995
 30
0.0
 11
1127.0
 21
62.995
 31
0.0
  0
LINE
  5
19D
  8
1
  6
CONTINUOUS
 62
     7
 10
1127.0
 20
62.995
 30
0.0
 11
1127.0
 21
63.005
 31
0.0
  0
LINE
  5
19E
  8
1
  6
CONTINUOUS
 62
     7
 10
1127.0
 20
63.005
 30
0.0
 11
1113.0
 21
63.005
 31
0.0
  0
LINE
  5
19F
  8
1
  6
CONTINUOUS
 62
     7
 10
1113.0
 20
63.005
 30
0.0
 11
1113.0
 21
62.995
 31
0.0
  0
ARC
  5
1A0
  8
1
  6
CONTINUOUS
 62
     7
 10
1129.0
 20
217.0
 30
0.0
 40
14.00500000000001
 50
53.21025821952469
 51
81.78974178047532
  0
LINE
  5
1A1
  8
1
  6
CONTINUOUS
 62
     7
 10
1131.0
 20
230.8513546268948
 30
0.0
 11
1131.0
 21
230.8614582566193
 31
0.0
  0
ARC
  5
1A2
  8
1
  6
CONTINUOUS
 62
     7
 10
1129.0
 20
217.0
 30
0.0
 40
13.995
 50
53.21616531560473
 51
81.7838346843953
  0
LINE
  5
1A3
  8
1
  6
CONTINUOUS
 62
     7
 10
1137.387317568017
 20
228.2157446927629
 30
0.0
 11
1137.380173222924
 21
228.20860034767
 31
0.0
  0
ARC
  5
1A4
  8
1
  6
CONTINUOUS
 62
     7
 10
1205.0
 20
77.00000000000001
 30
0.0
 40
14.00500000000001
 50
233.2102582195247
 51
261.7897417804753
  0
LINE
  5
1A5
  8
1
  6
CONTINUOUS
 62
     7
 10
1203.0
 20
63.14864537310522
 30
0.0
 11
1203.0
 21
63.13854174338069
 31
0.0
  0
ARC
  5
1A6
  8
1
  6
CONTINUOUS
 62
     7
 10
1205.0
 20
77.00000000000001
 30
0.0
 40
13.995
 50
233.2161653156047
 51
261.7838346843953
  0
LINE
  5
1A7
  8
1
  6
CONTINUOUS
 62
     7
 10
1196.612682431983
 20
65.78425530723713
 30
0.0
 11
1196.619826777076
 21
65.79139965232999
 31
0.0
  0
LINE
  5
1A8
  8
1
  6
CONTINUOUS
 62
     7
 10
1131.0
 20
63.14864537310522
 30
0.0
 11
1131.0
 21
63.13854174338069
 31
0.0
  0
ARC
  5
1A9
  8
1
  6
CONTINUOUS
 62
     7
 10
1129.0
 20
77.00000000000001
 30
0.0
 40
14.00500000000001
 50
278.2102582195247
 51
306.7897417804753
  0
LINE
  5
1AA
  8
1
  6
CONTINUOUS
 62
     7
 10
1137.387317568017
 20
65.78425530723713
 30
0.0
 11
1137.380173222924
 21
65.79139965232999
 31
0.0
  0
ARC
  5
1AB
  8
1
  6
CONTINUOUS
 62
     7
 10
1129.0
 20
77.00000000000001
 30
0.0
 40
13.995
 50
278.2161653156047
 51
306.7838346843953
  0
ARC
  5
1AC
  8
1
  6
CONTINUOUS
 62
     7
 10
1129.0
 20
77.0
 30
0.0
 40
13.99499999999999
 50
323.2161653156046
 51
351.7838346843952
  0
LINE
  5
1AD
  8
1
  6
CONTINUOUS
 62
     7
 10
1140.20860034767
 20
68.61982677707611
 30
0.0
 11
1140.215744692763
 21
68.61268243198334
 31
0.0
  0
ARC
  5
1AE
  8
1
  6
CONTINUOUS
 62
     7
 10
1129.0
 20
77.0
 30
0.0
 40
14.00499999999999
 50
323.2102582195246
 51
351.7897417804753
  0
LINE
  5
1AF
  8
1
  6
CONTINUOUS
 62
     7
 10
1142.861458256619
 20
74.99999999999999
 30
0.0
 11
1142.851354626895
 21
74.99999999999999
 31
0.0
  0
ARC
  5
1B0
  8
1
  6
CONTINUOUS
 62
     7
 10
1205.0
 20
217.0
 30
0.0
 40
13.99499999999999
 50
143.2161653156046
 51
171.7838346843952
  0
LINE
  5
1B1
  8
1
  6
CONTINUOUS
 62
     7
 10
1193.79139965233
 20
225.3801732229239
 30
0.0
 11
1193.784255307237
 21
225.3873175680166
 31
0.0
  0
ARC
  5
1B2
  8
1
  6
CONTINUOUS
 62
     7
 10
1205.0
 20
217.0
 30
0.0
 40
14.00499999999999
 50
143.2102582195247
 51
171.7897417804753
  0
LINE
  5
1B3
  8
1
  6
CONTINUOUS
 62
     7
 10
1191.138541743381
 20
219.0
 30
0.0
 11
1191.148645373105
 21
219.0
 31
0.0
  0
ARC
  5
1B4
  8
1
  6
CONTINUOUS
 62
     7
 10
1129.0
 20
77.00000000000001
 30
0.0
 40
13.99499999999999
 50
8.216165315604655
 51
36.78383468439528
  0
LINE
  5
1B5
  8
1
  6
CONTINUOUS
 62
     7
 10
1142.851354626895
 20
79.0
 30
0.0
 11
1142.861458256619
 21
79.0
 31
0.0
  0
ARC
  5
1B6
  8
1
  6
CONTINUOUS
 62
     7
 10
1129.0
 20
77.00000000000001
 30
0.0
 40
14.005
 50
8.210258219524585
 51
36.78974178047526
  0
LINE
  5
1B7
  8
1
  6
CONTINUOUS
 62
     7
 10
1140.215744692763
 20
85.3873175680167
 30
0.0
 11
1140.20860034767
 21
85.38017322292387
 31
0.0
  0
ARC
  5
1B8
  8
1
  6
CONTINUOUS
 62
     7
 10
1205.0
 20
217.0
 30
0.0
 40
13.99499999999999
 50
188.2161653156047
 51
216.7838346843953
  0
LINE
  5
1B9
  8
1
  6
CONTINUOUS
 62
     7
 10
1191.148645373105
 20
215.0
 30
0.0
 11
1191.138541743381
 21
215.0
 31
0.0
  0
ARC
  5
1BA
  8
1
  6
CONTINUOUS
 62
     7
 10
1205.0
 20
217.0
 30
0.0
 40
14.005
 50
188.2102582195245
 51
216.7897417804753
  0
LINE
  5
1BB
  8
1
  6
CONTINUOUS
 62
     7
 10
1193.784255307237
 20
208.6126824319833
 30
0.0
 11
1193.79139965233
 21
208.6198267770761
 31
0.0
  0
ARC
  5
1BC
  8
1
  6
CONTINUOUS
 62
     7
 10
1129.0
 20
77.00000000000001
 30
0.0
 40
13.995
 50
53.21616531560461
 51
81.78383468439527
  0
LINE
  5
1BD
  8
1
  6
CONTINUOUS
 62
     7
 10
1137.380173222924
 20
88.20860034767006
 30
0.0
 11
1137.387317568017
 21
88.21574469276285
 31
0.0
  0
ARC
  5
1BE
  8
1
  6
CONTINUOUS
 62
     7
 10
1129.0
 20
77.00000000000001
 30
0.0
 40
14.00499999999999
 50
53.21025821952454
 51
81.78974178047532
  0
LINE
  5
1BF
  8
1
  6
CONTINUOUS
 62
     7
 10
1131.0
 20
90.86145825661933
 30
0.0
 11
1131.0
 21
90.8513546268948
 31
0.0
  0
ARC
  5
1C0
  8
1
  6
CONTINUOUS
 62
     7
 10
1205.0
 20
217.0
 30
0.0
 40
13.995
 50
233.2161653156046
 51
261.7838346843953
  0
LINE
  5
1C1
  8
1
  6
CONTINUOUS
 62
     7
 10
1196.619826777076
 20
205.7913996523299
 30
0.0
 11
1196.612682431983
 21
205.7842553072371
 31
0.0
  0
ARC
  5
1C2
  8
1
  6
CONTINUOUS
 62
     7
 10
1205.0
 20
217.0
 30
0.0
 40
14.00499999999999
 50
233.2102582195245
 51
261.7897417804753
  0
LINE
  5
1C3
  8
1
  6
CONTINUOUS
 62
     7
 10
1203.0
 20
203.1385417433806
 30
0.0
 11
1203.0
 21
203.1486453731052
 31
0.0
  0
LINE
  5
1C4
  8
1
  6
CONTINUOUS
 62
     7
 10
1127.0
 20
203.005
 30
0.0
 11
1127.0
 21
202.995
 31
0.0
  0
LINE
  5
1C5
  8
1
  6
CONTINUOUS
 62
     7
 10
1113.0
 20
203.005
 30
0.0
 11
1127.0
 21
203.005
 31
0.0
  0
LINE
  5
1C6
  8
1
  6
CONTINUOUS
 62
     7
 10
1113.0
 20
202.995
 30
0.0
 11
1113.0
 21
203.005
 31
0.0
  0
LINE
  5
1C7
  8
1
  6
CONTINUOUS
 62
     7
 10
1127.0
 20
202.995
 30
0.0
 11
1113.0
 21
202.995
 31
0.0
  0
LINE
  5
1C8
  8
1
  6
CONTINUOUS
 62
     7
 10
1207.0
 20
90.99499999999999
 30
0.0
 11
1207.0
 21
91.005
 31
0.0
  0
LINE
  5
1C9
  8
1
  6
CONTINUOUS
 62
     7
 10
1221.0
 20
90.99499999999999
 30
0.0
 11
1207.0
 21
90.99499999999999
 31
0.0
  0
LINE
  5
1CA
  8
1
  6
CONTINUOUS
 62
     7
 10
1221.0
 20
91.005
 30
0.0
 11
1221.0
 21
90.995
 31
0.0
  0
LINE
  5
1CB
  8
1
  6
CONTINUOUS
 62
     7
 10
1207.0
 20
91.005
 30
0.0
 11
1221.0
 21
91.00499999999998
 31
0.0
  0
LINE
  5
1CC
  8
1
  6
CONTINUOUS
 62
     7
 10
1113.0
 20
90.99499999999999
 30
0.0
 11
1127.0
 21
90.99499999999999
 31
0.0
  0
LINE
  5
1CD
  8
1
  6
CONTINUOUS
 62
     7
 10
1127.0
 20
90.99499999999999
 30
0.0
 11
1127.0
 21
91.005
 31
0.0
  0
LINE
  5
1CE
  8
1
  6
CONTINUOUS
 62
     7
 10
1127.0
 20
91.005
 30
0.0
 11
1113.0
 21
91.00499999999998
 31
0.0
  0
LINE
  5
1CF
  8
1
  6
CONTINUOUS
 62
     7
 10
1113.0
 20
91.005
 30
0.0
 11
1113.0
 21
90.995
 31
0.0
  0
LINE
  5
1D0
  8
1
  6
CONTINUOUS
 62
     7
 10
1118.5
 20
228.505
 30
0.0
 11
1118.5
 21
228.495
 31
0.0
  0
LINE
  5
1D1
  8
1
  6
CONTINUOUS
 62
     7
 10
1112.0
 20
228.505
 30
0.0
 11
1118.5
 21
228.505
 31
0.0
  0
LINE
  5
1D2
  8
1
  6
CONTINUOUS
 62
     7
 10
1112.0
 20
228.495
 30
0.0
 11
1112.0
 21
228.505
 31
0.0
  0
LINE
  5
1D3
  8
1
  6
CONTINUOUS
 62
     7
 10
1118.5
 20
228.495
 30
0.0
 11
1112.0
 21
228.495
 31
0.0
  0
LINE
  5
1D4
  8
1
  6
CONTINUOUS
 62
     7
 10
1215.5
 20
65.49499999999999
 30
0.0
 11
1215.5
 21
65.50500000000001
 31
0.0
  0
LINE
  5
1D5
  8
1
  6
CONTINUOUS
 62
     7
 10
1222.0
 20
65.49499999999999
 30
0.0
 11
1215.5
 21
65.49499999999999
 31
0.0
  0
LINE
  5
1D6
  8
1
  6
CONTINUOUS
 62
     7
 10
1222.0
 20
65.50500000000001
 30
0.0
 11
1222.0
 21
65.49499999999999
 31
0.0
  0
LINE
  5
1D7
  8
1
  6
CONTINUOUS
 62
     7
 10
1215.5
 20
65.50500000000001
 30
0.0
 11
1222.0
 21
65.50500000000001
 31
0.0
  0
LINE
  5
1D8
  8
1
  6
CONTINUOUS
 62
     7
 10
1112.0
 20
65.49499999999999
 30
0.0
 11
1118.5
 21
65.49499999999999
 31
0.0
  0
LINE
  5
1D9
  8
1
  6
CONTINUOUS
 62
     7
 10
1118.5
 20
65.49499999999999
 30
0.0
 11
1118.5
 21
65.50500000000001
 31
0.0
  0
LINE
  5
1DA
  8
1
  6
CONTINUOUS
 62
     7
 10
1118.5
 20
65.50500000000001
 30
0.0
 11
1112.0
 21
65.50500000000001
 31
0.0
  0
LINE
  5
1DB
  8
1
  6
CONTINUOUS
 62
     7
 10
1112.0
 20
65.50500000000001
 30
0.0
 11
1112.0
 21
65.49499999999999
 31
0.0
  0
LINE
  5
1DC
  8
1
  6
CONTINUOUS
 62
     7
 10
1131.156422099043
 20
228.0651596570291
 30
0.0
 11
1131.151382572729
 21
228.0564309414074
 31
0.0
  0
ARC
  5
1DD
  8
1
  6
CONTINUOUS
 62
     7
 10
1126.5
 20
217.0
 30
0.0
 40
12.005
 50
67.17774929839061
 51
73.40563903875243
  0
LINE
  5
1DE
  8
1
  6
CONTINUOUS
 62
     7
 10
1121.5
 20
228.505
 30
0.0
 11
1129.928556547587
 21
228.505
 31
0.0
  0
LINE
  5
1DF
  8
1
  6
CONTINUOUS
 62
     7
 10
1121.5
 20
228.495
 30
0.0
 11
1121.5
 21
228.505
 31
0.0
  0
LINE
  5
1E0
  8
1
  6
CONTINUOUS
 62
     7
 10
1129.927097897639
 20
228.495
 30
0.0
 11
1121.5
 21
228.495
 31
0.0
  0
ARC
  5
1E1
  8
1
  6
CONTINUOUS
 62
     7
 10
1126.5
 20
217.0
 30
0.0
 40
11.995
 50
67.18376479087364
 51
73.39867449765961
  0
LINE
  5
1E2
  8
1
  6
CONTINUOUS
 62
     7
 10
1202.843577900957
 20
65.93484034297093
 30
0.0
 11
1202.848617427271
 21
65.94356905859257
 31
0.0
  0
ARC
  5
1E3
  8
1
  6
CONTINUOUS
 62
     7
 10
1207.5
 20
77.0
 30
0.0
 40
12.005
 50
247.1777492983906
 51
253.4056390387525
  0
LINE
  5
1E4
  8
1
  6
CONTINUOUS
 62
     7
 10
1212.5
 20
65.49499999999999
 30
0.0
 11
1204.071443452413
 21
65.495
 31
0.0
  0
LINE
  5
1E5
  8
1
  6
CONTINUOUS
 62
     7
 10
1212.5
 20
65.50500000000001
 30
0.0
 11
1212.5
 21
65.49499999999999
 31
0.0
  0
LINE
  5
1E6
  8
1
  6
CONTINUOUS
 62
     7
 10
1204.072902102361
 20
65.50500000000001
 30
0.0
 11
1212.5
 21
65.50500000000001
 31
0.0
  0
ARC
  5
1E7
  8
1
  6
CONTINUOUS
 62
     7
 10
1207.5
 20
77.0
 30
0.0
 40
11.995
 50
247.1837647908736
 51
253.3986744976596
  0
LINE
  5
1E8
  8
1
  6
CONTINUOUS
 62
     7
 10
1121.5
 20
65.50500000000001
 30
0.0
 11
1121.5
 21
65.49499999999999
 31
0.0
  0
LINE
  5
1E9
  8
1
  6
CONTINUOUS
 62
     7
 10
1121.5
 20
65.49499999999999
 30
0.0
 11
1129.928556547587
 21
65.495
 31
0.0
  0
ARC
  5
1EA
  8
1
  6
CONTINUOUS
 62
     7
 10
1126.5
 20
77.0
 30
0.0
 40
12.005
 50
286.5943609612476
 51
292.8222507016094
  0
LINE
  5
1EB
  8
1
  6
CONTINUOUS
 62
     7
 10
1131.156422099043
 20
65.93484034297093
 30
0.0
 11
1131.151382572729
 21
65.94356905859257
 31
0.0
  0
ARC
  5
1EC
  8
1
  6
CONTINUOUS
 62
     7
 10
1126.5
 20
77.0
 30
0.0
 40
11.995
 50
286.6013255023404
 51
292.8162352091264
  0
LINE
  5
1ED
  8
1
  6
CONTINUOUS
 62
     7
 10
1129.927097897639
 20
65.50500000000001
 30
0.0
 11
1121.5
 21
65.50500000000001
 31
0.0
  0
ARC
  5
1EE
  8
1
  6
CONTINUOUS
 62
     7
 10
1126.5
 20
77.0
 30
0.0
 40
11.995
 50
307.1837647908737
 51
352.8162352091263
  0
LINE
  5
1EF
  8
1
  6
CONTINUOUS
 62
     7
 10
1133.749458784083
 20
67.4435690585926
 30
0.0
 11
1133.754498310396
 21
67.43484034297086
 31
0.0
  0
ARC
  5
1F0
  8
1
  6
CONTINUOUS
 62
     7
 10
1126.5
 20
77.0
 30
0.0
 40
12.005
 50
307.1777492983905
 51
352.8222507016093
  0
LINE
  5
1F1
  8
1
  6
CONTINUOUS
 62
     7
 10
1138.41092040944
 20
75.49999999999999
 30
0.0
 11
1138.400841356812
 21
75.5
 31
0.0
  0
ARC
  5
1F2
  8
1
  6
CONTINUOUS
 62
     7
 10
1207.5
 20
217.0
 30
0.0
 40
11.995
 50
127.1837647908738
 51
172.8162352091263
  0
LINE
  5
1F3
  8
1
  6
CONTINUOUS
 62
     7
 10
1200.250541215917
 20
226.5564309414074
 30
0.0
 11
1200.245501689604
 21
226.5651596570291
 31
0.0
  0
ARC
  5
1F4
  8
1
  6
CONTINUOUS
 62
     7
 10
1207.5
 20
217.0
 30
0.0
 40
12.005
 50
127.1777492983905
 51
172.8222507016093
  0
LINE
  5
1F5
  8
1
  6
CONTINUOUS
 62
     7
 10
1195.589079590561
 20
218.5
 30
0.0
 11
1195.599158643188
 21
218.5
 31
0.0
  0
ARC
  5
1F6
  8
1
  6
CONTINUOUS
 62
     7
 10
1126.5
 20
77.0
 30
0.0
 40
11.995
 50
7.183764790873737
 51
52.81623520912637
  0
LINE
  5
1F7
  8
1
  6
CONTINUOUS
 62
     7
 10
1138.400841356812
 20
78.50000000000001
 30
0.0
 11
1138.41092040944
 21
78.5
 31
0.0
  0
ARC
  5
1F8
  8
1
  6
CONTINUOUS
 62
     7
 10
1126.5
 20
77.0
 30
0.0
 40
12.005
 50
7.177749298390605
 51
52.82225070160938
  0
LINE
  5
1F9
  8
1
  6
CONTINUOUS
 62
     7
 10
1133.754498310396
 20
86.56515965702906
 30
0.0
 11
1133.749458784083
 21
86.55643094140741
 31
0.0
  0
ARC
  5
1FA
  8
1
  6
CONTINUOUS
 62
     7
 10
1207.5
 20
217.0
 30
0.0
 40
11.995
 50
187.1837647908738
 51
232.8162352091264
  0
LINE
  5
1FB
  8
1
  6
CONTINUOUS
 62
     7
 10
1195.599158643188
 20
215.5
 30
0.0
 11
1195.589079590561
 21
215.5
 31
0.0
  0
ARC
  5
1FC
  8
1
  6
CONTINUOUS
 62
     7
 10
1207.5
 20
217.0
 30
0.0
 40
12.005
 50
187.1777492983906
 51
232.8222507016094
  0
LINE
  5
1FD
  8
1
  6
CONTINUOUS
 62
     7
 10
1200.245501689604
 20
207.4348403429709
 30
0.0
 11
1200.250541215917
 21
207.4435690585926
 31
0.0
  0
ARC
  5
1FE
  8
1
  6
CONTINUOUS
 62
     7
 10
1126.5
 20
76.99999999999999
 30
0.0
 40
11.995
 50
67.18376479087368
 51
73.39867449765967
  0
LINE
  5
1FF
  8
1
  6
CONTINUOUS
 62
     7
 10
1131.151382572729
 20
88.0564309414074
 30
0.0
 11
1131.156422099043
 21
88.06515965702904
 31
0.0
  0
ARC
  5
200
  8
1
  6
CONTINUOUS
 62
     7
 10
1126.5
 20
76.99999999999999
 30
0.0
 40
12.005
 50
67.17774929839057
 51
73.40563903875237
  0
LINE
  5
201
  8
1
  6
CONTINUOUS
 62
     7
 10
1129.928556547587
 20
88.50499999999997
 30
0.0
 11
1121.5
 21
88.505
 31
0.0
  0
LINE
  5
202
  8
1
  6
CONTINUOUS
 62
     7
 10
1121.5
 20
88.505
 30
0.0
 11
1121.5
 21
88.49500000000002
 31
0.0
  0
LINE
  5
203
  8
1
  6
CONTINUOUS
 62
     7
 10
1121.5
 20
88.495
 30
0.0
 11
1129.927097897639
 21
88.49499999999999
 31
0.0
  0
ARC
  5
204
  8
1
  6
CONTINUOUS
 62
     7
 10
1207.5
 20
217.0
 30
0.0
 40
11.995
 50
247.1837647908737
 51
253.3986744976596
  0
LINE
  5
205
  8
1
  6
CONTINUOUS
 62
     7
 10
1202.848617427271
 20
205.9435690585926
 30
0.0
 11
1202.843577900957
 21
205.9348403429709
 31
0.0
  0
ARC
  5
206
  8
1
  6
CONTINUOUS
 62
     7
 10
1207.5
 20
217.0
 30
0.0
 40
12.005
 50
247.1777492983905
 51
253.4056390387524
  0
LINE
  5
207
  8
1
  6
CONTINUOUS
 62
     7
 10
1204.071443452413
 20
205.495
 30
0.0
 11
1212.5
 21
205.495
 31
0.0
  0
LINE
  5
208
  8
1
  6
CONTINUOUS
 62
     7
 10
1212.5
 20
205.495
 30
0.0
 11
1212.5
 21
205.505
 31
0.0
  0
LINE
  5
209
  8
1
  6
CONTINUOUS
 62
     7
 10
1212.5
 20
205.505
 30
0.0
 11
1204.072902102361
 21
205.505
 31
0.0
  0
LINE
  5
20A
  8
1
  6
CONTINUOUS
 62
     7
 10
1118.5
 20
205.505
 30
0.0
 11
1118.5
 21
205.495
 31
0.0
  0
LINE
  5
20B
  8
1
  6
CONTINUOUS
 62
     7
 10
1112.0
 20
205.505
 30
0.0
 11
1118.5
 21
205.505
 31
0.0
  0
LINE
  5
20C
  8
1
  6
CONTINUOUS
 62
     7
 10
1112.0
 20
205.495
 30
0.0
 11
1112.0
 21
205.505
 31
0.0
  0
LINE
  5
20D
  8
1
  6
CONTINUOUS
 62
     7
 10
1118.5
 20
205.495
 30
0.0
 11
1112.0
 21
205.495
 31
0.0
  0
LINE
  5
20E
  8
1
  6
CONTINUOUS
 62
     7
 10
1215.5
 20
88.49499999999999
 30
0.0
 11
1215.5
 21
88.505
 31
0.0
  0
LINE
  5
20F
  8
1
  6
CONTINUOUS
 62
     7
 10
1222.0
 20
88.49499999999999
 30
0.0
 11
1215.5
 21
88.49499999999999
 31
0.0
  0
LINE
  5
210
  8
1
  6
CONTINUOUS
 62
     7
 10
1222.0
 20
88.505
 30
0.0
 11
1222.0
 21
88.495
 31
0.0
  0
LINE
  5
211
  8
1
  6
CONTINUOUS
 62
     7
 10
1215.5
 20
88.505
 30
0.0
 11
1222.0
 21
88.50499999999998
 31
0.0
  0
LINE
  5
212
  8
1
  6
CONTINUOUS
 62
     7
 10
1112.0
 20
88.49499999999999
 30
0.0
 11
1118.5
 21
88.49499999999999
 31
0.0
  0
LINE
  5
213
  8
1
  6
CONTINUOUS
 62
     7
 10
1118.5
 20
88.49499999999999
 30
0.0
 11
1118.5
 21
88.505
 31
0.0
  0
LINE
  5
214
  8
1
  6
CONTINUOUS
 62
     7
 10
1118.5
 20
88.505
 30
0.0
 11
1112.0
 21
88.50499999999998
 31
0.0
  0
LINE
  5
215
  8
1
  6
CONTINUOUS
 62
     7
 10
1112.0
 20
88.505
 30
0.0
 11
1112.0
 21
88.495
 31
0.0
  0
ARC
  5
216
  8
1
  6
CONTINUOUS
 62
     7
 10
1154.25
 20
217.25
 30
0.0
 40
2.005000000000007
 50
89.99999999999969
 51
165.5593767870111
  0
LINE
  5
217
  8
1
  6
CONTINUOUS
 62
     7
 10
1152.308344778289
 20
217.75
 30
0.0
 11
1152.318672736173
 21
217.75
 31
0.0
  0
ARC
  5
218
  8
1
  6
CONTINUOUS
 62
     7
 10
1154.25
 20
217.25
 30
0.0
 40
1.995
 50
89.99999999999972
 51
165.4854077544321
  0
LINE
  5
219
  8
1
  6
CONTINUOUS
 62
     7
 10
1154.25
 20
219.245
 30
0.0
 11
1155.25
 21
219.245
 31
0.0
  0
LINE
  5
21A
  8
1
  6
CONTINUOUS
 62
     7
 10
1155.25
 20
219.245
 30
0.0
 11
1155.25
 21
219.255
 31
0.0
  0
LINE
  5
21B
  8
1
  6
CONTINUOUS
 62
     7
 10
1155.25
 20
219.255
 30
0.0
 11
1154.25
 21
219.255
 31
0.0
  0
LINE
  5
21C
  8
1
  6
CONTINUOUS
 62
     7
 10
1155.25
 20
74.74499999999998
 30
0.0
 11
1155.25
 21
74.755
 31
0.0
  0
LINE
  5
21D
  8
1
  6
CONTINUOUS
 62
     7
 10
1155.25
 20
74.755
 30
0.0
 11
1154.25
 21
74.75500000000001
 31
0.0
  0
ARC
  5
21E
  8
1
  6
CONTINUOUS
 62
     7
 10
1154.25
 20
76.74999999999999
 30
0.0
 40
1.994999999999997
 50
194.5145922455679
 51
270.0000000000002
  0
LINE
  5
21F
  8
1
  6
CONTINUOUS
 62
     7
 10
1152.318672736173
 20
76.24999999999999
 30
0.0
 11
1152.308344778289
 21
76.24999999999999
 31
0.0
  0
ARC
  5
220
  8
1
  6
CONTINUOUS
 62
     7
 10
1154.25
 20
76.74999999999999
 30
0.0
 40
2.005
 50
194.4406232129892
 51
270.0000000000002
  0
LINE
  5
221
  8
1
  6
CONTINUOUS
 62
     7
 10
1154.25
 20
74.74499999999998
 30
0.0
 11
1155.25
 21
74.74499999999998
 31
0.0
  0
LINE
  5
222
  8
1
  6
CONTINUOUS
 62
     7
 10
1156.75
 20
219.2450000000001
 30
0.0
 11
1157.75
 21
219.2450000000001
 31
0.0
  0
ARC
  5
223
  8
1
  6
CONTINUOUS
 62
     7
 10
1157.75
 20
217.2500000000001
 30
0.0
 40
1.994999999999997
 50
14.51459224556748
 51
89.99999999999955
  0
LINE
  5
224
  8
1
  6
CONTINUOUS
 62
     7
 10
1159.681327263827
 20
217.7500000000001
 30
0.0
 11
1159.691655221711
 21
217.7500000000001
 31
0.0
  0
ARC
  5
225
  8
1
  6
CONTINUOUS
 62
     7
 10
1157.75
 20
217.2500000000001
 30
0.0
 40
2.004999999999998
 50
14.44062321298858
 51
90.00000000000043
  0
LINE
  5
226
  8
1
  6
CONTINUOUS
 62
     7
 10
1157.75
 20
219.2550000000001
 30
0.0
 11
1156.75
 21
219.2550000000001
 31
0.0
  0
LINE
  5
227
  8
1
  6
CONTINUOUS
 62
     7
 10
1156.75
 20
219.2550000000001
 30
0.0
 11
1156.75
 21
219.2450000000001
 31
0.0
  0
LINE
  5
228
  8
1
  6
CONTINUOUS
 62
     7
 10
1156.75
 20
74.74499999999989
 30
0.0
 11
1157.75
 21
74.7449999999999
 31
0.0
  0
ARC
  5
229
  8
1
  6
CONTINUOUS
 62
     7
 10
1157.75
 20
76.7499999999999
 30
0.0
 40
2.004999999999993
 50
269.9999999999997
 51
345.5593767870114
  0
LINE
  5
22A
  8
1
  6
CONTINUOUS
 62
     7
 10
1159.691655221711
 20
76.24999999999993
 30
0.0
 11
1159.681327263827
 21
76.24999999999993
 31
0.0
  0
ARC
  5
22B
  8
1
  6
CONTINUOUS
 62
     7
 10
1157.75
 20
76.7499999999999
 30
0.0
 40
1.994999999999998
 50
270.0000000000005
 51
345.4854077544329
  0
LINE
  5
22C
  8
1
  6
CONTINUOUS
 62
     7
 10
1157.75
 20
74.75499999999991
 30
0.0
 11
1156.75
 21
74.75499999999991
 31
0.0
  0
LINE
  5
22D
  8
1
  6
CONTINUOUS
 62
     7
 10
1156.75
 20
74.75499999999991
 30
0.0
 11
1156.75
 21
74.74499999999989
 31
0.0
  0
LINE
  5
22E
  8
1
  6
CONTINUOUS
 62
     7
 10
1156.75
 20
214.7449999999999
 30
0.0
 11
1157.75
 21
214.7449999999999
 31
0.0
  0
ARC
  5
22F
  8
1
  6
CONTINUOUS
 62
     7
 10
1157.75
 20
216.75
 30
0.0
 40
2.005000000000007
 50
269.9999999999999
 51
345.5593767870108
  0
LINE
  5
230
  8
1
  6
CONTINUOUS
 62
     7
 10
1159.691655221711
 20
216.25
 30
0.0
 11
1159.681327263827
 21
216.25
 31
0.0
  0
ARC
  5
231
  8
1
  6
CONTINUOUS
 62
     7
 10
1157.75
 20
216.75
 30
0.0
 40
1.994999999999997
 50
270.0
 51
345.4854077544321
  0
LINE
  5
232
  8
1
  6
CONTINUOUS
 62
     7
 10
1157.75
 20
214.755
 30
0.0
 11
1156.75
 21
214.755
 31
0.0
  0
LINE
  5
233
  8
1
  6
CONTINUOUS
 62
     7
 10
1156.75
 20
214.755
 30
0.0
 11
1156.75
 21
214.7449999999999
 31
0.0
  0
LINE
  5
234
  8
1
  6
CONTINUOUS
 62
     7
 10
1156.75
 20
79.245
 30
0.0
 11
1157.75
 21
79.24499999999999
 31
0.0
  0
ARC
  5
235
  8
1
  6
CONTINUOUS
 62
     7
 10
1157.75
 20
77.25
 30
0.0
 40
1.994999999999997
 50
14.51459224556794
 51
90.00000000000006
  0
LINE
  5
236
  8
1
  6
CONTINUOUS
 62
     7
 10
1159.681327263827
 20
77.75
 30
0.0
 11
1159.691655221711
 21
77.74999999999999
 31
0.0
  0
ARC
  5
237
  8
1
  6
CONTINUOUS
 62
     7
 10
1157.75
 20
77.25
 30
0.0
 40
2.005000000000007
 50
14.44062321298894
 51
90.00000000000006
  0
LINE
  5
238
  8
1
  6
CONTINUOUS
 62
     7
 10
1157.75
 20
79.25500000000001
 30
0.0
 11
1156.75
 21
79.25500000000002
 31
0.0
  0
LINE
  5
239
  8
1
  6
CONTINUOUS
 62
     7
 10
1156.75
 20
79.25500000000002
 30
0.0
 11
1156.75
 21
79.245
 31
0.0
  0
ARC
  5
23A
  8
1
  6
CONTINUOUS
 62
     7
 10
1154.25
 20
216.75
 30
0.0
 40
2.004999999999999
 50
194.4406232129898
 51
270.0000000000004
  0
LINE
  5
23B
  8
1
  6
CONTINUOUS
 62
     7
 10
1154.25
 20
214.7449999999999
 30
0.0
 11
1155.25
 21
214.7449999999999
 31
0.0
  0
LINE
  5
23C
  8
1
  6
CONTINUOUS
 62
     7
 10
1155.25
 20
214.7449999999999
 30
0.0
 11
1155.25
 21
214.755
 31
0.0
  0
LINE
  5
23D
  8
1
  6
CONTINUOUS
 62
     7
 10
1155.25
 20
214.755
 30
0.0
 11
1154.25
 21
214.755
 31
0.0
  0
ARC
  5
23E
  8
1
  6
CONTINUOUS
 62
     7
 10
1154.25
 20
216.75
 30
0.0
 40
1.994999999999997
 50
194.5145922455683
 51
270.0
  0
LINE
  5
23F
  8
1
  6
CONTINUOUS
 62
     7
 10
1152.318672736173
 20
216.25
 30
0.0
 11
1152.308344778289
 21
216.25
 31
0.0
  0
ARC
  5
240
  8
1
  6
CONTINUOUS
 62
     7
 10
1154.25
 20
77.25
 30
0.0
 40
1.995
 50
90.0
 51
165.4854077544317
  0
LINE
  5
241
  8
1
  6
CONTINUOUS
 62
     7
 10
1154.25
 20
79.24499999999999
 30
0.0
 11
1155.25
 21
79.245
 31
0.0
  0
LINE
  5
242
  8
1
  6
CONTINUOUS
 62
     7
 10
1155.25
 20
79.245
 30
0.0
 11
1155.25
 21
79.255
 31
0.0
  0
LINE
  5
243
  8
1
  6
CONTINUOUS
 62
     7
 10
1155.25
 20
79.255
 30
0.0
 11
1154.25
 21
79.25500000000002
 31
0.0
  0
ARC
  5
244
  8
1
  6
CONTINUOUS
 62
     7
 10
1154.25
 20
77.25
 30
0.0
 40
2.004999999999993
 50
89.99999999999962
 51
165.5593767870102
  0
LINE
  5
245
  8
1
  6
CONTINUOUS
 62
     7
 10
1152.308344778289
 20
77.75000000000001
 30
0.0
 11
1152.318672736173
 21
77.75000000000001
 31
0.0
  0
LINE
  5
246
  8
1
  6
CONTINUOUS
 62
     7
 10
1165.0
 20
231.8711137780598
 30
0.0
 11
1165.0
 21
231.8610236861395
 31
0.0
  0
ARC
  5
247
  8
1
  6
CONTINUOUS
 62
     7
 10
1167.0
 20
217.0
 30
0.0
 40
15.005
 50
97.65968710389313
 51
126.8555798155976
  0
LINE
  5
248
  8
1
  6
CONTINUOUS
 62
     7
 10
1158.0
 20
228.9937494137572
 30
0.0
 11
1158.0
 21
229.0062494143675
 31
0.0
  0
ARC
  5
249
  8
1
  6
CONTINUOUS
 62
     7
 10
1167.0
 20
217.0
 30
0.0
 40
14.995
 50
97.66482594608821
 51
126.8842277111297
  0
LINE
  5
24A
  8
1
  6
CONTINUOUS
 62
     7
 10
1169.0
 20
62.12888622194018
 30
0.0
 11
1169.0
 21
62.13897631386052
 31
0.0
  0
ARC
  5
24B
  8
1
  6
CONTINUOUS
 62
     7
 10
1167.0
 20
76.99999999999999
 30
0.0
 40
15.005
 50
277.6596871038931
 51
306.8555798155976
  0
LINE
  5
24C
  8
1
  6
CONTINUOUS
 62
     7
 10
1176.0
 20
65.00625058624283
 30
0.0
 11
1176.0
 21
64.99375058563248
 31
0.0
  0
ARC
  5
24D
  8
1
  6
CONTINUOUS
 62
     7
 10
1167.0
 20
76.99999999999999
 30
0.0
 40
14.995
 50
277.6648259460882
 51
306.8842277111298
  0
ARC
  5
24E
  8
1
  6
CONTINUOUS
 62
     7
 10
1167.0
 20
76.99999999999999
 30
0.0
 40
15.005
 50
233.1444201844024
 51
262.3403128961069
  0
LINE
  5
24F
  8
1
  6
CONTINUOUS
 62
     7
 10
1165.0
 20
62.12888622194018
 30
0.0
 11
1165.0
 21
62.13897631386052
 31
0.0
  0
ARC
  5
250
  8
1
  6
CONTINUOUS
 62
     7
 10
1167.0
 20
76.99999999999999
 30
0.0
 40
14.995
 50
233.1157722888703
 51
262.3351740539117
  0
LINE
  5
251
  8
1
  6
CONTINUOUS
 62
     7
 10
1158.0
 20
65.00625058624283
 30
0.0
 11
1158.0
 21
64.99375058563248
 31
0.0
  0
LINE
  5
252
  8
1
  6
CONTINUOUS
 62
     7
 10
1154.0
 20
228.3298289925312
 30
0.0
 11
1154.0
 21
228.3196742444295
 31
0.0
  0
ARC
  5
253
  8
1
  6
CONTINUOUS
 62
     7
 10
1156.0
 20
217.0
 30
0.0
 40
11.505
 50
100.01101268312
 51
124.98898731688
  0
LINE
  5
254
  8
1
  6
CONTINUOUS
 62
     7
 10
1149.409995143314
 20
226.4184319814318
 30
0.0
 11
1149.40281465207
 21
226.4256124726758
 31
0.0
  0
ARC
  5
255
  8
1
  6
CONTINUOUS
 62
     7
 10
1156.0
 20
217.0
 30
0.0
 40
11.49499999999999
 50
100.019811538629
 51
124.9801884613711
  0
LINE
  5
256
  8
1
  6
CONTINUOUS
 62
     7
 10
1180.0
 20
65.67017100746881
 30
0.0
 11
1180.0
 21
65.68032575557051
 31
0.0
  0
ARC
  5
257
  8
1
  6
CONTINUOUS
 62
     7
 10
1178.0
 20
76.99999999999999
 30
0.0
 40
11.505
 50
280.01101268312
 51
304.98898731688
  0
LINE
  5
258
  8
1
  6
CONTINUOUS
 62
     7
 10
1184.590004856686
 20
67.5815680185681
 30
0.0
 11
1184.59718534793
 21
67.57438752732415
 31
0.0
  0
ARC
  5
259
  8
1
  6
CONTINUOUS
 62
     7
 10
1178.0
 20
76.99999999999999
 30
0.0
 40
11.49499999999999
 50
280.019811538629
 51
304.9801884613711
  0
ARC
  5
25A
  8
1
  6
CONTINUOUS
 62
     7
 10
1156.0
 20
76.99999999999999
 30
0.0
 40
11.505
 50
235.0110126831201
 51
259.98898731688
  0
LINE
  5
25B
  8
1
  6
CONTINUOUS
 62
     7
 10
1154.0
 20
65.67017100746881
 30
0.0
 11
1154.0
 21
65.68032575557051
 31
0.0
  0
ARC
  5
25C
  8
1
  6
CONTINUOUS
 62
     7
 10
1156.0
 20
76.99999999999999
 30
0.0
 40
11.49499999999999
 50
235.0198115386289
 51
259.9801884613709
  0
LINE
  5
25D
  8
1
  6
CONTINUOUS
 62
     7
 10
1149.409995143314
 20
67.5815680185681
 30
0.0
 11
1149.40281465207
 21
67.57438752732415
 31
0.0
  0
LINE
  5
25E
  8
1
  6
CONTINUOUS
 62
     7
 10
1146.574387527324
 20
223.5971853479297
 30
0.0
 11
1146.581568018568
 21
223.5900048566857
 31
0.0
  0
ARC
  5
25F
  8
1
  6
CONTINUOUS
 62
     7
 10
1156.0
 20
217.0
 30
0.0
 40
11.505
 50
145.0110126831202
 51
169.9889873168798
  0
LINE
  5
260
  8
1
  6
CONTINUOUS
 62
     7
 10
1144.68032575557
 20
219.0
 30
0.0
 11
1144.670171007469
 21
219.0
 31
0.0
  0
ARC
  5
261
  8
1
  6
CONTINUOUS
 62
     7
 10
1156.0
 20
217.0
 30
0.0
 40
11.495
 50
145.019811538629
 51
169.9801884613711
  0
LINE
  5
262
  8
1
  6
CONTINUOUS
 62
     7
 10
1187.425612472676
 20
70.40281465207033
 30
0.0
 11
1187.418431981432
 21
70.4099951433143
 31
0.0
  0
ARC
  5
263
  8
1
  6
CONTINUOUS
 62
     7
 10
1178.0
 20
76.99999999999999
 30
0.0
 40
11.505
 50
325.0110126831203
 51
349.98898731688
  0
LINE
  5
264
  8
1
  6
CONTINUOUS
 62
     7
 10
1189.31967424443
 20
74.99999999999999
 30
0.0
 11
1189.329828992531
 21
74.99999999999999
 31
0.0
  0
ARC
  5
265
  8
1
  6
CONTINUOUS
 62
     7
 10
1178.0
 20
76.99999999999999
 30
0.0
 40
11.495
 50
325.019811538629
 51
349.9801884613711
  0
ARC
  5
266
  8
1
  6
CONTINUOUS
 62
     7
 10
1156.0
 20
76.99999999999999
 30
0.0
 40
11.505
 50
190.0110126831202
 51
214.9889873168798
  0
LINE
  5
267
  8
1
  6
CONTINUOUS
 62
     7
 10
1146.574387527324
 20
70.40281465207033
 30
0.0
 11
1146.581568018568
 21
70.4099951433143
 31
0.0
  0
ARC
  5
268
  8
1
  6
CONTINUOUS
 62
     7
 10
1156.0
 20
76.99999999999999
 30
0.0
 40
11.495
 50
190.0198115386289
 51
214.980188461371
  0
LINE
  5
269
  8
1
  6
CONTINUOUS
 62
     7
 10
1144.68032575557
 20
74.99999999999999
 30
0.0
 11
1144.670171007469
 21
74.99999999999999
 31
0.0
  0
LINE
  5
26A
  8
1
  6
CONTINUOUS
 62
     7
 10
1144.670171007469
 20
215.0
 30
0.0
 11
1144.680325755571
 21
215.0
 31
0.0
  0
ARC
  5
26B
  8
1
  6
CONTINUOUS
 62
     7
 10
1156.0
 20
217.0
 30
0.0
 40
11.505
 50
190.0110126831202
 51
214.98898731688
  0
LINE
  5
26C
  8
1
  6
CONTINUOUS
 62
     7
 10
1146.581568018568
 20
210.4099951433143
 30
0.0
 11
1146.574387527324
 21
210.4028146520703
 31
0.0
  0
ARC
  5
26D
  8
1
  6
CONTINUOUS
 62
     7
 10
1156.0
 20
217.0
 30
0.0
 40
11.495
 50
190.0198115386289
 51
214.9801884613711
  0
LINE
  5
26E
  8
1
  6
CONTINUOUS
 62
     7
 10
1189.329828992531
 20
79.0
 30
0.0
 11
1189.319674244429
 21
79.0
 31
0.0
  0
ARC
  5
26F
  8
1
  6
CONTINUOUS
 62
     7
 10
1178.0
 20
77.0
 30
0.0
 40
11.505
 50
10.01101268312016
 51
34.98898731688001
  0
LINE
  5
270
  8
1
  6
CONTINUOUS
 62
     7
 10
1187.418431981432
 20
83.5900048566857
 30
0.0
 11
1187.425612472676
 21
83.59718534792967
 31
0.0
  0
ARC
  5
271
  8
1
  6
CONTINUOUS
 62
     7
 10
1178.0
 20
77.0
 30
0.0
 40
11.495
 50
10.01981153862892
 51
34.98018846137113
  0
ARC
  5
272
  8
1
  6
CONTINUOUS
 62
     7
 10
1156.0
 20
77.0
 30
0.0
 40
11.505
 50
145.01101268312
 51
169.9889873168798
  0
LINE
  5
273
  8
1
  6
CONTINUOUS
 62
     7
 10
1144.670171007469
 20
79.0
 30
0.0
 11
1144.680325755571
 21
79.0
 31
0.0
  0
ARC
  5
274
  8
1
  6
CONTINUOUS
 62
     7
 10
1156.0
 20
77.0
 30
0.0
 40
11.495
 50
145.0198115386289
 51
169.9801884613711
  0
LINE
  5
275
  8
1
  6
CONTINUOUS
 62
     7
 10
1146.581568018568
 20
83.5900048566857
 30
0.0
 11
1146.574387527324
 21
83.59718534792967
 31
0.0
  0
LINE
  5
276
  8
1
  6
CONTINUOUS
 62
     7
 10
1149.40281465207
 20
207.5743875273242
 30
0.0
 11
1149.409995143314
 21
207.581568018568
 31
0.0
  0
ARC
  5
277
  8
1
  6
CONTINUOUS
 62
     7
 10
1156.0
 20
217.0
 30
0.0
 40
11.505
 50
235.0110126831201
 51
259.98898731688
  0
LINE
  5
278
  8
1
  6
CONTINUOUS
 62
     7
 10
1154.0
 20
205.6803257555705
 30
0.0
 11
1154.0
 21
205.6701710074688
 31
0.0
  0
ARC
  5
279
  8
1
  6
CONTINUOUS
 62
     7
 10
1156.0
 20
217.0
 30
0.0
 40
11.495
 50
235.0198115386289
 51
259.9801884613711
  0
LINE
  5
27A
  8
1
  6
CONTINUOUS
 62
     7
 10
1184.59718534793
 20
86.4256124726758
 30
0.0
 11
1184.590004856686
 21
86.41843198143192
 31
0.0
  0
ARC
  5
27B
  8
1
  6
CONTINUOUS
 62
     7
 10
1178.0
 20
76.99999999999999
 30
0.0
 40
11.505
 50
55.01101268312004
 51
79.98898731687996
  0
LINE
  5
27C
  8
1
  6
CONTINUOUS
 62
     7
 10
1180.0
 20
88.31967424442946
 30
0.0
 11
1180.0
 21
88.32982899253115
 31
0.0
  0
ARC
  5
27D
  8
1
  6
CONTINUOUS
 62
     7
 10
1178.0
 20
76.99999999999999
 30
0.0
 40
11.495
 50
55.01981153862886
 51
79.98018846137113
  0
ARC
  5
27E
  8
1
  6
CONTINUOUS
 62
     7
 10
1156.0
 20
76.99999999999999
 30
0.0
 40
11.505
 50
100.0110126831201
 51
124.98898731688
  0
LINE
  5
27F
  8
1
  6
CONTINUOUS
 62
     7
 10
1149.40281465207
 20
86.4256124726758
 30
0.0
 11
1149.409995143314
 21
86.41843198143192
 31
0.0
  0
ARC
  5
280
  8
1
  6
CONTINUOUS
 62
     7
 10
1156.0
 20
76.99999999999999
 30
0.0
 40
11.495
 50
100.0198115386288
 51
124.9801884613712
  0
LINE
  5
281
  8
1
  6
CONTINUOUS
 62
     7
 10
1154.0
 20
88.31967424442946
 30
0.0
 11
1154.0
 21
88.32982899253115
 31
0.0
  0
LINE
  5
282
  8
1
  6
CONTINUOUS
 62
     7
 10
1158.0
 20
204.9937505856325
 30
0.0
 11
1158.0
 21
205.0062505862428
 31
0.0
  0
ARC
  5
283
  8
1
  6
CONTINUOUS
 62
     7
 10
1167.0
 20
217.0
 30
0.0
 40
15.005
 50
233.1444201844024
 51
262.3403128961069
  0
LINE
  5
284
  8
1
  6
CONTINUOUS
 62
     7
 10
1165.0
 20
202.1389763138605
 30
0.0
 11
1165.0
 21
202.1288862219402
 31
0.0
  0
ARC
  5
285
  8
1
  6
CONTINUOUS
 62
     7
 10
1167.0
 20
217.0
 30
0.0
 40
14.995
 50
233.1157722888703
 51
262.3351740539118
  0
LINE
  5
286
  8
1
  6
CONTINUOUS
 62
     7
 10
1176.0
 20
89.0062494143675
 30
0.0
 11
1176.0
 21
88.99374941375717
 31
0.0
  0
ARC
  5
287
  8
1
  6
CONTINUOUS
 62
     7
 10
1167.0
 20
77.00000000000001
 30
0.0
 40
15.005
 50
53.14442018440241
 51
82.34031289610687
  0
LINE
  5
288
  8
1
  6
CONTINUOUS
 62
     7
 10
1169.0
 20
91.86102368613952
 30
0.0
 11
1169.0
 21
91.87111377805978
 31
0.0
  0
ARC
  5
289
  8
1
  6
CONTINUOUS
 62
     7
 10
1167.0
 20
77.00000000000001
 30
0.0
 40
14.995
 50
53.11577228887031
 51
82.33517405391181
  0
ARC
  5
28A
  8
1
  6
CONTINUOUS
 62
     7
 10
1167.0
 20
77.00000000000001
 30
0.0
 40
15.005
 50
97.65968710389313
 51
126.8555798155976
  0
LINE
  5
28B
  8
1
  6
CONTINUOUS
 62
     7
 10
1158.0
 20
89.0062494143675
 30
0.0
 11
1158.0
 21
88.99374941375717
 31
0.0
  0
ARC
  5
28C
  8
1
  6
CONTINUOUS
 62
     7
 10
1167.0
 20
77.00000000000001
 30
0.0
 40
14.995
 50
97.66482594608817
 51
126.8842277111297
  0
LINE
  5
28D
  8
1
  6
CONTINUOUS
 62
     7
 10
1165.0
 20
91.86102368613952
 30
0.0
 11
1165.0
 21
91.87111377805978
 31
0.0
  0
ENDBLK
  8
0
  0
ENDSEC
  0
SECTION
  2
ENTITIES
  0
LINE
  5
70
  8
1
  6
CENTER
 62
     1
 10
1314.0
 20
147.0
 30
0.0
 11
1308.0
 21
147.0
 31
0.0
  0
LINE
  5
72
  8
1
  6
CENTER
 62
     1
 10
1167.0
 20
57.00000000000001
 30
0.0
 11
1167.0
 21
237.0
 31
0.0
  0
LINE
  5
73
  8
1
  6
CENTER
 62
     1
 10
1074.0
 20
147.0
 30
0.0
 11
1260.0
 21
147.0
 31
0.0
  0
TEXT
  5
74
  8
1
  6
CONTINUOUS
 62
     7
 10
1228.926722520945
 20
36.21403338752031
 30
0.0
 40
5.0
  1
CSS-SBG-W
  0
INSERT
  5
86
  8
1
  6
CONTINUOUS
 62
     7
  2
D_FRAME_VIEW_2644
 10
0.0
 20
0.0
 30
0.0
  0
INSERT
  5
28E
  8
1
  6
CONTINUOUS
 62
     7
  2
D_FRAME_VIEW_2022
 10
0.0
 20
0.0
 30
0.0
  0
ENDSEC
  0
EOF
