  0
SECTION
  2
HEADER
  9
$ACADVER
  1
AC1006
  9
$DWGCODEPAGE
  3
ansi_932
  9
$INSBASE
 10
0.0
 20
0.0
 30
0.0
  9
$EXTMIN
 10
787.9999999999999
 20
45.78409090909091
  9
$EXTMAX
 10
972.0
 20
242.9999999999999
  9
$LIMMIN
 10
0.0
 20
0.0
  9
$LIMMAX
 10
12.0
 20
9.0
  9
$ORTHOMODE
 70
     0
  9
$REGENMODE
 70
     1
  9
$FILLMODE
 70
     1
  9
$QTEXTMODE
 70
     0
  9
$MIRRTEXT
 70
     1
  9
$DRAGMODE
 70
     2
  9
$LTSCALE
 40
1.0
  9
$OSMODE
 70
    37
  9
$ATTMODE
 70
     1
  9
$TEXTSIZE
 40
0.2
  9
$TRACEWID
 40
0.05
  9
$TEXTSTYLE
  7
STANDARD
  9
$CLAYER
  8
0
  9
$CELTYPE
  6
BYLAYER
  9
$CECOLOR
 62
   256
  9
$DIMSCALE
 40
1.0
  9
$DIMASZ
 40
3.0
  9
$DIMEXO
 40
0.0625
  9
$DIMDLI
 40
0.38
  9
$DIMRND
 40
0.0
  9
$DIMDLE
 40
0.0
  9
$DIMEXE
 40
1.5
  9
$DIMTP
 40
0.0
  9
$DIMTM
 40
0.0
  9
$DIMTXT
 40
3.0
  9
$DIMCEN
 40
0.09
  9
$DIMTSZ
 40
0.0
  9
$DIMTOL
 70
     0
  9
$DIMLIM
 70
     0
  9
$DIMTIH
 70
     1
  9
$DIMTOH
 70
     1
  9
$DIMSE1
 70
     0
  9
$DIMSE2
 70
     0
  9
$DIMTAD
 70
     1
  9
$DIMZIN
 70
     0
  9
$DIMBLK
  1

  9
$DIMASO
 70
     1
  9
$DIMSHO
 70
     1
  9
$DIMPOST
  1

  9
$DIMAPOST
  1

  9
$DIMALT
 70
     0
  9
$DIMALTD
 70
     2
  9
$DIMALTF
 40
25.4
  9
$DIMLFAC
 40
1.0
  9
$DIMTOFL
 70
     0
  9
$DIMTVP
 40
0.0
  9
$DIMTIX
 70
     0
  9
$DIMSOXD
 70
     0
  9
$DIMSAH
 70
     0
  9
$DIMBLK1
  1

  9
$DIMBLK2
  1

  9
$LUNITS
 70
     2
  9
$LUPREC
 70
     4
  9
$SKETCHINC
 40
0.1
  9
$FILLETRAD
 40
0.5
  9
$AUNITS
 70
     0
  9
$AUPREC
 70
     0
  9
$MENU
  1
.
  9
$ELEVATION
 40
0.0
  9
$THICKNESS
 40
0.0
  9
$LIMCHECK
 70
     0
  9
$CHAMFERA
 40
0.0
  9
$CHAMFERB
 40
0.0
  9
$SKPOLY
 70
     0
  9
$TDCREATE
 40
2460234.676451551
  9
$TDUPDATE
 40
2460234.676452303
  9
$TDINDWG
 40
0.0000000116
  9
$TDUSRTIMER
 40
0.0000000116
  9
$USRTIMER
 70
     1
  9
$ANGBASE
 50
0.0
  9
$ANGDIR
 70
     0
  9
$PDMODE
 70
     0
  9
$PDSIZE
 40
0.0
  9
$PLINEWID
 40
0.0
  9
$COORDS
 70
     1
  9
$SPLFRAME
 70
     0
  9
$SPLINETYPE
 70
     6
  9
$SPLINESEGS
 70
     8
  9
$ATTDIA
 70
     0
  9
$ATTREQ
 70
     1
  9
$HANDLING
 70
     1
  9
$HANDSEED
  5
1D8
  9
$SURFTAB1
 70
     6
  9
$SURFTAB2
 70
     6
  9
$SURFTYPE
 70
     6
  9
$SURFU
 70
     6
  9
$SURFV
 70
     6
  9
$UCSNAME
  2

  9
$UCSORG
 10
0.0
 20
0.0
 30
0.0
  9
$UCSXDIR
 10
1.0
 20
0.0
 30
0.0
  9
$UCSYDIR
 10
0.0
 20
1.0
 30
0.0
  9
$USERI1
 70
     0
  9
$USERI2
 70
     0
  9
$USERI3
 70
     0
  9
$USERI4
 70
     0
  9
$USERI5
 70
     0
  9
$USERR1
 40
0.0
  9
$USERR2
 40
0.0
  9
$USERR3
 40
0.0
  9
$USERR4
 40
0.0
  9
$USERR5
 40
0.0
  9
$WORLDVIEW
 70
     1
  0
ENDSEC
  0
SECTION
  2
TABLES
  0
TABLE
  2
VPORT
 70
     1
  0
VPORT
  2
*ACTIVE
 70
     0
 10
0.0
 20
0.0
 11
1.0
 21
1.0
 12
880.0
 22
144.3920454545454
 13
0.0
 23
0.0
 14
0.5
 24
0.5
 15
0.5
 25
0.5
 16
0.0
 26
0.0
 36
1.0
 17
0.0
 27
0.0
 37
0.0
 40
197.215909090909
 41
1.6
 42
50.0
 43
0.0
 44
0.0
 50
0.0
 51
0.0
 71
     0
 72
   100
 73
     1
 74
     3
 75
     0
 76
     0
 77
     0
 78
     0
  0
ENDTAB
  0
TABLE
  2
LTYPE
 70
     2
  0
LTYPE
  2
CONTINUOUS
 70
     0
  3
Solid line
 72
    65
 73
     0
 40
0.0
  0
LTYPE
  2
CENTER
 70
     0
  3

 72
    65
 73
     0
 40
0.0
  0
ENDTAB
  0
TABLE
  2
LAYER
 70
     2
  0
LAYER
  2
0
 70
     0
 62
     7
  6
CONTINUOUS
  0
LAYER
  2
1
 70
     0
 62
     7
  6
CONTINUOUS
  0
ENDTAB
  0
TABLE
  2
STYLE
 70
     2
  0
STYLE
  2
STANDARD
 70
     0
 40
0.0
 41
1.0
 50
0.0
 71
     0
 42
0.2
  3
txt
  4

  0
STYLE
  2
ＭＳ_ゴシック
 70
     0
 40
0.0
 41
1.0
 50
0.0
 71
     0
 42
0.2
  3
ＭＳ ゴシック.shx
  4

  0
ENDTAB
  0
TABLE
  2
VIEW
 70
     0
  0
ENDTAB
  0
TABLE
  2
UCS
 70
     0
  0
ENDTAB
  0
ENDSEC
  0
SECTION
  2
BLOCKS
  0
BLOCK
  8
0
  2
D_FRAME_VIEW_2020
 70
     0
 10
0.0
 20
0.0
 30
0.0
  0
LINE
  5
76
  8
1
  6
CONTINUOUS
 62
     7
 10
970.0
 20
214.0
 30
0.0
 11
968.0
 21
214.0
 31
0.0
  0
LINE
  5
77
  8
1
  6
CONTINUOUS
 62
     7
 10
968.0
 20
216.0
 30
0.0
 11
970.0
 21
216.0
 31
0.0
  0
LINE
  5
78
  8
1
  6
CONTINUOUS
 62
     7
 10
970.0
 20
216.0
 30
0.0
 11
970.0
 21
214.0
 31
0.0
  0
LINE
  5
79
  8
1
  6
CONTINUOUS
 62
     7
 10
968.0
 20
214.0
 30
0.0
 11
968.0
 21
216.0
 31
0.0
  0
LINE
  5
7A
  8
1
  6
CONTINUOUS
 62
     7
 10
968.0
 20
92.0
 30
0.0
 11
970.0
 21
92.0
 31
0.0
  0
LINE
  5
7B
  8
1
  6
CONTINUOUS
 62
     7
 10
970.0
 20
214.0
 30
0.0
 11
970.0
 21
92.00000000000001
 31
0.0
  0
LINE
  5
7C
  8
1
  6
CONTINUOUS
 62
     7
 10
968.0
 20
214.0
 30
0.0
 11
968.0
 21
92.00000000000001
 31
0.0
  0
LINE
  5
7D
  8
1
  6
CONTINUOUS
 62
     7
 10
970.0
 20
90.0
 30
0.0
 11
968.0
 21
90.0
 31
0.0
  0
LINE
  5
7E
  8
1
  6
CONTINUOUS
 62
     7
 10
970.0
 20
92.0
 30
0.0
 11
970.0
 21
90.0
 31
0.0
  0
LINE
  5
7F
  8
1
  6
CONTINUOUS
 62
     7
 10
968.0
 20
90.0
 30
0.0
 11
968.0
 21
92.0
 31
0.0
  0
LINE
  5
80
  8
1
  6
CONTINUOUS
 62
     7
 10
970.0
 20
65.0
 30
0.0
 11
968.0
 21
65.0
 31
0.0
  0
LINE
  5
81
  8
1
  6
CONTINUOUS
 62
     7
 10
970.0
 20
90.0
 30
0.0
 11
970.0
 21
65.0
 31
0.0
  0
LINE
  5
82
  8
1
  6
CONTINUOUS
 62
     7
 10
968.0
 20
90.0
 30
0.0
 11
968.0
 21
65.0
 31
0.0
  0
LINE
  5
83
  8
1
  6
CONTINUOUS
 62
     7
 10
970.0
 20
241.0
 30
0.0
 11
968.0
 21
241.0
 31
0.0
  0
LINE
  5
84
  8
1
  6
CONTINUOUS
 62
     7
 10
970.0
 20
241.0
 30
0.0
 11
970.0
 21
216.0
 31
0.0
  0
LINE
  5
85
  8
1
  6
CONTINUOUS
 62
     7
 10
968.0
 20
241.0
 30
0.0
 11
968.0
 21
216.0
 31
0.0
  0
ENDBLK
  8
0
  0
BLOCK
  8
0
  2
D_FRAME_VIEW_1596
 70
     0
 10
0.0
 20
0.0
 30
0.0
  0
LINE
  5
8A
  8
1
  6
CONTINUOUS
 62
     7
 10
890.0
 20
211.505
 30
0.0
 11
883.5
 21
211.505
 31
0.0
  0
LINE
  5
8B
  8
1
  6
CONTINUOUS
 62
     7
 10
883.4999999999999
 20
211.505
 30
0.0
 11
883.4999999999999
 21
211.495
 31
0.0
  0
LINE
  5
8C
  8
1
  6
CONTINUOUS
 62
     7
 10
883.4999999999999
 20
211.495
 30
0.0
 11
889.9999999999999
 21
211.495
 31
0.0
  0
LINE
  5
8D
  8
1
  6
CONTINUOUS
 62
     7
 10
890.0
 20
211.495
 30
0.0
 11
890.0
 21
211.505
 31
0.0
  0
LINE
  5
8E
  8
1
  6
CONTINUOUS
 62
     7
 10
872.0714434524133
 20
94.50500000000001
 30
0.0
 11
880.5
 21
94.50500000000001
 31
0.0
  0
ARC
  5
8F
  8
1
  6
CONTINUOUS
 62
     7
 10
875.4999999999999
 20
83.00000000000001
 30
0.0
 40
12.005
 50
106.5943609612475
 51
112.8222507016094
  0
LINE
  5
90
  8
1
  6
CONTINUOUS
 62
     7
 10
870.8486174272708
 20
94.05643094140741
 30
0.0
 11
870.843577900957
 21
94.06515965702906
 31
0.0
  0
ARC
  5
91
  8
1
  6
CONTINUOUS
 62
     7
 10
875.4999999999999
 20
83.00000000000001
 30
0.0
 40
11.995
 50
106.6013255023404
 51
112.8162352091263
  0
LINE
  5
92
  8
1
  6
CONTINUOUS
 62
     7
 10
880.4999999999999
 20
94.49499999999999
 30
0.0
 11
872.0729021023612
 21
94.495
 31
0.0
  0
LINE
  5
93
  8
1
  6
CONTINUOUS
 62
     7
 10
880.4999999999999
 20
94.50500000000002
 30
0.0
 11
880.4999999999999
 21
94.49499999999999
 31
0.0
  0
LINE
  5
94
  8
1
  6
CONTINUOUS
 62
     7
 10
843.9285565475867
 20
211.495
 30
0.0
 11
835.4999999999999
 21
211.495
 31
0.0
  0
ARC
  5
95
  8
1
  6
CONTINUOUS
 62
     7
 10
840.5
 20
223.0
 30
0.0
 40
12.005
 50
286.5943609612475
 51
292.8222507016094
  0
LINE
  5
96
  8
1
  6
CONTINUOUS
 62
     7
 10
845.1513825727292
 20
211.9435690585926
 30
0.0
 11
845.156422099043
 21
211.9348403429709
 31
0.0
  0
ARC
  5
97
  8
1
  6
CONTINUOUS
 62
     7
 10
840.5
 20
223.0
 30
0.0
 40
11.995
 50
286.6013255023404
 51
292.8162352091264
  0
LINE
  5
98
  8
1
  6
CONTINUOUS
 62
     7
 10
835.5
 20
211.505
 30
0.0
 11
843.9270978976388
 21
211.505
 31
0.0
  0
LINE
  5
99
  8
1
  6
CONTINUOUS
 62
     7
 10
835.5
 20
211.495
 30
0.0
 11
835.5
 21
211.505
 31
0.0
  0
LINE
  5
9A
  8
1
  6
CONTINUOUS
 62
     7
 10
863.5991586431883
 20
84.5
 30
0.0
 11
863.5890795905606
 21
84.5
 31
0.0
  0
ARC
  5
9B
  8
1
  6
CONTINUOUS
 62
     7
 10
875.4999999999999
 20
82.99999999999999
 30
0.0
 40
11.995
 50
127.1837647908737
 51
172.8162352091263
  0
LINE
  5
9C
  8
1
  6
CONTINUOUS
 62
     7
 10
868.2455016896037
 20
92.56515965702906
 30
0.0
 11
868.2505412159175
 21
92.5564309414074
 31
0.0
  0
ARC
  5
9D
  8
1
  6
CONTINUOUS
 62
     7
 10
875.4999999999999
 20
82.99999999999999
 30
0.0
 40
12.005
 50
127.1777492983905
 51
172.8222507016093
  0
LINE
  5
9E
  8
1
  6
CONTINUOUS
 62
     7
 10
852.4008413568117
 20
221.5
 30
0.0
 11
852.4109204094393
 21
221.5
 31
0.0
  0
ARC
  5
9F
  8
1
  6
CONTINUOUS
 62
     7
 10
840.5
 20
223.0
 30
0.0
 40
11.995
 50
307.1837647908736
 51
352.8162352091263
  0
LINE
  5
A0
  8
1
  6
CONTINUOUS
 62
     7
 10
847.7544983103962
 20
213.4348403429709
 30
0.0
 11
847.7494587840824
 21
213.4435690585926
 31
0.0
  0
ARC
  5
A1
  8
1
  6
CONTINUOUS
 62
     7
 10
840.5
 20
223.0
 30
0.0
 40
12.005
 50
307.1777492983905
 51
352.8222507016093
  0
LINE
  5
A2
  8
1
  6
CONTINUOUS
 62
     7
 10
868.2505412159175
 20
73.44356905859259
 30
0.0
 11
868.2455016896037
 21
73.43484034297086
 31
0.0
  0
ARC
  5
A3
  8
1
  6
CONTINUOUS
 62
     7
 10
875.5
 20
83.0
 30
0.0
 40
11.995
 50
187.1837647908737
 51
232.8162352091263
  0
LINE
  5
A4
  8
1
  6
CONTINUOUS
 62
     7
 10
863.5890795905606
 20
81.49999999999999
 30
0.0
 11
863.5991586431884
 21
81.5
 31
0.0
  0
ARC
  5
A5
  8
1
  6
CONTINUOUS
 62
     7
 10
875.5
 20
83.0
 30
0.0
 40
12.005
 50
187.1777492983906
 51
232.8222507016096
  0
LINE
  5
A6
  8
1
  6
CONTINUOUS
 62
     7
 10
847.7494587840824
 20
232.5564309414074
 30
0.0
 11
847.7544983103962
 21
232.5651596570291
 31
0.0
  0
ARC
  5
A7
  8
1
  6
CONTINUOUS
 62
     7
 10
840.4999999999999
 20
223.0
 30
0.0
 40
11.995
 50
7.183764790873695
 51
52.81623520912636
  0
LINE
  5
A8
  8
1
  6
CONTINUOUS
 62
     7
 10
852.4109204094393
 20
224.5
 30
0.0
 11
852.4008413568116
 21
224.5
 31
0.0
  0
ARC
  5
A9
  8
1
  6
CONTINUOUS
 62
     7
 10
840.4999999999999
 20
223.0
 30
0.0
 40
12.005
 50
7.177749298390665
 51
52.82225070160957
  0
LINE
  5
AA
  8
1
  6
CONTINUOUS
 62
     7
 10
880.4999999999999
 20
234.495
 30
0.0
 11
880.4999999999999
 21
234.505
 31
0.0
  0
LINE
  5
AB
  8
1
  6
CONTINUOUS
 62
     7
 10
880.4999999999999
 20
234.505
 30
0.0
 11
872.0714434524133
 21
234.505
 31
0.0
  0
ARC
  5
AC
  8
1
  6
CONTINUOUS
 62
     7
 10
875.4999999999999
 20
223.0
 30
0.0
 40
12.005
 50
106.5943609612475
 51
112.8222507016093
  0
LINE
  5
AD
  8
1
  6
CONTINUOUS
 62
     7
 10
870.843577900957
 20
234.0651596570291
 30
0.0
 11
870.8486174272708
 21
234.0564309414074
 31
0.0
  0
ARC
  5
AE
  8
1
  6
CONTINUOUS
 62
     7
 10
875.4999999999999
 20
223.0
 30
0.0
 40
11.995
 50
106.6013255023404
 51
112.8162352091264
  0
LINE
  5
AF
  8
1
  6
CONTINUOUS
 62
     7
 10
872.0729021023612
 20
234.495
 30
0.0
 11
880.4999999999999
 21
234.495
 31
0.0
  0
LINE
  5
B0
  8
1
  6
CONTINUOUS
 62
     7
 10
890.0
 20
234.505
 30
0.0
 11
883.5
 21
234.505
 31
0.0
  0
LINE
  5
B1
  8
1
  6
CONTINUOUS
 62
     7
 10
883.4999999999999
 20
234.505
 30
0.0
 11
883.4999999999999
 21
234.495
 31
0.0
  0
LINE
  5
B2
  8
1
  6
CONTINUOUS
 62
     7
 10
883.4999999999999
 20
234.495
 30
0.0
 11
889.9999999999999
 21
234.495
 31
0.0
  0
LINE
  5
B3
  8
1
  6
CONTINUOUS
 62
     7
 10
890.0
 20
234.495
 30
0.0
 11
890.0
 21
234.505
 31
0.0
  0
LINE
  5
B4
  8
1
  6
CONTINUOUS
 62
     7
 10
889.0
 20
209.005
 30
0.0
 11
875.0
 21
209.005
 31
0.0
  0
LINE
  5
B5
  8
1
  6
CONTINUOUS
 62
     7
 10
875.0
 20
209.005
 30
0.0
 11
875.0
 21
208.995
 31
0.0
  0
LINE
  5
B6
  8
1
  6
CONTINUOUS
 62
     7
 10
875.0
 20
208.995
 30
0.0
 11
889.0
 21
208.995
 31
0.0
  0
LINE
  5
B7
  8
1
  6
CONTINUOUS
 62
     7
 10
889.0
 20
208.995
 30
0.0
 11
889.0
 21
209.005
 31
0.0
  0
LINE
  5
B8
  8
1
  6
CONTINUOUS
 62
     7
 10
864.619826777076
 20
94.20860034767009
 30
0.0
 11
864.6126824319832
 21
94.2157446927629
 31
0.0
  0
ARC
  5
B9
  8
1
  6
CONTINUOUS
 62
     7
 10
873.0
 20
83.00000000000003
 30
0.0
 40
13.995
 50
98.21616531560471
 51
126.7838346843953
  0
LINE
  5
BA
  8
1
  6
CONTINUOUS
 62
     7
 10
871.0
 20
96.86145825661934
 30
0.0
 11
871.0
 21
96.85135462689483
 31
0.0
  0
ARC
  5
BB
  8
1
  6
CONTINUOUS
 62
     7
 10
873.0
 20
83.00000000000003
 30
0.0
 40
14.005
 50
98.21025821952479
 51
126.7897417804755
  0
LINE
  5
BC
  8
1
  6
CONTINUOUS
 62
     7
 10
851.3801732229239
 20
211.7913996523299
 30
0.0
 11
851.3873175680168
 21
211.7842553072371
 31
0.0
  0
ARC
  5
BD
  8
1
  6
CONTINUOUS
 62
     7
 10
843.0
 20
223.0
 30
0.0
 40
13.995
 50
278.2161653156047
 51
306.7838346843953
  0
LINE
  5
BE
  8
1
  6
CONTINUOUS
 62
     7
 10
845.0
 20
209.1385417433806
 30
0.0
 11
845.0
 21
209.1486453731052
 31
0.0
  0
ARC
  5
BF
  8
1
  6
CONTINUOUS
 62
     7
 10
843.0
 20
223.0
 30
0.0
 40
14.005
 50
278.2102582195248
 51
306.7897417804754
  0
LINE
  5
C0
  8
1
  6
CONTINUOUS
 62
     7
 10
859.1486453731052
 20
85.00000000000001
 30
0.0
 11
859.1385417433806
 21
85.00000000000001
 31
0.0
  0
ARC
  5
C1
  8
1
  6
CONTINUOUS
 62
     7
 10
873.0
 20
83.00000000000001
 30
0.0
 40
13.995
 50
143.2161653156047
 51
171.7838346843953
  0
LINE
  5
C2
  8
1
  6
CONTINUOUS
 62
     7
 10
861.7842553072371
 20
91.38731756801671
 30
0.0
 11
861.7913996523298
 21
91.38017322292391
 31
0.0
  0
ARC
  5
C3
  8
1
  6
CONTINUOUS
 62
     7
 10
873.0
 20
83.00000000000001
 30
0.0
 40
14.005
 50
143.2102582195247
 51
171.7897417804753
  0
LINE
  5
C4
  8
1
  6
CONTINUOUS
 62
     7
 10
856.8513546268947
 20
221.0
 30
0.0
 11
856.8614582566192
 21
221.0
 31
0.0
  0
ARC
  5
C5
  8
1
  6
CONTINUOUS
 62
     7
 10
843.0
 20
223.0
 30
0.0
 40
13.995
 50
323.2161653156047
 51
351.7838346843953
  0
LINE
  5
C6
  8
1
  6
CONTINUOUS
 62
     7
 10
854.2157446927629
 20
214.6126824319833
 30
0.0
 11
854.2086003476701
 21
214.6198267770761
 31
0.0
  0
ARC
  5
C7
  8
1
  6
CONTINUOUS
 62
     7
 10
843.0
 20
223.0
 30
0.0
 40
14.005
 50
323.2102582195246
 51
351.7897417804753
  0
LINE
  5
C8
  8
1
  6
CONTINUOUS
 62
     7
 10
861.7913996523299
 20
74.61982677707611
 30
0.0
 11
861.7842553072372
 21
74.61268243198337
 31
0.0
  0
ARC
  5
C9
  8
1
  6
CONTINUOUS
 62
     7
 10
873.0
 20
83.0
 30
0.0
 40
13.995
 50
188.2161653156047
 51
216.7838346843954
  0
LINE
  5
CA
  8
1
  6
CONTINUOUS
 62
     7
 10
859.1385417433806
 20
80.99999999999997
 30
0.0
 11
859.1486453731052
 21
80.99999999999999
 31
0.0
  0
ARC
  5
CB
  8
1
  6
CONTINUOUS
 62
     7
 10
873.0
 20
83.0
 30
0.0
 40
14.005
 50
188.2102582195248
 51
216.7897417804752
  0
LINE
  5
CC
  8
1
  6
CONTINUOUS
 62
     7
 10
854.20860034767
 20
231.3801732229239
 30
0.0
 11
854.2157446927628
 21
231.3873175680166
 31
0.0
  0
ARC
  5
CD
  8
1
  6
CONTINUOUS
 62
     7
 10
843.0
 20
223.0
 30
0.0
 40
13.995
 50
8.21616531560476
 51
36.78383468439542
  0
LINE
  5
CE
  8
1
  6
CONTINUOUS
 62
     7
 10
856.8614582566192
 20
225.0
 30
0.0
 11
856.8513546268947
 21
225.0
 31
0.0
  0
ARC
  5
CF
  8
1
  6
CONTINUOUS
 62
     7
 10
843.0
 20
223.0
 30
0.0
 40
14.005
 50
8.210258219524803
 51
36.78974178047531
  0
LINE
  5
D0
  8
1
  6
CONTINUOUS
 62
     7
 10
871.0
 20
236.8513546268948
 30
0.0
 11
871.0
 21
236.8614582566193
 31
0.0
  0
ARC
  5
D1
  8
1
  6
CONTINUOUS
 62
     7
 10
873.0
 20
223.0
 30
0.0
 40
14.00499999999999
 50
98.21025821952468
 51
126.7897417804753
  0
LINE
  5
D2
  8
1
  6
CONTINUOUS
 62
     7
 10
864.6126824319833
 20
234.2157446927629
 30
0.0
 11
864.6198267770761
 21
234.20860034767
 31
0.0
  0
ARC
  5
D3
  8
1
  6
CONTINUOUS
 62
     7
 10
873.0
 20
223.0
 30
0.0
 40
13.995
 50
98.21616531560471
 51
126.7838346843953
  0
LINE
  5
D4
  8
1
  6
CONTINUOUS
 62
     7
 10
889.0
 20
237.005
 30
0.0
 11
875.0
 21
237.005
 31
0.0
  0
LINE
  5
D5
  8
1
  6
CONTINUOUS
 62
     7
 10
875.0
 20
237.005
 30
0.0
 11
875.0
 21
236.995
 31
0.0
  0
LINE
  5
D6
  8
1
  6
CONTINUOUS
 62
     7
 10
875.0
 20
236.995
 30
0.0
 11
889.0
 21
236.995
 31
0.0
  0
LINE
  5
D7
  8
1
  6
CONTINUOUS
 62
     7
 10
889.0
 20
236.995
 30
0.0
 11
889.0
 21
237.005
 31
0.0
  0
ARC
  5
D8
  8
1
  6
CONTINUOUS
 62
     7
 10
877.25
 20
83.25
 30
0.0
 40
1.994999999999997
 50
14.51459224556754
 51
90.00000000000011
  0
LINE
  5
D9
  8
1
  6
CONTINUOUS
 62
     7
 10
879.1813272638266
 20
83.74999999999999
 30
0.0
 11
879.1916552217116
 21
83.74999999999999
 31
0.0
  0
ARC
  5
DA
  8
1
  6
CONTINUOUS
 62
     7
 10
877.25
 20
83.25
 30
0.0
 40
2.005000000000008
 50
14.44062321298889
 51
90.00000000000009
  0
LINE
  5
DB
  8
1
  6
CONTINUOUS
 62
     7
 10
877.25
 20
85.255
 30
0.0
 11
876.25
 21
85.255
 31
0.0
  0
LINE
  5
DC
  8
1
  6
CONTINUOUS
 62
     7
 10
876.25
 20
85.255
 30
0.0
 11
876.25
 21
85.245
 31
0.0
  0
LINE
  5
DD
  8
1
  6
CONTINUOUS
 62
     7
 10
876.25
 20
85.245
 30
0.0
 11
877.25
 21
85.245
 31
0.0
  0
LINE
  5
DE
  8
1
  6
CONTINUOUS
 62
     7
 10
876.25
 20
220.755
 30
0.0
 11
876.25
 21
220.745
 31
0.0
  0
LINE
  5
DF
  8
1
  6
CONTINUOUS
 62
     7
 10
876.25
 20
220.745
 30
0.0
 11
877.25
 21
220.745
 31
0.0
  0
ARC
  5
E0
  8
1
  6
CONTINUOUS
 62
     7
 10
877.25
 20
222.75
 30
0.0
 40
2.005000000000007
 50
269.9999999999999
 51
345.5593767870111
  0
LINE
  5
E1
  8
1
  6
CONTINUOUS
 62
     7
 10
879.1916552217116
 20
222.25
 30
0.0
 11
879.1813272638266
 21
222.25
 31
0.0
  0
ARC
  5
E2
  8
1
  6
CONTINUOUS
 62
     7
 10
877.25
 20
222.75
 30
0.0
 40
1.994999999999995
 50
269.9999999999999
 51
345.4854077544324
  0
LINE
  5
E3
  8
1
  6
CONTINUOUS
 62
     7
 10
877.25
 20
220.755
 30
0.0
 11
876.25
 21
220.755
 31
0.0
  0
LINE
  5
E4
  8
1
  6
CONTINUOUS
 62
     7
 10
874.75
 20
85.24500000000002
 30
0.0
 11
874.75
 21
85.25500000000002
 31
0.0
  0
LINE
  5
E5
  8
1
  6
CONTINUOUS
 62
     7
 10
874.75
 20
85.25500000000002
 30
0.0
 11
873.75
 21
85.255
 31
0.0
  0
ARC
  5
E6
  8
1
  6
CONTINUOUS
 62
     7
 10
873.75
 20
83.24999999999999
 30
0.0
 40
2.005000000000007
 50
90.0000000000008
 51
165.5593767870106
  0
LINE
  5
E7
  8
1
  6
CONTINUOUS
 62
     7
 10
871.8083447782884
 20
83.74999999999999
 30
0.0
 11
871.8186727361734
 21
83.75
 31
0.0
  0
ARC
  5
E8
  8
1
  6
CONTINUOUS
 62
     7
 10
873.75
 20
83.24999999999999
 30
0.0
 40
1.995
 50
90.0000000000003
 51
165.4854077544317
  0
LINE
  5
E9
  8
1
  6
CONTINUOUS
 62
     7
 10
873.75
 20
85.24499999999999
 30
0.0
 11
874.75
 21
85.24500000000002
 31
0.0
  0
ARC
  5
EA
  8
1
  6
CONTINUOUS
 62
     7
 10
873.75
 20
222.75
 30
0.0
 40
1.994999999999997
 50
194.5145922455681
 51
269.9999999999998
  0
LINE
  5
EB
  8
1
  6
CONTINUOUS
 62
     7
 10
871.8186727361733
 20
222.25
 30
0.0
 11
871.8083447782883
 21
222.25
 31
0.0
  0
ARC
  5
EC
  8
1
  6
CONTINUOUS
 62
     7
 10
873.75
 20
222.75
 30
0.0
 40
2.005
 50
194.4406232129898
 51
269.9999999999992
  0
LINE
  5
ED
  8
1
  6
CONTINUOUS
 62
     7
 10
873.7499999999999
 20
220.745
 30
0.0
 11
874.7499999999999
 21
220.745
 31
0.0
  0
LINE
  5
EE
  8
1
  6
CONTINUOUS
 62
     7
 10
874.75
 20
220.745
 30
0.0
 11
874.75
 21
220.755
 31
0.0
  0
LINE
  5
EF
  8
1
  6
CONTINUOUS
 62
     7
 10
874.75
 20
220.755
 30
0.0
 11
873.75
 21
220.755
 31
0.0
  0
ARC
  5
F0
  8
1
  6
CONTINUOUS
 62
     7
 10
877.25
 20
82.74999999999997
 30
0.0
 40
2.004999999999993
 50
269.9999999999998
 51
345.559376787011
  0
LINE
  5
F1
  8
1
  6
CONTINUOUS
 62
     7
 10
879.1916552217116
 20
82.24999999999999
 30
0.0
 11
879.1813272638266
 21
82.24999999999999
 31
0.0
  0
ARC
  5
F2
  8
1
  6
CONTINUOUS
 62
     7
 10
877.25
 20
82.74999999999997
 30
0.0
 40
1.994999999999995
 50
270.0
 51
345.4854077544326
  0
LINE
  5
F3
  8
1
  6
CONTINUOUS
 62
     7
 10
877.25
 20
80.755
 30
0.0
 11
876.25
 21
80.755
 31
0.0
  0
LINE
  5
F4
  8
1
  6
CONTINUOUS
 62
     7
 10
876.25
 20
80.755
 30
0.0
 11
876.25
 21
80.74499999999999
 31
0.0
  0
LINE
  5
F5
  8
1
  6
CONTINUOUS
 62
     7
 10
876.25
 20
80.74499999999999
 30
0.0
 11
877.25
 21
80.74499999999998
 31
0.0
  0
LINE
  5
F6
  8
1
  6
CONTINUOUS
 62
     7
 10
876.25
 20
225.255
 30
0.0
 11
876.25
 21
225.245
 31
0.0
  0
LINE
  5
F7
  8
1
  6
CONTINUOUS
 62
     7
 10
876.25
 20
225.245
 30
0.0
 11
877.25
 21
225.245
 31
0.0
  0
ARC
  5
F8
  8
1
  6
CONTINUOUS
 62
     7
 10
877.25
 20
223.25
 30
0.0
 40
1.994999999999997
 50
14.51459224556754
 51
90.00000000000011
  0
LINE
  5
F9
  8
1
  6
CONTINUOUS
 62
     7
 10
879.1813272638266
 20
223.75
 30
0.0
 11
879.1916552217116
 21
223.75
 31
0.0
  0
ARC
  5
FA
  8
1
  6
CONTINUOUS
 62
     7
 10
877.25
 20
223.25
 30
0.0
 40
2.004999999999999
 50
14.44062321298902
 51
90.00000000000021
  0
LINE
  5
FB
  8
1
  6
CONTINUOUS
 62
     7
 10
877.25
 20
225.255
 30
0.0
 11
876.25
 21
225.255
 31
0.0
  0
LINE
  5
FC
  8
1
  6
CONTINUOUS
 62
     7
 10
902.9999999999999
 20
90.0
 30
0.0
 11
893.0
 21
99.99999999999997
 31
0.0
  0
LINE
  5
FD
  8
1
  6
CONTINUOUS
 62
     7
 10
893.0
 20
99.99999999999997
 30
0.0
 11
893.0
 21
65.0
 31
0.0
  0
LINE
  5
FE
  8
1
  6
CONTINUOUS
 62
     7
 10
893.0
 20
65.0
 30
0.0
 11
823.0
 21
65.0
 31
0.0
  0
LINE
  5
FF
  8
1
  6
CONTINUOUS
 62
     7
 10
822.9999999999999
 20
65.0
 30
0.0
 11
822.9999999999999
 21
99.99999999999997
 31
0.0
  0
LINE
  5
100
  8
1
  6
CONTINUOUS
 62
     7
 10
822.9999999999999
 20
99.99999999999997
 30
0.0
 11
812.9999999999999
 21
90.0
 31
0.0
  0
LINE
  5
101
  8
1
  6
CONTINUOUS
 62
     7
 10
812.9999999999999
 20
90.0
 30
0.0
 11
789.9999999999999
 21
90.0
 31
0.0
  0
LINE
  5
102
  8
1
  6
CONTINUOUS
 62
     7
 10
788.0
 20
92.0
 30
0.0
 11
790.0
 21
90.0
 31
0.0
  0
LINE
  5
103
  8
1
  6
CONTINUOUS
 62
     7
 10
788.0
 20
92.0
 30
0.0
 11
788.0
 21
214.0
 31
0.0
  0
LINE
  5
104
  8
1
  6
CONTINUOUS
 62
     7
 10
790.0
 20
216.0
 30
0.0
 11
788.0
 21
214.0
 31
0.0
  0
LINE
  5
105
  8
1
  6
CONTINUOUS
 62
     7
 10
790.0
 20
216.0
 30
0.0
 11
813.0
 21
216.0
 31
0.0
  0
LINE
  5
106
  8
1
  6
CONTINUOUS
 62
     7
 10
812.9999999999999
 20
216.0
 30
0.0
 11
822.9999999999999
 21
206.0
 31
0.0
  0
LINE
  5
107
  8
1
  6
CONTINUOUS
 62
     7
 10
822.9999999999999
 20
206.0
 30
0.0
 11
822.9999999999999
 21
241.0
 31
0.0
  0
LINE
  5
108
  8
1
  6
CONTINUOUS
 62
     7
 10
822.9999999999999
 20
241.0
 30
0.0
 11
892.9999999999999
 21
241.0
 31
0.0
  0
LINE
  5
109
  8
1
  6
CONTINUOUS
 62
     7
 10
893.0
 20
241.0
 30
0.0
 11
893.0
 21
206.0
 31
0.0
  0
LINE
  5
10A
  8
1
  6
CONTINUOUS
 62
     7
 10
893.0
 20
206.0
 30
0.0
 11
903.0
 21
216.0
 31
0.0
  0
LINE
  5
10B
  8
1
  6
CONTINUOUS
 62
     7
 10
903.0
 20
216.0
 30
0.0
 11
926.0
 21
216.0
 31
0.0
  0
LINE
  5
10C
  8
1
  6
CONTINUOUS
 62
     7
 10
928.0
 20
214.0
 30
0.0
 11
926.0
 21
216.0
 31
0.0
  0
LINE
  5
10D
  8
1
  6
CONTINUOUS
 62
     7
 10
928.0
 20
214.0
 30
0.0
 11
928.0
 21
92.00000000000001
 31
0.0
  0
LINE
  5
10E
  8
1
  6
CONTINUOUS
 62
     7
 10
925.9999999999999
 20
90.0
 30
0.0
 11
927.9999999999999
 21
92.0
 31
0.0
  0
LINE
  5
10F
  8
1
  6
CONTINUOUS
 62
     7
 10
925.9999999999999
 20
90.0
 30
0.0
 11
902.9999999999999
 21
90.0
 31
0.0
  0
ARC
  5
110
  8
1
  6
CONTINUOUS
 62
     7
 10
838.75
 20
223.25
 30
0.0
 40
2.004999999999993
 50
89.99999999999982
 51
165.5593767870111
  0
LINE
  5
111
  8
1
  6
CONTINUOUS
 62
     7
 10
836.8083447782883
 20
223.75
 30
0.0
 11
836.8186727361733
 21
223.75
 31
0.0
  0
ARC
  5
112
  8
1
  6
CONTINUOUS
 62
     7
 10
838.75
 20
223.25
 30
0.0
 40
1.994999999999995
 50
89.99999999999977
 51
165.4854077544325
  0
LINE
  5
113
  8
1
  6
CONTINUOUS
 62
     7
 10
838.75
 20
225.245
 30
0.0
 11
839.75
 21
225.245
 31
0.0
  0
LINE
  5
114
  8
1
  6
CONTINUOUS
 62
     7
 10
839.75
 20
225.245
 30
0.0
 11
839.75
 21
225.255
 31
0.0
  0
LINE
  5
115
  8
1
  6
CONTINUOUS
 62
     7
 10
839.75
 20
225.255
 30
0.0
 11
838.75
 21
225.255
 31
0.0
  0
LINE
  5
116
  8
1
  6
CONTINUOUS
 62
     7
 10
839.75
 20
80.74499999999998
 30
0.0
 11
839.75
 21
80.755
 31
0.0
  0
LINE
  5
117
  8
1
  6
CONTINUOUS
 62
     7
 10
839.75
 20
80.755
 30
0.0
 11
838.75
 21
80.755
 31
0.0
  0
ARC
  5
118
  8
1
  6
CONTINUOUS
 62
     7
 10
838.75
 20
82.74999999999997
 30
0.0
 40
1.994999999999997
 50
194.5145922455674
 51
270.0000000000002
  0
LINE
  5
119
  8
1
  6
CONTINUOUS
 62
     7
 10
836.8186727361733
 20
82.24999999999999
 30
0.0
 11
836.8083447782883
 21
82.24999999999999
 31
0.0
  0
ARC
  5
11A
  8
1
  6
CONTINUOUS
 62
     7
 10
838.75
 20
82.74999999999997
 30
0.0
 40
2.005000000000002
 50
194.4406232129889
 51
270.0000000000002
  0
LINE
  5
11B
  8
1
  6
CONTINUOUS
 62
     7
 10
838.75
 20
80.74499999999998
 30
0.0
 11
839.75
 21
80.74499999999998
 31
0.0
  0
LINE
  5
11C
  8
1
  6
CONTINUOUS
 62
     7
 10
841.2499999999999
 20
225.255
 30
0.0
 11
841.2499999999999
 21
225.245
 31
0.0
  0
LINE
  5
11D
  8
1
  6
CONTINUOUS
 62
     7
 10
841.2499999999999
 20
225.245
 30
0.0
 11
842.2499999999999
 21
225.245
 31
0.0
  0
ARC
  5
11E
  8
1
  6
CONTINUOUS
 62
     7
 10
842.2499999999999
 20
223.25
 30
0.0
 40
1.994999999999997
 50
14.51459224556788
 51
89.99999999999962
  0
LINE
  5
11F
  8
1
  6
CONTINUOUS
 62
     7
 10
844.1813272638266
 20
223.75
 30
0.0
 11
844.1916552217116
 21
223.75
 31
0.0
  0
ARC
  5
120
  8
1
  6
CONTINUOUS
 62
     7
 10
842.2499999999999
 20
223.25
 30
0.0
 40
2.005000000000007
 50
14.44062321298929
 51
90.00000000000009
  0
LINE
  5
121
  8
1
  6
CONTINUOUS
 62
     7
 10
842.2499999999999
 20
225.255
 30
0.0
 11
841.2499999999999
 21
225.255
 31
0.0
  0
ARC
  5
122
  8
1
  6
CONTINUOUS
 62
     7
 10
873.75
 20
223.25
 30
0.0
 40
2.005000000000007
 50
89.9999999999999
 51
165.5593767870108
  0
LINE
  5
123
  8
1
  6
CONTINUOUS
 62
     7
 10
871.8083447782884
 20
223.75
 30
0.0
 11
871.8186727361734
 21
223.75
 31
0.0
  0
ARC
  5
124
  8
1
  6
CONTINUOUS
 62
     7
 10
873.75
 20
223.25
 30
0.0
 40
1.994999999999997
 50
90.00000000000034
 51
165.4854077544321
  0
LINE
  5
125
  8
1
  6
CONTINUOUS
 62
     7
 10
873.75
 20
225.245
 30
0.0
 11
874.75
 21
225.245
 31
0.0
  0
LINE
  5
126
  8
1
  6
CONTINUOUS
 62
     7
 10
874.75
 20
225.245
 30
0.0
 11
874.75
 21
225.255
 31
0.0
  0
LINE
  5
127
  8
1
  6
CONTINUOUS
 62
     7
 10
874.75
 20
225.255
 30
0.0
 11
873.75
 21
225.255
 31
0.0
  0
ARC
  5
128
  8
1
  6
CONTINUOUS
 62
     7
 10
842.2499999999999
 20
82.75
 30
0.0
 40
2.005000000000007
 50
269.9999999999999
 51
345.5593767870108
  0
LINE
  5
129
  8
1
  6
CONTINUOUS
 62
     7
 10
844.1916552217116
 20
82.25
 30
0.0
 11
844.1813272638266
 21
82.24999999999999
 31
0.0
  0
ARC
  5
12A
  8
1
  6
CONTINUOUS
 62
     7
 10
842.2499999999999
 20
82.75
 30
0.0
 40
1.994999999999997
 50
270.0000000000005
 51
345.4854077544317
  0
LINE
  5
12B
  8
1
  6
CONTINUOUS
 62
     7
 10
842.2499999999999
 20
80.75500000000001
 30
0.0
 11
841.2499999999999
 21
80.75500000000002
 31
0.0
  0
LINE
  5
12C
  8
1
  6
CONTINUOUS
 62
     7
 10
841.2499999999999
 20
80.75500000000002
 30
0.0
 11
841.2499999999999
 21
80.745
 31
0.0
  0
LINE
  5
12D
  8
1
  6
CONTINUOUS
 62
     7
 10
841.2499999999999
 20
80.745
 30
0.0
 11
842.2499999999999
 21
80.74499999999999
 31
0.0
  0
LINE
  5
12E
  8
1
  6
CONTINUOUS
 62
     7
 10
874.75
 20
80.745
 30
0.0
 11
874.75
 21
80.75500000000002
 31
0.0
  0
LINE
  5
12F
  8
1
  6
CONTINUOUS
 62
     7
 10
874.75
 20
80.75500000000002
 30
0.0
 11
873.75
 21
80.75500000000001
 31
0.0
  0
ARC
  5
130
  8
1
  6
CONTINUOUS
 62
     7
 10
873.75
 20
82.75
 30
0.0
 40
1.994999999999997
 50
194.5145922455683
 51
269.9999999999995
  0
LINE
  5
131
  8
1
  6
CONTINUOUS
 62
     7
 10
871.8186727361734
 20
82.24999999999999
 30
0.0
 11
871.8083447782884
 21
82.25
 31
0.0
  0
ARC
  5
132
  8
1
  6
CONTINUOUS
 62
     7
 10
873.75
 20
82.75
 30
0.0
 40
2.005000000000007
 50
194.4406232129892
 51
270.0000000000001
  0
LINE
  5
133
  8
1
  6
CONTINUOUS
 62
     7
 10
873.75
 20
80.74499999999999
 30
0.0
 11
874.75
 21
80.745
 31
0.0
  0
LINE
  5
134
  8
1
  6
CONTINUOUS
 62
     7
 10
841.2499999999999
 20
220.755
 30
0.0
 11
841.2499999999999
 21
220.745
 31
0.0
  0
LINE
  5
135
  8
1
  6
CONTINUOUS
 62
     7
 10
841.2499999999999
 20
220.745
 30
0.0
 11
842.2499999999999
 21
220.745
 31
0.0
  0
ARC
  5
136
  8
1
  6
CONTINUOUS
 62
     7
 10
842.2499999999999
 20
222.75
 30
0.0
 40
2.005000000000007
 50
270.0000000000007
 51
345.5593767870103
  0
LINE
  5
137
  8
1
  6
CONTINUOUS
 62
     7
 10
844.1916552217116
 20
222.25
 30
0.0
 11
844.1813272638266
 21
222.25
 31
0.0
  0
ARC
  5
138
  8
1
  6
CONTINUOUS
 62
     7
 10
842.2499999999999
 20
222.75
 30
0.0
 40
1.995
 50
270.0000000000002
 51
345.4854077544317
  0
LINE
  5
139
  8
1
  6
CONTINUOUS
 62
     7
 10
842.2499999999999
 20
220.755
 30
0.0
 11
841.2499999999999
 21
220.755
 31
0.0
  0
ARC
  5
13A
  8
1
  6
CONTINUOUS
 62
     7
 10
842.2499999999999
 20
83.24999999999999
 30
0.0
 40
1.994999999999997
 50
14.51459224556811
 51
89.99999999999972
  0
LINE
  5
13B
  8
1
  6
CONTINUOUS
 62
     7
 10
844.1813272638267
 20
83.75
 30
0.0
 11
844.1916552217117
 21
83.74999999999999
 31
0.0
  0
ARC
  5
13C
  8
1
  6
CONTINUOUS
 62
     7
 10
842.2499999999999
 20
83.24999999999999
 30
0.0
 40
2.005
 50
14.4406232129894
 51
89.9999999999992
  0
LINE
  5
13D
  8
1
  6
CONTINUOUS
 62
     7
 10
842.25
 20
85.255
 30
0.0
 11
841.25
 21
85.25500000000002
 31
0.0
  0
LINE
  5
13E
  8
1
  6
CONTINUOUS
 62
     7
 10
841.2499999999999
 20
85.25500000000002
 30
0.0
 11
841.2499999999999
 21
85.24500000000002
 31
0.0
  0
LINE
  5
13F
  8
1
  6
CONTINUOUS
 62
     7
 10
841.2499999999999
 20
85.24500000000002
 30
0.0
 11
842.2499999999999
 21
85.24499999999999
 31
0.0
  0
ARC
  5
140
  8
1
  6
CONTINUOUS
 62
     7
 10
838.75
 20
222.75
 30
0.0
 40
1.994999999999997
 50
194.5145922455675
 51
270.0000000000001
  0
LINE
  5
141
  8
1
  6
CONTINUOUS
 62
     7
 10
836.8186727361733
 20
222.25
 30
0.0
 11
836.8083447782883
 21
222.25
 31
0.0
  0
ARC
  5
142
  8
1
  6
CONTINUOUS
 62
     7
 10
838.75
 20
222.75
 30
0.0
 40
2.005000000000008
 50
194.4406232129889
 51
270.0000000000001
  0
LINE
  5
143
  8
1
  6
CONTINUOUS
 62
     7
 10
838.75
 20
220.745
 30
0.0
 11
839.75
 21
220.745
 31
0.0
  0
LINE
  5
144
  8
1
  6
CONTINUOUS
 62
     7
 10
839.75
 20
220.745
 30
0.0
 11
839.75
 21
220.755
 31
0.0
  0
LINE
  5
145
  8
1
  6
CONTINUOUS
 62
     7
 10
839.75
 20
220.755
 30
0.0
 11
838.75
 21
220.755
 31
0.0
  0
LINE
  5
146
  8
1
  6
CONTINUOUS
 62
     7
 10
839.75
 20
85.24499999999999
 30
0.0
 11
839.75
 21
85.255
 31
0.0
  0
LINE
  5
147
  8
1
  6
CONTINUOUS
 62
     7
 10
839.75
 20
85.255
 30
0.0
 11
838.75
 21
85.255
 31
0.0
  0
ARC
  5
148
  8
1
  6
CONTINUOUS
 62
     7
 10
838.75
 20
83.25
 30
0.0
 40
2.005000000000007
 50
89.9999999999999
 51
165.5593767870111
  0
LINE
  5
149
  8
1
  6
CONTINUOUS
 62
     7
 10
836.8083447782883
 20
83.74999999999999
 30
0.0
 11
836.8186727361733
 21
83.74999999999999
 31
0.0
  0
ARC
  5
14A
  8
1
  6
CONTINUOUS
 62
     7
 10
838.75
 20
83.25
 30
0.0
 40
1.994999999999995
 50
89.9999999999999
 51
165.4854077544325
  0
LINE
  5
14B
  8
1
  6
CONTINUOUS
 62
     7
 10
838.75
 20
85.245
 30
0.0
 11
839.75
 21
85.24499999999999
 31
0.0
  0
LINE
  5
14C
  8
1
  6
CONTINUOUS
 62
     7
 10
841.0
 20
237.005
 30
0.0
 11
841.0
 21
236.995
 31
0.0
  0
LINE
  5
14D
  8
1
  6
CONTINUOUS
 62
     7
 10
826.9999999999999
 20
237.005
 30
0.0
 11
841.0
 21
237.005
 31
0.0
  0
LINE
  5
14E
  8
1
  6
CONTINUOUS
 62
     7
 10
826.9999999999999
 20
236.995
 30
0.0
 11
826.9999999999999
 21
237.005
 31
0.0
  0
LINE
  5
14F
  8
1
  6
CONTINUOUS
 62
     7
 10
841.0
 20
236.995
 30
0.0
 11
826.9999999999999
 21
236.995
 31
0.0
  0
LINE
  5
150
  8
1
  6
CONTINUOUS
 62
     7
 10
875.0
 20
68.995
 30
0.0
 11
875.0
 21
69.00500000000001
 31
0.0
  0
LINE
  5
151
  8
1
  6
CONTINUOUS
 62
     7
 10
889.0
 20
68.995
 30
0.0
 11
875.0
 21
68.995
 31
0.0
  0
LINE
  5
152
  8
1
  6
CONTINUOUS
 62
     7
 10
889.0
 20
69.00500000000001
 30
0.0
 11
889.0
 21
68.995
 31
0.0
  0
LINE
  5
153
  8
1
  6
CONTINUOUS
 62
     7
 10
875.0
 20
69.00500000000001
 30
0.0
 11
889.0
 21
69.00500000000001
 31
0.0
  0
LINE
  5
154
  8
1
  6
CONTINUOUS
 62
     7
 10
826.9999999999999
 20
68.995
 30
0.0
 11
841.0
 21
68.995
 31
0.0
  0
LINE
  5
155
  8
1
  6
CONTINUOUS
 62
     7
 10
841.0
 20
68.995
 30
0.0
 11
841.0
 21
69.00500000000001
 31
0.0
  0
LINE
  5
156
  8
1
  6
CONTINUOUS
 62
     7
 10
841.0
 20
69.00500000000001
 30
0.0
 11
826.9999999999999
 21
69.00500000000001
 31
0.0
  0
LINE
  5
157
  8
1
  6
CONTINUOUS
 62
     7
 10
826.9999999999999
 20
69.00500000000001
 30
0.0
 11
826.9999999999999
 21
68.995
 31
0.0
  0
ARC
  5
158
  8
1
  6
CONTINUOUS
 62
     7
 10
843.0
 20
223.0
 30
0.0
 40
14.00499999999999
 50
53.21025821952475
 51
81.78974178047532
  0
LINE
  5
159
  8
1
  6
CONTINUOUS
 62
     7
 10
845.0
 20
236.8513546268948
 30
0.0
 11
845.0
 21
236.8614582566193
 31
0.0
  0
ARC
  5
15A
  8
1
  6
CONTINUOUS
 62
     7
 10
843.0
 20
223.0
 30
0.0
 40
13.995
 50
53.21616531560469
 51
81.78383468439527
  0
LINE
  5
15B
  8
1
  6
CONTINUOUS
 62
     7
 10
851.3873175680167
 20
234.2157446927629
 30
0.0
 11
851.3801732229238
 21
234.20860034767
 31
0.0
  0
ARC
  5
15C
  8
1
  6
CONTINUOUS
 62
     7
 10
873.0
 20
83.00000000000001
 30
0.0
 40
14.00499999999999
 50
233.2102582195248
 51
261.7897417804753
  0
LINE
  5
15D
  8
1
  6
CONTINUOUS
 62
     7
 10
871.0
 20
69.14864537310523
 30
0.0
 11
871.0
 21
69.13854174338069
 31
0.0
  0
ARC
  5
15E
  8
1
  6
CONTINUOUS
 62
     7
 10
873.0
 20
83.00000000000001
 30
0.0
 40
13.995
 50
233.2161653156047
 51
261.7838346843953
  0
LINE
  5
15F
  8
1
  6
CONTINUOUS
 62
     7
 10
864.6126824319833
 20
71.78425530723713
 30
0.0
 11
864.6198267770761
 21
71.79139965233
 31
0.0
  0
LINE
  5
160
  8
1
  6
CONTINUOUS
 62
     7
 10
845.0
 20
69.14864537310523
 30
0.0
 11
845.0
 21
69.13854174338069
 31
0.0
  0
ARC
  5
161
  8
1
  6
CONTINUOUS
 62
     7
 10
843.0
 20
83.00000000000001
 30
0.0
 40
14.00499999999999
 50
278.2102582195247
 51
306.7897417804752
  0
LINE
  5
162
  8
1
  6
CONTINUOUS
 62
     7
 10
851.3873175680167
 20
71.78425530723713
 30
0.0
 11
851.3801732229238
 21
71.79139965233
 31
0.0
  0
ARC
  5
163
  8
1
  6
CONTINUOUS
 62
     7
 10
843.0
 20
83.00000000000001
 30
0.0
 40
13.995
 50
278.2161653156047
 51
306.7838346843953
  0
ARC
  5
164
  8
1
  6
CONTINUOUS
 62
     7
 10
843.0
 20
83.0
 30
0.0
 40
13.995
 50
323.2161653156046
 51
351.7838346843952
  0
LINE
  5
165
  8
1
  6
CONTINUOUS
 62
     7
 10
854.20860034767
 20
74.61982677707611
 30
0.0
 11
854.2157446927628
 21
74.61268243198337
 31
0.0
  0
ARC
  5
166
  8
1
  6
CONTINUOUS
 62
     7
 10
843.0
 20
83.0
 30
0.0
 40
14.005
 50
323.2102582195247
 51
351.7897417804752
  0
LINE
  5
167
  8
1
  6
CONTINUOUS
 62
     7
 10
856.8614582566192
 20
80.99999999999997
 30
0.0
 11
856.8513546268947
 21
80.99999999999999
 31
0.0
  0
ARC
  5
168
  8
1
  6
CONTINUOUS
 62
     7
 10
873.0
 20
223.0
 30
0.0
 40
13.995
 50
143.2161653156046
 51
171.7838346843953
  0
LINE
  5
169
  8
1
  6
CONTINUOUS
 62
     7
 10
861.7913996523299
 20
231.3801732229239
 30
0.0
 11
861.7842553072372
 21
231.3873175680166
 31
0.0
  0
ARC
  5
16A
  8
1
  6
CONTINUOUS
 62
     7
 10
873.0
 20
223.0
 30
0.0
 40
14.005
 50
143.2102582195247
 51
171.7897417804752
  0
LINE
  5
16B
  8
1
  6
CONTINUOUS
 62
     7
 10
859.1385417433806
 20
225.0
 30
0.0
 11
859.1486453731052
 21
225.0
 31
0.0
  0
ARC
  5
16C
  8
1
  6
CONTINUOUS
 62
     7
 10
843.0
 20
83.00000000000001
 30
0.0
 40
13.995
 50
8.216165315604655
 51
36.78383468439528
  0
LINE
  5
16D
  8
1
  6
CONTINUOUS
 62
     7
 10
856.8513546268947
 20
85.00000000000001
 30
0.0
 11
856.8614582566192
 21
85.00000000000001
 31
0.0
  0
ARC
  5
16E
  8
1
  6
CONTINUOUS
 62
     7
 10
843.0
 20
83.00000000000001
 30
0.0
 40
14.005
 50
8.210258219524674
 51
36.78974178047537
  0
LINE
  5
16F
  8
1
  6
CONTINUOUS
 62
     7
 10
854.2157446927629
 20
91.38731756801671
 30
0.0
 11
854.2086003476701
 21
91.38017322292391
 31
0.0
  0
ARC
  5
170
  8
1
  6
CONTINUOUS
 62
     7
 10
873.0
 20
223.0
 30
0.0
 40
13.995
 50
188.2161653156047
 51
216.7838346843953
  0
LINE
  5
171
  8
1
  6
CONTINUOUS
 62
     7
 10
859.1486453731052
 20
221.0
 30
0.0
 11
859.1385417433806
 21
221.0
 31
0.0
  0
ARC
  5
172
  8
1
  6
CONTINUOUS
 62
     7
 10
873.0
 20
223.0
 30
0.0
 40
14.005
 50
188.2102582195247
 51
216.7897417804754
  0
LINE
  5
173
  8
1
  6
CONTINUOUS
 62
     7
 10
861.7842553072371
 20
214.6126824319833
 30
0.0
 11
861.7913996523298
 21
214.6198267770761
 31
0.0
  0
ARC
  5
174
  8
1
  6
CONTINUOUS
 62
     7
 10
843.0
 20
83.00000000000003
 30
0.0
 40
13.995
 50
53.21616531560471
 51
81.78383468439527
  0
LINE
  5
175
  8
1
  6
CONTINUOUS
 62
     7
 10
851.3801732229239
 20
94.20860034767009
 30
0.0
 11
851.3873175680168
 21
94.2157446927629
 31
0.0
  0
ARC
  5
176
  8
1
  6
CONTINUOUS
 62
     7
 10
843.0
 20
83.00000000000003
 30
0.0
 40
14.005
 50
53.2102582195246
 51
81.78974178047525
  0
LINE
  5
177
  8
1
  6
CONTINUOUS
 62
     7
 10
845.0
 20
96.86145825661934
 30
0.0
 11
845.0
 21
96.85135462689483
 31
0.0
  0
ARC
  5
178
  8
1
  6
CONTINUOUS
 62
     7
 10
873.0
 20
223.0
 30
0.0
 40
13.995
 50
233.2161653156047
 51
261.7838346843953
  0
LINE
  5
179
  8
1
  6
CONTINUOUS
 62
     7
 10
864.619826777076
 20
211.7913996523299
 30
0.0
 11
864.6126824319832
 21
211.7842553072371
 31
0.0
  0
ARC
  5
17A
  8
1
  6
CONTINUOUS
 62
     7
 10
873.0
 20
223.0
 30
0.0
 40
14.005
 50
233.2102582195246
 51
261.7897417804753
  0
LINE
  5
17B
  8
1
  6
CONTINUOUS
 62
     7
 10
871.0
 20
209.1385417433806
 30
0.0
 11
871.0
 21
209.1486453731052
 31
0.0
  0
LINE
  5
17C
  8
1
  6
CONTINUOUS
 62
     7
 10
841.0
 20
209.005
 30
0.0
 11
841.0
 21
208.995
 31
0.0
  0
LINE
  5
17D
  8
1
  6
CONTINUOUS
 62
     7
 10
826.9999999999999
 20
209.005
 30
0.0
 11
841.0
 21
209.005
 31
0.0
  0
LINE
  5
17E
  8
1
  6
CONTINUOUS
 62
     7
 10
826.9999999999999
 20
208.995
 30
0.0
 11
826.9999999999999
 21
209.005
 31
0.0
  0
LINE
  5
17F
  8
1
  6
CONTINUOUS
 62
     7
 10
841.0
 20
208.995
 30
0.0
 11
826.9999999999999
 21
208.995
 31
0.0
  0
LINE
  5
180
  8
1
  6
CONTINUOUS
 62
     7
 10
875.0
 20
96.99499999999999
 30
0.0
 11
875.0
 21
97.00500000000001
 31
0.0
  0
LINE
  5
181
  8
1
  6
CONTINUOUS
 62
     7
 10
889.0
 20
96.99499999999999
 30
0.0
 11
875.0
 21
96.99499999999999
 31
0.0
  0
LINE
  5
182
  8
1
  6
CONTINUOUS
 62
     7
 10
889.0
 20
97.00500000000001
 30
0.0
 11
889.0
 21
96.995
 31
0.0
  0
LINE
  5
183
  8
1
  6
CONTINUOUS
 62
     7
 10
875.0
 20
97.00500000000001
 30
0.0
 11
889.0
 21
97.005
 31
0.0
  0
LINE
  5
184
  8
1
  6
CONTINUOUS
 62
     7
 10
826.9999999999999
 20
96.99499999999999
 30
0.0
 11
841.0
 21
96.99499999999999
 31
0.0
  0
LINE
  5
185
  8
1
  6
CONTINUOUS
 62
     7
 10
841.0
 20
96.99499999999999
 30
0.0
 11
841.0
 21
97.00500000000001
 31
0.0
  0
LINE
  5
186
  8
1
  6
CONTINUOUS
 62
     7
 10
841.0
 20
97.00500000000001
 30
0.0
 11
826.9999999999999
 21
97.005
 31
0.0
  0
LINE
  5
187
  8
1
  6
CONTINUOUS
 62
     7
 10
826.9999999999999
 20
97.00500000000001
 30
0.0
 11
826.9999999999999
 21
96.995
 31
0.0
  0
LINE
  5
188
  8
1
  6
CONTINUOUS
 62
     7
 10
832.5
 20
234.505
 30
0.0
 11
832.5
 21
234.495
 31
0.0
  0
LINE
  5
189
  8
1
  6
CONTINUOUS
 62
     7
 10
825.9999999999999
 20
234.505
 30
0.0
 11
832.4999999999999
 21
234.505
 31
0.0
  0
LINE
  5
18A
  8
1
  6
CONTINUOUS
 62
     7
 10
825.9999999999999
 20
234.495
 30
0.0
 11
825.9999999999999
 21
234.505
 31
0.0
  0
LINE
  5
18B
  8
1
  6
CONTINUOUS
 62
     7
 10
832.5
 20
234.495
 30
0.0
 11
826.0
 21
234.495
 31
0.0
  0
LINE
  5
18C
  8
1
  6
CONTINUOUS
 62
     7
 10
883.4999999999999
 20
71.495
 30
0.0
 11
883.4999999999999
 21
71.50500000000001
 31
0.0
  0
LINE
  5
18D
  8
1
  6
CONTINUOUS
 62
     7
 10
890.0
 20
71.495
 30
0.0
 11
883.5
 21
71.495
 31
0.0
  0
LINE
  5
18E
  8
1
  6
CONTINUOUS
 62
     7
 10
890.0
 20
71.50500000000001
 30
0.0
 11
890.0
 21
71.495
 31
0.0
  0
LINE
  5
18F
  8
1
  6
CONTINUOUS
 62
     7
 10
883.4999999999999
 20
71.50500000000001
 30
0.0
 11
889.9999999999999
 21
71.50500000000001
 31
0.0
  0
LINE
  5
190
  8
1
  6
CONTINUOUS
 62
     7
 10
825.9999999999999
 20
71.495
 30
0.0
 11
832.4999999999999
 21
71.495
 31
0.0
  0
LINE
  5
191
  8
1
  6
CONTINUOUS
 62
     7
 10
832.5
 20
71.495
 30
0.0
 11
832.5
 21
71.50500000000001
 31
0.0
  0
LINE
  5
192
  8
1
  6
CONTINUOUS
 62
     7
 10
832.5
 20
71.50500000000001
 30
0.0
 11
826.0
 21
71.50500000000001
 31
0.0
  0
LINE
  5
193
  8
1
  6
CONTINUOUS
 62
     7
 10
825.9999999999999
 20
71.50500000000001
 30
0.0
 11
825.9999999999999
 21
71.495
 31
0.0
  0
LINE
  5
194
  8
1
  6
CONTINUOUS
 62
     7
 10
845.156422099043
 20
234.0651596570291
 30
0.0
 11
845.1513825727292
 21
234.0564309414074
 31
0.0
  0
ARC
  5
195
  8
1
  6
CONTINUOUS
 62
     7
 10
840.5
 20
223.0
 30
0.0
 40
12.005
 50
67.17774929839065
 51
73.4056390387525
  0
LINE
  5
196
  8
1
  6
CONTINUOUS
 62
     7
 10
835.5
 20
234.505
 30
0.0
 11
843.9285565475867
 21
234.505
 31
0.0
  0
LINE
  5
197
  8
1
  6
CONTINUOUS
 62
     7
 10
835.5
 20
234.495
 30
0.0
 11
835.5
 21
234.505
 31
0.0
  0
LINE
  5
198
  8
1
  6
CONTINUOUS
 62
     7
 10
843.9270978976388
 20
234.495
 30
0.0
 11
835.5
 21
234.495
 31
0.0
  0
ARC
  5
199
  8
1
  6
CONTINUOUS
 62
     7
 10
840.5
 20
223.0
 30
0.0
 40
11.995
 50
67.18376479087364
 51
73.39867449765956
  0
LINE
  5
19A
  8
1
  6
CONTINUOUS
 62
     7
 10
870.843577900957
 20
71.93484034297094
 30
0.0
 11
870.8486174272708
 21
71.94356905859257
 31
0.0
  0
ARC
  5
19B
  8
1
  6
CONTINUOUS
 62
     7
 10
875.4999999999999
 20
83.0
 30
0.0
 40
12.005
 50
247.1777492983906
 51
253.4056390387525
  0
LINE
  5
19C
  8
1
  6
CONTINUOUS
 62
     7
 10
880.4999999999999
 20
71.495
 30
0.0
 11
872.0714434524133
 21
71.495
 31
0.0
  0
LINE
  5
19D
  8
1
  6
CONTINUOUS
 62
     7
 10
880.4999999999999
 20
71.50500000000001
 30
0.0
 11
880.4999999999999
 21
71.495
 31
0.0
  0
LINE
  5
19E
  8
1
  6
CONTINUOUS
 62
     7
 10
872.0729021023612
 20
71.50500000000001
 30
0.0
 11
880.4999999999999
 21
71.50500000000001
 31
0.0
  0
ARC
  5
19F
  8
1
  6
CONTINUOUS
 62
     7
 10
875.4999999999999
 20
83.0
 30
0.0
 40
11.995
 50
247.1837647908736
 51
253.3986744976595
  0
LINE
  5
1A0
  8
1
  6
CONTINUOUS
 62
     7
 10
835.5
 20
71.50500000000001
 30
0.0
 11
835.5
 21
71.495
 31
0.0
  0
LINE
  5
1A1
  8
1
  6
CONTINUOUS
 62
     7
 10
835.5
 20
71.495
 30
0.0
 11
843.9285565475867
 21
71.495
 31
0.0
  0
ARC
  5
1A2
  8
1
  6
CONTINUOUS
 62
     7
 10
840.5
 20
83.0
 30
0.0
 40
12.005
 50
286.5943609612475
 51
292.8222507016093
  0
LINE
  5
1A3
  8
1
  6
CONTINUOUS
 62
     7
 10
845.156422099043
 20
71.93484034297094
 30
0.0
 11
845.1513825727292
 21
71.94356905859257
 31
0.0
  0
ARC
  5
1A4
  8
1
  6
CONTINUOUS
 62
     7
 10
840.5
 20
83.0
 30
0.0
 40
11.995
 50
286.6013255023404
 51
292.8162352091264
  0
LINE
  5
1A5
  8
1
  6
CONTINUOUS
 62
     7
 10
843.9270978976388
 20
71.50500000000001
 30
0.0
 11
835.5
 21
71.50500000000001
 31
0.0
  0
ARC
  5
1A6
  8
1
  6
CONTINUOUS
 62
     7
 10
840.4999999999999
 20
83.0
 30
0.0
 40
11.995
 50
307.1837647908737
 51
352.8162352091263
  0
LINE
  5
1A7
  8
1
  6
CONTINUOUS
 62
     7
 10
847.7494587840824
 20
73.44356905859259
 30
0.0
 11
847.7544983103962
 21
73.43484034297086
 31
0.0
  0
ARC
  5
1A8
  8
1
  6
CONTINUOUS
 62
     7
 10
840.4999999999999
 20
83.0
 30
0.0
 40
12.005
 50
307.1777492983904
 51
352.8222507016093
  0
LINE
  5
1A9
  8
1
  6
CONTINUOUS
 62
     7
 10
852.4109204094393
 20
81.49999999999999
 30
0.0
 11
852.4008413568116
 21
81.5
 31
0.0
  0
ARC
  5
1AA
  8
1
  6
CONTINUOUS
 62
     7
 10
875.5
 20
223.0
 30
0.0
 40
11.995
 50
127.1837647908737
 51
172.8162352091263
  0
LINE
  5
1AB
  8
1
  6
CONTINUOUS
 62
     7
 10
868.2505412159175
 20
232.5564309414074
 30
0.0
 11
868.2455016896037
 21
232.5651596570291
 31
0.0
  0
ARC
  5
1AC
  8
1
  6
CONTINUOUS
 62
     7
 10
875.5
 20
223.0
 30
0.0
 40
12.005
 50
127.1777492983904
 51
172.8222507016094
  0
LINE
  5
1AD
  8
1
  6
CONTINUOUS
 62
     7
 10
863.5890795905606
 20
224.5
 30
0.0
 11
863.5991586431884
 21
224.5
 31
0.0
  0
ARC
  5
1AE
  8
1
  6
CONTINUOUS
 62
     7
 10
840.5
 20
82.99999999999999
 30
0.0
 40
11.995
 50
7.183764790873794
 51
52.81623520912637
  0
LINE
  5
1AF
  8
1
  6
CONTINUOUS
 62
     7
 10
852.4008413568117
 20
84.5
 30
0.0
 11
852.4109204094393
 21
84.5
 31
0.0
  0
ARC
  5
1B0
  8
1
  6
CONTINUOUS
 62
     7
 10
840.5
 20
82.99999999999999
 30
0.0
 40
12.005
 50
7.177749298390706
 51
52.82225070160948
  0
LINE
  5
1B1
  8
1
  6
CONTINUOUS
 62
     7
 10
847.7544983103962
 20
92.56515965702906
 30
0.0
 11
847.7494587840824
 21
92.5564309414074
 31
0.0
  0
ARC
  5
1B2
  8
1
  6
CONTINUOUS
 62
     7
 10
875.4999999999999
 20
223.0
 30
0.0
 40
11.995
 50
187.1837647908738
 51
232.8162352091264
  0
LINE
  5
1B3
  8
1
  6
CONTINUOUS
 62
     7
 10
863.5991586431883
 20
221.5
 30
0.0
 11
863.5890795905606
 21
221.5
 31
0.0
  0
ARC
  5
1B4
  8
1
  6
CONTINUOUS
 62
     7
 10
875.4999999999999
 20
223.0
 30
0.0
 40
12.005
 50
187.1777492983907
 51
232.8222507016095
  0
LINE
  5
1B5
  8
1
  6
CONTINUOUS
 62
     7
 10
868.2455016896037
 20
213.4348403429709
 30
0.0
 11
868.2505412159175
 21
213.4435690585926
 31
0.0
  0
ARC
  5
1B6
  8
1
  6
CONTINUOUS
 62
     7
 10
840.5
 20
83.00000000000001
 30
0.0
 40
11.995
 50
67.18376479087364
 51
73.39867449765961
  0
LINE
  5
1B7
  8
1
  6
CONTINUOUS
 62
     7
 10
845.1513825727292
 20
94.05643094140741
 30
0.0
 11
845.156422099043
 21
94.06515965702906
 31
0.0
  0
ARC
  5
1B8
  8
1
  6
CONTINUOUS
 62
     7
 10
840.5
 20
83.00000000000001
 30
0.0
 40
12.005
 50
67.17774929839057
 51
73.4056390387525
  0
LINE
  5
1B9
  8
1
  6
CONTINUOUS
 62
     7
 10
843.9285565475867
 20
94.50500000000001
 30
0.0
 11
835.4999999999999
 21
94.50500000000001
 31
0.0
  0
LINE
  5
1BA
  8
1
  6
CONTINUOUS
 62
     7
 10
835.5
 20
94.50500000000002
 30
0.0
 11
835.5
 21
94.49499999999999
 31
0.0
  0
LINE
  5
1BB
  8
1
  6
CONTINUOUS
 62
     7
 10
835.5
 20
94.49499999999999
 30
0.0
 11
843.9270978976388
 21
94.495
 31
0.0
  0
ARC
  5
1BC
  8
1
  6
CONTINUOUS
 62
     7
 10
875.4999999999999
 20
223.0
 30
0.0
 40
11.995
 50
247.1837647908736
 51
253.3986744976596
  0
LINE
  5
1BD
  8
1
  6
CONTINUOUS
 62
     7
 10
870.8486174272708
 20
211.9435690585926
 30
0.0
 11
870.843577900957
 21
211.9348403429709
 31
0.0
  0
ARC
  5
1BE
  8
1
  6
CONTINUOUS
 62
     7
 10
875.4999999999999
 20
223.0
 30
0.0
 40
12.005
 50
247.1777492983905
 51
253.4056390387525
  0
LINE
  5
1BF
  8
1
  6
CONTINUOUS
 62
     7
 10
872.0714434524133
 20
211.495
 30
0.0
 11
880.5
 21
211.495
 31
0.0
  0
LINE
  5
1C0
  8
1
  6
CONTINUOUS
 62
     7
 10
880.4999999999999
 20
211.495
 30
0.0
 11
880.4999999999999
 21
211.505
 31
0.0
  0
LINE
  5
1C1
  8
1
  6
CONTINUOUS
 62
     7
 10
880.4999999999999
 20
211.505
 30
0.0
 11
872.0729021023612
 21
211.505
 31
0.0
  0
LINE
  5
1C2
  8
1
  6
CONTINUOUS
 62
     7
 10
832.5
 20
211.505
 30
0.0
 11
832.5
 21
211.495
 31
0.0
  0
LINE
  5
1C3
  8
1
  6
CONTINUOUS
 62
     7
 10
825.9999999999999
 20
211.505
 30
0.0
 11
832.4999999999999
 21
211.505
 31
0.0
  0
LINE
  5
1C4
  8
1
  6
CONTINUOUS
 62
     7
 10
825.9999999999999
 20
211.495
 30
0.0
 11
825.9999999999999
 21
211.505
 31
0.0
  0
LINE
  5
1C5
  8
1
  6
CONTINUOUS
 62
     7
 10
832.5
 20
211.495
 30
0.0
 11
826.0
 21
211.495
 31
0.0
  0
LINE
  5
1C6
  8
1
  6
CONTINUOUS
 62
     7
 10
883.4999999999999
 20
94.49499999999999
 30
0.0
 11
883.4999999999999
 21
94.50500000000001
 31
0.0
  0
LINE
  5
1C7
  8
1
  6
CONTINUOUS
 62
     7
 10
890.0
 20
94.49499999999999
 30
0.0
 11
883.5
 21
94.49499999999999
 31
0.0
  0
LINE
  5
1C8
  8
1
  6
CONTINUOUS
 62
     7
 10
890.0
 20
94.50500000000001
 30
0.0
 11
890.0
 21
94.495
 31
0.0
  0
LINE
  5
1C9
  8
1
  6
CONTINUOUS
 62
     7
 10
883.4999999999999
 20
94.50500000000001
 30
0.0
 11
889.9999999999999
 21
94.505
 31
0.0
  0
LINE
  5
1CA
  8
1
  6
CONTINUOUS
 62
     7
 10
825.9999999999999
 20
94.49499999999999
 30
0.0
 11
832.4999999999999
 21
94.49499999999999
 31
0.0
  0
LINE
  5
1CB
  8
1
  6
CONTINUOUS
 62
     7
 10
832.5
 20
94.49499999999999
 30
0.0
 11
832.5
 21
94.50500000000001
 31
0.0
  0
LINE
  5
1CC
  8
1
  6
CONTINUOUS
 62
     7
 10
832.5
 20
94.50500000000001
 30
0.0
 11
826.0
 21
94.505
 31
0.0
  0
LINE
  5
1CD
  8
1
  6
CONTINUOUS
 62
     7
 10
825.9999999999999
 20
94.50500000000001
 30
0.0
 11
825.9999999999999
 21
94.495
 31
0.0
  0
ENDBLK
  8
0
  0
ENDSEC
  0
SECTION
  2
ENTITIES
  0
LINE
  5
70
  8
1
  6
CENTER
 62
     1
 10
928.0
 20
153.0
 30
0.0
 11
787.9999999999999
 21
153.0
 31
0.0
  0
LINE
  5
72
  8
1
  6
CENTER
 62
     1
 10
857.9999999999999
 20
63.00000000000003
 30
0.0
 11
858.0
 21
242.9999999999999
 31
0.0
  0
LINE
  5
73
  8
1
  6
CENTER
 62
     1
 10
972.0
 20
153.0
 30
0.0
 11
966.0
 21
153.0
 31
0.0
  0
TEXT
  5
74
  8
1
  6
CONTINUOUS
 62
     7
 10
907.938086157309
 20
45.21403338752032
 30
0.0
 40
5.0
  1
CSS-SBG
  0
INSERT
  5
86
  8
1
  6
CONTINUOUS
 62
     7
  2
D_FRAME_VIEW_2020
 10
0.0
 20
0.0
 30
0.0
  0
INSERT
  5
1CE
  8
1
  6
CONTINUOUS
 62
     7
  2
D_FRAME_VIEW_1596
 10
0.0
 20
0.0
 30
0.0
  0
ENDSEC
  0
EOF
