  0
SECTION
  2
HEADER
  9
$ACADVER
  1
AC1006
  9
$DWGCODEPAGE
  3
ansi_932
  9
$INSBASE
 10
0.0
 20
0.0
 30
0.0
  9
$EXTMIN
 10
-203.22884079
 20
-33.196096062
  9
$EXTMAX
 10
124.0485874439
 20
220.5399123221
  9
$LIMMIN
 10
0.0
 20
0.0
  9
$LIMMAX
 10
12.0
 20
9.0
  9
$ORTHOMODE
 70
     0
  9
$REGENMODE
 70
     1
  9
$FILLMODE
 70
     1
  9
$QTEXTMODE
 70
     0
  9
$MIRRTEXT
 70
     1
  9
$DRAGMODE
 70
     2
  9
$LTSCALE
 40
1.0
  9
$OSMODE
 70
    37
  9
$ATTMODE
 70
     1
  9
$TEXTSIZE
 40
0.2
  9
$TRACEWID
 40
0.05
  9
$TEXTSTYLE
  7
STANDARD
  9
$CLAYER
  8
0
  9
$CELTYPE
  6
BYLAYER
  9
$CECOLOR
 62
   256
  9
$DIMSCALE
 40
1.0
  9
$DIMASZ
 40
0.9
  9
$DIMEXO
 40
0.0625
  9
$DIMDLI
 40
0.38
  9
$DIMRND
 40
0.0
  9
$DIMDLE
 40
0.0
  9
$DIMEXE
 40
0.45
  9
$DIMTP
 40
0.0
  9
$DIMTM
 40
0.0
  9
$DIMTXT
 40
3.0
  9
$DIMCEN
 40
0.09
  9
$DIMTSZ
 40
0.0
  9
$DIMTOL
 70
     0
  9
$DIMLIM
 70
     0
  9
$DIMTIH
 70
     1
  9
$DIMTOH
 70
     1
  9
$DIMSE1
 70
     0
  9
$DIMSE2
 70
     0
  9
$DIMTAD
 70
     1
  9
$DIMZIN
 70
     0
  9
$DIMBLK
  1

  9
$DIMASO
 70
     1
  9
$DIMSHO
 70
     1
  9
$DIMPOST
  1

  9
$DIMAPOST
  1

  9
$DIMALT
 70
     0
  9
$DIMALTD
 70
     2
  9
$DIMALTF
 40
25.4
  9
$DIMLFAC
 40
1.0
  9
$DIMTOFL
 70
     0
  9
$DIMTVP
 40
0.0
  9
$DIMTIX
 70
     0
  9
$DIMSOXD
 70
     0
  9
$DIMSAH
 70
     0
  9
$DIMBLK1
  1

  9
$DIMBLK2
  1

  9
$LUNITS
 70
     2
  9
$LUPREC
 70
     4
  9
$SKETCHINC
 40
0.1
  9
$FILLETRAD
 40
0.5
  9
$AUNITS
 70
     0
  9
$AUPREC
 70
     0
  9
$MENU
  1
.
  9
$ELEVATION
 40
0.0
  9
$THICKNESS
 40
0.0
  9
$LIMCHECK
 70
     0
  9
$CHAMFERA
 40
0.0
  9
$CHAMFERB
 40
0.0
  9
$SKPOLY
 70
     0
  9
$TDCREATE
 40
2460580.388107453
  9
$TDUPDATE
 40
2460580.38810765
  9
$TDINDWG
 40
0.0000000116
  9
$TDUSRTIMER
 40
0.0000000116
  9
$USRTIMER
 70
     1
  9
$ANGBASE
 50
0.0
  9
$ANGDIR
 70
     0
  9
$PDMODE
 70
     0
  9
$PDSIZE
 40
0.0
  9
$PLINEWID
 40
0.0
  9
$COORDS
 70
     1
  9
$SPLFRAME
 70
     0
  9
$SPLINETYPE
 70
     6
  9
$SPLINESEGS
 70
     8
  9
$ATTDIA
 70
     0
  9
$ATTREQ
 70
     1
  9
$HANDLING
 70
     1
  9
$HANDSEED
  5
1EE
  9
$SURFTAB1
 70
     6
  9
$SURFTAB2
 70
     6
  9
$SURFTYPE
 70
     6
  9
$SURFU
 70
     6
  9
$SURFV
 70
     6
  9
$UCSNAME
  2

  9
$UCSORG
 10
0.0
 20
0.0
 30
0.0
  9
$UCSXDIR
 10
1.0
 20
0.0
 30
0.0
  9
$UCSYDIR
 10
0.0
 20
1.0
 30
0.0
  9
$USERI1
 70
     0
  9
$USERI2
 70
     0
  9
$USERI3
 70
     0
  9
$USERI4
 70
     0
  9
$USERI5
 70
     0
  9
$USERR1
 40
0.0
  9
$USERR2
 40
0.0
  9
$USERR3
 40
0.0
  9
$USERR4
 40
0.0
  9
$USERR5
 40
0.0
  9
$WORLDVIEW
 70
     1
  0
ENDSEC
  0
SECTION
  2
TABLES
  0
TABLE
  2
VPORT
 70
     1
  0
VPORT
  2
*ACTIVE
 70
     0
 10
0.0
 20
0.0
 11
1.0
 21
1.0
 12
-39.59012667304999
 22
93.67190813005
 13
0.0
 23
0.0
 14
0.5
 24
0.5
 15
0.5
 25
0.5
 16
0.0
 26
0.0
 36
1.0
 17
0.0
 27
0.0
 37
0.0
 40
253.7360083841
 41
1.6
 42
50.0
 43
0.0
 44
0.0
 50
0.0
 51
0.0
 71
     0
 72
   100
 73
     1
 74
     3
 75
     0
 76
     0
 77
     0
 78
     0
  0
ENDTAB
  0
TABLE
  2
LTYPE
 70
     2
  0
LTYPE
  2
CONTINUOUS
 70
     0
  3
Solid line
 72
    65
 73
     0
 40
0.0
  0
LTYPE
  2
CENTER
 70
     0
  3

 72
    65
 73
     0
 40
0.0
  0
ENDTAB
  0
TABLE
  2
LAYER
 70
     2
  0
LAYER
  2
0
 70
     0
 62
     7
  6
CONTINUOUS
  0
LAYER
  2
1
 70
     0
 62
     7
  6
CONTINUOUS
  0
ENDTAB
  0
TABLE
  2
STYLE
 70
     2
  0
STYLE
  2
STANDARD
 70
     0
 40
0.0
 41
1.0
 50
0.0
 71
     0
 42
0.2
  3
txt
  4

  0
STYLE
  2
ＭＳ_ゴシック
 70
     0
 40
0.0
 41
1.0
 50
0.0
 71
     0
 42
0.2
  3
ＭＳ ゴシック.shx
  4

  0
ENDTAB
  0
TABLE
  2
VIEW
 70
     0
  0
ENDTAB
  0
TABLE
  2
UCS
 70
     0
  0
ENDTAB
  0
ENDSEC
  0
SECTION
  2
BLOCKS
  0
ENDSEC
  0
SECTION
  2
ENTITIES
  0
LINE
  5
70
  8
1
  6
CONTINUOUS
 62
     7
 10
114.6420130494
 20
58.3227862944
 30
0.0
 11
69.6420120494
 21
58.3227862944
 31
0.0
  0
LINE
  5
71
  8
1
  6
CONTINUOUS
 62
     7
 10
-171.2876643194
 20
12.803906938
 30
0.0
 11
-171.2876643194
 21
-28.196095062
 31
0.0
  0
LINE
  5
72
  8
1
  6
CONTINUOUS
 62
     7
 10
14.7123356806
 20
12.803906938
 30
0.0
 11
14.7123356806
 21
-28.196095062
 31
0.0
  0
LINE
  5
73
  8
1
  6
CONTINUOUS
 62
     7
 10
114.6420130494
 20
192.3227842944
 30
0.0
 11
69.6420120494
 21
192.3227842944
 31
0.0
  0
CIRCLE
  5
74
  8
1
  6
CONTINUOUS
 62
     7
 10
-124.2876633194
 20
167.0727862944
 30
0.0
 40
3.999999
  0
LINE
  5
75
  8
1
  6
CONTINUOUS
 62
     7
 10
-37.3876623194
 20
80.8227862944
 30
0.0
 11
-37.3876623194
 21
83.5727842944
 31
0.0
  0
ARC
  5
76
  8
1
  6
CONTINUOUS
 62
     7
 10
-130.8876633194
 20
169.8227842944
 30
0.0
 40
1.5
 50
0.0
 51
90.0
  0
ARC
  5
77
  8
1
  6
CONTINUOUS
 62
     7
 10
-25.6876623194
 20
169.8227842944
 30
0.0
 40
1.5
 50
90.0
 51
180.0
  0
ARC
  5
78
  8
1
  6
CONTINUOUS
 62
     7
 10
-117.6876633194
 20
80.8227862944
 30
0.0
 40
1.5
 50
180.0
 51
270.0
  0
ARC
  5
79
  8
1
  6
CONTINUOUS
 62
     7
 10
-117.6876633194
 20
169.8227842944
 30
0.0
 40
1.5
 50
90.0
 51
180.0
  0
ARC
  5
7A
  8
1
  6
CONTINUOUS
 62
     7
 10
-38.8876623194
 20
80.8227862944
 30
0.0
 40
1.5
 50
270.0
 51
0.0
  0
LINE
  5
7B
  8
1
  6
CONTINUOUS
 62
     7
 10
67.6420140494
 20
213.3227842944
 30
0.0
 11
65.6420130494
 21
213.3227842944
 31
0.0
  0
LINE
  5
7C
  8
1
  6
CONTINUOUS
 62
     7
 10
116.6420140494
 20
185.3227852944
 30
0.0
 11
116.6420140494
 21
65.32278529440002
 31
0.0
  0
ARC
  5
7D
  8
1
  6
CONTINUOUS
 62
     7
 10
88.6420140494
 20
161.3227852944
 30
0.0
 40
13.550001
 50
2.114716
 51
87.88528400000001
  0
ARC
  5
7E
  8
1
  6
CONTINUOUS
 62
     7
 10
88.6420140494
 20
161.3227852944
 30
0.0
 40
13.550001
 50
272.114716
 51
357.8852840000001
  0
ARC
  5
7F
  8
1
  6
CONTINUOUS
 62
     7
 10
-124.2876633194
 20
167.0727862944
 30
0.0
 40
5.1
 50
180.0
 51
0.0
  0
CIRCLE
  5
80
  8
1
  6
CONTINUOUS
 62
     7
 10
-124.2876633194
 20
83.5727842944
 30
0.0
 40
3.999999
  0
CIRCLE
  5
81
  8
1
  6
CONTINUOUS
 62
     7
 10
-32.2876623194
 20
83.5727842944
 30
0.0
 40
3.999999
  0
LINE
  5
82
  8
1
  6
CONTINUOUS
 62
     7
 10
65.6420130494
 20
213.3227842944
 30
0.0
 11
65.6420130494
 21
37.3227862944
 31
0.0
  0
LINE
  5
83
  8
1
  6
CONTINUOUS
 62
     7
 10
67.6420140494
 20
37.3227862944
 30
0.0
 11
65.6420130494
 21
37.3227862944
 31
0.0
  0
LINE
  5
84
  8
1
  6
CONTINUOUS
 62
     7
 10
-27.1876623194
 20
169.8227842944
 30
0.0
 11
-27.1876623194
 21
167.0727862944
 31
0.0
  0
LINE
  5
85
  8
1
  6
CONTINUOUS
 62
     7
 10
67.6420140494
 20
37.3227862944
 30
0.0
 11
67.6420140494
 21
213.3227842944
 31
0.0
  0
LINE
  5
86
  8
1
  6
CONTINUOUS
 62
     7
 10
-129.3876633194
 20
80.8227862944
 30
0.0
 11
-129.3876633194
 21
83.5727842944
 31
0.0
  0
LINE
  5
87
  8
1
  6
CONTINUOUS
 62
     7
 10
-27.1876623194
 20
80.8227862944
 30
0.0
 11
-27.1876623194
 21
83.5727842944
 31
0.0
  0
LINE
  5
88
  8
1
  6
CONTINUOUS
 62
     7
 10
-129.3876633194
 20
169.8227842944
 30
0.0
 11
-129.3876633194
 21
167.0727862944
 31
0.0
  0
ARC
  5
89
  8
1
  6
CONTINUOUS
 62
     7
 10
-32.2876623194
 20
83.5727842944
 30
0.0
 40
5.1
 50
0.0
 51
180.0
  0
ARC
  5
8A
  8
1
  6
CONTINUOUS
 62
     7
 10
-146.2876623194
 20
80.8227862944
 30
0.0
 40
1.5
 50
180.0
 51
270.0
  0
LINE
  5
8B
  8
1
  6
CONTINUOUS
 62
     7
 10
-37.3876623194
 20
169.8227842944
 30
0.0
 11
-37.3876623194
 21
167.0727862944
 31
0.0
  0
ARC
  5
8C
  8
1
  6
CONTINUOUS
 62
     7
 10
-124.2876633194
 20
83.5727842944
 30
0.0
 40
5.1
 50
0.0
 51
180.0
  0
LINE
  5
8D
  8
1
  6
CONTINUOUS
 62
     7
 10
-119.1876633194
 20
80.8227862944
 30
0.0
 11
-119.1876633194
 21
83.5727842944
 31
0.0
  0
LINE
  5
8E
  8
1
  6
CONTINUOUS
 62
     7
 10
-146.2876623194
 20
171.3227842944
 30
0.0
 11
-10.28766331940001
 21
171.3227842944
 31
0.0
  0
LINE
  5
8F
  8
1
  6
CONTINUOUS
 62
     7
 10
-8.7876633194
 20
169.8227842944
 30
0.0
 11
-8.7876633194
 21
80.8227862944
 31
0.0
  0
CIRCLE
  5
90
  8
1
  6
CONTINUOUS
 62
     7
 10
-32.2876623194
 20
167.0727862944
 30
0.0
 40
3.999999
  0
LINE
  5
91
  8
1
  6
CONTINUOUS
 62
     7
 10
-119.1876633194
 20
169.8227842944
 30
0.0
 11
-119.1876633194
 21
167.0727862944
 31
0.0
  0
LINE
  5
92
  8
1
  6
CONTINUOUS
 62
     7
 10
-147.7876623194
 20
80.8227862944
 30
0.0
 11
-147.7876623194
 21
169.8227842944
 31
0.0
  0
LINE
  5
93
  8
1
  6
CONTINUOUS
 62
     7
 10
-10.2876633194
 20
79.3227862944
 30
0.0
 11
-146.2876623194
 21
79.3227862944
 31
0.0
  0
ARC
  5
94
  8
1
  6
CONTINUOUS
 62
     7
 10
-146.2876623194
 20
169.8227842944
 30
0.0
 40
1.5
 50
90.0
 51
180.0
  0
ARC
  5
95
  8
1
  6
CONTINUOUS
 62
     7
 10
-10.2876633194
 20
80.8227862944
 30
0.0
 40
1.5
 50
270.0
 51
0.0
  0
ARC
  5
96
  8
1
  6
CONTINUOUS
 62
     7
 10
-38.8876623194
 20
169.8227842944
 30
0.0
 40
1.5
 50
0.0
 51
90.0
  0
ARC
  5
97
  8
1
  6
CONTINUOUS
 62
     7
 10
-130.8876633194
 20
80.8227862944
 30
0.0
 40
1.5
 50
270.0
 51
0.0
  0
ARC
  5
98
  8
1
  6
CONTINUOUS
 62
     7
 10
-25.6876623194
 20
80.8227862944
 30
0.0
 40
1.5
 50
180.0
 51
270.0
  0
CIRCLE
  5
99
  8
1
  6
CONTINUOUS
 62
     7
 10
-32.2876623194
 20
167.0727862944
 30
0.0
 40
2.1
  0
CIRCLE
  5
9A
  8
1
  6
CONTINUOUS
 62
     7
 10
-124.2876633194
 20
83.5727842944
 30
0.0
 40
2.1
  0
CIRCLE
  5
9B
  8
1
  6
CONTINUOUS
 62
     7
 10
-32.2876623194
 20
83.5727842944
 30
0.0
 40
2.1
  0
CIRCLE
  5
9C
  8
1
  6
CONTINUOUS
 62
     7
 10
-124.2876633194
 20
167.0727862944
 30
0.0
 40
2.1
  0
ARC
  5
9D
  8
1
  6
CONTINUOUS
 62
     7
 10
-32.2876623194
 20
167.0727862944
 30
0.0
 40
5.1
 50
180.0
 51
0.0
  0
ARC
  5
9E
  8
1
  6
CONTINUOUS
 62
     7
 10
88.6420140494
 20
161.3227852944
 30
0.0
 40
13.550001
 50
92.11471600000002
 51
267.885284
  0
CIRCLE
  5
9F
  8
1
  6
CONTINUOUS
 62
     7
 10
-78.2876643194
 20
83.5727842944
 30
0.0
 40
3.999999
  0
LINE
  5
A0
  8
1
  6
CONTINUOUS
 62
     7
 10
-73.1876643194
 20
169.8227842944
 30
0.0
 11
-73.1876643194
 21
167.0727862944
 31
0.0
  0
ARC
  5
A1
  8
1
  6
CONTINUOUS
 62
     7
 10
-78.2876643194
 20
83.5727842944
 30
0.0
 40
5.1
 50
0.0
 51
180.0
  0
CIRCLE
  5
A2
  8
1
  6
CONTINUOUS
 62
     7
 10
-78.2876643194
 20
167.0727862944
 30
0.0
 40
3.999999
  0
ARC
  5
A3
  8
1
  6
CONTINUOUS
 62
     7
 10
-78.2876643194
 20
167.0727862944
 30
0.0
 40
5.1
 50
180.0
 51
0.0
  0
LINE
  5
A4
  8
1
  6
CONTINUOUS
 62
     7
 10
-83.3876643194
 20
169.8227842944
 30
0.0
 11
-83.3876643194
 21
167.0727862944
 31
0.0
  0
LINE
  5
A5
  8
1
  6
CONTINUOUS
 62
     7
 10
-147.7876623194
 20
128.3227492944
 30
0.0
 11
-116.5539453194
 21
128.3227882944
 31
0.0
  0
LINE
  5
A6
  8
1
  6
CONTINUOUS
 62
     7
 10
-91.4501103194
 20
122.3227882944
 30
0.0
 11
-91.5213873194
 21
122.3227882944
 31
0.0
  0
LINE
  5
A7
  8
1
  6
CONTINUOUS
 62
     7
 10
-83.3876643194
 20
80.8227862944
 30
0.0
 11
-83.3876643194
 21
83.5727842944
 31
0.0
  0
CIRCLE
  5
A8
  8
1
  6
CONTINUOUS
 62
     7
 10
-86.7876633194
 20
125.3227852944
 30
0.0
 40
1.5
  0
LINE
  5
A9
  8
1
  6
CONTINUOUS
 62
     7
 10
-52.2876633194
 20
122.3227852944
 30
0.0
 11
-51.5539533194
 21
122.3227702944
 31
0.0
  0
ARC
  5
AA
  8
1
  6
CONTINUOUS
 62
     7
 10
5.8623356806
 20
179.4727852944
 30
0.0
 40
3.0
 50
0.0
 51
90.0
  0
LINE
  5
AB
  8
1
  6
CONTINUOUS
 62
     7
 10
-75.2876643194
 20
138.5565052944
 30
0.0
 11
-75.2876643194
 21
138.4852312944
 31
0.0
  0
CIRCLE
  5
AC
  8
1
  6
CONTINUOUS
 62
     7
 10
-69.7876653194
 20
125.3227852944
 30
0.0
 40
1.5
  0
CIRCLE
  5
AD
  8
1
  6
CONTINUOUS
 62
     7
 10
-74.0376633194
 20
117.9615682944
 30
0.0
 40
1.5
  0
LINE
  5
AE
  8
1
  6
CONTINUOUS
 62
     7
 10
-116.5539453194
 20
122.3227852944
 30
0.0
 11
-147.7876623194
 21
122.3228302944
 31
0.0
  0
LINE
  5
AF
  8
1
  6
CONTINUOUS
 62
     7
 10
-147.7876623194
 20
126.3227842944
 30
0.0
 11
-115.1751453194
 21
126.3227842944
 31
0.0
  0
ARC
  5
B0
  8
1
  6
CONTINUOUS
 62
     7
 10
6.2123366806
 20
179.8227862944
 30
0.0
 40
3.0
 50
0.0
 51
90.0
  0
ARC
  5
B1
  8
1
  6
CONTINUOUS
 62
     7
 10
-71.6876643194
 20
80.8227862944
 30
0.0
 40
1.5
 50
180.0
 51
270.0
  0
ARC
  5
B2
  8
1
  6
CONTINUOUS
 62
     7
 10
-162.4376643194
 20
71.1727852944
 30
0.0
 40
3.0
 50
180.0
 51
270.0
  0
LINE
  5
B3
  8
1
  6
CONTINUOUS
 62
     7
 10
-162.7876653194
 20
67.8227842944
 30
0.0
 11
6.212336680600005
 21
67.8227842944
 31
0.0
  0
ARC
  5
B4
  8
1
  6
CONTINUOUS
 62
     7
 10
-162.7876653194
 20
179.8227862944
 30
0.0
 40
3.0
 50
90.0
 51
180.0
  0
LINE
  5
B5
  8
1
  6
CONTINUOUS
 62
     7
 10
-53.7876633194
 20
124.3227862944
 30
0.0
 11
-50.1751473194
 21
124.3227862944
 31
0.0
  0
ARC
  5
B6
  8
1
  6
CONTINUOUS
 62
     7
 10
-84.8876643194
 20
169.8227842944
 30
0.0
 40
1.5
 50
0.0
 51
90.0
  0
LINE
  5
B7
  8
1
  6
CONTINUOUS
 62
     7
 10
-162.4376643194
 20
68.1727852944
 30
0.0
 11
5.86233568059999
 21
68.1727852944
 31
0.0
  0
ARC
  5
B8
  8
1
  6
CONTINUOUS
 62
     7
 10
6.2123366806
 20
70.8227842944
 30
0.0
 40
3.0
 50
270.0
 51
0.0
  0
ARC
  5
B9
  8
1
  6
CONTINUOUS
 62
     7
 10
-162.7876653194
 20
179.8227862944
 30
0.0
 40
6.500001
 50
90.0
 51
180.0
  0
LINE
  5
BA
  8
1
  6
CONTINUOUS
 62
     7
 10
-169.2876633194
 20
213.3227842944
 30
0.0
 11
-169.2876633194
 21
37.3227862944
 31
0.0
  0
CIRCLE
  5
BB
  8
1
  6
CONTINUOUS
 62
     7
 10
-82.5376653194
 20
132.6840022944
 30
0.0
 40
1.5
  0
LINE
  5
BC
  8
1
  6
CONTINUOUS
 62
     7
 10
-91.5213843194
 20
128.3227882944
 30
0.0
 11
-91.4501103194
 21
128.3227882944
 31
0.0
  0
LINE
  5
BD
  8
1
  6
CONTINUOUS
 62
     7
 10
-8.7876633194
 20
126.3227842944
 30
0.0
 11
-41.4001833194
 21
126.3227842944
 31
0.0
  0
CIRCLE
  5
BE
  8
1
  6
CONTINUOUS
 62
     7
 10
-78.2876643194
 20
125.3227852944
 30
0.0
 40
11.000001
  0
LINE
  5
BF
  8
1
  6
CONTINUOUS
 62
     7
 10
-65.0539413194
 20
128.3227852944
 30
0.0
 11
-65.1252183194
 21
128.3227822944
 31
0.0
  0
LINE
  5
C0
  8
1
  6
CONTINUOUS
 62
     7
 10
-65.1252183194
 20
122.3227822944
 30
0.0
 11
-65.0539443194
 21
122.3227852944
 31
0.0
  0
LINE
  5
C1
  8
1
  6
CONTINUOUS
 62
     7
 10
-115.1751453194
 20
124.3227862944
 30
0.0
 11
-147.7876623194
 21
124.3227862944
 31
0.0
  0
LINE
  5
C2
  8
1
  6
CONTINUOUS
 62
     7
 10
12.7123346806
 20
37.3227862944
 30
0.0
 11
12.7123346806
 21
213.3227842944
 31
0.0
  0
CIRCLE
  5
C3
  8
1
  6
CONTINUOUS
 62
     7
 10
-78.2876643194
 20
167.0727862944
 30
0.0
 40
2.1
  0
LINE
  5
C4
  8
1
  6
CONTINUOUS
 62
     7
 10
-73.1876643194
 20
80.8227862944
 30
0.0
 11
-73.1876643194
 21
83.5727842944
 31
0.0
  0
ARC
  5
C5
  8
1
  6
CONTINUOUS
 62
     7
 10
-84.8876643194
 20
80.8227862944
 30
0.0
 40
1.5
 50
270.0
 51
0.0
  0
LINE
  5
C6
  8
1
  6
CONTINUOUS
 62
     7
 10
6.2123366806
 20
186.3227842944
 30
0.0
 11
-162.7876653194
 21
186.3227842944
 31
0.0
  0
LINE
  5
C7
  8
1
  6
CONTINUOUS
 62
     7
 10
6.2123366806
 20
182.8227862944
 30
0.0
 11
-162.7876653194
 21
182.8227862944
 31
0.0
  0
CIRCLE
  5
C8
  8
1
  6
CONTINUOUS
 62
     7
 10
-78.2876643194
 20
125.3227852944
 30
0.0
 40
4.863999
  0
LINE
  5
C9
  8
1
  6
CONTINUOUS
 62
     7
 10
-40.0213833194
 20
122.3227852944
 30
0.0
 11
-8.787663319399996
 21
122.3227462944
 31
0.0
  0
LINE
  5
CA
  8
1
  6
CONTINUOUS
 62
     7
 10
-41.4001833194
 20
124.3227862944
 30
0.0
 11
-8.7876633194
 21
124.3227862944
 31
0.0
  0
LINE
  5
CB
  8
1
  6
CONTINUOUS
 62
     7
 10
-104.2876653194
 20
122.3227822944
 30
0.0
 11
-105.0213963194
 21
122.3228002944
 31
0.0
  0
CIRCLE
  5
CC
  8
1
  6
CONTINUOUS
 62
     7
 10
-78.2876643194
 20
83.5727842944
 30
0.0
 40
2.1
  0
CIRCLE
  5
CD
  8
1
  6
CONTINUOUS
 62
     7
 10
-45.7876653194
 20
125.3227852944
 30
0.0
 40
3.0
  0
LINE
  5
CE
  8
1
  6
CONTINUOUS
 62
     7
 10
5.8623356806
 20
182.4727852944
 30
0.0
 11
-163.191521996
 21
182.4727852944
 31
0.0
  0
LINE
  5
CF
  8
1
  6
CONTINUOUS
 62
     7
 10
-8.7876633194
 20
128.3227462944
 30
0.0
 11
-40.0213863194
 21
128.3227852944
 31
0.0
  0
LINE
  5
D0
  8
1
  6
CONTINUOUS
 62
     7
 10
-165.4376643194
 20
162.3233752944
 30
0.0
 11
-165.4376643194
 21
71.1727852944
 31
0.0
  0
LINE
  5
D1
  8
1
  6
CONTINUOUS
 62
     7
 10
-165.7876653194
 20
179.8227862944
 30
0.0
 11
-165.7876653194
 21
70.8227842944
 31
0.0
  0
LINE
  5
D2
  8
1
  6
CONTINUOUS
 62
     7
 10
-105.0213843194
 20
128.3227882944
 30
0.0
 11
-104.2876653194
 21
128.3227882944
 31
0.0
  0
LINE
  5
D3
  8
1
  6
CONTINUOUS
 62
     7
 10
-51.5539323194
 20
128.3227702944
 30
0.0
 11
-52.2876663194
 21
128.3227852944
 31
0.0
  0
CIRCLE
  5
D4
  8
1
  6
CONTINUOUS
 62
     7
 10
-78.2876643194
 20
125.3227852944
 30
0.0
 40
4.283001
  0
LINE
  5
D5
  8
1
  6
CONTINUOUS
 62
     7
 10
-106.4001813194
 20
126.3227842944
 30
0.0
 11
-102.7876653194
 21
126.3227842944
 31
0.0
  0
CIRCLE
  5
D6
  8
1
  6
CONTINUOUS
 62
     7
 10
-74.0376633194
 20
132.6840022944
 30
0.0
 40
1.5
  0
LINE
  5
D7
  8
1
  6
CONTINUOUS
 62
     7
 10
-50.1751473194
 20
126.3227842944
 30
0.0
 11
-53.7876633194
 21
126.3227842944
 31
0.0
  0
CIRCLE
  5
D8
  8
1
  6
CONTINUOUS
 62
     7
 10
-110.7876633194
 20
125.3227852944
 30
0.0
 40
3.0
  0
ARC
  5
D9
  8
1
  6
CONTINUOUS
 62
     7
 10
5.8623356806
 20
71.1727852944
 30
0.0
 40
3.0
 50
270.0
 51
0.0
  0
LINE
  5
DA
  8
1
  6
CONTINUOUS
 62
     7
 10
-162.7876653194
 20
64.3227862944
 30
0.0
 11
6.212336680600005
 21
64.3227862944
 31
0.0
  0
LINE
  5
DB
  8
1
  6
CONTINUOUS
 62
     7
 10
-81.2876643194
 20
138.5565052944
 30
0.0
 11
-81.2876643194
 21
138.4852312944
 31
0.0
  0
LINE
  5
DC
  8
1
  6
CONTINUOUS
 62
     7
 10
9.2123366806
 20
70.8227842944
 30
0.0
 11
9.2123366806
 21
179.8227862944
 31
0.0
  0
LINE
  5
DD
  8
1
  6
CONTINUOUS
 62
     7
 10
-75.2876403194
 20
112.0890832944
 30
0.0
 11
-75.2876643194
 21
112.1603392944
 31
0.0
  0
ARC
  5
DE
  8
1
  6
CONTINUOUS
 62
     7
 10
-162.7876653194
 20
70.8227842944
 30
0.0
 40
3.0
 50
180.0
 51
270.0
  0
LINE
  5
DF
  8
1
  6
CONTINUOUS
 62
     7
 10
-102.7876653194
 20
124.3227862944
 30
0.0
 11
-106.4001813194
 21
124.3227862944
 31
0.0
  0
LINE
  5
E0
  8
1
  6
CONTINUOUS
 62
     7
 10
8.8623356806
 20
71.1727852944
 30
0.0
 11
8.8623356806
 21
179.4727852944
 31
0.0
  0
CIRCLE
  5
E1
  8
1
  6
CONTINUOUS
 62
     7
 10
-78.2876643194
 20
125.3227852944
 30
0.0
 40
13.5
  0
ARC
  5
E2
  8
1
  6
CONTINUOUS
 62
     7
 10
-71.6876643194
 20
169.8227842944
 30
0.0
 40
1.5
 50
90.0
 51
180.0
  0
CIRCLE
  5
E3
  8
1
  6
CONTINUOUS
 62
     7
 10
-82.5376653194
 20
117.9615682944
 30
0.0
 40
1.5
  0
LINE
  5
E4
  8
1
  6
CONTINUOUS
 62
     7
 10
-81.2876643194
 20
112.0890682944
 30
0.0
 11
-81.2876643194
 21
112.1603392944
 31
0.0
  0
CIRCLE
  5
E5
  8
1
  6
CONTINUOUS
 62
     7
 10
-78.2876643194
 20
144.3227842944
 30
0.0
 40
3.0
  0
LINE
  5
E6
  8
1
  6
CONTINUOUS
 62
     7
 10
-79.2876633194
 20
139.9353022944
 30
0.0
 11
-79.2876633194
 21
138.7856962944
 31
0.0
  0
LINE
  5
E7
  8
1
  6
CONTINUOUS
 62
     7
 10
-77.2876653194
 20
138.7856962944
 30
0.0
 11
-77.2876653194
 21
139.9353022944
 31
0.0
  0
LINE
  5
E8
  8
1
  6
CONTINUOUS
 62
     7
 10
1.2123356806
 20
188.3151742944
 30
0.0
 11
1.2123356806
 21
186.5227852944
 31
0.0
  0
LINE
  5
E9
  8
1
  6
CONTINUOUS
 62
     7
 10
-79.2876633194
 20
111.8598742944
 30
0.0
 11
-79.2876633194
 21
110.7102682944
 31
0.0
  0
ARC
  5
EA
  8
1
  6
CONTINUOUS
 62
     7
 10
-5.9876643194
 20
186.5227852944
 30
0.0
 40
0.200001
 50
270.0
 51
0.0
  0
ARC
  5
EB
  8
1
  6
CONTINUOUS
 62
     7
 10
-45.7876653194
 20
125.3227852944
 30
0.0
 40
4.5
 50
12.839588
 51
167.160412
  0
ARC
  5
EC
  8
1
  6
CONTINUOUS
 62
     7
 10
-59.2876653194
 20
125.3227852944
 30
0.0
 40
3.0
 50
33.55731
 51
326.44269
  0
LINE
  5
ED
  8
1
  6
CONTINUOUS
 62
     7
 10
-58.2876723194
 20
79.3227862944
 30
0.0
 11
-58.2876663194
 21
118.9001662944
 31
0.0
  0
ARC
  5
EE
  8
1
  6
CONTINUOUS
 62
     7
 10
1.4123366806
 20
64.1227852944
 30
0.0
 40
0.200001
 50
90.0
 51
180.0
  0
ARC
  5
EF
  8
1
  6
CONTINUOUS
 62
     7
 10
6.2123366806
 20
179.8227862944
 30
0.0
 40
6.500001
 50
0.0
 51
90.0
  0
ARC
  5
F0
  8
1
  6
CONTINUOUS
 62
     7
 10
-157.9876653194
 20
64.1227852944
 30
0.0
 40
0.200001
 50
0.0
 51
90.0
  0
LINE
  5
F1
  8
1
  6
CONTINUOUS
 62
     7
 10
-58.2876573194
 20
171.3227842944
 30
0.0
 11
-58.2876633194
 21
131.7454012944
 31
0.0
  0
ARC
  5
F2
  8
1
  6
CONTINUOUS
 62
     7
 10
-110.7876633194
 20
125.3227852944
 30
0.0
 40
4.5
 50
192.839588
 51
347.1604120000001
  0
LINE
  5
F3
  8
1
  6
CONTINUOUS
 62
     7
 10
-102.7876653194
 20
123.8227852944
 30
0.0
 11
-104.2876653194
 21
122.3227852944
 31
0.0
  0
ARC
  5
F4
  8
1
  6
CONTINUOUS
 62
     7
 10
-97.2876633194
 20
125.3227852944
 30
0.0
 40
4.5
 50
236.251011
 51
347.1604120000001
  0
LINE
  5
F5
  8
1
  6
CONTINUOUS
 62
     7
 10
1.2123356806
 20
62.3303962944
 30
0.0
 11
1.2123356806
 21
64.1227852944
 31
0.0
  0
LINE
  5
F6
  8
1
  6
CONTINUOUS
 62
     7
 10
-165.4682613194
 20
162.3236302944
 30
0.0
 11
-165.4682613194
 21
179.8227862944
 31
0.0
  0
LINE
  5
F7
  8
1
  6
CONTINUOUS
 62
     7
 10
1.2123356806
 20
188.3151742944
 30
0.0
 11
-5.7876633194
 21
188.3151742944
 31
0.0
  0
LINE
  5
F8
  8
1
  6
CONTINUOUS
 62
     7
 10
-91.7505753194
 20
124.3227862944
 30
0.0
 11
-92.9001813194
 21
124.3227862944
 31
0.0
  0
ARC
  5
F9
  8
1
  6
CONTINUOUS
 62
     7
 10
-110.7876633194
 20
125.3227852944
 30
0.0
 40
4.5
 50
12.839588
 51
167.160412
  0
LINE
  5
FA
  8
1
  6
CONTINUOUS
 62
     7
 10
-104.2875303194
 20
171.3227842944
 30
0.0
 11
-104.2876653194
 21
128.3227882944
 31
0.0
  0
LINE
  5
FB
  8
1
  6
CONTINUOUS
 62
     7
 10
1.2123356806
 20
62.3303962944
 30
0.0
 11
-5.7876633194
 21
62.3303962944
 31
0.0
  0
ARC
  5
FC
  8
1
  6
CONTINUOUS
 62
     7
 10
-5.9876643194
 20
64.1227852944
 30
0.0
 40
0.200001
 50
0.0
 51
90.0
  0
LINE
  5
FD
  8
1
  6
CONTINUOUS
 62
     7
 10
-77.2876653194
 20
110.7102682944
 30
0.0
 11
-77.2876653194
 21
111.8598742944
 31
0.0
  0
ARC
  5
FE
  8
1
  6
CONTINUOUS
 62
     7
 10
-162.7876653194
 20
70.8227842944
 30
0.0
 40
6.500001
 50
180.0
 51
270.0
  0
LINE
  5
FF
  8
1
  6
CONTINUOUS
 62
     7
 10
-157.7876643194
 20
62.3303962944
 30
0.0
 11
-150.7876653194
 21
62.3303962944
 31
0.0
  0
ARC
  5
100
  8
1
  6
CONTINUOUS
 62
     7
 10
-45.7876653194
 20
125.3227852944
 30
0.0
 40
4.5
 50
192.839588
 51
347.1604120000001
  0
ARC
  5
101
  8
1
  6
CONTINUOUS
 62
     7
 10
-110.7876633194
 20
125.3227852944
 30
0.0
 40
6.500001
 50
27.486446
 51
152.513559
  0
LINE
  5
102
  8
1
  6
CONTINUOUS
 62
     7
 10
-98.2876563194
 20
79.3227862944
 30
0.0
 11
-98.2876623194
 21
118.9001662944
 31
0.0
  0
ARC
  5
103
  8
1
  6
CONTINUOUS
 62
     7
 10
-97.2876633194
 20
125.3227852944
 30
0.0
 40
3.0
 50
213.55731
 51
146.44269
  0
CIRCLE
  5
104
  8
1
  6
CONTINUOUS
 62
     7
 10
-78.2876643194
 20
106.3227862944
 30
0.0
 40
3.0
  0
ARC
  5
105
  8
1
  6
CONTINUOUS
 62
     7
 10
-162.7876653194
 20
179.8227862944
 30
0.0
 40
2.680596
 50
90.0
 51
180.0
  0
LINE
  5
106
  8
1
  6
CONTINUOUS
 62
     7
 10
-5.7876633194
 20
186.5227852944
 30
0.0
 11
-5.7876633194
 21
188.3151742944
 31
0.0
  0
LINE
  5
107
  8
1
  6
CONTINUOUS
 62
     7
 10
-150.7876653194
 20
64.1227852944
 30
0.0
 11
-150.7876653194
 21
62.3303962944
 31
0.0
  0
LINE
  5
108
  8
1
  6
CONTINUOUS
 62
     7
 10
-98.2876713194
 20
171.3227842944
 30
0.0
 11
-98.2876653194
 21
131.7454012944
 31
0.0
  0
LINE
  5
109
  8
1
  6
CONTINUOUS
 62
     7
 10
-104.2875243194
 20
79.3227862944
 30
0.0
 11
-104.2876653194
 21
122.3227852944
 31
0.0
  0
LINE
  5
10A
  8
1
  6
CONTINUOUS
 62
     7
 10
-157.7876643194
 20
62.3303962944
 30
0.0
 11
-157.7876643194
 21
64.1227852944
 31
0.0
  0
LINE
  5
10B
  8
1
  6
CONTINUOUS
 62
     7
 10
-52.2878043194
 20
171.3227842944
 30
0.0
 11
-52.2876633194
 21
128.3227882944
 31
0.0
  0
ARC
  5
10C
  8
1
  6
CONTINUOUS
 62
     7
 10
-78.2876643194
 20
106.3227862944
 30
0.0
 40
4.5
 50
102.839588
 51
77.16041200000001
  0
ARC
  5
10D
  8
1
  6
CONTINUOUS
 62
     7
 10
-59.2876653194
 20
125.3227852944
 30
0.0
 40
4.5
 50
192.839588
 51
303.748989
  0
LINE
  5
10E
  8
1
  6
CONTINUOUS
 62
     7
 10
-116.5539453194
 20
128.3227882944
 30
0.0
 11
-115.1751453194
 21
126.3227842944
 31
0.0
  0
LINE
  5
10F
  8
1
  6
CONTINUOUS
 62
     7
 10
-106.4001813194
 20
126.3227842944
 30
0.0
 11
-105.0213843194
 21
128.3227882944
 31
0.0
  0
ARC
  5
110
  8
1
  6
CONTINUOUS
 62
     7
 10
-97.2876633194
 20
125.3227852944
 30
0.0
 40
4.5
 50
12.839588
 51
123.748989
  0
ARC
  5
111
  8
1
  6
CONTINUOUS
 62
     7
 10
-110.7876633194
 20
125.3227852944
 30
0.0
 40
6.500001
 50
207.486441
 51
332.513554
  0
LINE
  5
112
  8
1
  6
CONTINUOUS
 62
     7
 10
-106.4001813194
 20
124.3227862944
 30
0.0
 11
-105.0213843194
 21
122.3227852944
 31
0.0
  0
LINE
  5
113
  8
1
  6
CONTINUOUS
 62
     7
 10
-53.7876633194
 20
126.8227852944
 30
0.0
 11
-52.2876633194
 21
128.3227882944
 31
0.0
  0
ARC
  5
114
  8
1
  6
CONTINUOUS
 62
     7
 10
-59.2876653194
 20
125.3227852944
 30
0.0
 40
4.5
 50
56.251011
 51
167.160412
  0
ARC
  5
115
  8
1
  6
CONTINUOUS
 62
     7
 10
-78.2876643194
 20
144.3227842944
 30
0.0
 40
6.500001
 50
297.4864259999999
 51
242.5135740000001
  0
LINE
  5
116
  8
1
  6
CONTINUOUS
 62
     7
 10
-5.7876633194
 20
64.1227852944
 30
0.0
 11
-5.7876633194
 21
62.3303962944
 31
0.0
  0
ARC
  5
117
  8
1
  6
CONTINUOUS
 62
     7
 10
-150.5876643194
 20
64.1227852944
 30
0.0
 40
0.200001
 50
90.0
 51
180.0
  0
LINE
  5
118
  8
1
  6
CONTINUOUS
 62
     7
 10
-81.2876643194
 20
138.5565052944
 30
0.0
 11
-79.2876633194
 21
139.9353022944
 31
0.0
  0
LINE
  5
119
  8
1
  6
CONTINUOUS
 62
     7
 10
-102.7876653194
 20
126.8227852944
 30
0.0
 11
-104.2876653194
 21
128.3227882944
 31
0.0
  0
ARC
  5
11A
  8
1
  6
CONTINUOUS
 62
     7
 10
-78.2876643194
 20
144.3227842944
 30
0.0
 40
4.5
 50
282.8395879999999
 51
257.160412
  0
LINE
  5
11B
  8
1
  6
CONTINUOUS
 62
     7
 10
-53.7876633194
 20
123.8227852944
 30
0.0
 11
-52.2876633194
 21
122.3227852944
 31
0.0
  0
LINE
  5
11C
  8
1
  6
CONTINUOUS
 62
     7
 10
-63.67514731939999
 20
126.3227842944
 30
0.0
 11
-64.8247533194
 21
126.3227842944
 31
0.0
  0
LINE
  5
11D
  8
1
  6
CONTINUOUS
 62
     7
 10
-75.2876643194
 20
138.5565052944
 30
0.0
 11
-77.2876653194
 21
139.9353022944
 31
0.0
  0
LINE
  5
11E
  8
1
  6
CONTINUOUS
 62
     7
 10
-52.2877983194
 20
79.3227862944
 30
0.0
 11
-52.2876633194
 21
122.3227852944
 31
0.0
  0
LINE
  5
11F
  8
1
  6
CONTINUOUS
 62
     7
 10
-92.9001813194
 20
126.3227842944
 30
0.0
 11
-91.7505753194
 21
126.3227842944
 31
0.0
  0
ARC
  5
120
  8
1
  6
CONTINUOUS
 62
     7
 10
1.4123366806
 20
186.5227852944
 30
0.0
 40
0.200001
 50
180.0
 51
270.0
  0
LINE
  5
121
  8
1
  6
CONTINUOUS
 62
     7
 10
-116.5539453194
 20
122.3227852944
 30
0.0
 11
-115.1751453194
 21
124.3227862944
 31
0.0
  0
ARC
  5
122
  8
1
  6
CONTINUOUS
 62
     7
 10
-78.2876643194
 20
106.3227862944
 30
0.0
 40
6.500001
 50
117.486426
 51
62.51357400000001
  0
LINE
  5
123
  8
1
  6
CONTINUOUS
 62
     7
 10
-64.8247533194
 20
124.3227862944
 30
0.0
 11
-63.67514731939999
 21
124.3227862944
 31
0.0
  0
ARC
  5
124
  8
1
  6
CONTINUOUS
 62
     7
 10
6.2123366806
 20
70.8227842944
 30
0.0
 40
6.500001
 50
270.0
 51
0.0
  0
LINE
  5
125
  8
1
  6
CONTINUOUS
 62
     7
 10
-92.9001813194
 20
126.3227842944
 30
0.0
 11
-91.5213843194
 21
128.3227882944
 31
0.0
  0
CIRCLE
  5
126
  8
1
  6
CONTINUOUS
 62
     7
 10
-124.2876633194
 20
167.0727862944
 30
0.0
 40
1.620999
  0
LINE
  5
127
  8
1
  6
CONTINUOUS
 62
     7
 10
-75.2876643194
 20
112.0890682944
 30
0.0
 11
-77.2876653194
 21
110.7102682944
 31
0.0
  0
LINE
  5
128
  8
1
  6
CONTINUOUS
 62
     7
 10
-56.7876633194
 20
129.4440172944
 30
0.0
 11
-58.2876633194
 21
131.7454012944
 31
0.0
  0
CIRCLE
  5
129
  8
1
  6
CONTINUOUS
 62
     7
 10
-78.2876643194
 20
125.3227852944
 30
0.0
 40
5.750001
  0
LINE
  5
12A
  8
1
  6
CONTINUOUS
 62
     7
 10
-63.67514731939999
 20
124.3227862944
 30
0.0
 11
-65.0539443194
 21
122.3227822944
 31
0.0
  0
LINE
  5
12B
  8
1
  6
CONTINUOUS
 62
     7
 10
-50.1751473194
 20
126.3227842944
 30
0.0
 11
-51.5539443194
 21
128.3227882944
 31
0.0
  0
ARC
  5
12C
  8
1
  6
CONTINUOUS
 62
     7
 10
-97.2876633194
 20
125.3227852944
 30
0.0
 40
6.500001
 50
27.48645
 51
98.84988299999999
  0
LINE
  5
12D
  8
1
  6
CONTINUOUS
 62
     7
 10
-81.2876643194
 20
112.0890682944
 30
0.0
 11
-79.2876633194
 21
110.7102682944
 31
0.0
  0
LINE
  5
12E
  8
1
  6
CONTINUOUS
 62
     7
 10
-40.0213833194
 20
122.3227852944
 30
0.0
 11
-41.4001833194
 21
124.3227862944
 31
0.0
  0
ARC
  5
12F
  8
1
  6
CONTINUOUS
 62
     7
 10
-59.2876653194
 20
125.3227852944
 30
0.0
 40
6.500001
 50
207.48645
 51
278.849883
  0
CIRCLE
  5
130
  8
1
  6
CONTINUOUS
 62
     7
 10
-124.2876633194
 20
83.5727842944
 30
0.0
 40
1.620999
  0
ARC
  5
131
  8
1
  6
CONTINUOUS
 62
     7
 10
-45.7876653194
 20
125.3227852944
 30
0.0
 40
6.500001
 50
27.486441
 51
152.513554
  0
CIRCLE
  5
132
  8
1
  6
CONTINUOUS
 62
     7
 10
-124.2876633194
 20
83.5727842944
 30
0.0
 40
2.000001
  0
CIRCLE
  5
133
  8
1
  6
CONTINUOUS
 62
     7
 10
-78.2876643194
 20
167.0727862944
 30
0.0
 40
2.000001
  0
ARC
  5
134
  8
1
  6
CONTINUOUS
 62
     7
 10
-59.2876653194
 20
125.3227852944
 30
0.0
 40
6.500001
 50
81.150117
 51
152.51355
  0
ARC
  5
135
  8
1
  6
CONTINUOUS
 62
     7
 10
-97.2876633194
 20
125.3227852944
 30
0.0
 40
6.500001
 50
261.150117
 51
332.51355
  0
LINE
  5
136
  8
1
  6
CONTINUOUS
 62
     7
 10
-50.1751473194
 20
124.3227862944
 30
0.0
 11
-51.5539443194
 21
122.3227852944
 31
0.0
  0
CIRCLE
  5
137
  8
1
  6
CONTINUOUS
 62
     7
 10
-124.2876633194
 20
167.0727862944
 30
0.0
 40
2.000001
  0
LINE
  5
138
  8
1
  6
CONTINUOUS
 62
     7
 10
-56.7876633194
 20
79.3227862944
 30
0.0
 11
-56.7876633194
 21
171.3227842944
 31
0.0
  0
CIRCLE
  5
139
  8
1
  6
CONTINUOUS
 62
     7
 10
-78.2876643194
 20
167.0727862944
 30
0.0
 40
1.620999
  0
CIRCLE
  5
13A
  8
1
  6
CONTINUOUS
 62
     7
 10
-78.2876643194
 20
83.5727842944
 30
0.0
 40
1.620999
  0
LINE
  5
13B
  8
1
  6
CONTINUOUS
 62
     7
 10
-40.0213863194
 20
128.3227852944
 30
0.0
 11
-41.4001833194
 21
126.3227842944
 31
0.0
  0
LINE
  5
13C
  8
1
  6
CONTINUOUS
 62
     7
 10
-99.7876653194
 20
121.2015562944
 30
0.0
 11
-98.2876653194
 21
118.9001692944
 31
0.0
  0
LINE
  5
13D
  8
1
  6
CONTINUOUS
 62
     7
 10
-63.67514731939999
 20
126.3227842944
 30
0.0
 11
-65.0539443194
 21
128.3227882944
 31
0.0
  0
LINE
  5
13E
  8
1
  6
CONTINUOUS
 62
     7
 10
-102.7876653194
 20
79.3227862944
 30
0.0
 11
-102.7876653194
 21
171.3227842944
 31
0.0
  0
LINE
  5
13F
  8
1
  6
CONTINUOUS
 62
     7
 10
-53.7876633194
 20
171.3227842944
 30
0.0
 11
-53.7876633194
 21
79.32278629440002
 31
0.0
  0
LINE
  5
140
  8
1
  6
CONTINUOUS
 62
     7
 10
-99.7876653194
 20
171.3227842944
 30
0.0
 11
-99.7876653194
 21
79.32278629440002
 31
0.0
  0
LINE
  5
141
  8
1
  6
CONTINUOUS
 62
     7
 10
-99.7876653194
 20
129.4440172944
 30
0.0
 11
-98.2876653194
 21
131.7454012944
 31
0.0
  0
ARC
  5
142
  8
1
  6
CONTINUOUS
 62
     7
 10
-45.7876653194
 20
125.3227852944
 30
0.0
 40
6.500001
 50
207.486446
 51
332.513559
  0
LINE
  5
143
  8
1
  6
CONTINUOUS
 62
     7
 10
-56.7876633194
 20
121.2015562944
 30
0.0
 11
-58.2876633194
 21
118.9001692944
 31
0.0
  0
LINE
  5
144
  8
1
  6
CONTINUOUS
 62
     7
 10
-92.9001813194
 20
124.3227862944
 30
0.0
 11
-91.5213843194
 21
122.3227822944
 31
0.0
  0
CIRCLE
  5
145
  8
1
  6
CONTINUOUS
 62
     7
 10
-78.2876643194
 20
83.5727842944
 30
0.0
 40
2.000001
  0
ARC
  5
146
  8
1
  6
CONTINUOUS
 62
     7
 10
111.6420130494
 20
65.3227852944
 30
0.0
 40
5.000001000000004
 50
306.869898
 51
0.0
  0
LINE
  5
147
  8
1
  6
CONTINUOUS
 62
     7
 10
37.7123366806
 20
37.3227862944
 30
0.0
 11
37.7123366806
 21
213.3227842944
 31
0.0
  0
LINE
  5
148
  8
1
  6
CONTINUOUS
 62
     7
 10
-194.2876653194
 20
213.3227842944
 30
0.0
 11
-194.2876653194
 21
37.3227862944
 31
0.0
  0
CIRCLE
  5
149
  8
1
  6
CONTINUOUS
 62
     7
 10
-32.2876623194
 20
167.0727862944
 30
0.0
 40
2.000001
  0
CIRCLE
  5
14A
  8
1
  6
CONTINUOUS
 62
     7
 10
-32.2876623194
 20
167.0727862944
 30
0.0
 40
1.620999
  0
LINE
  5
14B
  8
1
  6
CONTINUOUS
 62
     7
 10
114.6420130494
 20
189.3227842944
 30
0.0
 11
114.6420130494
 21
192.3227842944
 31
0.0
  0
ARC
  5
14C
  8
1
  6
CONTINUOUS
 62
     7
 10
-166.2876633194
 20
185.3227852944
 30
0.0
 40
3.0
 50
90.0
 51
180.0
  0
ARC
  5
14D
  8
1
  6
CONTINUOUS
 62
     7
 10
9.7123346806
 20
185.3227852944
 30
0.0
 40
3.0
 50
0.0
 51
90.0
  0
LINE
  5
14E
  8
1
  6
CONTINUOUS
 62
     7
 10
-194.2876653194
 20
37.3227862944
 30
0.0
 11
37.7123366806
 21
37.3227862944
 31
0.0
  0
LINE
  5
14F
  8
1
  6
CONTINUOUS
 62
     7
 10
69.6420120494
 20
58.3227862944
 30
0.0
 11
69.6420120494
 21
60.1512112944
 31
0.0
  0
CIRCLE
  5
150
  8
1
  6
CONTINUOUS
 62
     7
 10
-32.2876623194
 20
83.5727842944
 30
0.0
 40
1.620999
  0
LINE
  5
151
  8
1
  6
CONTINUOUS
 62
     7
 10
-169.2876633194
 20
62.3227852944
 30
0.0
 11
12.71233468059998
 21
62.3227852944
 31
0.0
  0
ARC
  5
152
  8
1
  6
CONTINUOUS
 62
     7
 10
70.6420140494
 20
57.3227842944
 30
0.0
 40
3.0
 50
109.471221
 51
180.0
  0
LINE
  5
153
  8
1
  6
CONTINUOUS
 62
     7
 10
114.6420130494
 20
61.3227862944
 30
0.0
 11
114.6420130494
 21
58.3227862944
 31
0.0
  0
ARC
  5
154
  8
1
  6
CONTINUOUS
 62
     7
 10
-166.2876633194
 20
65.3227852944
 30
0.0
 40
3.0
 50
180.0
 51
270.0
  0
ARC
  5
155
  8
1
  6
CONTINUOUS
 62
     7
 10
70.6420140494
 20
193.3227862944
 30
0.0
 40
3.0
 50
180.0
 51
250.5287789999999
  0
ARC
  5
156
  8
1
  6
CONTINUOUS
 62
     7
 10
88.6420140494
 20
89.3227852944
 30
0.0
 40
13.550001
 50
2.114716
 51
87.88528400000001
  0
ARC
  5
157
  8
1
  6
CONTINUOUS
 62
     7
 10
9.7123346806
 20
65.3227852944
 30
0.0
 40
3.0
 50
270.0
 51
0.0
  0
ARC
  5
158
  8
1
  6
CONTINUOUS
 62
     7
 10
88.6420140494
 20
89.3227852944
 30
0.0
 40
13.550001
 50
272.114716
 51
357.8852840000001
  0
CIRCLE
  5
159
  8
1
  6
CONTINUOUS
 62
     7
 10
-32.2876623194
 20
83.5727842944
 30
0.0
 40
2.000001
  0
LINE
  5
15A
  8
1
  6
CONTINUOUS
 62
     7
 10
69.6420120494
 20
192.3227842944
 30
0.0
 11
69.6420120494
 21
190.4943592944
 31
0.0
  0
ARC
  5
15B
  8
1
  6
CONTINUOUS
 62
     7
 10
111.6420130494
 20
185.3227852944
 30
0.0
 40
5.000001000000004
 50
0.0
 51
53.130102
  0
LINE
  5
15C
  8
1
  6
CONTINUOUS
 62
     7
 10
37.7123366806
 20
213.3227842944
 30
0.0
 11
-194.2876653194
 21
213.3227842944
 31
0.0
  0
ARC
  5
15D
  8
1
  6
CONTINUOUS
 62
     7
 10
88.6420140494
 20
89.3227852944
 30
0.0
 40
13.550001
 50
92.11471600000002
 51
267.885284
  0
LINE
  5
15E
  8
1
  6
CONTINUOUS
 62
     7
 10
-169.2876633194
 20
188.3227852944
 30
0.0
 11
12.71233468059998
 21
188.3227852944
 31
0.0
  0
ARC
  5
15F
  8
1
  6
CONTINUOUS
 62
     7
 10
13.7123366806
 20
14.803904938
 30
0.0
 40
0.9999989999999999
 50
90.0
 51
180.0
  0
ARC
  5
160
  8
1
  6
CONTINUOUS
 62
     7
 10
-25.2876633194
 20
-8.096094062
 30
0.0
 40
13.550001
 50
272.114716
 51
357.8852840000001
  0
LINE
  5
161
  8
1
  6
CONTINUOUS
 62
     7
 10
-194.2876653194
 20
15.803906938
 30
0.0
 11
37.7123366806
 21
15.803906938
 31
0.0
  0
LINE
  5
162
  8
1
  6
CONTINUOUS
 62
     7
 10
2.7123356806
 20
13.803905938
 30
0.0
 11
14.7123356806
 21
13.803905938
 31
0.0
  0
LINE
  5
163
  8
1
  6
CENTER
 62
     5
 10
-78.2876643194
 20
18.803906938
 30
0.0
 11
-78.2876643194
 21
-33.196095062
 31
0.0
  0
LINE
  5
165
  8
1
  6
CONTINUOUS
 62
     7
 10
-153.8877243194
 20
175.8227842944
 30
0.0
 11
-154.6877253194
 21
175.8227842944
 31
0.0
  0
ARC
  5
166
  8
1
  6
CONTINUOUS
 62
     7
 10
-170.2876653194
 20
14.803904938
 30
0.0
 40
0.9999989999999999
 50
0.0
 51
90.0
  0
ARC
  5
167
  8
1
  6
CONTINUOUS
 62
     7
 10
-78.2876643194
 20
-8.096094062
 30
0.0
 40
13.550001
 50
272.114716
 51
357.8852840000001
  0
LINE
  5
168
  8
1
  6
CONTINUOUS
 62
     7
 10
12.7123346806
 20
17.803904938
 30
0.0
 11
12.7123346806
 21
13.803905938
 31
0.0
  0
LINE
  5
169
  8
1
  6
CONTINUOUS
 62
     7
 10
-153.8877243194
 20
176.6727862944
 30
0.0
 11
-153.8877243194
 21
175.8227842944
 31
0.0
  0
ARC
  5
16A
  8
1
  6
CONTINUOUS
 62
     7
 10
-153.1377243194
 20
176.6727862944
 30
0.0
 40
0.75
 50
90.0
 51
180.0
  0
ARC
  5
16B
  8
1
  6
CONTINUOUS
 62
     7
 10
-166.2876633194
 20
-28.196095062
 30
0.0
 40
5.000001000000004
 50
180.0
 51
270.0
  0
ARC
  5
16C
  8
1
  6
CONTINUOUS
 62
     7
 10
-153.1377243194
 20
178.9727842944
 30
0.0
 40
0.75
 50
180.0
 51
270.0
  0
LINE
  5
16D
  8
1
  6
CONTINUOUS
 62
     7
 10
-159.2876643194
 20
13.803905938
 30
0.0
 11
-171.2876643194
 21
13.803905938
 31
0.0
  0
LINE
  5
16E
  8
1
  6
CONTINUOUS
 62
     7
 10
-154.6877253194
 20
178.9727842944
 30
0.0
 11
-154.6877253194
 21
179.8227862944
 31
0.0
  0
ARC
  5
16F
  8
1
  6
CONTINUOUS
 62
     7
 10
-131.2876653194
 20
-8.096094062
 30
0.0
 40
13.550001
 50
182.114716
 51
267.885284
  0
ARC
  5
170
  8
1
  6
CONTINUOUS
 62
     7
 10
-78.2876643194
 20
-8.096094062
 30
0.0
 40
13.550001
 50
2.114716
 51
177.885284
  0
ARC
  5
171
  8
1
  6
CONTINUOUS
 62
     7
 10
-155.4377253194
 20
176.6727862944
 30
0.0
 40
0.75
 50
0.0
 51
90.0
  0
ARC
  5
172
  8
1
  6
CONTINUOUS
 62
     7
 10
-155.4377253194
 20
178.9727842944
 30
0.0
 40
0.75
 50
270.0
 51
0.0
  0
LINE
  5
173
  8
1
  6
CONTINUOUS
 62
     7
 10
-156.2877243194
 20
177.4227862944
 30
0.0
 11
-156.2877243194
 21
178.2227842944
 31
0.0
  0
LINE
  5
174
  8
1
  6
CONTINUOUS
 62
     7
 10
-152.2877253194
 20
178.2227842944
 30
0.0
 11
-152.2877253194
 21
177.4227862944
 31
0.0
  0
LINE
  5
175
  8
1
  6
CONTINUOUS
 62
     7
 10
37.7123366806
 20
17.803904938
 30
0.0
 11
37.7123366806
 21
15.803906938
 31
0.0
  0
LINE
  5
176
  8
1
  6
CONTINUOUS
 62
     7
 10
-166.2876633194
 20
-33.196093062
 30
0.0
 11
9.71233468060001
 21
-33.196093062
 31
0.0
  0
ARC
  5
177
  8
1
  6
CONTINUOUS
 62
     7
 10
17.7123356806
 20
12.803906938
 30
0.0
 40
3.0
 50
90.0
 51
180.0
  0
LINE
  5
178
  8
1
  6
CONTINUOUS
 62
     7
 10
13.7123366806
 20
-31.196095062
 30
0.0
 11
2.712335680600003
 21
-31.196095062
 31
0.0
  0
LINE
  5
179
  8
1
  6
CONTINUOUS
 62
     7
 10
-194.2876653194
 20
17.803904938
 30
0.0
 11
-194.2876653194
 21
15.803906938
 31
0.0
  0
LINE
  5
17A
  8
1
  6
CONTINUOUS
 62
     7
 10
-159.2876643194
 20
-30.196095062
 30
0.0
 11
-159.2876643194
 21
13.803905938
 31
0.0
  0
LINE
  5
17B
  8
1
  6
CONTINUOUS
 62
     7
 10
-169.2876633194
 20
17.803904938
 30
0.0
 11
-169.2876633194
 21
13.803905938
 31
0.0
  0
ARC
  5
17C
  8
1
  6
CONTINUOUS
 62
     7
 10
-174.2876643194
 20
12.803906938
 30
0.0
 40
3.0
 50
0.0
 51
90.0
  0
LINE
  5
17D
  8
1
  6
CONTINUOUS
 62
     7
 10
-170.2876653194
 20
-31.196095062
 30
0.0
 11
-159.2876643194
 21
-31.196095062
 31
0.0
  0
ARC
  5
17E
  8
1
  6
CONTINUOUS
 62
     7
 10
-25.2876633194
 20
-8.096094062
 30
0.0
 40
13.550001
 50
2.114716
 51
177.885284
  0
LINE
  5
17F
  8
1
  6
CONTINUOUS
 62
     7
 10
-154.6877253194
 20
179.8227862944
 30
0.0
 11
-153.8877243194
 21
179.8227862944
 31
0.0
  0
LINE
  5
180
  8
1
  6
CONTINUOUS
 62
     7
 10
37.7123366806
 20
17.803904938
 30
0.0
 11
-194.2876653194
 21
17.803904938
 31
0.0
  0
ARC
  5
181
  8
1
  6
CONTINUOUS
 62
     7
 10
-131.2876653194
 20
-8.096094062
 30
0.0
 40
13.550001
 50
272.114716
 51
357.8852840000001
  0
ARC
  5
182
  8
1
  6
CONTINUOUS
 62
     7
 10
-25.2876633194
 20
-8.096094062
 30
0.0
 40
13.550001
 50
182.114716
 51
267.885284
  0
LINE
  5
183
  8
1
  6
CONTINUOUS
 62
     7
 10
-153.8877243194
 20
179.8227862944
 30
0.0
 11
-153.8877243194
 21
178.9727842944
 31
0.0
  0
LINE
  5
184
  8
1
  6
CONTINUOUS
 62
     7
 10
-154.6877253194
 20
175.8227842944
 30
0.0
 11
-154.6877253194
 21
176.6727862944
 31
0.0
  0
ARC
  5
185
  8
1
  6
CONTINUOUS
 62
     7
 10
-131.2876653194
 20
-8.096094062
 30
0.0
 40
13.550001
 50
2.114716
 51
177.885284
  0
LINE
  5
186
  8
1
  6
CONTINUOUS
 62
     7
 10
-153.1377243194
 20
178.2227842944
 30
0.0
 11
-152.2877253194
 21
178.2227842944
 31
0.0
  0
ARC
  5
187
  8
1
  6
CONTINUOUS
 62
     7
 10
-78.2876643194
 20
-8.096094062
 30
0.0
 40
13.550001
 50
182.114716
 51
267.885284
  0
LINE
  5
188
  8
1
  6
CONTINUOUS
 62
     7
 10
-152.2877253194
 20
177.4227862944
 30
0.0
 11
-153.1377243194
 21
177.4227862944
 31
0.0
  0
CIRCLE
  5
189
  8
1
  6
CONTINUOUS
 62
     7
 10
-154.2877263194
 20
177.8227852944
 30
0.0
 40
3.999999
  0
LINE
  5
18A
  8
1
  6
CONTINUOUS
 62
     7
 10
-155.4377253194
 20
177.4227862944
 30
0.0
 11
-156.2877243194
 21
177.4227862944
 31
0.0
  0
ARC
  5
18B
  8
1
  6
CONTINUOUS
 62
     7
 10
9.7123346806
 20
-28.196095062
 30
0.0
 40
5.000001
 50
270.0
 51
0.0
  0
ARC
  5
18C
  8
1
  6
CONTINUOUS
 62
     7
 10
-10.2876663194
 20
169.8227842944
 30
0.0
 40
1.5
 50
0.0
 51
90.0
  0
LINE
  5
18D
  8
1
  6
CONTINUOUS
 62
     7
 10
2.7123356806
 20
-30.196095062
 30
0.0
 11
2.7123356806
 21
13.803905938
 31
0.0
  0
LINE
  5
18E
  8
1
  6
CENTER
 62
     5
 10
58.2925320806
 20
125.3227852944
 30
0.0
 11
124.0485874439
 21
125.3227852944
 31
0.0
  0
LINE
  5
18F
  8
1
  6
CENTER
 62
     5
 10
-203.22884079
 20
125.3227852944
 30
0.0
 11
44.8265225318
 21
125.3227852944
 31
0.0
  0
LINE
  5
190
  8
1
  6
CONTINUOUS
 62
     7
 10
-156.2877243194
 20
178.2227842944
 30
0.0
 11
-155.4377253194
 21
178.2227842944
 31
0.0
  0
LINE
  5
191
  8
1
  6
CENTER
 62
     5
 10
-78.2876643194
 20
220.5399123221
 30
0.0
 11
-78.2876643194
 21
29.68697114560004
 31
0.0
  0
TEXT
  5
192
  8
1
  6
CONTINUOUS
 62
     7
 10
46.61560985510192
 20
-32.85702636363636
 30
0.0
 40
3.0
  1
ＣＳＷ－３ＮＦＸ３４－１
 41
1.154931
  0
LINE
  5
193
  8
1
  6
CONTINUOUS
 62
     7
 10
-129.4867653194
 20
170.3589652944
 30
0.0
 11
-128.5229433194
 21
171.3227842944
 31
0.0
  0
LINE
  5
194
  8
1
  6
CONTINUOUS
 62
     7
 10
-129.3253173194
 20
166.2777712944
 30
0.0
 11
-124.2803043194
 21
171.3227842944
 31
0.0
  0
LINE
  5
195
  8
1
  6
CONTINUOUS
 62
     7
 10
-122.8027397369
 20
168.5577127119
 30
0.0
 11
-120.0376623194
 21
171.3227842944
 31
0.0
  0
LINE
  5
196
  8
1
  6
CONTINUOUS
 62
     7
 10
-125.7018753194
 20
165.6585712944
 30
0.0
 11
-122.8734483194
 21
168.4869982944
 31
0.0
  0
LINE
  5
197
  8
1
  6
CONTINUOUS
 62
     7
 10
-125.0826753194
 20
162.0351322944
 30
0.0
 11
-119.1876633194
 21
167.9301442944
 31
0.0
  0
LINE
  5
198
  8
1
  6
CONTINUOUS
 62
     7
 10
-129.3876633194
 20
82.7154262944
 30
0.0
 11
-123.4926513194
 21
88.6104382944
 31
0.0
  0
LINE
  5
199
  8
1
  6
CONTINUOUS
 62
     7
 10
-122.8027383194
 20
85.0577092944
 30
0.0
 11
-120.6814173194
 21
87.1790302944
 31
0.0
  0
LINE
  5
19A
  8
1
  6
CONTINUOUS
 62
     7
 10
-125.7018753194
 20
82.1585722944
 30
0.0
 11
-122.8734483194
 21
84.9869992944
 31
0.0
  0
LINE
  5
19B
  8
1
  6
CONTINUOUS
 62
     7
 10
-128.5376612321
 20
79.3227832071
 30
0.0
 11
-125.7725883194
 21
82.0878622944
 31
0.0
  0
LINE
  5
19C
  8
1
  6
CONTINUOUS
 62
     7
 10
-124.2950128007
 20
79.3227767757
 30
0.0
 11
-119.2500093194
 21
84.3677992944
 31
0.0
  0
LINE
  5
19D
  8
1
  6
CONTINUOUS
 62
     7
 10
-120.0523803194
 20
79.3227862944
 30
0.0
 11
-119.0885613194
 21
80.2866082944
 31
0.0
  0
LINE
  5
19E
  8
1
  6
CONTINUOUS
 62
     7
 10
-83.3876739419
 20
82.7154359169
 30
0.0
 11
-77.4926493194
 21
88.6104382944
 31
0.0
  0
LINE
  5
19F
  8
1
  6
CONTINUOUS
 62
     7
 10
-76.8027352286
 20
85.0577052036
 30
0.0
 11
-74.6814183194
 21
87.1790302944
 31
0.0
  0
LINE
  5
1A0
  8
1
  6
CONTINUOUS
 62
     7
 10
-79.7018763194
 20
82.1585722944
 30
0.0
 11
-76.8734493194
 21
84.9869992944
 31
0.0
  0
LINE
  5
1A1
  8
1
  6
CONTINUOUS
 62
     7
 10
-82.5376623194
 20
79.3227862944
 30
0.0
 11
-79.7725863194
 21
82.0878622944
 31
0.0
  0
LINE
  5
1A2
  8
1
  6
CONTINUOUS
 62
     7
 10
-78.2950138007
 20
79.3227767757
 30
0.0
 11
-73.2500103194
 21
84.3677992944
 31
0.0
  0
LINE
  5
1A3
  8
1
  6
CONTINUOUS
 62
     7
 10
-74.0523813194
 20
79.3227862944
 30
0.0
 11
-73.0885593194
 21
80.2866082944
 31
0.0
  0
LINE
  5
1A4
  8
1
  6
CONTINUOUS
 62
     7
 10
-2.6876643194
 20
175.8227842944
 30
0.0
 11
-1.8876633194
 21
175.8227842944
 31
0.0
  0
LINE
  5
1A5
  8
1
  6
CONTINUOUS
 62
     7
 10
-1.8876633194
 20
179.8227862944
 30
0.0
 11
-2.6876643194
 21
179.8227862944
 31
0.0
  0
LINE
  5
1A6
  8
1
  6
CONTINUOUS
 62
     7
 10
-2.6876643194
 20
176.6727862944
 30
0.0
 11
-2.6876643194
 21
175.8227842944
 31
0.0
  0
ARC
  5
1A7
  8
1
  6
CONTINUOUS
 62
     7
 10
-3.4376643194
 20
176.6727862944
 30
0.0
 40
0.75
 50
0.0
 51
90.0
  0
LINE
  5
1A8
  8
1
  6
CONTINUOUS
 62
     7
 10
-2.6876643194
 20
179.8227862944
 30
0.0
 11
-2.6876643194
 21
178.9727842944
 31
0.0
  0
ARC
  5
1A9
  8
1
  6
CONTINUOUS
 62
     7
 10
-3.4376643194
 20
178.9727842944
 30
0.0
 40
0.75
 50
270.0
 51
0.0
  0
LINE
  5
1AA
  8
1
  6
CONTINUOUS
 62
     7
 10
-1.8876633194
 20
175.8227842944
 30
0.0
 11
-1.8876633194
 21
176.6727862944
 31
0.0
  0
ARC
  5
1AB
  8
1
  6
CONTINUOUS
 62
     7
 10
-1.1376633194
 20
176.6727862944
 30
0.0
 40
0.75
 50
90.0
 51
180.0
  0
LINE
  5
1AC
  8
1
  6
CONTINUOUS
 62
     7
 10
-1.8876633194
 20
178.9727842944
 30
0.0
 11
-1.8876633194
 21
179.8227862944
 31
0.0
  0
ARC
  5
1AD
  8
1
  6
CONTINUOUS
 62
     7
 10
-1.1376633194
 20
178.9727842944
 30
0.0
 40
0.75
 50
180.0
 51
270.0
  0
CIRCLE
  5
1AE
  8
1
  6
CONTINUOUS
 62
     7
 10
-2.2876623194
 20
177.8227852944
 30
0.0
 40
3.999999
  0
LINE
  5
1AF
  8
1
  6
CONTINUOUS
 62
     7
 10
-0.2876643194
 20
177.4227862944
 30
0.0
 11
-0.2876643194
 21
178.2227842944
 31
0.0
  0
LINE
  5
1B0
  8
1
  6
CONTINUOUS
 62
     7
 10
-4.2876633194
 20
178.2227842944
 30
0.0
 11
-4.2876633194
 21
177.4227862944
 31
0.0
  0
LINE
  5
1B1
  8
1
  6
CONTINUOUS
 62
     7
 10
-3.4376643194
 20
178.2227842944
 30
0.0
 11
-4.2876633194
 21
178.2227842944
 31
0.0
  0
LINE
  5
1B2
  8
1
  6
CONTINUOUS
 62
     7
 10
-4.2876633194
 20
177.4227862944
 30
0.0
 11
-3.4376643194
 21
177.4227862944
 31
0.0
  0
LINE
  5
1B3
  8
1
  6
CONTINUOUS
 62
     7
 10
-1.1376633194
 20
177.4227862944
 30
0.0
 11
-0.2876643193999999
 21
177.4227862944
 31
0.0
  0
LINE
  5
1B4
  8
1
  6
CONTINUOUS
 62
     7
 10
-0.2876643194
 20
178.2227842944
 30
0.0
 11
-1.1376633194
 21
178.2227842944
 31
0.0
  0
LINE
  5
1B5
  8
1
  6
CONTINUOUS
 62
     7
 10
-83.4867663194
 20
170.3589652944
 30
0.0
 11
-82.5229443194
 21
171.3227842944
 31
0.0
  0
LINE
  5
1B6
  8
1
  6
CONTINUOUS
 62
     7
 10
-78.2876643194
 20
171.3154252944
 30
0.0
 11
-78.2803023194
 21
171.3227842944
 31
0.0
  0
LINE
  5
1B7
  8
1
  6
CONTINUOUS
 62
     7
 10
-83.3253168194
 20
166.2777727944
 30
0.0
 11
-78.2876643194
 21
171.3154252944
 31
0.0
  0
LINE
  5
1B8
  8
1
  6
CONTINUOUS
 62
     7
 10
-76.8027378194
 20
168.5577097944
 30
0.0
 11
-74.0376633194
 21
171.3227842944
 31
0.0
  0
LINE
  5
1B9
  8
1
  6
CONTINUOUS
 62
     7
 10
-79.7018763194
 20
165.6585712944
 30
0.0
 11
-76.8734493194
 21
168.4869982944
 31
0.0
  0
LINE
  5
1BA
  8
1
  6
CONTINUOUS
 62
     7
 10
-79.0826763194
 20
162.0351322944
 30
0.0
 11
-73.1876643194
 21
167.9301442944
 31
0.0
  0
LINE
  5
1BB
  8
1
  6
CONTINUOUS
 62
     7
 10
-37.4867643194
 20
170.3589652944
 30
0.0
 11
-36.5229453194
 21
171.3227842944
 31
0.0
  0
LINE
  5
1BC
  8
1
  6
CONTINUOUS
 62
     7
 10
-37.3253163194
 20
166.2777712944
 30
0.0
 11
-32.2803033194
 21
171.3227842944
 31
0.0
  0
LINE
  5
1BD
  8
1
  6
CONTINUOUS
 62
     7
 10
-30.8027373194
 20
168.5577112944
 30
0.0
 11
-28.0376643194
 21
171.3227842944
 31
0.0
  0
LINE
  5
1BE
  8
1
  6
CONTINUOUS
 62
     7
 10
-33.7018773194
 20
165.6585712944
 30
0.0
 11
-30.8734503194
 21
168.4869982944
 31
0.0
  0
LINE
  5
1BF
  8
1
  6
CONTINUOUS
 62
     7
 10
-33.0826861331
 20
162.0351411081
 30
0.0
 11
-27.1876623194
 21
167.9301442944
 31
0.0
  0
LINE
  5
1C0
  8
1
  6
CONTINUOUS
 62
     7
 10
-37.3876623194
 20
82.7154262944
 30
0.0
 11
-31.4926503194
 21
88.6104382944
 31
0.0
  0
LINE
  5
1C1
  8
1
  6
CONTINUOUS
 62
     7
 10
-33.7018773194
 20
82.1585722944
 30
0.0
 11
-30.8734503194
 21
84.9869992944
 31
0.0
  0
LINE
  5
1C2
  8
1
  6
CONTINUOUS
 62
     7
 10
-36.5376602321
 20
79.3227832071
 30
0.0
 11
-33.7725873194
 21
82.0878622944
 31
0.0
  0
LINE
  5
1C3
  8
1
  6
CONTINUOUS
 62
     7
 10
-32.2950213194
 20
79.3227862944
 30
0.0
 11
-27.2500083194
 21
84.3677992944
 31
0.0
  0
LINE
  5
1C4
  8
1
  6
CONTINUOUS
 62
     7
 10
-28.0523823194
 20
79.3227862944
 30
0.0
 11
-27.0885603194
 21
80.2866082944
 31
0.0
  0
LINE
  5
1C5
  8
1
  6
CONTINUOUS
 62
     7
 10
-153.8876643194
 20
74.8227862944
 30
0.0
 11
-154.6876653194
 21
74.8227862944
 31
0.0
  0
LINE
  5
1C6
  8
1
  6
CONTINUOUS
 62
     7
 10
-154.6876653194
 20
70.8227842944
 30
0.0
 11
-153.8876643194
 21
70.8227842944
 31
0.0
  0
LINE
  5
1C7
  8
1
  6
CONTINUOUS
 62
     7
 10
-153.8876643194
 20
73.9727842944
 30
0.0
 11
-153.8876643194
 21
74.8227862944
 31
0.0
  0
ARC
  5
1C8
  8
1
  6
CONTINUOUS
 62
     7
 10
-153.1376643194
 20
73.9727842944
 30
0.0
 40
0.75
 50
180.0
 51
270.0
  0
LINE
  5
1C9
  8
1
  6
CONTINUOUS
 62
     7
 10
-153.8876643194
 20
70.8227842944
 30
0.0
 11
-153.8876643194
 21
71.6727862944
 31
0.0
  0
ARC
  5
1CA
  8
1
  6
CONTINUOUS
 62
     7
 10
-153.1376643194
 20
71.6727862944
 30
0.0
 40
0.75
 50
90.0
 51
180.0
  0
LINE
  5
1CB
  8
1
  6
CONTINUOUS
 62
     7
 10
-154.6876653194
 20
74.8227862944
 30
0.0
 11
-154.6876653194
 21
73.9727842944
 31
0.0
  0
ARC
  5
1CC
  8
1
  6
CONTINUOUS
 62
     7
 10
-155.4376653194
 20
73.9727842944
 30
0.0
 40
0.75
 50
270.0
 51
0.0
  0
LINE
  5
1CD
  8
1
  6
CONTINUOUS
 62
     7
 10
-154.6876653194
 20
71.6727862944
 30
0.0
 11
-154.6876653194
 21
70.8227842944
 31
0.0
  0
ARC
  5
1CE
  8
1
  6
CONTINUOUS
 62
     7
 10
-155.4376653194
 20
71.6727862944
 30
0.0
 40
0.75
 50
0.0
 51
90.0
  0
CIRCLE
  5
1CF
  8
1
  6
CONTINUOUS
 62
     7
 10
-154.2876663194
 20
72.8227852944
 30
0.0
 40
3.999999
  0
LINE
  5
1D0
  8
1
  6
CONTINUOUS
 62
     7
 10
-156.2876643194
 20
73.2227842944
 30
0.0
 11
-156.2876643194
 21
72.4227862944
 31
0.0
  0
LINE
  5
1D1
  8
1
  6
CONTINUOUS
 62
     7
 10
-152.2876653194
 20
72.4227862944
 30
0.0
 11
-152.2876653194
 21
73.2227842944
 31
0.0
  0
LINE
  5
1D2
  8
1
  6
CONTINUOUS
 62
     7
 10
-153.1376643194
 20
72.4227862944
 30
0.0
 11
-152.2876653194
 21
72.4227862944
 31
0.0
  0
LINE
  5
1D3
  8
1
  6
CONTINUOUS
 62
     7
 10
-152.2876653194
 20
73.2227842944
 30
0.0
 11
-153.1376643194
 21
73.2227842944
 31
0.0
  0
LINE
  5
1D4
  8
1
  6
CONTINUOUS
 62
     7
 10
-155.4376653194
 20
73.2227842944
 30
0.0
 11
-156.2876643194
 21
73.2227842944
 31
0.0
  0
LINE
  5
1D5
  8
1
  6
CONTINUOUS
 62
     7
 10
-156.2876643194
 20
72.4227862944
 30
0.0
 11
-155.4376653194
 21
72.4227862944
 31
0.0
  0
LINE
  5
1D6
  8
1
  6
CONTINUOUS
 62
     7
 10
-2.6876643194
 20
74.8227862944
 30
0.0
 11
-1.8876633194
 21
74.8227862944
 31
0.0
  0
LINE
  5
1D7
  8
1
  6
CONTINUOUS
 62
     7
 10
-1.8876633194
 20
70.8227842944
 30
0.0
 11
-2.6876643194
 21
70.8227842944
 31
0.0
  0
LINE
  5
1D8
  8
1
  6
CONTINUOUS
 62
     7
 10
-2.6876643194
 20
73.9727842944
 30
0.0
 11
-2.6876643194
 21
74.8227862944
 31
0.0
  0
ARC
  5
1D9
  8
1
  6
CONTINUOUS
 62
     7
 10
-3.4376643194
 20
73.9727842944
 30
0.0
 40
0.75
 50
270.0
 51
0.0
  0
LINE
  5
1DA
  8
1
  6
CONTINUOUS
 62
     7
 10
-2.6876643194
 20
70.8227842944
 30
0.0
 11
-2.6876643194
 21
71.6727862944
 31
0.0
  0
ARC
  5
1DB
  8
1
  6
CONTINUOUS
 62
     7
 10
-3.4376643194
 20
71.6727862944
 30
0.0
 40
0.75
 50
0.0
 51
90.0
  0
LINE
  5
1DC
  8
1
  6
CONTINUOUS
 62
     7
 10
-1.8876633194
 20
74.8227862944
 30
0.0
 11
-1.8876633194
 21
73.9727842944
 31
0.0
  0
ARC
  5
1DD
  8
1
  6
CONTINUOUS
 62
     7
 10
-1.1376633194
 20
73.9727842944
 30
0.0
 40
0.75
 50
180.0
 51
270.0
  0
LINE
  5
1DE
  8
1
  6
CONTINUOUS
 62
     7
 10
-1.8876633194
 20
71.6727862944
 30
0.0
 11
-1.8876633194
 21
70.8227842944
 31
0.0
  0
ARC
  5
1DF
  8
1
  6
CONTINUOUS
 62
     7
 10
-1.1376633194
 20
71.6727862944
 30
0.0
 40
0.75
 50
90.0
 51
180.0
  0
CIRCLE
  5
1E0
  8
1
  6
CONTINUOUS
 62
     7
 10
-2.2876623194
 20
72.8227852944
 30
0.0
 40
3.999999
  0
LINE
  5
1E1
  8
1
  6
CONTINUOUS
 62
     7
 10
-0.2876643194
 20
73.2227842944
 30
0.0
 11
-0.2876643194
 21
72.4227862944
 31
0.0
  0
LINE
  5
1E2
  8
1
  6
CONTINUOUS
 62
     7
 10
-4.2876633194
 20
72.4227862944
 30
0.0
 11
-4.2876633194
 21
73.2227842944
 31
0.0
  0
LINE
  5
1E3
  8
1
  6
CONTINUOUS
 62
     7
 10
-3.4376643194
 20
72.4227862944
 30
0.0
 11
-4.2876633194
 21
72.4227862944
 31
0.0
  0
LINE
  5
1E4
  8
1
  6
CONTINUOUS
 62
     7
 10
-4.2876633194
 20
73.2227842944
 30
0.0
 11
-3.4376643194
 21
73.2227842944
 31
0.0
  0
LINE
  5
1E5
  8
1
  6
CONTINUOUS
 62
     7
 10
-1.1376633194
 20
73.2227842944
 30
0.0
 11
-0.2876643193999999
 21
73.2227842944
 31
0.0
  0
LINE
  5
1E6
  8
1
  6
CONTINUOUS
 62
     7
 10
-0.2876643194
 20
72.4227862944
 30
0.0
 11
-1.1376633194
 21
72.4227862944
 31
0.0
  0
ENDSEC
  0
EOF
