  0
SECTION
  2
HEADER
  9
$ACADVER
  1
AC1006
  9
$DWGCODEPAGE
  3
ansi_932
  9
$INSBASE
 10
0.0
 20
0.0
 30
0.0
  9
$EXTMIN
 10
-1645.5
 20
184.8409090909091
  9
$EXTMAX
 10
-1340.5
 20
435.4923893961836
  9
$LIMMIN
 10
0.0
 20
0.0
  9
$LIMMAX
 10
12.0
 20
9.0
  9
$ORTHOMODE
 70
     0
  9
$REGENMODE
 70
     1
  9
$FILLMODE
 70
     1
  9
$QTEXTMODE
 70
     0
  9
$MIRRTEXT
 70
     1
  9
$DRAGMODE
 70
     2
  9
$LTSCALE
 40
1.0
  9
$OSMODE
 70
    37
  9
$ATTMODE
 70
     1
  9
$TEXTSIZE
 40
0.2
  9
$TRACEWID
 40
0.05
  9
$TEXTSTYLE
  7
STANDARD
  9
$CLAYER
  8
0
  9
$CELTYPE
  6
BYLAYER
  9
$CECOLOR
 62
   256
  9
$DIMSCALE
 40
1.0
  9
$DIMASZ
 40
3.0
  9
$DIMEXO
 40
0.0625
  9
$DIMDLI
 40
0.38
  9
$DIMRND
 40
0.0
  9
$DIMDLE
 40
0.0
  9
$DIMEXE
 40
1.5
  9
$DIMTP
 40
0.0
  9
$DIMTM
 40
0.0
  9
$DIMTXT
 40
3.0
  9
$DIMCEN
 40
0.09
  9
$DIMTSZ
 40
0.0
  9
$DIMTOL
 70
     0
  9
$DIMLIM
 70
     0
  9
$DIMTIH
 70
     1
  9
$DIMTOH
 70
     1
  9
$DIMSE1
 70
     0
  9
$DIMSE2
 70
     0
  9
$DIMTAD
 70
     1
  9
$DIMZIN
 70
     0
  9
$DIMBLK
  1

  9
$DIMASO
 70
     1
  9
$DIMSHO
 70
     1
  9
$DIMPOST
  1

  9
$DIMAPOST
  1

  9
$DIMALT
 70
     0
  9
$DIMALTD
 70
     2
  9
$DIMALTF
 40
25.4
  9
$DIMLFAC
 40
1.0
  9
$DIMTOFL
 70
     0
  9
$DIMTVP
 40
0.0
  9
$DIMTIX
 70
     0
  9
$DIMSOXD
 70
     0
  9
$DIMSAH
 70
     0
  9
$DIMBLK1
  1

  9
$DIMBLK2
  1

  9
$LUNITS
 70
     2
  9
$LUPREC
 70
     4
  9
$SKETCHINC
 40
0.1
  9
$FILLETRAD
 40
0.5
  9
$AUNITS
 70
     0
  9
$AUPREC
 70
     0
  9
$MENU
  1
.
  9
$ELEVATION
 40
0.0
  9
$THICKNESS
 40
0.0
  9
$LIMCHECK
 70
     0
  9
$CHAMFERA
 40
0.0
  9
$CHAMFERB
 40
0.0
  9
$SKPOLY
 70
     0
  9
$TDCREATE
 40
2459233.432132083
  9
$TDUPDATE
 40
2459233.432132083
  9
$TDINDWG
 40
0.0000000116
  9
$TDUSRTIMER
 40
0.0000000116
  9
$USRTIMER
 70
     1
  9
$ANGBASE
 50
0.0
  9
$ANGDIR
 70
     0
  9
$PDMODE
 70
     0
  9
$PDSIZE
 40
0.0
  9
$PLINEWID
 40
0.0
  9
$COORDS
 70
     1
  9
$SPLFRAME
 70
     0
  9
$SPLINETYPE
 70
     6
  9
$SPLINESEGS
 70
     8
  9
$ATTDIA
 70
     0
  9
$ATTREQ
 70
     1
  9
$HANDLING
 70
     1
  9
$HANDSEED
  5
372
  9
$SURFTAB1
 70
     6
  9
$SURFTAB2
 70
     6
  9
$SURFTYPE
 70
     6
  9
$SURFU
 70
     6
  9
$SURFV
 70
     6
  9
$UCSNAME
  2

  9
$UCSORG
 10
0.0
 20
0.0
 30
0.0
  9
$UCSXDIR
 10
1.0
 20
0.0
 30
0.0
  9
$UCSYDIR
 10
0.0
 20
1.0
 30
0.0
  9
$USERI1
 70
     0
  9
$USERI2
 70
     0
  9
$USERI3
 70
     0
  9
$USERI4
 70
     0
  9
$USERI5
 70
     0
  9
$USERR1
 40
0.0
  9
$USERR2
 40
0.0
  9
$USERR3
 40
0.0
  9
$USERR4
 40
0.0
  9
$USERR5
 40
0.0
  9
$WORLDVIEW
 70
     1
  0
ENDSEC
  0
SECTION
  2
TABLES
  0
TABLE
  2
VPORT
 70
     1
  0
VPORT
  2
*ACTIVE
 70
     0
 10
0.0
 20
0.0
 11
1.0
 21
1.0
 12
-1493.0
 22
310.1666492435463
 13
0.0
 23
0.0
 14
0.5
 24
0.5
 15
0.5
 25
0.5
 16
0.0
 26
0.0
 36
1.0
 17
0.0
 27
0.0
 37
0.0
 40
250.6514803052745
 41
1.6
 42
50.0
 43
0.0
 44
0.0
 50
0.0
 51
0.0
 71
     0
 72
   100
 73
     1
 74
     3
 75
     0
 76
     0
 77
     0
 78
     0
  0
ENDTAB
  0
TABLE
  2
LTYPE
 70
     1
  0
LTYPE
  2
CONTINUOUS
 70
     0
  3
Solid line
 72
    65
 73
     0
 40
0.0
  0
ENDTAB
  0
TABLE
  2
LAYER
 70
     1
  0
LAYER
  2
0
 70
     0
 62
     7
  6
CONTINUOUS
  0
ENDTAB
  0
TABLE
  2
STYLE
 70
     2
  0
STYLE
  2
STANDARD
 70
     0
 40
0.0
 41
1.0
 50
0.0
 71
     0
 42
0.2
  3
txt
  4

  0
STYLE
  2
ＭＳ_ゴシック
 70
     0
 40
0.0
 41
1.0
 50
0.0
 71
     0
 42
0.2
  3
ＭＳ ゴシック.shx
  4

  0
ENDTAB
  0
TABLE
  2
VIEW
 70
     0
  0
ENDTAB
  0
TABLE
  2
UCS
 70
     0
  0
ENDTAB
  0
ENDSEC
  0
SECTION
  2
BLOCKS
  0
BLOCK
  8
0
  2
D_FRAME_VIEW_5313
 70
     0
 10
0.0
 20
0.0
 30
0.0
  0
LINE
  5
A0
  8
0
  6
CONTINUOUS
 62
     7
 10
-1528.25
 20
429.348177188789
 30
0.0
 11
-1530.549999999973
 21
429.3481771887897
 31
0.0
  0
LINE
  5
A1
  8
0
  6
CONTINUOUS
 62
     7
 10
-1528.549999999974
 20
427.3481771887891
 30
0.0
 11
-1528.25
 21
427.348177188789
 31
0.0
  0
LINE
  5
A2
  8
0
  6
CONTINUOUS
 62
     7
 10
-1528.550000000006
 20
318.3481771887902
 30
0.0
 11
-1528.250000000033
 21
318.3481771887901
 31
0.0
  0
LINE
  5
A3
  8
0
  6
CONTINUOUS
 62
     7
 10
-1528.25
 20
316.3481771887901
 30
0.0
 11
-1530.550000000007
 21
316.3481771887908
 31
0.0
  0
LINE
  5
A4
  8
0
  6
CONTINUOUS
 62
     7
 10
-1574.25
 20
429.348177188789
 30
0.0
 11
-1576.549999999973
 21
429.3481771887897
 31
0.0
  0
LINE
  5
A5
  8
0
  6
CONTINUOUS
 62
     7
 10
-1574.549999999974
 20
427.3481771887891
 30
0.0
 11
-1574.25
 21
427.348177188789
 31
0.0
  0
LINE
  5
A6
  8
0
  6
CONTINUOUS
 62
     7
 10
-1574.550000000006
 20
318.3481771887902
 30
0.0
 11
-1574.250000000033
 21
318.3481771887901
 31
0.0
  0
LINE
  5
A7
  8
0
  6
CONTINUOUS
 62
     7
 10
-1574.25
 20
316.3481771887901
 30
0.0
 11
-1576.550000000007
 21
316.3481771887908
 31
0.0
  0
CIRCLE
  5
A8
  8
0
  6
CONTINUOUS
 62
     7
 10
-1628.5
 20
320.0000000000001
 30
0.0
 40
1.649999999999999
  0
CIRCLE
  5
A9
  8
0
  6
CONTINUOUS
 62
     7
 10
-1476.5
 20
320.0000000000001
 30
0.0
 40
1.649999999999999
  0
CIRCLE
  5
AA
  8
0
  6
CONTINUOUS
 62
     7
 10
-1476.5
 20
425.0000000000001
 30
0.0
 40
2.250000000000002
  0
CIRCLE
  5
AB
  8
0
  6
CONTINUOUS
 62
     7
 10
-1476.5
 20
425.0000000000001
 30
0.0
 40
1.649999999999999
  0
CIRCLE
  5
AC
  8
0
  6
CONTINUOUS
 62
     7
 10
-1628.5
 20
425.0000000000001
 30
0.0
 40
1.649999999999999
  0
LINE
  5
AD
  8
0
  6
CONTINUOUS
 62
     7
 10
-1639.5
 20
426.5001142308075
 30
0.0
 11
-1639.5
 21
318.4998857691926
 31
0.0
  0
POLYLINE
  5
AE
  8
0
  6
CONTINUOUS
 62
     7
 66
     1
 10
0.0
 20
0.0
 30
0.0
  0
VERTEX
  5
192
  8
0
  6
CONTINUOUS
 62
     7
 10
-1639.5
 20
318.4998857691926
 30
0.0
  0
VERTEX
  5
193
  8
0
  6
CONTINUOUS
 62
     7
 10
-1639.442359217517
 20
317.9146249176862
 30
0.0
  0
VERTEX
  5
194
  8
0
  6
CONTINUOUS
 62
     7
 10
-1639.271651758933
 20
317.351861917761
 30
0.0
  0
VERTEX
  5
195
  8
0
  6
CONTINUOUS
 62
     7
 10
-1638.994437182129
 20
316.8332213457664
 30
0.0
  0
VERTEX
  5
196
  8
0
  6
CONTINUOUS
 62
     7
 10
-1638.621367658235
 20
316.3786323417646
 30
0.0
  0
VERTEX
  5
197
  8
0
  6
CONTINUOUS
 62
     7
 10
-1638.166778654234
 20
316.0055628178715
 30
0.0
  0
VERTEX
  5
198
  8
0
  6
CONTINUOUS
 62
     7
 10
-1637.648138082239
 20
315.7283482410672
 30
0.0
  0
VERTEX
  5
199
  8
0
  6
CONTINUOUS
 62
     7
 10
-1637.085375082314
 20
315.5576407824829
 30
0.0
  0
VERTEX
  5
19A
  8
0
  6
CONTINUOUS
 62
     7
 10
-1636.500114230807
 20
315.5000000000001
 30
0.0
  0
SEQEND
  5
350
  8
0
  6
CONTINUOUS
 62
     7
  0
POLYLINE
  5
AF
  8
0
  6
CONTINUOUS
 62
     7
 66
     1
 10
0.0
 20
0.0
 30
0.0
  0
VERTEX
  5
19B
  8
0
  6
CONTINUOUS
 62
     7
 10
-1465.5
 20
426.5001142308075
 30
0.0
  0
VERTEX
  5
19C
  8
0
  6
CONTINUOUS
 62
     7
 10
-1465.557640782483
 20
427.0853750823138
 30
0.0
  0
VERTEX
  5
19D
  8
0
  6
CONTINUOUS
 62
     7
 10
-1465.728348241067
 20
427.6481380822391
 30
0.0
  0
VERTEX
  5
19E
  8
0
  6
CONTINUOUS
 62
     7
 10
-1466.005562817871
 20
428.1667786542336
 30
0.0
  0
VERTEX
  5
19F
  8
0
  6
CONTINUOUS
 62
     7
 10
-1466.378632341765
 20
428.6213676582355
 30
0.0
  0
VERTEX
  5
1A0
  8
0
  6
CONTINUOUS
 62
     7
 10
-1466.833221345766
 20
428.9944371821286
 30
0.0
  0
VERTEX
  5
1A1
  8
0
  6
CONTINUOUS
 62
     7
 10
-1467.351861917761
 20
429.2716517589329
 30
0.0
  0
VERTEX
  5
1A2
  8
0
  6
CONTINUOUS
 62
     7
 10
-1467.914624917686
 20
429.4423592175172
 30
0.0
  0
VERTEX
  5
1A3
  8
0
  6
CONTINUOUS
 62
     7
 10
-1468.499885769193
 20
429.5
 30
0.0
  0
SEQEND
  5
351
  8
0
  6
CONTINUOUS
 62
     7
  0
LINE
  5
B0
  8
0
  6
CONTINUOUS
 62
     7
 10
-1527.25
 20
429.4694559627324
 30
0.0
 11
-1528.25
 21
429.4694559627324
 31
0.0
  0
LINE
  5
B1
  8
0
  6
CONTINUOUS
 62
     7
 10
-1530.75
 20
429.4694559627324
 30
0.0
 11
-1531.75
 21
429.4694559627324
 31
0.0
  0
LINE
  5
B2
  8
0
  6
CONTINUOUS
 62
     9
 10
-1532.75
 20
429.0679819666967
 30
0.0
 11
-1532.75
 21
429.0811103460436
 31
0.0
  0
LINE
  5
B3
  8
0
  6
CONTINUOUS
 62
     7
 10
-1573.25
 20
429.4694559627324
 30
0.0
 11
-1574.25
 21
429.4694559627324
 31
0.0
  0
LINE
  5
B4
  8
0
  6
CONTINUOUS
 62
     7
 10
-1576.75
 20
429.4694559627324
 30
0.0
 11
-1577.75
 21
429.4694559627324
 31
0.0
  0
LINE
  5
B5
  8
0
  6
CONTINUOUS
 62
     7
 10
-1468.499885769192
 20
429.5000000000001
 30
0.0
 11
-1636.500114230807
 21
429.5000000000001
 31
0.0
  0
LINE
  5
B6
  8
0
  6
CONTINUOUS
 62
     7
 10
-1636.500114230807
 20
315.5000000000001
 30
0.0
 11
-1468.499885769193
 21
315.5000000000001
 31
0.0
  0
POLYLINE
  5
B7
  8
0
  6
CONTINUOUS
 62
     7
 66
     1
 10
0.0
 20
0.0
 30
0.0
  0
VERTEX
  5
1A4
  8
0
  6
CONTINUOUS
 62
     7
 10
-1468.499885769193
 20
315.5000000000001
 30
0.0
  0
VERTEX
  5
1A5
  8
0
  6
CONTINUOUS
 62
     7
 10
-1467.914624917686
 20
315.5576407824829
 30
0.0
  0
VERTEX
  5
1A6
  8
0
  6
CONTINUOUS
 62
     7
 10
-1467.351861917761
 20
315.7283482410672
 30
0.0
  0
VERTEX
  5
1A7
  8
0
  6
CONTINUOUS
 62
     7
 10
-1466.833221345766
 20
316.0055628178715
 30
0.0
  0
VERTEX
  5
1A8
  8
0
  6
CONTINUOUS
 62
     7
 10
-1466.378632341765
 20
316.3786323417646
 30
0.0
  0
VERTEX
  5
1A9
  8
0
  6
CONTINUOUS
 62
     7
 10
-1466.005562817871
 20
316.8332213457664
 30
0.0
  0
VERTEX
  5
1AA
  8
0
  6
CONTINUOUS
 62
     7
 10
-1465.728348241067
 20
317.351861917761
 30
0.0
  0
VERTEX
  5
1AB
  8
0
  6
CONTINUOUS
 62
     7
 10
-1465.557640782483
 20
317.9146249176862
 30
0.0
  0
VERTEX
  5
1AC
  8
0
  6
CONTINUOUS
 62
     7
 10
-1465.5
 20
318.4998857691926
 30
0.0
  0
SEQEND
  5
352
  8
0
  6
CONTINUOUS
 62
     7
  0
LINE
  5
B8
  8
0
  6
CONTINUOUS
 62
     7
 10
-1465.5
 20
318.4998857691926
 30
0.0
 11
-1465.5
 21
426.5001142308075
 31
0.0
  0
POLYLINE
  5
B9
  8
0
  6
CONTINUOUS
 62
     7
 66
     1
 10
0.0
 20
0.0
 30
0.0
  0
VERTEX
  5
1AD
  8
0
  6
CONTINUOUS
 62
     7
 10
-1636.500114230807
 20
429.5
 30
0.0
  0
VERTEX
  5
1AE
  8
0
  6
CONTINUOUS
 62
     7
 10
-1637.085375082314
 20
429.4423592175173
 30
0.0
  0
VERTEX
  5
1AF
  8
0
  6
CONTINUOUS
 62
     7
 10
-1637.648138082239
 20
429.2716517589329
 30
0.0
  0
VERTEX
  5
1B0
  8
0
  6
CONTINUOUS
 62
     7
 10
-1638.166778654234
 20
428.9944371821286
 30
0.0
  0
VERTEX
  5
1B1
  8
0
  6
CONTINUOUS
 62
     7
 10
-1638.621367658235
 20
428.6213676582355
 30
0.0
  0
VERTEX
  5
1B2
  8
0
  6
CONTINUOUS
 62
     7
 10
-1638.994437182129
 20
428.1667786542337
 30
0.0
  0
VERTEX
  5
1B3
  8
0
  6
CONTINUOUS
 62
     7
 10
-1639.271651758933
 20
427.6481380822391
 30
0.0
  0
VERTEX
  5
1B4
  8
0
  6
CONTINUOUS
 62
     7
 10
-1639.442359217517
 20
427.0853750823139
 30
0.0
  0
VERTEX
  5
1B5
  8
0
  6
CONTINUOUS
 62
     7
 10
-1639.5
 20
426.5001142308075
 30
0.0
  0
SEQEND
  5
353
  8
0
  6
CONTINUOUS
 62
     7
  0
ARC
  5
BA
  8
0
  6
CONTINUOUS
 62
     7
 10
-1468.5
 20
426.5000000000001
 30
0.0
 40
7.000000000000006
 50
359.9999999999999
 51
90.0
  0
ARC
  5
BB
  8
0
  6
CONTINUOUS
 62
     7
 10
-1636.5
 20
426.5000000000001
 30
0.0
 40
6.999999999999999
 50
90.0
 51
180.0
  0
ARC
  5
BC
  8
0
  6
CONTINUOUS
 62
     7
 10
-1636.5
 20
318.5000000000001
 30
0.0
 40
7.000000000000006
 50
179.9999999999999
 51
270.0
  0
ARC
  5
BD
  8
0
  6
CONTINUOUS
 62
     7
 10
-1468.5
 20
318.5000000000001
 30
0.0
 40
6.999999999999999
 50
270.0
 51
0.0
  0
LINE
  5
BE
  8
0
  6
CONTINUOUS
 62
     7
 10
-1576.75
 20
315.5305440372677
 30
0.0
 11
-1577.75
 21
315.5305440372676
 31
0.0
  0
LINE
  5
BF
  8
0
  6
CONTINUOUS
 62
     7
 10
-1576.75
 20
315.936343389538
 30
0.0
 11
-1574.25
 21
315.936343389538
 31
0.0
  0
LINE
  5
C0
  8
0
  6
CONTINUOUS
 62
     7
 10
-1573.25
 20
315.5305440372677
 30
0.0
 11
-1574.25
 21
315.5305440372677
 31
0.0
  0
LINE
  5
C1
  8
0
  6
CONTINUOUS
 62
     9
 10
-1532.75
 20
315.9188896539565
 30
0.0
 11
-1532.75
 21
315.9320180333034
 31
0.0
  0
LINE
  5
C2
  8
0
  6
CONTINUOUS
 62
     7
 10
-1530.75
 20
315.5305440372677
 30
0.0
 11
-1531.75
 21
315.5305440372676
 31
0.0
  0
LINE
  5
C3
  8
0
  6
CONTINUOUS
 62
     7
 10
-1527.25
 20
315.5305440372677
 30
0.0
 11
-1528.25
 21
315.5305440372677
 31
0.0
  0
POLYLINE
  5
C4
  8
0
  6
CONTINUOUS
 62
     7
 66
     1
 10
0.0
 20
0.0
 30
0.0
  0
VERTEX
  5
1B6
  8
0
  6
CONTINUOUS
 62
     7
 10
-1470.5
 20
429.4720740230696
 30
0.0
  0
VERTEX
  5
1B7
  8
0
  6
CONTINUOUS
 62
     7
 10
-1470.597545161008
 20
429.4624662974384
 30
0.0
  0
VERTEX
  5
1B8
  8
0
  6
CONTINUOUS
 62
     7
 10
-1470.691341716182
 20
429.434012340053
 30
0.0
  0
VERTEX
  5
1B9
  8
0
  6
CONTINUOUS
 62
     7
 10
-1470.77778511651
 20
429.3878056205383
 30
0.0
  0
VERTEX
  5
1BA
  8
0
  6
CONTINUOUS
 62
     7
 10
-1470.853553390593
 20
429.3256218372123
 30
0.0
  0
VERTEX
  5
1BB
  8
0
  6
CONTINUOUS
 62
     7
 10
-1470.915734806151
 20
429.2498506779953
 30
0.0
  0
VERTEX
  5
1BC
  8
0
  6
CONTINUOUS
 62
     7
 10
-1470.961939766256
 20
429.1634039860429
 30
0.0
  0
VERTEX
  5
1BD
  8
0
  6
CONTINUOUS
 62
     7
 10
-1470.990392640202
 20
429.069603859247
 30
0.0
  0
VERTEX
  5
1BE
  8
0
  6
CONTINUOUS
 62
     7
 10
-1471.0
 20
428.9720549838767
 30
0.0
  0
SEQEND
  5
354
  8
0
  6
CONTINUOUS
 62
     7
  0
POLYLINE
  5
C5
  8
0
  6
CONTINUOUS
 62
     7
 66
     1
 10
0.0
 20
0.0
 30
0.0
  0
VERTEX
  5
1BF
  8
0
  6
CONTINUOUS
 62
     7
 10
-1471.0
 20
316.0279450161233
 30
0.0
  0
VERTEX
  5
1C0
  8
0
  6
CONTINUOUS
 62
     7
 10
-1470.990392640202
 20
315.930396140753
 30
0.0
  0
VERTEX
  5
1C1
  8
0
  6
CONTINUOUS
 62
     7
 10
-1470.961939766256
 20
315.8365960139571
 30
0.0
  0
VERTEX
  5
1C2
  8
0
  6
CONTINUOUS
 62
     7
 10
-1470.915734806151
 20
315.7501493220047
 30
0.0
  0
VERTEX
  5
1C3
  8
0
  6
CONTINUOUS
 62
     7
 10
-1470.853553390593
 20
315.6743781627877
 30
0.0
  0
VERTEX
  5
1C4
  8
0
  6
CONTINUOUS
 62
     7
 10
-1470.77778511651
 20
315.6121943794618
 30
0.0
  0
VERTEX
  5
1C5
  8
0
  6
CONTINUOUS
 62
     7
 10
-1470.691341716182
 20
315.5659876599471
 30
0.0
  0
VERTEX
  5
1C6
  8
0
  6
CONTINUOUS
 62
     7
 10
-1470.597545161008
 20
315.5375337025616
 30
0.0
  0
VERTEX
  5
1C7
  8
0
  6
CONTINUOUS
 62
     7
 10
-1470.5
 20
315.5279259769305
 30
0.0
  0
SEQEND
  5
355
  8
0
  6
CONTINUOUS
 62
     7
  0
POLYLINE
  5
C6
  8
0
  6
CONTINUOUS
 62
     7
 66
     1
 10
0.0
 20
0.0
 30
0.0
  0
VERTEX
  5
1C8
  8
0
  6
CONTINUOUS
 62
     7
 10
-1482.5
 20
315.5279259769305
 30
0.0
  0
VERTEX
  5
1C9
  8
0
  6
CONTINUOUS
 62
     7
 10
-1482.402454838992
 20
315.5375337025616
 30
0.0
  0
VERTEX
  5
1CA
  8
0
  6
CONTINUOUS
 62
     7
 10
-1482.308658283818
 20
315.5659876599471
 30
0.0
  0
VERTEX
  5
1CB
  8
0
  6
CONTINUOUS
 62
     7
 10
-1482.22221488349
 20
315.6121943794618
 30
0.0
  0
VERTEX
  5
1CC
  8
0
  6
CONTINUOUS
 62
     7
 10
-1482.146446609407
 20
315.6743781627877
 30
0.0
  0
VERTEX
  5
1CD
  8
0
  6
CONTINUOUS
 62
     7
 10
-1482.084265193849
 20
315.7501493220047
 30
0.0
  0
VERTEX
  5
1CE
  8
0
  6
CONTINUOUS
 62
     7
 10
-1482.038060233744
 20
315.8365960139571
 30
0.0
  0
VERTEX
  5
1CF
  8
0
  6
CONTINUOUS
 62
     7
 10
-1482.009607359798
 20
315.930396140753
 30
0.0
  0
VERTEX
  5
1D0
  8
0
  6
CONTINUOUS
 62
     7
 10
-1482.0
 20
316.0279450161233
 30
0.0
  0
SEQEND
  5
356
  8
0
  6
CONTINUOUS
 62
     7
  0
LINE
  5
C7
  8
0
  6
CONTINUOUS
 62
     7
 10
-1482.0
 20
316.0279450161233
 30
0.0
 11
-1482.0
 21
323.5
 31
0.0
  0
ARC
  5
C8
  8
0
  6
CONTINUOUS
 62
     7
 10
-1480.0
 20
323.5
 30
0.0
 40
2.000000000000002
 50
90.0
 51
180.0000000000002
  0
ARC
  5
C9
  8
0
  6
CONTINUOUS
 62
     7
 10
-1473.0
 20
323.5
 30
0.0
 40
2.000000000000002
 50
0.0
 51
90.00000000000043
  0
LINE
  5
CA
  8
0
  6
CONTINUOUS
 62
     7
 10
-1471.0
 20
323.5
 30
0.0
 11
-1471.0
 21
316.0279450161233
 31
0.0
  0
CIRCLE
  5
CB
  8
0
  6
CONTINUOUS
 62
     7
 10
-1476.5
 20
320.0000000000001
 30
0.0
 40
4.000000000000004
  0
LINE
  5
CC
  8
0
  6
CONTINUOUS
 62
     7
 10
-1471.0
 20
421.5000000000001
 30
0.0
 11
-1471.0
 21
428.9720549838767
 31
0.0
  0
ARC
  5
CD
  8
0
  6
CONTINUOUS
 62
     7
 10
-1473.0
 20
421.5000000000001
 30
0.0
 40
2.000000000000002
 50
269.9999999999996
 51
0.0
  0
ARC
  5
CE
  8
0
  6
CONTINUOUS
 62
     7
 10
-1480.0
 20
421.5000000000001
 30
0.0
 40
2.000000000000002
 50
179.9999999999998
 51
270.0
  0
POLYLINE
  5
CF
  8
0
  6
CONTINUOUS
 62
     7
 66
     1
 10
0.0
 20
0.0
 30
0.0
  0
VERTEX
  5
1D1
  8
0
  6
CONTINUOUS
 62
     7
 10
-1482.0
 20
428.9720549838767
 30
0.0
  0
VERTEX
  5
1D2
  8
0
  6
CONTINUOUS
 62
     7
 10
-1482.009607359798
 20
429.069603859247
 30
0.0
  0
VERTEX
  5
1D3
  8
0
  6
CONTINUOUS
 62
     7
 10
-1482.038060233744
 20
429.163403986043
 30
0.0
  0
VERTEX
  5
1D4
  8
0
  6
CONTINUOUS
 62
     7
 10
-1482.084265193849
 20
429.2498506779953
 30
0.0
  0
VERTEX
  5
1D5
  8
0
  6
CONTINUOUS
 62
     7
 10
-1482.146446609407
 20
429.3256218372124
 30
0.0
  0
VERTEX
  5
1D6
  8
0
  6
CONTINUOUS
 62
     7
 10
-1482.22221488349
 20
429.3878056205383
 30
0.0
  0
VERTEX
  5
1D7
  8
0
  6
CONTINUOUS
 62
     7
 10
-1482.308658283818
 20
429.434012340053
 30
0.0
  0
VERTEX
  5
1D8
  8
0
  6
CONTINUOUS
 62
     7
 10
-1482.402454838992
 20
429.4624662974384
 30
0.0
  0
VERTEX
  5
1D9
  8
0
  6
CONTINUOUS
 62
     7
 10
-1482.5
 20
429.4720740230696
 30
0.0
  0
SEQEND
  5
357
  8
0
  6
CONTINUOUS
 62
     7
  0
CIRCLE
  5
D0
  8
0
  6
CONTINUOUS
 62
     7
 10
-1476.5
 20
425.0000000000001
 30
0.0
 40
4.000000000000004
  0
LINE
  5
D1
  8
0
  6
CONTINUOUS
 62
     7
 10
-1482.0
 20
428.9720549838767
 30
0.0
 11
-1482.0
 21
421.5000000000001
 31
0.0
  0
CIRCLE
  5
D2
  8
0
  6
CONTINUOUS
 62
     7
 10
-1628.5
 20
320.0000000000001
 30
0.0
 40
4.000000000000004
  0
CIRCLE
  5
D3
  8
0
  6
CONTINUOUS
 62
     7
 10
-1628.5
 20
320.0000000000001
 30
0.0
 40
2.500000000000002
  0
POLYLINE
  5
D4
  8
0
  6
CONTINUOUS
 62
     7
 66
     1
 10
0.0
 20
0.0
 30
0.0
  0
VERTEX
  5
1DA
  8
0
  6
CONTINUOUS
 62
     7
 10
-1634.0
 20
428.9720549838767
 30
0.0
  0
VERTEX
  5
1DB
  8
0
  6
CONTINUOUS
 62
     7
 10
-1634.009607359798
 20
429.069603859247
 30
0.0
  0
VERTEX
  5
1DC
  8
0
  6
CONTINUOUS
 62
     7
 10
-1634.038060233744
 20
429.163403986043
 30
0.0
  0
VERTEX
  5
1DD
  8
0
  6
CONTINUOUS
 62
     7
 10
-1634.084265193849
 20
429.2498506779953
 30
0.0
  0
VERTEX
  5
1DE
  8
0
  6
CONTINUOUS
 62
     7
 10
-1634.146446609407
 20
429.3256218372124
 30
0.0
  0
VERTEX
  5
1DF
  8
0
  6
CONTINUOUS
 62
     7
 10
-1634.22221488349
 20
429.3878056205383
 30
0.0
  0
VERTEX
  5
1E0
  8
0
  6
CONTINUOUS
 62
     7
 10
-1634.308658283818
 20
429.434012340053
 30
0.0
  0
VERTEX
  5
1E1
  8
0
  6
CONTINUOUS
 62
     7
 10
-1634.402454838992
 20
429.4624662974384
 30
0.0
  0
VERTEX
  5
1E2
  8
0
  6
CONTINUOUS
 62
     7
 10
-1634.5
 20
429.4720740230696
 30
0.0
  0
SEQEND
  5
358
  8
0
  6
CONTINUOUS
 62
     7
  0
POLYLINE
  5
D5
  8
0
  6
CONTINUOUS
 62
     7
 66
     1
 10
0.0
 20
0.0
 30
0.0
  0
VERTEX
  5
1E3
  8
0
  6
CONTINUOUS
 62
     7
 10
-1622.5
 20
429.4720740230696
 30
0.0
  0
VERTEX
  5
1E4
  8
0
  6
CONTINUOUS
 62
     7
 10
-1622.597545161008
 20
429.4624662974384
 30
0.0
  0
VERTEX
  5
1E5
  8
0
  6
CONTINUOUS
 62
     7
 10
-1622.691341716182
 20
429.434012340053
 30
0.0
  0
VERTEX
  5
1E6
  8
0
  6
CONTINUOUS
 62
     7
 10
-1622.77778511651
 20
429.3878056205383
 30
0.0
  0
VERTEX
  5
1E7
  8
0
  6
CONTINUOUS
 62
     7
 10
-1622.853553390593
 20
429.3256218372124
 30
0.0
  0
VERTEX
  5
1E8
  8
0
  6
CONTINUOUS
 62
     7
 10
-1622.915734806151
 20
429.2498506779953
 30
0.0
  0
VERTEX
  5
1E9
  8
0
  6
CONTINUOUS
 62
     7
 10
-1622.961939766256
 20
429.163403986043
 30
0.0
  0
VERTEX
  5
1EA
  8
0
  6
CONTINUOUS
 62
     7
 10
-1622.990392640202
 20
429.069603859247
 30
0.0
  0
VERTEX
  5
1EB
  8
0
  6
CONTINUOUS
 62
     7
 10
-1623.0
 20
428.9720549838767
 30
0.0
  0
SEQEND
  5
359
  8
0
  6
CONTINUOUS
 62
     7
  0
ARC
  5
D6
  8
0
  6
CONTINUOUS
 62
     7
 10
-1625.0
 20
421.5000000000001
 30
0.0
 40
2.000000000000002
 50
270.0
 51
0.0000000000002274
  0
CIRCLE
  5
D7
  8
0
  6
CONTINUOUS
 62
     7
 10
-1628.5
 20
425.0000000000001
 30
0.0
 40
4.000000000000004
  0
LINE
  5
D8
  8
0
  6
CONTINUOUS
 62
     7
 10
-1623.0
 20
428.9720549838767
 30
0.0
 11
-1623.0
 21
421.5000000000001
 31
0.0
  0
LINE
  5
D9
  8
0
  6
CONTINUOUS
 62
     7
 10
-1634.0
 20
421.5000000000001
 30
0.0
 11
-1634.0
 21
428.9720549838767
 31
0.0
  0
ARC
  5
DA
  8
0
  6
CONTINUOUS
 62
     7
 10
-1632.0
 20
421.5000000000001
 30
0.0
 40
2.000000000000002
 50
180.0
 51
270.0000000000004
  0
POLYLINE
  5
DB
  8
0
  6
CONTINUOUS
 62
     7
 66
     1
 10
0.0
 20
0.0
 30
0.0
  0
VERTEX
  5
1EC
  8
0
  6
CONTINUOUS
 62
     7
 10
-1634.5
 20
315.5279259769305
 30
0.0
  0
VERTEX
  5
1ED
  8
0
  6
CONTINUOUS
 62
     7
 10
-1634.402454838992
 20
315.5375337025616
 30
0.0
  0
VERTEX
  5
1EE
  8
0
  6
CONTINUOUS
 62
     7
 10
-1634.308658283818
 20
315.5659876599471
 30
0.0
  0
VERTEX
  5
1EF
  8
0
  6
CONTINUOUS
 62
     7
 10
-1634.22221488349
 20
315.6121943794618
 30
0.0
  0
VERTEX
  5
1F0
  8
0
  6
CONTINUOUS
 62
     7
 10
-1634.146446609407
 20
315.6743781627877
 30
0.0
  0
VERTEX
  5
1F1
  8
0
  6
CONTINUOUS
 62
     7
 10
-1634.084265193849
 20
315.7501493220047
 30
0.0
  0
VERTEX
  5
1F2
  8
0
  6
CONTINUOUS
 62
     7
 10
-1634.038060233744
 20
315.8365960139571
 30
0.0
  0
VERTEX
  5
1F3
  8
0
  6
CONTINUOUS
 62
     7
 10
-1634.009607359798
 20
315.930396140753
 30
0.0
  0
VERTEX
  5
1F4
  8
0
  6
CONTINUOUS
 62
     7
 10
-1634.0
 20
316.0279450161233
 30
0.0
  0
SEQEND
  5
35A
  8
0
  6
CONTINUOUS
 62
     7
  0
CIRCLE
  5
DC
  8
0
  6
CONTINUOUS
 62
     7
 10
-1476.5
 20
320.0000000000001
 30
0.0
 40
2.500000000000002
  0
CIRCLE
  5
DD
  8
0
  6
CONTINUOUS
 62
     7
 10
-1628.5
 20
425.0000000000001
 30
0.0
 40
2.500000000000002
  0
POLYLINE
  5
DE
  8
0
  6
CONTINUOUS
 62
     7
 66
     1
 10
0.0
 20
0.0
 30
0.0
  0
VERTEX
  5
1F5
  8
0
  6
CONTINUOUS
 62
     7
 10
-1623.0
 20
316.0279450161233
 30
0.0
  0
VERTEX
  5
1F6
  8
0
  6
CONTINUOUS
 62
     7
 10
-1622.990392640202
 20
315.930396140753
 30
0.0
  0
VERTEX
  5
1F7
  8
0
  6
CONTINUOUS
 62
     7
 10
-1622.961939766256
 20
315.8365960139571
 30
0.0
  0
VERTEX
  5
1F8
  8
0
  6
CONTINUOUS
 62
     7
 10
-1622.915734806151
 20
315.7501493220047
 30
0.0
  0
VERTEX
  5
1F9
  8
0
  6
CONTINUOUS
 62
     7
 10
-1622.853553390593
 20
315.6743781627877
 30
0.0
  0
VERTEX
  5
1FA
  8
0
  6
CONTINUOUS
 62
     7
 10
-1622.77778511651
 20
315.6121943794618
 30
0.0
  0
VERTEX
  5
1FB
  8
0
  6
CONTINUOUS
 62
     7
 10
-1622.691341716182
 20
315.5659876599471
 30
0.0
  0
VERTEX
  5
1FC
  8
0
  6
CONTINUOUS
 62
     7
 10
-1622.597545161008
 20
315.5375337025616
 30
0.0
  0
VERTEX
  5
1FD
  8
0
  6
CONTINUOUS
 62
     7
 10
-1622.5
 20
315.5279259769305
 30
0.0
  0
SEQEND
  5
35B
  8
0
  6
CONTINUOUS
 62
     7
  0
LINE
  5
DF
  8
0
  6
CONTINUOUS
 62
     7
 10
-1623.0
 20
316.0279450161233
 30
0.0
 11
-1623.0
 21
323.5
 31
0.0
  0
LINE
  5
E0
  8
0
  6
CONTINUOUS
 62
     7
 10
-1634.0
 20
323.5
 30
0.0
 11
-1634.0
 21
316.0279450161233
 31
0.0
  0
ARC
  5
E1
  8
0
  6
CONTINUOUS
 62
     7
 10
-1632.0
 20
323.5
 30
0.0
 40
2.000000000000002
 50
89.99999999999962
 51
180.0
  0
ARC
  5
E2
  8
0
  6
CONTINUOUS
 62
     7
 10
-1625.0
 20
323.5
 30
0.0
 40
2.000000000000002
 50
359.9999999999998
 51
90.0
  0
LINE
  5
E3
  8
0
  6
CONTINUOUS
 62
     7
 10
-1527.25
 20
315.5305440372677
 30
0.0
 11
-1527.25
 21
318.0000000000001
 31
0.0
  0
LINE
  5
E4
  8
0
  6
CONTINUOUS
 62
     7
 10
-1527.248545554854
 20
318.5000000000001
 30
0.0
 11
-1527.25
 21
318.0000000000001
 31
0.0
  0
LINE
  5
E5
  8
0
  6
CONTINUOUS
 62
     7
 10
-1527.25
 20
427.0000000000001
 30
0.0
 11
-1527.248545554854
 21
426.5000000000001
 31
0.0
  0
LINE
  5
E6
  8
0
  6
CONTINUOUS
 62
     7
 10
-1527.25
 20
429.4694559627324
 30
0.0
 11
-1527.25
 21
427.0000000000001
 31
0.0
  0
LINE
  5
E7
  8
0
  6
CONTINUOUS
 62
     7
 10
-1574.25
 20
318.5000000000001
 30
0.0
 11
-1573.248545554854
 21
318.5000000000001
 31
0.0
  0
LINE
  5
E8
  8
0
  6
CONTINUOUS
 62
     7
 10
-1573.248545554854
 20
318.5000000000001
 30
0.0
 11
-1573.25
 21
318.0000000000001
 31
0.0
  0
LINE
  5
E9
  8
0
  6
CONTINUOUS
 62
     7
 10
-1527.248545554854
 20
426.5000000000001
 30
0.0
 11
-1528.25
 21
426.5000000000001
 31
0.0
  0
LINE
  5
EA
  8
0
  6
CONTINUOUS
 62
     7
 10
-1573.25
 20
315.5305440372677
 30
0.0
 11
-1573.25
 21
318.0000000000001
 31
0.0
  0
LINE
  5
EB
  8
0
  6
CONTINUOUS
 62
     7
 10
-1577.75
 20
429.4694559627324
 30
0.0
 11
-1577.75
 21
427.0000000000001
 31
0.0
  0
LINE
  5
EC
  8
0
  6
CONTINUOUS
 62
     7
 10
-1577.751454445146
 20
426.5000000000001
 30
0.0
 11
-1577.75
 21
427.0000000000001
 31
0.0
  0
LINE
  5
ED
  8
0
  6
CONTINUOUS
 62
     7
 10
-1531.75
 20
318.0000000000001
 30
0.0
 11
-1531.751454445146
 21
318.5000000000001
 31
0.0
  0
LINE
  5
EE
  8
0
  6
CONTINUOUS
 62
     7
 10
-1531.75
 20
315.5305440372676
 30
0.0
 11
-1531.75
 21
318.0000000000001
 31
0.0
  0
LINE
  5
EF
  8
0
  6
CONTINUOUS
 62
     7
 10
-1576.75
 20
426.5000000000001
 30
0.0
 11
-1577.751454445146
 21
426.5000000000001
 31
0.0
  0
LINE
  5
F0
  8
0
  6
CONTINUOUS
 62
     7
 10
-1573.25
 20
429.4694559627324
 30
0.0
 11
-1573.25
 21
427.0000000000001
 31
0.0
  0
LINE
  5
F1
  8
0
  6
CONTINUOUS
 62
     7
 10
-1577.75
 20
318.0000000000001
 30
0.0
 11
-1577.751454445146
 21
318.5000000000001
 31
0.0
  0
LINE
  5
F2
  8
0
  6
CONTINUOUS
 62
     7
 10
-1577.75
 20
315.5305440372676
 30
0.0
 11
-1577.75
 21
318.0000000000001
 31
0.0
  0
LINE
  5
F3
  8
0
  6
CONTINUOUS
 62
     7
 10
-1531.751454445146
 20
318.5000000000001
 30
0.0
 11
-1530.75
 21
318.5000000000001
 31
0.0
  0
LINE
  5
F4
  8
0
  6
CONTINUOUS
 62
     7
 10
-1531.75
 20
429.4694559627324
 30
0.0
 11
-1531.75
 21
427.0000000000001
 31
0.0
  0
LINE
  5
F5
  8
0
  6
CONTINUOUS
 62
     7
 10
-1531.751454445146
 20
426.5000000000001
 30
0.0
 11
-1531.75
 21
427.0000000000001
 31
0.0
  0
LINE
  5
F6
  8
0
  6
CONTINUOUS
 62
     7
 10
-1573.25
 20
427.0000000000001
 30
0.0
 11
-1573.248545554854
 21
426.5000000000001
 31
0.0
  0
LINE
  5
F7
  8
0
  6
CONTINUOUS
 62
     7
 10
-1573.248545554854
 20
426.5000000000001
 30
0.0
 11
-1574.25
 21
426.5000000000001
 31
0.0
  0
LINE
  5
F8
  8
0
  6
CONTINUOUS
 62
     7
 10
-1528.25
 20
318.5000000000001
 30
0.0
 11
-1527.248545554854
 21
318.5000000000001
 31
0.0
  0
LINE
  5
F9
  8
0
  6
CONTINUOUS
 62
     7
 10
-1577.751454445146
 20
318.5000000000001
 30
0.0
 11
-1576.75
 21
318.5000000000001
 31
0.0
  0
LINE
  5
FA
  8
0
  6
CONTINUOUS
 62
     7
 10
-1530.75
 20
426.5000000000001
 30
0.0
 11
-1531.751454445146
 21
426.5000000000001
 31
0.0
  0
POLYLINE
  5
FB
  8
0
  6
CONTINUOUS
 62
     9
 66
     1
 10
0.0
 20
0.0
 30
0.0
  0
VERTEX
  5
1FE
  8
0
  6
CONTINUOUS
 62
     9
 10
-1638.64794487536
 20
366.4571067811866
 30
0.0
  0
VERTEX
  5
1FF
  8
0
  6
CONTINUOUS
 62
     9
 10
-1638.745109903387
 20
366.4499424778842
 30
0.0
  0
VERTEX
  5
200
  8
0
  6
CONTINUOUS
 62
     9
 10
-1638.838570119734
 20
366.4295706825177
 30
0.0
  0
VERTEX
  5
201
  8
0
  6
CONTINUOUS
 62
     9
 10
-1638.924761973726
 20
366.3967681525991
 30
0.0
  0
VERTEX
  5
202
  8
0
  6
CONTINUOUS
 62
     9
 10
-1639.00039905055
 20
366.3527856179276
 30
0.0
  0
VERTEX
  5
203
  8
0
  6
CONTINUOUS
 62
     9
 10
-1639.062597379178
 20
366.2993000914315
 30
0.0
  0
VERTEX
  5
204
  8
0
  6
CONTINUOUS
 62
     9
 10
-1639.108985395488
 20
366.2383509262332
 30
0.0
  0
VERTEX
  5
205
  8
0
  6
CONTINUOUS
 62
     9
 10
-1639.137794367786
 20
366.1722620570213
 30
0.0
  0
VERTEX
  5
206
  8
0
  6
CONTINUOUS
 62
     9
 10
-1639.147925836892
 20
366.1035533905933
 30
0.0
  0
SEQEND
  5
35C
  8
0
  6
CONTINUOUS
 62
     9
  0
POLYLINE
  5
FC
  8
0
  6
CONTINUOUS
 62
     9
 66
     1
 10
0.0
 20
0.0
 30
0.0
  0
VERTEX
  5
207
  8
0
  6
CONTINUOUS
 62
     9
 10
-1465.852074163108
 20
366.1035533905933
 30
0.0
  0
VERTEX
  5
208
  8
0
  6
CONTINUOUS
 62
     9
 10
-1465.862205632213
 20
366.1722620570213
 30
0.0
  0
VERTEX
  5
209
  8
0
  6
CONTINUOUS
 62
     9
 10
-1465.891014604511
 20
366.2383509262332
 30
0.0
  0
VERTEX
  5
20A
  8
0
  6
CONTINUOUS
 62
     9
 10
-1465.937402620822
 20
366.2993000914314
 30
0.0
  0
VERTEX
  5
20B
  8
0
  6
CONTINUOUS
 62
     9
 10
-1465.99960094945
 20
366.3527856179276
 30
0.0
  0
VERTEX
  5
20C
  8
0
  6
CONTINUOUS
 62
     9
 10
-1466.075238026273
 20
366.3967681525991
 30
0.0
  0
VERTEX
  5
20D
  8
0
  6
CONTINUOUS
 62
     9
 10
-1466.161429880265
 20
366.4295706825177
 30
0.0
  0
VERTEX
  5
20E
  8
0
  6
CONTINUOUS
 62
     9
 10
-1466.254890096613
 20
366.4499424778842
 30
0.0
  0
VERTEX
  5
20F
  8
0
  6
CONTINUOUS
 62
     9
 10
-1466.35205512464
 20
366.4571067811866
 30
0.0
  0
SEQEND
  5
35D
  8
0
  6
CONTINUOUS
 62
     9
  0
POLYLINE
  5
FD
  8
0
  6
CONTINUOUS
 62
     9
 66
     1
 10
0.0
 20
0.0
 30
0.0
  0
VERTEX
  5
210
  8
0
  6
CONTINUOUS
 62
     9
 10
-1466.35205512464
 20
378.5428932188136
 30
0.0
  0
VERTEX
  5
211
  8
0
  6
CONTINUOUS
 62
     9
 10
-1466.254890096613
 20
378.5500575221159
 30
0.0
  0
VERTEX
  5
212
  8
0
  6
CONTINUOUS
 62
     9
 10
-1466.161429880265
 20
378.5704293174824
 30
0.0
  0
VERTEX
  5
213
  8
0
  6
CONTINUOUS
 62
     9
 10
-1466.075238026273
 20
378.603231847401
 30
0.0
  0
VERTEX
  5
214
  8
0
  6
CONTINUOUS
 62
     9
 10
-1465.99960094945
 20
378.6472143820725
 30
0.0
  0
VERTEX
  5
215
  8
0
  6
CONTINUOUS
 62
     9
 10
-1465.937402620822
 20
378.7006999085686
 30
0.0
  0
VERTEX
  5
216
  8
0
  6
CONTINUOUS
 62
     9
 10
-1465.891014604511
 20
378.7616490737669
 30
0.0
  0
VERTEX
  5
217
  8
0
  6
CONTINUOUS
 62
     9
 10
-1465.862205632213
 20
378.8277379429788
 30
0.0
  0
VERTEX
  5
218
  8
0
  6
CONTINUOUS
 62
     9
 10
-1465.852074163108
 20
378.8964466094068
 30
0.0
  0
SEQEND
  5
35E
  8
0
  6
CONTINUOUS
 62
     9
  0
POLYLINE
  5
FE
  8
0
  6
CONTINUOUS
 62
     9
 66
     1
 10
0.0
 20
0.0
 30
0.0
  0
VERTEX
  5
219
  8
0
  6
CONTINUOUS
 62
     9
 10
-1639.147925836892
 20
378.8964466094068
 30
0.0
  0
VERTEX
  5
21A
  8
0
  6
CONTINUOUS
 62
     9
 10
-1639.137794367786
 20
378.8277379429788
 30
0.0
  0
VERTEX
  5
21B
  8
0
  6
CONTINUOUS
 62
     9
 10
-1639.108985395488
 20
378.7616490737669
 30
0.0
  0
VERTEX
  5
21C
  8
0
  6
CONTINUOUS
 62
     9
 10
-1639.062597379178
 20
378.7006999085686
 30
0.0
  0
VERTEX
  5
21D
  8
0
  6
CONTINUOUS
 62
     9
 10
-1639.00039905055
 20
378.6472143820725
 30
0.0
  0
VERTEX
  5
21E
  8
0
  6
CONTINUOUS
 62
     9
 10
-1638.924761973726
 20
378.603231847401
 30
0.0
  0
VERTEX
  5
21F
  8
0
  6
CONTINUOUS
 62
     9
 10
-1638.838570119734
 20
378.5704293174824
 30
0.0
  0
VERTEX
  5
220
  8
0
  6
CONTINUOUS
 62
     9
 10
-1638.745109903387
 20
378.5500575221159
 30
0.0
  0
VERTEX
  5
221
  8
0
  6
CONTINUOUS
 62
     9
 10
-1638.64794487536
 20
378.5428932188135
 30
0.0
  0
SEQEND
  5
35F
  8
0
  6
CONTINUOUS
 62
     9
  0
LINE
  5
FF
  8
0
  6
CONTINUOUS
 62
     9
 10
-1628.45
 20
366.4571067811866
 30
0.0
 11
-1638.64794487536
 21
366.4571067811866
 31
0.0
  0
POLYLINE
  5
100
  8
0
  6
CONTINUOUS
 62
     9
 66
     1
 10
0.0
 20
0.0
 30
0.0
  0
VERTEX
  5
222
  8
0
  6
CONTINUOUS
 62
     9
 10
-1627.45
 20
377.835786437627
 30
0.0
  0
VERTEX
  5
223
  8
0
  6
CONTINUOUS
 62
     9
 10
-1627.469214719596
 20
377.9737361272684
 30
0.0
  0
VERTEX
  5
224
  8
0
  6
CONTINUOUS
 62
     9
 10
-1627.526120467488
 20
378.1063844877
 30
0.0
  0
VERTEX
  5
225
  8
0
  6
CONTINUOUS
 62
     9
 10
-1627.618530387697
 20
378.2286339168205
 30
0.0
  0
VERTEX
  5
226
  8
0
  6
CONTINUOUS
 62
     9
 10
-1627.742893218813
 20
378.335786437627
 30
0.0
  0
VERTEX
  5
227
  8
0
  6
CONTINUOUS
 62
     9
 10
-1627.89442976698
 20
378.4237242388367
 30
0.0
  0
VERTEX
  5
228
  8
0
  6
CONTINUOUS
 62
     9
 10
-1628.067316567635
 20
378.4890679200652
 30
0.0
  0
VERTEX
  5
229
  8
0
  6
CONTINUOUS
 62
     9
 10
-1628.254909677984
 20
378.529306360288
 30
0.0
  0
VERTEX
  5
22A
  8
0
  6
CONTINUOUS
 62
     9
 10
-1628.45
 20
378.5428932188135
 30
0.0
  0
SEQEND
  5
360
  8
0
  6
CONTINUOUS
 62
     9
  0
POLYLINE
  5
101
  8
0
  6
CONTINUOUS
 62
     9
 66
     1
 10
0.0
 20
0.0
 30
0.0
  0
VERTEX
  5
22B
  8
0
  6
CONTINUOUS
 62
     9
 10
-1628.45
 20
366.4571067811866
 30
0.0
  0
VERTEX
  5
22C
  8
0
  6
CONTINUOUS
 62
     9
 10
-1628.254909677984
 20
366.4706936397121
 30
0.0
  0
VERTEX
  5
22D
  8
0
  6
CONTINUOUS
 62
     9
 10
-1628.067316567635
 20
366.5109320799349
 30
0.0
  0
VERTEX
  5
22E
  8
0
  6
CONTINUOUS
 62
     9
 10
-1627.89442976698
 20
366.5762757611635
 30
0.0
  0
VERTEX
  5
22F
  8
0
  6
CONTINUOUS
 62
     9
 10
-1627.742893218813
 20
366.6642135623732
 30
0.0
  0
VERTEX
  5
230
  8
0
  6
CONTINUOUS
 62
     9
 10
-1627.618530387697
 20
366.7713660831796
 30
0.0
  0
VERTEX
  5
231
  8
0
  6
CONTINUOUS
 62
     9
 10
-1627.526120467488
 20
366.8936155123001
 30
0.0
  0
VERTEX
  5
232
  8
0
  6
CONTINUOUS
 62
     9
 10
-1627.469214719596
 20
367.0262638727317
 30
0.0
  0
VERTEX
  5
233
  8
0
  6
CONTINUOUS
 62
     9
 10
-1627.45
 20
367.1642135623732
 30
0.0
  0
SEQEND
  5
361
  8
0
  6
CONTINUOUS
 62
     9
  0
POLYLINE
  5
102
  8
0
  6
CONTINUOUS
 62
     9
 66
     1
 10
0.0
 20
0.0
 30
0.0
  0
VERTEX
  5
234
  8
0
  6
CONTINUOUS
 62
     9
 10
-1476.55
 20
378.5428932188135
 30
0.0
  0
VERTEX
  5
235
  8
0
  6
CONTINUOUS
 62
     9
 10
-1476.745090322016
 20
378.529306360288
 30
0.0
  0
VERTEX
  5
236
  8
0
  6
CONTINUOUS
 62
     9
 10
-1476.932683432365
 20
378.4890679200652
 30
0.0
  0
VERTEX
  5
237
  8
0
  6
CONTINUOUS
 62
     9
 10
-1477.10557023302
 20
378.4237242388367
 30
0.0
  0
VERTEX
  5
238
  8
0
  6
CONTINUOUS
 62
     9
 10
-1477.257106781186
 20
378.335786437627
 30
0.0
  0
VERTEX
  5
239
  8
0
  6
CONTINUOUS
 62
     9
 10
-1477.381469612302
 20
378.2286339168205
 30
0.0
  0
VERTEX
  5
23A
  8
0
  6
CONTINUOUS
 62
     9
 10
-1477.473879532511
 20
378.1063844877
 30
0.0
  0
VERTEX
  5
23B
  8
0
  6
CONTINUOUS
 62
     9
 10
-1477.530785280403
 20
377.9737361272684
 30
0.0
  0
VERTEX
  5
23C
  8
0
  6
CONTINUOUS
 62
     9
 10
-1477.55
 20
377.835786437627
 30
0.0
  0
SEQEND
  5
362
  8
0
  6
CONTINUOUS
 62
     9
  0
LINE
  5
103
  8
0
  6
CONTINUOUS
 62
     9
 10
-1476.55
 20
378.5428932188135
 30
0.0
 11
-1466.35205512464
 21
378.5428932188135
 31
0.0
  0
LINE
  5
104
  8
0
  6
CONTINUOUS
 62
     9
 10
-1466.35205512464
 20
366.4571067811866
 30
0.0
 11
-1476.55
 21
366.4571067811866
 31
0.0
  0
LINE
  5
105
  8
0
  6
CONTINUOUS
 62
     9
 10
-1638.64794487536
 20
378.5428932188135
 30
0.0
 11
-1628.45
 21
378.5428932188135
 31
0.0
  0
POLYLINE
  5
106
  8
0
  6
CONTINUOUS
 62
     9
 66
     1
 10
0.0
 20
0.0
 30
0.0
  0
VERTEX
  5
23D
  8
0
  6
CONTINUOUS
 62
     9
 10
-1477.55
 20
367.1642135623732
 30
0.0
  0
VERTEX
  5
23E
  8
0
  6
CONTINUOUS
 62
     9
 10
-1477.530785280403
 20
367.0262638727317
 30
0.0
  0
VERTEX
  5
23F
  8
0
  6
CONTINUOUS
 62
     9
 10
-1477.473879532511
 20
366.8936155123001
 30
0.0
  0
VERTEX
  5
240
  8
0
  6
CONTINUOUS
 62
     9
 10
-1477.381469612302
 20
366.7713660831796
 30
0.0
  0
VERTEX
  5
241
  8
0
  6
CONTINUOUS
 62
     9
 10
-1477.257106781186
 20
366.6642135623732
 30
0.0
  0
VERTEX
  5
242
  8
0
  6
CONTINUOUS
 62
     9
 10
-1477.10557023302
 20
366.5762757611635
 30
0.0
  0
VERTEX
  5
243
  8
0
  6
CONTINUOUS
 62
     9
 10
-1476.932683432365
 20
366.5109320799349
 30
0.0
  0
VERTEX
  5
244
  8
0
  6
CONTINUOUS
 62
     9
 10
-1476.745090322016
 20
366.4706936397121
 30
0.0
  0
VERTEX
  5
245
  8
0
  6
CONTINUOUS
 62
     9
 10
-1476.55
 20
366.4571067811866
 30
0.0
  0
SEQEND
  5
363
  8
0
  6
CONTINUOUS
 62
     9
  0
LINE
  5
107
  8
0
  6
CONTINUOUS
 62
     9
 10
-1476.517048104035
 20
378.9571067811866
 30
0.0
 11
-1476.518099292819
 21
378.9530453699749
 31
0.0
  0
ARC
  5
108
  8
0
  6
CONTINUOUS
 62
     7
 10
-1475.55
 20
367.0046282870003
 30
0.0
 40
2.000000000000001
 50
180.0
 51
194.5110595001684
  0
ARC
  5
109
  8
0
  6
CONTINUOUS
 62
     7
 10
-1629.45
 20
367.0046282870003
 30
0.0
 40
2.000000000000001
 50
345.4889404998316
 51
0.0
  0
ARC
  5
10A
  8
0
  6
CONTINUOUS
 62
     7
 10
-1475.55
 20
377.9953717129997
 30
0.0
 40
2.000000000000001
 50
165.4889404998312
 51
180.0
  0
ARC
  5
10B
  8
0
  6
CONTINUOUS
 62
     7
 10
-1629.45
 20
377.9953717129997
 30
0.0
 40
2.000000000000001
 50
0.0
 51
14.51105950016881
  0
POLYLINE
  5
10C
  8
0
  6
CONTINUOUS
 62
     9
 66
     1
 10
0.0
 20
0.0
 30
0.0
  0
VERTEX
  5
246
  8
0
  6
CONTINUOUS
 62
     9
 10
-1638.639218007569
 20
357.2071067811866
 30
0.0
  0
VERTEX
  5
247
  8
0
  6
CONTINUOUS
 62
     9
 10
-1638.736383035597
 20
357.1999424778842
 30
0.0
  0
VERTEX
  5
248
  8
0
  6
CONTINUOUS
 62
     9
 10
-1638.829843251944
 20
357.1795706825177
 30
0.0
  0
VERTEX
  5
249
  8
0
  6
CONTINUOUS
 62
     9
 10
-1638.916035105936
 20
357.1467681525991
 30
0.0
  0
VERTEX
  5
24A
  8
0
  6
CONTINUOUS
 62
     9
 10
-1638.991672182759
 20
357.1027856179276
 30
0.0
  0
VERTEX
  5
24B
  8
0
  6
CONTINUOUS
 62
     9
 10
-1639.053870511388
 20
357.0493000914315
 30
0.0
  0
VERTEX
  5
24C
  8
0
  6
CONTINUOUS
 62
     9
 10
-1639.100258527698
 20
356.9883509262332
 30
0.0
  0
VERTEX
  5
24D
  8
0
  6
CONTINUOUS
 62
     9
 10
-1639.129067499996
 20
356.9222620570213
 30
0.0
  0
VERTEX
  5
24E
  8
0
  6
CONTINUOUS
 62
     9
 10
-1639.139198969101
 20
356.8535533905933
 30
0.0
  0
SEQEND
  5
364
  8
0
  6
CONTINUOUS
 62
     9
  0
POLYLINE
  5
10D
  8
0
  6
CONTINUOUS
 62
     9
 66
     1
 10
0.0
 20
0.0
 30
0.0
  0
VERTEX
  5
24F
  8
0
  6
CONTINUOUS
 62
     9
 10
-1465.860801030899
 20
356.8535533905933
 30
0.0
  0
VERTEX
  5
250
  8
0
  6
CONTINUOUS
 62
     9
 10
-1465.870932500004
 20
356.9222620570213
 30
0.0
  0
VERTEX
  5
251
  8
0
  6
CONTINUOUS
 62
     9
 10
-1465.899741472302
 20
356.9883509262332
 30
0.0
  0
VERTEX
  5
252
  8
0
  6
CONTINUOUS
 62
     9
 10
-1465.946129488612
 20
357.0493000914315
 30
0.0
  0
VERTEX
  5
253
  8
0
  6
CONTINUOUS
 62
     9
 10
-1466.008327817241
 20
357.1027856179276
 30
0.0
  0
VERTEX
  5
254
  8
0
  6
CONTINUOUS
 62
     9
 10
-1466.083964894064
 20
357.1467681525991
 30
0.0
  0
VERTEX
  5
255
  8
0
  6
CONTINUOUS
 62
     9
 10
-1466.170156748056
 20
357.1795706825177
 30
0.0
  0
VERTEX
  5
256
  8
0
  6
CONTINUOUS
 62
     9
 10
-1466.263616964403
 20
357.1999424778842
 30
0.0
  0
VERTEX
  5
257
  8
0
  6
CONTINUOUS
 62
     9
 10
-1466.360781992431
 20
357.2071067811866
 30
0.0
  0
SEQEND
  5
365
  8
0
  6
CONTINUOUS
 62
     9
  0
POLYLINE
  5
10E
  8
0
  6
CONTINUOUS
 62
     9
 66
     1
 10
0.0
 20
0.0
 30
0.0
  0
VERTEX
  5
258
  8
0
  6
CONTINUOUS
 62
     9
 10
-1466.360781992431
 20
387.7928932188136
 30
0.0
  0
VERTEX
  5
259
  8
0
  6
CONTINUOUS
 62
     9
 10
-1466.263616964403
 20
387.8000575221159
 30
0.0
  0
VERTEX
  5
25A
  8
0
  6
CONTINUOUS
 62
     9
 10
-1466.170156748056
 20
387.8204293174824
 30
0.0
  0
VERTEX
  5
25B
  8
0
  6
CONTINUOUS
 62
     9
 10
-1466.083964894064
 20
387.853231847401
 30
0.0
  0
VERTEX
  5
25C
  8
0
  6
CONTINUOUS
 62
     9
 10
-1466.008327817241
 20
387.8972143820725
 30
0.0
  0
VERTEX
  5
25D
  8
0
  6
CONTINUOUS
 62
     9
 10
-1465.946129488612
 20
387.9506999085686
 30
0.0
  0
VERTEX
  5
25E
  8
0
  6
CONTINUOUS
 62
     9
 10
-1465.899741472302
 20
388.0116490737669
 30
0.0
  0
VERTEX
  5
25F
  8
0
  6
CONTINUOUS
 62
     9
 10
-1465.870932500004
 20
388.0777379429788
 30
0.0
  0
VERTEX
  5
260
  8
0
  6
CONTINUOUS
 62
     9
 10
-1465.860801030899
 20
388.1464466094068
 30
0.0
  0
SEQEND
  5
366
  8
0
  6
CONTINUOUS
 62
     9
  0
POLYLINE
  5
10F
  8
0
  6
CONTINUOUS
 62
     9
 66
     1
 10
0.0
 20
0.0
 30
0.0
  0
VERTEX
  5
261
  8
0
  6
CONTINUOUS
 62
     9
 10
-1639.139198969101
 20
388.1464466094068
 30
0.0
  0
VERTEX
  5
262
  8
0
  6
CONTINUOUS
 62
     9
 10
-1639.129067499996
 20
388.0777379429788
 30
0.0
  0
VERTEX
  5
263
  8
0
  6
CONTINUOUS
 62
     9
 10
-1639.100258527698
 20
388.0116490737669
 30
0.0
  0
VERTEX
  5
264
  8
0
  6
CONTINUOUS
 62
     9
 10
-1639.053870511388
 20
387.9506999085686
 30
0.0
  0
VERTEX
  5
265
  8
0
  6
CONTINUOUS
 62
     9
 10
-1638.991672182759
 20
387.8972143820725
 30
0.0
  0
VERTEX
  5
266
  8
0
  6
CONTINUOUS
 62
     9
 10
-1638.916035105936
 20
387.853231847401
 30
0.0
  0
VERTEX
  5
267
  8
0
  6
CONTINUOUS
 62
     9
 10
-1638.829843251944
 20
387.8204293174824
 30
0.0
  0
VERTEX
  5
268
  8
0
  6
CONTINUOUS
 62
     9
 10
-1638.736383035597
 20
387.8000575221159
 30
0.0
  0
VERTEX
  5
269
  8
0
  6
CONTINUOUS
 62
     9
 10
-1638.639218007569
 20
387.7928932188136
 30
0.0
  0
SEQEND
  5
367
  8
0
  6
CONTINUOUS
 62
     9
  0
POLYLINE
  5
110
  8
0
  6
CONTINUOUS
 62
     9
 66
     1
 10
0.0
 20
0.0
 30
0.0
  0
VERTEX
  5
26A
  8
0
  6
CONTINUOUS
 62
     9
 10
-1475.45
 20
387.7928932188135
 30
0.0
  0
VERTEX
  5
26B
  8
0
  6
CONTINUOUS
 62
     9
 10
-1475.645090322016
 20
387.779306360288
 30
0.0
  0
VERTEX
  5
26C
  8
0
  6
CONTINUOUS
 62
     9
 10
-1475.832683432365
 20
387.7390679200651
 30
0.0
  0
VERTEX
  5
26D
  8
0
  6
CONTINUOUS
 62
     9
 10
-1476.005570233019
 20
387.6737242388367
 30
0.0
  0
VERTEX
  5
26E
  8
0
  6
CONTINUOUS
 62
     9
 10
-1476.157106781186
 20
387.585786437627
 30
0.0
  0
VERTEX
  5
26F
  8
0
  6
CONTINUOUS
 62
     9
 10
-1476.281469612302
 20
387.4786339168205
 30
0.0
  0
VERTEX
  5
270
  8
0
  6
CONTINUOUS
 62
     9
 10
-1476.373879532511
 20
387.3563844877
 30
0.0
  0
VERTEX
  5
271
  8
0
  6
CONTINUOUS
 62
     9
 10
-1476.430785280403
 20
387.2237361272684
 30
0.0
  0
VERTEX
  5
272
  8
0
  6
CONTINUOUS
 62
     9
 10
-1476.45
 20
387.085786437627
 30
0.0
  0
SEQEND
  5
368
  8
0
  6
CONTINUOUS
 62
     9
  0
POLYLINE
  5
111
  8
0
  6
CONTINUOUS
 62
     9
 66
     1
 10
0.0
 20
0.0
 30
0.0
  0
VERTEX
  5
273
  8
0
  6
CONTINUOUS
 62
     9
 10
-1628.55
 20
387.085786437627
 30
0.0
  0
VERTEX
  5
274
  8
0
  6
CONTINUOUS
 62
     9
 10
-1628.569214719597
 20
387.2237361272684
 30
0.0
  0
VERTEX
  5
275
  8
0
  6
CONTINUOUS
 62
     9
 10
-1628.626120467489
 20
387.3563844877
 30
0.0
  0
VERTEX
  5
276
  8
0
  6
CONTINUOUS
 62
     9
 10
-1628.718530387697
 20
387.4786339168205
 30
0.0
  0
VERTEX
  5
277
  8
0
  6
CONTINUOUS
 62
     9
 10
-1628.842893218814
 20
387.585786437627
 30
0.0
  0
VERTEX
  5
278
  8
0
  6
CONTINUOUS
 62
     9
 10
-1628.99442976698
 20
387.6737242388367
 30
0.0
  0
VERTEX
  5
279
  8
0
  6
CONTINUOUS
 62
     9
 10
-1629.167316567635
 20
387.7390679200651
 30
0.0
  0
VERTEX
  5
27A
  8
0
  6
CONTINUOUS
 62
     9
 10
-1629.354909677984
 20
387.779306360288
 30
0.0
  0
VERTEX
  5
27B
  8
0
  6
CONTINUOUS
 62
     9
 10
-1629.55
 20
387.7928932188135
 30
0.0
  0
SEQEND
  5
369
  8
0
  6
CONTINUOUS
 62
     9
  0
ARC
  5
112
  8
0
  6
CONTINUOUS
 62
     7
 10
-1627.55
 20
382.6273141435001
 30
0.0
 40
1.000000000000001
 50
180.0
 51
194.511059500169
  0
ARC
  5
113
  8
0
  6
CONTINUOUS
 62
     7
 10
-1627.55
 20
362.3726858565
 30
0.0
 40
0.9999999999999939
 50
165.488940499831
 51
180.0
  0
LINE
  5
114
  8
0
  6
CONTINUOUS
 62
     9
 10
-1466.360781992431
 20
357.2071067811866
 30
0.0
 11
-1475.45
 21
357.2071067811866
 31
0.0
  0
ARC
  5
115
  8
0
  6
CONTINUOUS
 62
     7
 10
-1477.45
 20
382.6273141435001
 30
0.0
 40
0.9999999999999939
 50
345.488940499831
 51
0.0
  0
LINE
  5
116
  8
0
  6
CONTINUOUS
 62
     9
 10
-1629.55
 20
357.2071067811866
 30
0.0
 11
-1638.639218007569
 21
357.2071067811866
 31
0.0
  0
ARC
  5
117
  8
0
  6
CONTINUOUS
 62
     7
 10
-1477.45
 20
362.3726858565
 30
0.0
 40
1.000000000000001
 50
0.0
 51
14.51105950016902
  0
POLYLINE
  5
118
  8
0
  6
CONTINUOUS
 62
     9
 66
     1
 10
0.0
 20
0.0
 30
0.0
  0
VERTEX
  5
27C
  8
0
  6
CONTINUOUS
 62
     9
 10
-1476.45
 20
357.9142135623731
 30
0.0
  0
VERTEX
  5
27D
  8
0
  6
CONTINUOUS
 62
     9
 10
-1476.430785280403
 20
357.7762638727316
 30
0.0
  0
VERTEX
  5
27E
  8
0
  6
CONTINUOUS
 62
     9
 10
-1476.373879532511
 20
357.6436155123
 30
0.0
  0
VERTEX
  5
27F
  8
0
  6
CONTINUOUS
 62
     9
 10
-1476.281469612302
 20
357.5213660831795
 30
0.0
  0
VERTEX
  5
280
  8
0
  6
CONTINUOUS
 62
     9
 10
-1476.157106781186
 20
357.4142135623731
 30
0.0
  0
VERTEX
  5
281
  8
0
  6
CONTINUOUS
 62
     9
 10
-1476.005570233019
 20
357.3262757611634
 30
0.0
  0
VERTEX
  5
282
  8
0
  6
CONTINUOUS
 62
     9
 10
-1475.832683432365
 20
357.2609320799349
 30
0.0
  0
VERTEX
  5
283
  8
0
  6
CONTINUOUS
 62
     9
 10
-1475.645090322016
 20
357.220693639712
 30
0.0
  0
VERTEX
  5
284
  8
0
  6
CONTINUOUS
 62
     9
 10
-1475.45
 20
357.2071067811866
 30
0.0
  0
SEQEND
  5
36A
  8
0
  6
CONTINUOUS
 62
     9
  0
POLYLINE
  5
119
  8
0
  6
CONTINUOUS
 62
     9
 66
     1
 10
0.0
 20
0.0
 30
0.0
  0
VERTEX
  5
285
  8
0
  6
CONTINUOUS
 62
     9
 10
-1629.55
 20
357.2071067811866
 30
0.0
  0
VERTEX
  5
286
  8
0
  6
CONTINUOUS
 62
     9
 10
-1629.354909677984
 20
357.220693639712
 30
0.0
  0
VERTEX
  5
287
  8
0
  6
CONTINUOUS
 62
     9
 10
-1629.167316567635
 20
357.2609320799349
 30
0.0
  0
VERTEX
  5
288
  8
0
  6
CONTINUOUS
 62
     9
 10
-1628.99442976698
 20
357.3262757611634
 30
0.0
  0
VERTEX
  5
289
  8
0
  6
CONTINUOUS
 62
     9
 10
-1628.842893218814
 20
357.4142135623731
 30
0.0
  0
VERTEX
  5
28A
  8
0
  6
CONTINUOUS
 62
     9
 10
-1628.718530387697
 20
357.5213660831795
 30
0.0
  0
VERTEX
  5
28B
  8
0
  6
CONTINUOUS
 62
     9
 10
-1628.626120467489
 20
357.6436155123
 30
0.0
  0
VERTEX
  5
28C
  8
0
  6
CONTINUOUS
 62
     9
 10
-1628.569214719597
 20
357.7762638727316
 30
0.0
  0
VERTEX
  5
28D
  8
0
  6
CONTINUOUS
 62
     9
 10
-1628.55
 20
357.9142135623731
 30
0.0
  0
SEQEND
  5
36B
  8
0
  6
CONTINUOUS
 62
     9
  0
LINE
  5
11A
  8
0
  6
CONTINUOUS
 62
     9
 10
-1638.639218007569
 20
387.7928932188135
 30
0.0
 11
-1629.55
 21
387.7928932188135
 31
0.0
  0
LINE
  5
11B
  8
0
  6
CONTINUOUS
 62
     9
 10
-1475.45
 20
387.7928932188135
 30
0.0
 11
-1466.360781992431
 21
387.7928932188135
 31
0.0
  0
ARC
  5
11C
  8
0
  6
CONTINUOUS
 62
     7
 10
-1475.45
 20
357.8388565331745
 30
0.0
 40
1.000000000000001
 50
180.0
 51
217.438571572333
  0
ARC
  5
11D
  8
0
  6
CONTINUOUS
 62
     7
 10
-1629.55
 20
357.8388565331745
 30
0.0
 40
1.000000000000001
 50
322.561428427667
 51
0.0
  0
ARC
  5
11E
  8
0
  6
CONTINUOUS
 62
     7
 10
-1629.55
 20
387.1611434668256
 30
0.0
 40
1.000000000000001
 50
0.0
 51
37.4385715723331
  0
ARC
  5
11F
  8
0
  6
CONTINUOUS
 62
     7
 10
-1475.45
 20
387.1611434668256
 30
0.0
 40
1.000000000000001
 50
142.5614284276669
 51
180.0
  0
LINE
  5
120
  8
0
  6
CONTINUOUS
 62
     7
 10
-1474.0
 20
353.9611434668256
 30
0.0
 11
-1474.126590012508
 21
354.4481290864786
 31
0.0
  0
LINE
  5
121
  8
0
  6
CONTINUOUS
 62
     7
 10
-1474.126590012508
 20
354.4481290864786
 30
0.0
 11
-1474.205994445431
 21
354.5690539695425
 31
0.0
  0
LINE
  5
122
  8
0
  6
CONTINUOUS
 62
     7
 10
-1631.0
 20
391.0388565331745
 30
0.0
 11
-1630.873409987492
 21
390.5518709135216
 31
0.0
  0
LINE
  5
123
  8
0
  6
CONTINUOUS
 62
     7
 10
-1630.873409987492
 20
390.5518709135216
 30
0.0
 11
-1630.794005554569
 21
390.4309460304576
 31
0.0
  0
POLYLINE
  5
124
  8
0
  6
CONTINUOUS
 62
     7
 66
     1
 10
0.0
 20
0.0
 30
0.0
  0
VERTEX
  5
28E
  8
0
  6
CONTINUOUS
 62
     7
 10
-1474.205994445431
 20
390.4309460304576
 30
0.0
  0
VERTEX
  5
28F
  8
0
  6
CONTINUOUS
 62
     7
 10
-1474.186179663903
 20
390.4577399695193
 30
0.0
  0
VERTEX
  5
290
  8
0
  6
CONTINUOUS
 62
     7
 10
-1474.1666710719
 20
390.4860790937005
 30
0.0
  0
VERTEX
  5
291
  8
0
  6
CONTINUOUS
 62
     7
 10
-1474.147552767383
 20
390.516043262872
 30
0.0
  0
VERTEX
  5
292
  8
0
  6
CONTINUOUS
 62
     7
 10
-1474.128877958045
 20
390.5477899511102
 30
0.0
  0
VERTEX
  5
293
  8
0
  6
CONTINUOUS
 62
     7
 10
-1474.115720297927
 20
390.5718989242829
 30
0.0
  0
VERTEX
  5
294
  8
0
  6
CONTINUOUS
 62
     7
 10
-1474.102880278862
 20
390.5970690209637
 30
0.0
  0
VERTEX
  5
295
  8
0
  6
CONTINUOUS
 62
     7
 10
-1474.090418325112
 20
390.6233313513779
 30
0.0
  0
VERTEX
  5
296
  8
0
  6
CONTINUOUS
 62
     7
 10
-1474.078280929055
 20
390.6509983706244
 30
0.0
  0
VERTEX
  5
297
  8
0
  6
CONTINUOUS
 62
     7
 10
-1474.06664392877
 20
390.6799046641191
 30
0.0
  0
VERTEX
  5
298
  8
0
  6
CONTINUOUS
 62
     7
 10
-1474.055470992192
 20
390.710428529788
 30
0.0
  0
VERTEX
  5
299
  8
0
  6
CONTINUOUS
 62
     7
 10
-1474.04496896073
 20
390.7423506916956
 30
0.0
  0
VERTEX
  5
29A
  8
0
  6
CONTINUOUS
 62
     7
 10
-1474.03998720226
 20
390.7589004148696
 30
0.0
  0
VERTEX
  5
29B
  8
0
  6
CONTINUOUS
 62
     7
 10
-1474.03521677612
 20
390.7758102807394
 30
0.0
  0
VERTEX
  5
29C
  8
0
  6
CONTINUOUS
 62
     7
 10
-1474.030376381273
 20
390.7942547384019
 30
0.0
  0
VERTEX
  5
29D
  8
0
  6
CONTINUOUS
 62
     7
 10
-1474.025812374823
 20
390.8131167029453
 30
0.0
  0
VERTEX
  5
29E
  8
0
  6
CONTINUOUS
 62
     7
 10
-1474.021508993035
 20
390.8325673294277
 30
0.0
  0
VERTEX
  5
29F
  8
0
  6
CONTINUOUS
 62
     7
 10
-1474.017534426675
 20
390.8524124470995
 30
0.0
  0
VERTEX
  5
2A0
  8
0
  6
CONTINUOUS
 62
     7
 10
-1474.013890178353
 20
390.8727625233184
 30
0.0
  0
VERTEX
  5
2A1
  8
0
  6
CONTINUOUS
 62
     7
 10
-1474.010622895124
 20
390.8934847878189
 30
0.0
  0
VERTEX
  5
2A2
  8
0
  6
CONTINUOUS
 62
     7
 10
-1474.00772345975
 20
390.9148111073462
 30
0.0
  0
VERTEX
  5
2A3
  8
0
  6
CONTINUOUS
 62
     7
 10
-1474.005250880052
 20
390.9365130509061
 30
0.0
  0
VERTEX
  5
2A4
  8
0
  6
CONTINUOUS
 62
     7
 10
-1474.004050090031
 20
390.9489467070599
 30
0.0
  0
VERTEX
  5
2A5
  8
0
  6
CONTINUOUS
 62
     7
 10
-1474.002998147085
 20
390.9614788536778
 30
0.0
  0
VERTEX
  5
2A6
  8
0
  6
CONTINUOUS
 62
     7
 10
-1474.00209473977
 20
390.9741646390061
 30
0.0
  0
VERTEX
  5
2A7
  8
0
  6
CONTINUOUS
 62
     7
 10
-1474.001349346599
 20
390.986925112413
 30
0.0
  0
VERTEX
  5
2A8
  8
0
  6
CONTINUOUS
 62
     7
 10
-1474.000763356697
 20
390.9997915420548
 30
0.0
  0
VERTEX
  5
2A9
  8
0
  6
CONTINUOUS
 62
     7
 10
-1474.000341757872
 20
391.0127146329763
 30
0.0
  0
VERTEX
  5
2AA
  8
0
  6
CONTINUOUS
 62
     7
 10
-1474.000085740621
 20
391.0257617291845
 30
0.0
  0
VERTEX
  5
2AB
  8
0
  6
CONTINUOUS
 62
     7
 10
-1474.0
 20
391.0388565331745
 30
0.0
  0
SEQEND
  5
36C
  8
0
  6
CONTINUOUS
 62
     7
  0
POLYLINE
  5
125
  8
0
  6
CONTINUOUS
 62
     7
 66
     1
 10
0.0
 20
0.0
 30
0.0
  0
VERTEX
  5
2AC
  8
0
  6
CONTINUOUS
 62
     7
 10
-1630.794005554569
 20
354.5690539695425
 30
0.0
  0
VERTEX
  5
2AD
  8
0
  6
CONTINUOUS
 62
     7
 10
-1630.813820336097
 20
354.5422600304807
 30
0.0
  0
VERTEX
  5
2AE
  8
0
  6
CONTINUOUS
 62
     7
 10
-1630.8333289281
 20
354.5139209062996
 30
0.0
  0
VERTEX
  5
2AF
  8
0
  6
CONTINUOUS
 62
     7
 10
-1630.852447232617
 20
354.483956737128
 30
0.0
  0
VERTEX
  5
2B0
  8
0
  6
CONTINUOUS
 62
     7
 10
-1630.871122041955
 20
354.4522100488899
 30
0.0
  0
VERTEX
  5
2B1
  8
0
  6
CONTINUOUS
 62
     7
 10
-1630.884279702073
 20
354.4281010757172
 30
0.0
  0
VERTEX
  5
2B2
  8
0
  6
CONTINUOUS
 62
     7
 10
-1630.897119721138
 20
354.4029309790363
 30
0.0
  0
VERTEX
  5
2B3
  8
0
  6
CONTINUOUS
 62
     7
 10
-1630.909581674888
 20
354.3766686486222
 30
0.0
  0
VERTEX
  5
2B4
  8
0
  6
CONTINUOUS
 62
     7
 10
-1630.921719070945
 20
354.3490016293757
 30
0.0
  0
VERTEX
  5
2B5
  8
0
  6
CONTINUOUS
 62
     7
 10
-1630.93335607123
 20
354.320095335881
 30
0.0
  0
VERTEX
  5
2B6
  8
0
  6
CONTINUOUS
 62
     7
 10
-1630.944529007808
 20
354.2895714702121
 30
0.0
  0
VERTEX
  5
2B7
  8
0
  6
CONTINUOUS
 62
     7
 10
-1630.95503103927
 20
354.2576493083045
 30
0.0
  0
VERTEX
  5
2B8
  8
0
  6
CONTINUOUS
 62
     7
 10
-1630.960012797739
 20
354.2410995851304
 30
0.0
  0
VERTEX
  5
2B9
  8
0
  6
CONTINUOUS
 62
     7
 10
-1630.96478322388
 20
354.2241897192607
 30
0.0
  0
VERTEX
  5
2BA
  8
0
  6
CONTINUOUS
 62
     7
 10
-1630.969623618727
 20
354.2057452615982
 30
0.0
  0
VERTEX
  5
2BB
  8
0
  6
CONTINUOUS
 62
     7
 10
-1630.974187625177
 20
354.1868832970548
 30
0.0
  0
VERTEX
  5
2BC
  8
0
  6
CONTINUOUS
 62
     7
 10
-1630.978491006965
 20
354.1674326705725
 30
0.0
  0
VERTEX
  5
2BD
  8
0
  6
CONTINUOUS
 62
     7
 10
-1630.982465573324
 20
354.1475875529006
 30
0.0
  0
VERTEX
  5
2BE
  8
0
  6
CONTINUOUS
 62
     7
 10
-1630.986109821647
 20
354.1272374766817
 30
0.0
  0
VERTEX
  5
2BF
  8
0
  6
CONTINUOUS
 62
     7
 10
-1630.989377104876
 20
354.1065152121811
 30
0.0
  0
VERTEX
  5
2C0
  8
0
  6
CONTINUOUS
 62
     7
 10
-1630.99227654025
 20
354.0851888926539
 30
0.0
  0
VERTEX
  5
2C1
  8
0
  6
CONTINUOUS
 62
     7
 10
-1630.994749119948
 20
354.0634869490941
 30
0.0
  0
VERTEX
  5
2C2
  8
0
  6
CONTINUOUS
 62
     7
 10
-1630.995949909969
 20
354.0510532929401
 30
0.0
  0
VERTEX
  5
2C3
  8
0
  6
CONTINUOUS
 62
     7
 10
-1630.997001852915
 20
354.0385211463223
 30
0.0
  0
VERTEX
  5
2C4
  8
0
  6
CONTINUOUS
 62
     7
 10
-1630.99790526023
 20
354.0258353609939
 30
0.0
  0
VERTEX
  5
2C5
  8
0
  6
CONTINUOUS
 62
     7
 10
-1630.998650653401
 20
354.0130748875872
 30
0.0
  0
VERTEX
  5
2C6
  8
0
  6
CONTINUOUS
 62
     7
 10
-1630.999236643303
 20
354.0002084579453
 30
0.0
  0
VERTEX
  5
2C7
  8
0
  6
CONTINUOUS
 62
     7
 10
-1630.999658242128
 20
353.9872853670238
 30
0.0
  0
VERTEX
  5
2C8
  8
0
  6
CONTINUOUS
 62
     7
 10
-1630.999914259379
 20
353.9742382708156
 30
0.0
  0
VERTEX
  5
2C9
  8
0
  6
CONTINUOUS
 62
     7
 10
-1631.0
 20
353.9611434668256
 30
0.0
  0
SEQEND
  5
36D
  8
0
  6
CONTINUOUS
 62
     7
  0
CIRCLE
  5
126
  8
0
  6
CONTINUOUS
 62
     7
 10
-1552.5
 20
372.5000000000001
 30
0.0
 40
13.5
  0
CIRCLE
  5
127
  8
0
  6
CONTINUOUS
 62
     7
 10
-1552.5
 20
372.5000000000001
 30
0.0
 40
5.749999999999999
  0
POLYLINE
  5
128
  8
0
  6
CONTINUOUS
 62
     7
 66
     1
 10
0.0
 20
0.0
 30
0.0
  0
VERTEX
  5
2CA
  8
0
  6
CONTINUOUS
 62
     7
 10
-1477.55
 20
371.2928932188135
 30
0.0
  0
VERTEX
  5
2CB
  8
0
  6
CONTINUOUS
 62
     7
 10
-1477.550602271897
 20
371.3030554669038
 30
0.0
  0
VERTEX
  5
2CC
  8
0
  6
CONTINUOUS
 62
     7
 10
-1477.552407636664
 20
371.3131932332483
 30
0.0
  0
VERTEX
  5
2CD
  8
0
  6
CONTINUOUS
 62
     7
 10
-1477.555411745018
 20
371.3232820950799
 30
0.0
  0
VERTEX
  5
2CE
  8
0
  6
CONTINUOUS
 62
     7
 10
-1477.559607359798
 20
371.3332977474469
 30
0.0
  0
VERTEX
  5
2CF
  8
0
  6
CONTINUOUS
 62
     7
 10
-1477.564984373403
 20
371.3432160617654
 30
0.0
  0
VERTEX
  5
2D0
  8
0
  6
CONTINUOUS
 62
     7
 10
-1477.571529832134
 20
371.3530131439475
 30
0.0
  0
VERTEX
  5
2D1
  8
0
  6
CONTINUOUS
 62
     7
 10
-1477.579227967409
 20
371.362665391964
 30
0.0
  0
VERTEX
  5
2D2
  8
0
  6
CONTINUOUS
 62
     7
 10
-1477.588060233744
 20
371.3721495527041
 30
0.0
  0
VERTEX
  5
2D3
  8
0
  6
CONTINUOUS
 62
     7
 10
-1477.598005353438
 20
371.3814427779938
 30
0.0
  0
VERTEX
  5
2D4
  8
0
  6
CONTINUOUS
 62
     7
 10
-1477.609039367826
 20
371.3905226796394
 30
0.0
  0
VERTEX
  5
2D5
  8
0
  6
CONTINUOUS
 62
     7
 10
-1477.621135695
 20
371.3993673833625
 30
0.0
  0
VERTEX
  5
2D6
  8
0
  6
CONTINUOUS
 62
     7
 10
-1477.634265193849
 20
371.4079555814972
 30
0.0
  0
VERTEX
  5
2D7
  8
0
  6
CONTINUOUS
 62
     7
 10
-1477.64839623426
 20
371.416266584322
 30
0.0
  0
VERTEX
  5
2D8
  8
0
  6
CONTINUOUS
 62
     7
 10
-1477.663494773319
 20
371.424280369903
 30
0.0
  0
VERTEX
  5
2D9
  8
0
  6
CONTINUOUS
 62
     7
 10
-1477.679524437322
 20
371.4319776323289
 30
0.0
  0
VERTEX
  5
2DA
  8
0
  6
CONTINUOUS
 62
     7
 10
-1477.696446609407
 20
371.4393398282202
 30
0.0
  0
VERTEX
  5
2DB
  8
0
  6
CONTINUOUS
 62
     7
 10
-1477.714220522576
 20
371.4463492214023
 30
0.0
  0
VERTEX
  5
2DC
  8
0
  6
CONTINUOUS
 62
     7
 10
-1477.732803357918
 20
371.452988925633
 30
0.0
  0
VERTEX
  5
2DD
  8
0
  6
CONTINUOUS
 62
     7
 10
-1477.752150347754
 20
371.4592429452833
 30
0.0
  0
VERTEX
  5
2DE
  8
0
  6
CONTINUOUS
 62
     7
 10
-1477.77221488349
 20
371.4650962138719
 30
0.0
  0
VERTEX
  5
2DF
  8
0
  6
CONTINUOUS
 62
     7
 10
-1477.792948627903
 20
371.4705346303623
 30
0.0
  0
VERTEX
  5
2E0
  8
0
  6
CONTINUOUS
 62
     7
 10
-1477.814301631587
 20
371.4755450931327
 30
0.0
  0
VERTEX
  5
2E1
  8
0
  6
CONTINUOUS
 62
     7
 10
-1477.836222453285
 20
371.4801155315394
 30
0.0
  0
VERTEX
  5
2E2
  8
0
  6
CONTINUOUS
 62
     7
 10
-1477.858658283817
 20
371.484234934996
 30
0.0
  0
VERTEX
  5
2E3
  8
0
  6
CONTINUOUS
 62
     7
 10
-1477.881555073304
 20
371.4878933794989
 30
0.0
  0
VERTEX
  5
2E4
  8
0
  6
CONTINUOUS
 62
     7
 10
-1477.904857661373
 20
371.4910820515346
 30
0.0
  0
VERTEX
  5
2E5
  8
0
  6
CONTINUOUS
 62
     7
 10
-1477.928509910048
 20
371.493793269313
 30
0.0
  0
VERTEX
  5
2E6
  8
0
  6
CONTINUOUS
 62
     7
 10
-1477.952454838992
 20
371.4960205012729
 30
0.0
  0
VERTEX
  5
2E7
  8
0
  6
CONTINUOUS
 62
     7
 10
-1477.976634762772
 20
371.4977583818176
 30
0.0
  0
VERTEX
  5
2E8
  8
0
  6
CONTINUOUS
 62
     7
 10
-1478.000991429835
 20
371.4990027242406
 30
0.0
  0
VERTEX
  5
2E9
  8
0
  6
CONTINUOUS
 62
     7
 10
-1478.025466162836
 20
371.4997505308119
 30
0.0
  0
VERTEX
  5
2EA
  8
0
  6
CONTINUOUS
 62
     7
 10
-1478.05
 20
371.5000000000001
 30
0.0
  0
SEQEND
  5
36E
  8
0
  6
CONTINUOUS
 62
     7
  0
POLYLINE
  5
129
  8
0
  6
CONTINUOUS
 62
     7
 66
     1
 10
0.0
 20
0.0
 30
0.0
  0
VERTEX
  5
2EB
  8
0
  6
CONTINUOUS
 62
     7
 10
-1627.45
 20
373.7071067811866
 30
0.0
  0
VERTEX
  5
2EC
  8
0
  6
CONTINUOUS
 62
     7
 10
-1627.449397728103
 20
373.6969445330963
 30
0.0
  0
VERTEX
  5
2ED
  8
0
  6
CONTINUOUS
 62
     7
 10
-1627.447592363336
 20
373.6868067667518
 30
0.0
  0
VERTEX
  5
2EE
  8
0
  6
CONTINUOUS
 62
     7
 10
-1627.444588254982
 20
373.6767179049202
 30
0.0
  0
VERTEX
  5
2EF
  8
0
  6
CONTINUOUS
 62
     7
 10
-1627.440392640202
 20
373.6667022525531
 30
0.0
  0
VERTEX
  5
2F0
  8
0
  6
CONTINUOUS
 62
     7
 10
-1627.435015626597
 20
373.6567839382347
 30
0.0
  0
VERTEX
  5
2F1
  8
0
  6
CONTINUOUS
 62
     7
 10
-1627.428470167866
 20
373.6469868560526
 30
0.0
  0
VERTEX
  5
2F2
  8
0
  6
CONTINUOUS
 62
     7
 10
-1627.420772032591
 20
373.6373346080361
 30
0.0
  0
VERTEX
  5
2F3
  8
0
  6
CONTINUOUS
 62
     7
 10
-1627.411939766256
 20
373.627850447296
 30
0.0
  0
VERTEX
  5
2F4
  8
0
  6
CONTINUOUS
 62
     7
 10
-1627.401994646562
 20
373.6185572220063
 30
0.0
  0
VERTEX
  5
2F5
  8
0
  6
CONTINUOUS
 62
     7
 10
-1627.390960632174
 20
373.6094773203607
 30
0.0
  0
VERTEX
  5
2F6
  8
0
  6
CONTINUOUS
 62
     7
 10
-1627.378864305
 20
373.6006326166375
 30
0.0
  0
VERTEX
  5
2F7
  8
0
  6
CONTINUOUS
 62
     7
 10
-1627.365734806151
 20
373.5920444185028
 30
0.0
  0
VERTEX
  5
2F8
  8
0
  6
CONTINUOUS
 62
     7
 10
-1627.35160376574
 20
373.5837334156781
 30
0.0
  0
VERTEX
  5
2F9
  8
0
  6
CONTINUOUS
 62
     7
 10
-1627.336505226681
 20
373.5757196300971
 30
0.0
  0
VERTEX
  5
2FA
  8
0
  6
CONTINUOUS
 62
     7
 10
-1627.320475562678
 20
373.5680223676712
 30
0.0
  0
VERTEX
  5
2FB
  8
0
  6
CONTINUOUS
 62
     7
 10
-1627.303553390593
 20
373.5606601717798
 30
0.0
  0
VERTEX
  5
2FC
  8
0
  6
CONTINUOUS
 62
     7
 10
-1627.285779477424
 20
373.5536507785977
 30
0.0
  0
VERTEX
  5
2FD
  8
0
  6
CONTINUOUS
 62
     7
 10
-1627.267196642082
 20
373.5470110743671
 30
0.0
  0
VERTEX
  5
2FE
  8
0
  6
CONTINUOUS
 62
     7
 10
-1627.247849652246
 20
373.5407570547168
 30
0.0
  0
VERTEX
  5
2FF
  8
0
  6
CONTINUOUS
 62
     7
 10
-1627.22778511651
 20
373.5349037861282
 30
0.0
  0
VERTEX
  5
300
  8
0
  6
CONTINUOUS
 62
     7
 10
-1627.207051372097
 20
373.5294653696378
 30
0.0
  0
VERTEX
  5
301
  8
0
  6
CONTINUOUS
 62
     7
 10
-1627.185698368413
 20
373.5244549068674
 30
0.0
  0
VERTEX
  5
302
  8
0
  6
CONTINUOUS
 62
     7
 10
-1627.163777546715
 20
373.5198844684607
 30
0.0
  0
VERTEX
  5
303
  8
0
  6
CONTINUOUS
 62
     7
 10
-1627.141341716183
 20
373.5157650650041
 30
0.0
  0
VERTEX
  5
304
  8
0
  6
CONTINUOUS
 62
     7
 10
-1627.118444926696
 20
373.5121066205012
 30
0.0
  0
VERTEX
  5
305
  8
0
  6
CONTINUOUS
 62
     7
 10
-1627.095142338627
 20
373.5089179484655
 30
0.0
  0
VERTEX
  5
306
  8
0
  6
CONTINUOUS
 62
     7
 10
-1627.071490089952
 20
373.5062067306871
 30
0.0
  0
VERTEX
  5
307
  8
0
  6
CONTINUOUS
 62
     7
 10
-1627.047545161008
 20
373.5039794987272
 30
0.0
  0
VERTEX
  5
308
  8
0
  6
CONTINUOUS
 62
     7
 10
-1627.023365237228
 20
373.5022416181824
 30
0.0
  0
VERTEX
  5
309
  8
0
  6
CONTINUOUS
 62
     7
 10
-1626.999008570165
 20
373.5009972757595
 30
0.0
  0
VERTEX
  5
30A
  8
0
  6
CONTINUOUS
 62
     7
 10
-1626.974533837164
 20
373.5002494691882
 30
0.0
  0
VERTEX
  5
30B
  8
0
  6
CONTINUOUS
 62
     7
 10
-1626.95
 20
373.5000000000001
 30
0.0
  0
SEQEND
  5
36F
  8
0
  6
CONTINUOUS
 62
     7
  0
POLYLINE
  5
12A
  8
0
  6
CONTINUOUS
 62
     7
 66
     1
 10
0.0
 20
0.0
 30
0.0
  0
VERTEX
  5
30C
  8
0
  6
CONTINUOUS
 62
     7
 10
-1626.95
 20
371.5000000000001
 30
0.0
  0
VERTEX
  5
30D
  8
0
  6
CONTINUOUS
 62
     7
 10
-1626.974533837164
 20
371.4997505308119
 30
0.0
  0
VERTEX
  5
30E
  8
0
  6
CONTINUOUS
 62
     7
 10
-1626.999008570165
 20
371.4990027242406
 30
0.0
  0
VERTEX
  5
30F
  8
0
  6
CONTINUOUS
 62
     7
 10
-1627.023365237228
 20
371.4977583818176
 30
0.0
  0
VERTEX
  5
310
  8
0
  6
CONTINUOUS
 62
     7
 10
-1627.047545161008
 20
371.4960205012729
 30
0.0
  0
VERTEX
  5
311
  8
0
  6
CONTINUOUS
 62
     7
 10
-1627.071490089952
 20
371.493793269313
 30
0.0
  0
VERTEX
  5
312
  8
0
  6
CONTINUOUS
 62
     7
 10
-1627.095142338627
 20
371.4910820515346
 30
0.0
  0
VERTEX
  5
313
  8
0
  6
CONTINUOUS
 62
     7
 10
-1627.118444926696
 20
371.4878933794989
 30
0.0
  0
VERTEX
  5
314
  8
0
  6
CONTINUOUS
 62
     7
 10
-1627.141341716183
 20
371.484234934996
 30
0.0
  0
VERTEX
  5
315
  8
0
  6
CONTINUOUS
 62
     7
 10
-1627.163777546715
 20
371.4801155315394
 30
0.0
  0
VERTEX
  5
316
  8
0
  6
CONTINUOUS
 62
     7
 10
-1627.185698368413
 20
371.4755450931327
 30
0.0
  0
VERTEX
  5
317
  8
0
  6
CONTINUOUS
 62
     7
 10
-1627.207051372097
 20
371.4705346303623
 30
0.0
  0
VERTEX
  5
318
  8
0
  6
CONTINUOUS
 62
     7
 10
-1627.22778511651
 20
371.4650962138719
 30
0.0
  0
VERTEX
  5
319
  8
0
  6
CONTINUOUS
 62
     7
 10
-1627.247849652246
 20
371.4592429452833
 30
0.0
  0
VERTEX
  5
31A
  8
0
  6
CONTINUOUS
 62
     7
 10
-1627.267196642082
 20
371.452988925633
 30
0.0
  0
VERTEX
  5
31B
  8
0
  6
CONTINUOUS
 62
     7
 10
-1627.285779477424
 20
371.4463492214023
 30
0.0
  0
VERTEX
  5
31C
  8
0
  6
CONTINUOUS
 62
     7
 10
-1627.303553390593
 20
371.4393398282202
 30
0.0
  0
VERTEX
  5
31D
  8
0
  6
CONTINUOUS
 62
     7
 10
-1627.320475562678
 20
371.4319776323289
 30
0.0
  0
VERTEX
  5
31E
  8
0
  6
CONTINUOUS
 62
     7
 10
-1627.336505226681
 20
371.424280369903
 30
0.0
  0
VERTEX
  5
31F
  8
0
  6
CONTINUOUS
 62
     7
 10
-1627.35160376574
 20
371.416266584322
 30
0.0
  0
VERTEX
  5
320
  8
0
  6
CONTINUOUS
 62
     7
 10
-1627.365734806151
 20
371.4079555814972
 30
0.0
  0
VERTEX
  5
321
  8
0
  6
CONTINUOUS
 62
     7
 10
-1627.378864305
 20
371.3993673833625
 30
0.0
  0
VERTEX
  5
322
  8
0
  6
CONTINUOUS
 62
     7
 10
-1627.390960632174
 20
371.3905226796394
 30
0.0
  0
VERTEX
  5
323
  8
0
  6
CONTINUOUS
 62
     7
 10
-1627.401994646562
 20
371.3814427779938
 30
0.0
  0
VERTEX
  5
324
  8
0
  6
CONTINUOUS
 62
     7
 10
-1627.411939766256
 20
371.3721495527041
 30
0.0
  0
VERTEX
  5
325
  8
0
  6
CONTINUOUS
 62
     7
 10
-1627.420772032591
 20
371.362665391964
 30
0.0
  0
VERTEX
  5
326
  8
0
  6
CONTINUOUS
 62
     7
 10
-1627.428470167866
 20
371.3530131439475
 30
0.0
  0
VERTEX
  5
327
  8
0
  6
CONTINUOUS
 62
     7
 10
-1627.435015626597
 20
371.3432160617654
 30
0.0
  0
VERTEX
  5
328
  8
0
  6
CONTINUOUS
 62
     7
 10
-1627.440392640202
 20
371.3332977474469
 30
0.0
  0
VERTEX
  5
329
  8
0
  6
CONTINUOUS
 62
     7
 10
-1627.444588254982
 20
371.3232820950799
 30
0.0
  0
VERTEX
  5
32A
  8
0
  6
CONTINUOUS
 62
     7
 10
-1627.447592363336
 20
371.3131932332483
 30
0.0
  0
VERTEX
  5
32B
  8
0
  6
CONTINUOUS
 62
     7
 10
-1627.449397728103
 20
371.3030554669038
 30
0.0
  0
VERTEX
  5
32C
  8
0
  6
CONTINUOUS
 62
     7
 10
-1627.45
 20
371.2928932188135
 30
0.0
  0
SEQEND
  5
370
  8
0
  6
CONTINUOUS
 62
     7
  0
POLYLINE
  5
12B
  8
0
  6
CONTINUOUS
 62
     7
 66
     1
 10
0.0
 20
0.0
 30
0.0
  0
VERTEX
  5
32D
  8
0
  6
CONTINUOUS
 62
     7
 10
-1478.05
 20
373.5000000000001
 30
0.0
  0
VERTEX
  5
32E
  8
0
  6
CONTINUOUS
 62
     7
 10
-1478.025466162836
 20
373.5002494691882
 30
0.0
  0
VERTEX
  5
32F
  8
0
  6
CONTINUOUS
 62
     7
 10
-1478.000991429835
 20
373.5009972757595
 30
0.0
  0
VERTEX
  5
330
  8
0
  6
CONTINUOUS
 62
     7
 10
-1477.976634762772
 20
373.5022416181824
 30
0.0
  0
VERTEX
  5
331
  8
0
  6
CONTINUOUS
 62
     7
 10
-1477.952454838992
 20
373.5039794987272
 30
0.0
  0
VERTEX
  5
332
  8
0
  6
CONTINUOUS
 62
     7
 10
-1477.928509910048
 20
373.5062067306871
 30
0.0
  0
VERTEX
  5
333
  8
0
  6
CONTINUOUS
 62
     7
 10
-1477.904857661373
 20
373.5089179484655
 30
0.0
  0
VERTEX
  5
334
  8
0
  6
CONTINUOUS
 62
     7
 10
-1477.881555073304
 20
373.5121066205012
 30
0.0
  0
VERTEX
  5
335
  8
0
  6
CONTINUOUS
 62
     7
 10
-1477.858658283817
 20
373.5157650650041
 30
0.0
  0
VERTEX
  5
336
  8
0
  6
CONTINUOUS
 62
     7
 10
-1477.836222453285
 20
373.5198844684607
 30
0.0
  0
VERTEX
  5
337
  8
0
  6
CONTINUOUS
 62
     7
 10
-1477.814301631587
 20
373.5244549068674
 30
0.0
  0
VERTEX
  5
338
  8
0
  6
CONTINUOUS
 62
     7
 10
-1477.792948627903
 20
373.5294653696378
 30
0.0
  0
VERTEX
  5
339
  8
0
  6
CONTINUOUS
 62
     7
 10
-1477.77221488349
 20
373.5349037861282
 30
0.0
  0
VERTEX
  5
33A
  8
0
  6
CONTINUOUS
 62
     7
 10
-1477.752150347754
 20
373.5407570547168
 30
0.0
  0
VERTEX
  5
33B
  8
0
  6
CONTINUOUS
 62
     7
 10
-1477.732803357918
 20
373.5470110743671
 30
0.0
  0
VERTEX
  5
33C
  8
0
  6
CONTINUOUS
 62
     7
 10
-1477.714220522576
 20
373.5536507785977
 30
0.0
  0
VERTEX
  5
33D
  8
0
  6
CONTINUOUS
 62
     7
 10
-1477.696446609407
 20
373.5606601717798
 30
0.0
  0
VERTEX
  5
33E
  8
0
  6
CONTINUOUS
 62
     7
 10
-1477.679524437322
 20
373.5680223676712
 30
0.0
  0
VERTEX
  5
33F
  8
0
  6
CONTINUOUS
 62
     7
 10
-1477.663494773319
 20
373.5757196300971
 30
0.0
  0
VERTEX
  5
340
  8
0
  6
CONTINUOUS
 62
     7
 10
-1477.64839623426
 20
373.5837334156781
 30
0.0
  0
VERTEX
  5
341
  8
0
  6
CONTINUOUS
 62
     7
 10
-1477.634265193849
 20
373.5920444185028
 30
0.0
  0
VERTEX
  5
342
  8
0
  6
CONTINUOUS
 62
     7
 10
-1477.621135695
 20
373.6006326166375
 30
0.0
  0
VERTEX
  5
343
  8
0
  6
CONTINUOUS
 62
     7
 10
-1477.609039367826
 20
373.6094773203607
 30
0.0
  0
VERTEX
  5
344
  8
0
  6
CONTINUOUS
 62
     7
 10
-1477.598005353438
 20
373.6185572220063
 30
0.0
  0
VERTEX
  5
345
  8
0
  6
CONTINUOUS
 62
     7
 10
-1477.588060233744
 20
373.627850447296
 30
0.0
  0
VERTEX
  5
346
  8
0
  6
CONTINUOUS
 62
     7
 10
-1477.579227967409
 20
373.6373346080361
 30
0.0
  0
VERTEX
  5
347
  8
0
  6
CONTINUOUS
 62
     7
 10
-1477.571529832134
 20
373.6469868560526
 30
0.0
  0
VERTEX
  5
348
  8
0
  6
CONTINUOUS
 62
     7
 10
-1477.564984373403
 20
373.6567839382347
 30
0.0
  0
VERTEX
  5
349
  8
0
  6
CONTINUOUS
 62
     7
 10
-1477.559607359798
 20
373.6667022525531
 30
0.0
  0
VERTEX
  5
34A
  8
0
  6
CONTINUOUS
 62
     7
 10
-1477.555411745018
 20
373.6767179049202
 30
0.0
  0
VERTEX
  5
34B
  8
0
  6
CONTINUOUS
 62
     7
 10
-1477.552407636664
 20
373.6868067667518
 30
0.0
  0
VERTEX
  5
34C
  8
0
  6
CONTINUOUS
 62
     7
 10
-1477.550602271897
 20
373.6969445330963
 30
0.0
  0
VERTEX
  5
34D
  8
0
  6
CONTINUOUS
 62
     7
 10
-1477.55
 20
373.7071067811866
 30
0.0
  0
SEQEND
  5
371
  8
0
  6
CONTINUOUS
 62
     7
  0
LINE
  5
12C
  8
0
  6
CONTINUOUS
 62
     7
 10
-1532.25
 20
367.5000000000001
 30
0.0
 11
-1532.25
 21
316.4189086931494
 31
0.0
  0
ARC
  5
12D
  8
0
  6
CONTINUOUS
 62
     7
 10
-1532.75
 20
367.5000000000001
 30
0.0
 40
0.5000000000000004
 50
0.0
 51
90.0
  0
LINE
  5
12E
  8
0
  6
CONTINUOUS
 62
     7
 10
-1533.5
 20
368.0000000000001
 30
0.0
 11
-1532.75
 21
368.0000000000001
 31
0.0
  0
ARC
  5
12F
  8
0
  6
CONTINUOUS
 62
     7
 10
-1533.5
 20
372.5000000000001
 30
0.0
 40
4.5
 50
192.8395884069042
 51
270.0
  0
LINE
  5
130
  8
0
  6
CONTINUOUS
 62
     7
 10
-1539.037087982164
 20
371.5000000000001
 30
0.0
 11
-1537.887482193696
 21
371.5000000000001
 31
0.0
  0
LINE
  5
131
  8
0
  6
CONTINUOUS
 62
     7
 10
-1537.887482193696
 20
373.5000000000001
 30
0.0
 11
-1539.037087982164
 21
373.5000000000001
 31
0.0
  0
ARC
  5
132
  8
0
  6
CONTINUOUS
 62
     7
 10
-1533.5
 20
372.5000000000001
 30
0.0
 40
4.5
 50
89.99999999999991
 51
167.1604115930958
  0
LINE
  5
133
  8
0
  6
CONTINUOUS
 62
     7
 10
-1532.75
 20
377.0000000000001
 30
0.0
 11
-1533.5
 21
377.0000000000001
 31
0.0
  0
ARC
  5
134
  8
0
  6
CONTINUOUS
 62
     7
 10
-1532.75
 20
377.5000000000001
 30
0.0
 40
0.5000000000000004
 50
270.0
 51
0.0
  0
LINE
  5
135
  8
0
  6
CONTINUOUS
 62
     7
 10
-1532.25
 20
428.5810913068507
 30
0.0
 11
-1532.25
 21
377.5000000000001
 31
0.0
  0
LINE
  5
136
  8
0
  6
CONTINUOUS
 62
     7
 10
-1565.962912017836
 20
373.5000000000001
 30
0.0
 11
-1567.112517806304
 21
373.5000000000001
 31
0.0
  0
LINE
  5
137
  8
0
  6
CONTINUOUS
 62
     7
 10
-1572.75
 20
428.5810913068507
 30
0.0
 11
-1572.75
 21
377.5000000000001
 31
0.0
  0
ARC
  5
138
  8
0
  6
CONTINUOUS
 62
     7
 10
-1572.25
 20
377.5000000000001
 30
0.0
 40
0.5000000000000004
 50
180.0
 51
270.0
  0
LINE
  5
139
  8
0
  6
CONTINUOUS
 62
     7
 10
-1572.25
 20
377.0000000000001
 30
0.0
 11
-1571.5
 21
377.0000000000001
 31
0.0
  0
ARC
  5
13A
  8
0
  6
CONTINUOUS
 62
     7
 10
-1571.5
 20
372.5000000000001
 30
0.0
 40
4.5
 50
12.83958840690423
 51
90.00000000000011
  0
LINE
  5
13B
  8
0
  6
CONTINUOUS
 62
     7
 10
-1567.112517806304
 20
371.5000000000001
 30
0.0
 11
-1565.962912017836
 21
371.5000000000001
 31
0.0
  0
ARC
  5
13C
  8
0
  6
CONTINUOUS
 62
     7
 10
-1571.5
 20
372.5000000000001
 30
0.0
 40
4.5
 50
270.0
 51
347.1604115930959
  0
LINE
  5
13D
  8
0
  6
CONTINUOUS
 62
     7
 10
-1571.5
 20
368.0000000000001
 30
0.0
 11
-1572.25
 21
368.0000000000001
 31
0.0
  0
ARC
  5
13E
  8
0
  6
CONTINUOUS
 62
     7
 10
-1572.25
 20
367.5000000000001
 30
0.0
 40
0.5000000000000004
 50
90.0
 51
180.0
  0
LINE
  5
13F
  8
0
  6
CONTINUOUS
 62
     7
 10
-1572.75
 20
367.5000000000001
 30
0.0
 11
-1572.75
 21
316.4189086931494
 31
0.0
  0
CIRCLE
  5
140
  8
0
  6
CONTINUOUS
 62
     7
 10
-1585.0
 20
372.5000000000001
 30
0.0
 40
2.999999999999996
  0
ARC
  5
141
  8
0
  6
CONTINUOUS
 62
     7
 10
-1585.0
 20
372.5000000000001
 30
0.0
 40
4.5
 50
12.83958840690415
 51
167.1604115930958
  0
LINE
  5
142
  8
0
  6
CONTINUOUS
 62
     7
 10
-1578.25
 20
373.5000000000001
 30
0.0
 11
-1580.612517806304
 21
373.5000000000001
 31
0.0
  0
LINE
  5
143
  8
0
  6
CONTINUOUS
 62
     7
 10
-1578.25
 20
373.5000000000001
 30
0.0
 11
-1578.25
 21
428.5810913068507
 31
0.0
  0
LINE
  5
144
  8
0
  6
CONTINUOUS
 62
     7
 10
-1578.25
 20
316.4189086931494
 30
0.0
 11
-1578.25
 21
371.5000000000001
 31
0.0
  0
LINE
  5
145
  8
0
  6
CONTINUOUS
 62
     7
 10
-1580.612517806304
 20
371.5000000000001
 30
0.0
 11
-1578.25
 21
371.5000000000001
 31
0.0
  0
ARC
  5
146
  8
0
  6
CONTINUOUS
 62
     7
 10
-1585.0
 20
372.5000000000001
 30
0.0
 40
4.500000000000003
 50
192.8395884069041
 51
347.1604115930958
  0
LINE
  5
147
  8
0
  6
CONTINUOUS
 62
     7
 10
-1626.95
 20
371.5000000000001
 30
0.0
 11
-1589.387482193696
 21
371.5000000000001
 31
0.0
  0
LINE
  5
148
  8
0
  6
CONTINUOUS
 62
     7
 10
-1589.387482193696
 20
373.5000000000001
 30
0.0
 11
-1626.95
 21
373.5000000000001
 31
0.0
  0
LINE
  5
149
  8
0
  6
CONTINUOUS
 62
     7
 10
-1526.75
 20
371.5000000000001
 30
0.0
 11
-1524.387482193696
 21
371.5000000000001
 31
0.0
  0
LINE
  5
14A
  8
0
  6
CONTINUOUS
 62
     7
 10
-1515.612517806304
 20
371.5000000000001
 30
0.0
 11
-1478.05
 21
371.5000000000001
 31
0.0
  0
LINE
  5
14B
  8
0
  6
CONTINUOUS
 62
     7
 10
-1478.05
 20
373.5000000000001
 30
0.0
 11
-1515.612517806304
 21
373.5000000000001
 31
0.0
  0
CIRCLE
  5
14C
  8
0
  6
CONTINUOUS
 62
     7
 10
-1520.0
 20
372.5000000000001
 30
0.0
 40
2.999999999999996
  0
ARC
  5
14D
  8
0
  6
CONTINUOUS
 62
     7
 10
-1520.0
 20
372.5000000000001
 30
0.0
 40
4.500000000000003
 50
192.8395884069041
 51
347.1604115930959
  0
LINE
  5
14E
  8
0
  6
CONTINUOUS
 62
     7
 10
-1526.75
 20
316.4189086931494
 30
0.0
 11
-1526.75
 21
371.5000000000001
 31
0.0
  0
LINE
  5
14F
  8
0
  6
CONTINUOUS
 62
     7
 10
-1526.75
 20
373.5000000000001
 30
0.0
 11
-1526.75
 21
428.5810913068507
 31
0.0
  0
LINE
  5
150
  8
0
  6
CONTINUOUS
 62
     7
 10
-1524.387482193696
 20
373.5000000000001
 30
0.0
 11
-1526.75
 21
373.5000000000001
 31
0.0
  0
ARC
  5
151
  8
0
  6
CONTINUOUS
 62
     7
 10
-1520.0
 20
372.5000000000001
 30
0.0
 40
4.5
 50
12.83958840690411
 51
167.1604115930959
  0
LINE
  5
152
  8
0
  6
CONTINUOUS
 62
     7
 10
-1553.5
 20
387.112517806304
 30
0.0
 11
-1553.5
 21
385.9629120178363
 31
0.0
  0
CIRCLE
  5
153
  8
0
  6
CONTINUOUS
 62
     7
 10
-1552.5
 20
391.5000000000001
 30
0.0
 40
2.999999999999999
  0
LINE
  5
154
  8
0
  6
CONTINUOUS
 62
     7
 10
-1551.5
 20
385.9629120178363
 30
0.0
 11
-1551.5
 21
387.112517806304
 31
0.0
  0
ARC
  5
155
  8
0
  6
CONTINUOUS
 62
     7
 10
-1552.5
 20
391.5000000000001
 30
0.0
 40
4.5
 50
282.8395884069041
 51
257.1604115930959
  0
LINE
  5
156
  8
0
  6
CONTINUOUS
 62
     7
 10
-1555.0
 20
359.2335008385784
 30
0.0
 11
-1555.353553390593
 21
359.1552355543299
 31
0.0
  0
LINE
  5
157
  8
0
  6
CONTINUOUS
 62
     7
 10
-1553.5
 20
359.0370879821638
 30
0.0
 11
-1553.5
 21
357.8874821936961
 31
0.0
  0
LINE
  5
158
  8
0
  6
CONTINUOUS
 62
     7
 10
-1555.353553390593
 20
357.1669741124122
 30
0.0
 11
-1555.000000000006
 21
357.2416573867702
 31
0.0
  0
LINE
  5
159
  8
0
  6
CONTINUOUS
 62
     9
 10
-1555.353553390593
 20
359.1552355543299
 30
0.0
 11
-1555.353553390593
 21
357.1669741124123
 31
0.0
  0
CIRCLE
  5
15A
  8
0
  6
CONTINUOUS
 62
     7
 10
-1552.5
 20
353.5000000000001
 30
0.0
 40
2.999999999999999
  0
ARC
  5
15B
  8
0
  6
CONTINUOUS
 62
     7
 10
-1552.5
 20
353.5000000000001
 30
0.0
 40
4.5
 50
102.8395884069041
 51
77.16041159309584
  0
LINE
  5
15C
  8
0
  6
CONTINUOUS
 62
     7
 10
-1551.5
 20
357.8874821936961
 30
0.0
 11
-1551.5
 21
359.0370879821638
 31
0.0
  0
LINE
  5
15D
  8
0
  6
CONTINUOUS
 62
     7
 10
-1550.0
 20
357.2416573867739
 30
0.0
 11
-1549.646446609407
 21
357.1669741124122
 31
0.0
  0
LINE
  5
15E
  8
0
  6
CONTINUOUS
 62
     7
 10
-1549.646446609407
 20
359.1552355543299
 30
0.0
 11
-1550.0
 21
359.2335008385784
 31
0.0
  0
LINE
  5
15F
  8
0
  6
CONTINUOUS
 62
     9
 10
-1549.646446609407
 20
357.1669741124122
 30
0.0
 11
-1549.646446609407
 21
359.1552355543299
 31
0.0
  0
LINE
  5
160
  8
0
  6
CONTINUOUS
 62
     9
 10
-1627.500299800226
 20
366.5000000000001
 30
0.0
 11
-1627.513801414361
 21
366.5034945354232
 31
0.0
  0
LINE
  5
161
  8
0
  6
CONTINUOUS
 62
     9
 10
-1477.499700199774
 20
378.5000000000001
 30
0.0
 11
-1477.486198585639
 21
378.4965054645768
 31
0.0
  0
LINE
  5
162
  8
0
  6
CONTINUOUS
 62
     9
 10
-1477.486198585639
 20
366.5034945354232
 30
0.0
 11
-1477.499700199774
 21
366.5000000000001
 31
0.0
  0
LINE
  5
163
  8
0
  6
CONTINUOUS
 62
     9
 10
-1627.513801414361
 20
378.4965054645768
 30
0.0
 11
-1627.500299800226
 21
378.5000000000001
 31
0.0
  0
LINE
  5
164
  8
0
  6
CONTINUOUS
 62
     7
 10
-1549.646446609407
 20
357.1669741124122
 30
0.0
 11
-1549.292893218813
 21
357.3359439638853
 31
0.0
  0
ARC
  5
165
  8
0
  6
CONTINUOUS
 62
     9
 10
-1552.5
 20
353.5000000000001
 30
0.0
 40
5.000000000000001
 50
129.8978882875301
 51
50.10211171246993
  0
LINE
  5
166
  8
0
  6
CONTINUOUS
 62
     7
 10
-1555.353553390593
 20
357.1669741124122
 30
0.0
 11
-1555.707106781186
 21
357.3359439638853
 31
0.0
  0
LINE
  5
167
  8
0
  6
CONTINUOUS
 62
     7
 10
-1555.353553390593
 20
359.1552355543299
 30
0.0
 11
-1555.707106781186
 21
358.8722905044881
 31
0.0
  0
LINE
  5
168
  8
0
  6
CONTINUOUS
 62
     7
 10
-1549.646446609407
 20
359.1552355543299
 30
0.0
 11
-1549.292893218813
 21
358.8722905044881
 31
0.0
  0
LINE
  5
169
  8
0
  6
CONTINUOUS
 62
     9
 10
-1555.707106781186
 20
357.3359439638853
 30
0.0
 11
-1555.707106781186
 21
358.872290504488
 31
0.0
  0
LINE
  5
16A
  8
0
  6
CONTINUOUS
 62
     9
 10
-1549.292893218813
 20
358.8722905044881
 30
0.0
 11
-1549.292893218813
 21
357.3359439638853
 31
0.0
  0
ENDBLK
  8
0
  0
BLOCK
  8
0
  2
D_FRAME_VIEW_7598
 70
     0
 10
0.0
 20
0.0
 30
0.0
  0
CIRCLE
  5
170
  8
0
  6
CONTINUOUS
 62
     7
 10
-1634.75
 20
236.6
 30
0.0
 40
2.099999999999991
  0
CIRCLE
  5
171
  8
0
  6
CONTINUOUS
 62
     7
 10
-1470.25
 20
236.6
 30
0.0
 40
2.099999999999991
  0
LINE
  5
172
  8
0
  6
CONTINUOUS
 62
     7
 10
-1643.5
 20
233.5
 30
0.0
 11
-1643.5
 21
284.5
 31
0.0
  0
ARC
  5
173
  8
0
  6
CONTINUOUS
 62
     7
 10
-1464.5
 20
233.5
 30
0.0
 40
3.000000000000003
 50
270.0
 51
0.0000000000000568
  0
LINE
  5
174
  8
0
  6
CONTINUOUS
 62
     7
 10
-1461.5
 20
284.5
 30
0.0
 11
-1461.5
 21
233.5
 31
0.0
  0
ARC
  5
175
  8
0
  6
CONTINUOUS
 62
     7
 10
-1640.5
 20
233.5
 30
0.0
 40
2.999999999999892
 50
180.0
 51
270.0
  0
CIRCLE
  5
176
  8
0
  6
CONTINUOUS
 62
     7
 10
-1605.5
 20
255.5
 30
0.0
 40
16.9999999999999
  0
ARC
  5
177
  8
0
  6
CONTINUOUS
 62
     7
 10
-1552.5
 20
280.25
 30
0.0
 40
0.7500000000000284
 50
180.0000000000006
 51
0.0
  0
LINE
  5
178
  8
0
  6
CONTINUOUS
 62
     7
 10
-1551.75
 20
284.4999999999999
 30
0.0
 11
-1551.75
 21
280.25
 31
0.0
  0
LINE
  5
179
  8
0
  6
CONTINUOUS
 62
     7
 10
-1553.25
 20
280.25
 30
0.0
 11
-1553.25
 21
284.4999999999999
 31
0.0
  0
CIRCLE
  5
17A
  8
0
  6
CONTINUOUS
 62
     7
 10
-1552.5
 20
255.5
 30
0.0
 40
16.9999999999999
  0
CIRCLE
  5
17B
  8
0
  6
CONTINUOUS
 62
     7
 10
-1499.5
 20
255.5
 30
0.0
 40
17.00000000000012
  0
ENDBLK
  8
0
  0
BLOCK
  8
0
  2
D_FRAME_VIEW_7065
 70
     0
 10
0.0
 20
0.0
 30
0.0
  0
CIRCLE
  5
180
  8
0
  6
CONTINUOUS
 62
     7
 10
-1371.2
 20
372.5000000000001
 30
0.0
 40
10.89999999999996
  0
CIRCLE
  5
181
  8
0
  6
CONTINUOUS
 62
     7
 10
-1369.2
 20
411.0
 30
0.0
 40
13.55000000000001
  0
CIRCLE
  5
182
  8
0
  6
CONTINUOUS
 62
     7
 10
-1369.2
 20
334.0000000000001
 30
0.0
 40
13.54999999999995
  0
ARC
  5
183
  8
0
  6
CONTINUOUS
 62
     7
 10
-1349.8
 20
369.0000000000001
 30
0.0
 40
0.4999999999999449
 50
180.0
 51
270.0
  0
LINE
  5
184
  8
0
  6
CONTINUOUS
 62
     7
 10
-1350.3
 20
376.0000000000001
 30
0.0
 11
-1350.3
 21
369.0000000000001
 31
0.0
  0
ARC
  5
185
  8
0
  6
CONTINUOUS
 62
     7
 10
-1343.5
 20
314.5000000000001
 30
0.0
 40
2.999999999999892
 50
269.9999999999999
 51
0.0
  0
ARC
  5
186
  8
0
  6
CONTINUOUS
 62
     7
 10
-1343.5
 20
430.5000000000001
 30
0.0
 40
3.000000000000003
 50
0.0
 51
90.0
  0
ARC
  5
187
  8
0
  6
CONTINUOUS
 62
     7
 10
-1341.0
 20
377.0000000000001
 30
0.0
 40
0.5000000000000004
 50
269.9999999999997
 51
0.0000000000003979
  0
ARC
  5
188
  8
0
  6
CONTINUOUS
 62
     7
 10
-1341.0
 20
368.0000000000001
 30
0.0
 40
0.4999999999999449
 50
0.0
 51
90.0000000000003
  0
ARC
  5
189
  8
0
  6
CONTINUOUS
 62
     7
 10
-1349.8
 20
376.0000000000001
 30
0.0
 40
0.5000000000000004
 50
90.0
 51
180.0
  0
ENDBLK
  8
0
  0
ENDSEC
  0
SECTION
  2
ENTITIES
  0
LINE
  5
6F
  8
0
  6
CONTINUOUS
 62
     7
 10
-1474.0
 20
325.5
 30
0.0
 11
-1474.0
 21
353.9611434668256
 31
0.0
  0
LINE
  5
70
  8
0
  6
CONTINUOUS
 62
     7
 10
-1474.205994445431
 20
390.4309460304576
 30
0.0
 11
-1476.244005554569
 21
387.7690539695426
 31
0.0
  0
LINE
  5
71
  8
0
  6
CONTINUOUS
 62
     7
 10
-1630.794005554569
 20
354.5690539695425
 30
0.0
 11
-1628.755994445431
 21
357.2309460304575
 31
0.0
  0
LINE
  5
72
  8
0
  6
CONTINUOUS
 62
     7
 10
-1340.5
 20
430.5000000000001
 30
0.0
 11
-1340.5
 21
314.5000000000001
 31
0.0
  0
LINE
  5
73
  8
0
  6
CONTINUOUS
 62
     7
 10
-1476.45
 20
357.8388565331745
 30
0.0
 11
-1476.45
 21
362.3726858565
 31
0.0
  0
LINE
  5
74
  8
0
  6
CONTINUOUS
 62
     7
 10
-1476.45
 20
382.6273141435001
 30
0.0
 11
-1476.45
 21
387.1611434668256
 31
0.0
  0
LINE
  5
75
  8
0
  6
CONTINUOUS
 62
     7
 10
-1341.0
 20
376.5000000000001
 30
0.0
 11
-1349.8
 21
376.5000000000001
 31
0.0
  0
LINE
  5
76
  8
0
  6
CONTINUOUS
 62
     7
 10
-1628.518099292819
 20
382.3767472677116
 30
0.0
 11
-1627.513801414361
 21
378.4965054645768
 31
0.0
  0
LINE
  5
77
  8
0
  6
CONTINUOUS
 62
     7
 10
-1476.481900707181
 20
362.6232527322885
 30
0.0
 11
-1477.486198585639
 21
366.5034945354232
 31
0.0
  0
LINE
  5
78
  8
0
  6
CONTINUOUS
 62
     7
 10
-1628.755994445431
 20
387.7690539695427
 30
0.0
 11
-1630.794005554569
 21
390.4309460304575
 31
0.0
  0
LINE
  5
79
  8
0
  6
CONTINUOUS
 62
     7
 10
-1394.5
 20
311.5000000000001
 30
0.0
 11
-1343.5
 21
311.5000000000001
 31
0.0
  0
LINE
  5
7A
  8
0
  6
CONTINUOUS
 62
     7
 10
-1474.0
 20
391.0388565331745
 30
0.0
 11
-1474.0
 21
419.5000000000001
 31
0.0
  0
LINE
  5
7B
  8
0
  6
CONTINUOUS
 62
     7
 10
-1628.55
 20
387.1611434668256
 30
0.0
 11
-1628.55
 21
382.6273141435001
 31
0.0
  0
LINE
  5
7C
  8
0
  6
CONTINUOUS
 62
     7
 10
-1394.5
 20
433.5000000000001
 30
0.0
 11
-1394.5
 21
311.5000000000001
 31
0.0
  0
LINE
  5
7D
  8
0
  6
CONTINUOUS
 62
     7
 10
-1631.0
 20
419.5000000000001
 30
0.0
 11
-1631.0
 21
391.0388565331745
 31
0.0
  0
LINE
  5
7E
  8
0
  6
CONTINUOUS
 62
     7
 10
-1349.8
 20
368.5000000000001
 30
0.0
 11
-1341.0
 21
368.5000000000001
 31
0.0
  0
LINE
  5
7F
  8
0
  6
CONTINUOUS
 62
     7
 10
-1627.513801414361
 20
366.5034945354232
 30
0.0
 11
-1628.518099292819
 21
362.6232527322885
 31
0.0
  0
LINE
  5
80
  8
0
  6
CONTINUOUS
 62
     7
 10
-1477.486198585639
 20
378.4965054645768
 30
0.0
 11
-1476.481900707181
 21
382.3767472677116
 31
0.0
  0
LINE
  5
81
  8
0
  6
CONTINUOUS
 62
     7
 10
-1631.0
 20
353.9611434668256
 30
0.0
 11
-1631.0
 21
325.4999999999999
 31
0.0
  0
LINE
  5
82
  8
0
  6
CONTINUOUS
 62
     7
 10
-1627.45
 20
377.9953717129997
 30
0.0
 11
-1627.45
 21
367.0046282870003
 31
0.0
  0
LINE
  5
83
  8
0
  6
CONTINUOUS
 62
     7
 10
-1477.55
 20
367.0046282870003
 30
0.0
 11
-1477.55
 21
377.9953717129997
 31
0.0
  0
LINE
  5
84
  8
0
  6
CONTINUOUS
 62
     7
 10
-1461.5
 20
426.5000000000001
 30
0.0
 11
-1461.5
 21
318.5000000000001
 31
0.0
  0
LINE
  5
85
  8
0
  6
CONTINUOUS
 62
     7
 10
-1628.55
 20
362.3726858565
 30
0.0
 11
-1628.55
 21
357.8388565331745
 31
0.0
  0
LINE
  5
86
  8
0
  6
CONTINUOUS
 62
     7
 10
-1643.5
 20
426.5000000000001
 30
0.0
 11
-1643.5
 21
318.5000000000001
 31
0.0
  0
LINE
  5
87
  8
0
  6
CONTINUOUS
 62
     7
 10
-1636.5
 20
433.5000000000008
 30
0.0
 11
-1468.5
 21
433.4999999999993
 31
0.0
  0
LINE
  5
88
  8
0
  6
CONTINUOUS
 62
     7
 10
-1464.5
 20
230.5
 30
0.0
 11
-1640.5
 21
230.5
 31
0.0
  0
LINE
  5
89
  8
0
  6
CONTINUOUS
 62
     7
 10
-1476.244005554569
 20
357.2309460304576
 30
0.0
 11
-1474.205994445431
 21
354.5690539695426
 31
0.0
  0
LINE
  5
8A
  8
0
  6
CONTINUOUS
 62
     7
 10
-1394.5
 20
433.5000000000001
 30
0.0
 11
-1343.5
 21
433.5000000000001
 31
0.0
  0
LINE
  5
8B
  8
0
  6
CONTINUOUS
 62
     7
 10
-1643.5
 20
284.4999999999999
 30
0.0
 11
-1461.5
 21
284.4999999999999
 31
0.0
  0
LINE
  5
8C
  8
0
  6
CONTINUOUS
 62
     7
 10
-1480.0
 20
419.5000000000001
 30
0.0
 11
-1473.0
 21
419.5000000000001
 31
0.0
  0
LINE
  5
8D
  8
0
  6
CONTINUOUS
 62
     7
 10
-1625.0
 20
325.5
 30
0.0
 11
-1632.0
 21
325.5
 31
0.0
  0
LINE
  5
8E
  8
0
  6
CONTINUOUS
 62
     7
 10
-1625.0
 20
419.5000000000001
 30
0.0
 11
-1632.0
 21
419.5000000000001
 31
0.0
  0
LINE
  5
8F
  8
0
  6
CONTINUOUS
 62
     7
 10
-1576.75
 20
318.5000000000001
 30
0.0
 11
-1576.75
 21
315.5305440372677
 31
0.0
  0
LINE
  5
90
  8
0
  6
CONTINUOUS
 62
     7
 10
-1530.549999999975
 20
429.3481771887897
 30
0.0
 11
-1530.550000000007
 21
316.3481771887908
 31
0.0
  0
LINE
  5
91
  8
0
  6
CONTINUOUS
 62
     7
 10
-1528.25
 20
315.5305440372677
 30
0.0
 11
-1528.25
 21
318.5000000000001
 31
0.0
  0
LINE
  5
92
  8
0
  6
CONTINUOUS
 62
     7
 10
-1530.75
 20
315.5305440372677
 30
0.0
 11
-1530.75
 21
318.5000000000001
 31
0.0
  0
LINE
  5
93
  8
0
  6
CONTINUOUS
 62
     7
 10
-1528.25
 20
429.4694559627324
 30
0.0
 11
-1528.25
 21
426.5000000000001
 31
0.0
  0
LINE
  5
94
  8
0
  6
CONTINUOUS
 62
     7
 10
-1574.25
 20
315.5305440372677
 30
0.0
 11
-1574.25
 21
318.5000000000001
 31
0.0
  0
LINE
  5
95
  8
0
  6
CONTINUOUS
 62
     7
 10
-1530.75
 20
429.4694559627324
 30
0.0
 11
-1530.75
 21
426.5000000000001
 31
0.0
  0
LINE
  5
96
  8
0
  6
CONTINUOUS
 62
     7
 10
-1576.75
 20
429.4694559627324
 30
0.0
 11
-1576.75
 21
426.5000000000001
 31
0.0
  0
LINE
  5
97
  8
0
  6
CONTINUOUS
 62
     7
 10
-1576.549999999975
 20
429.3481771887897
 30
0.0
 11
-1576.550000000007
 21
316.3481771887908
 31
0.0
  0
LINE
  5
98
  8
0
  6
CONTINUOUS
 62
     7
 10
-1574.549999999954
 20
427.3481771887891
 30
0.0
 11
-1574.550000000006
 21
318.3481771887902
 31
0.0
  0
LINE
  5
99
  8
0
  6
CONTINUOUS
 62
     7
 10
-1480.0
 20
325.5
 30
0.0
 11
-1473.0
 21
325.5
 31
0.0
  0
LINE
  5
9A
  8
0
  6
CONTINUOUS
 62
     7
 10
-1636.5
 20
311.4999999999993
 30
0.0
 11
-1468.5
 21
311.5000000000009
 31
0.0
  0
LINE
  5
9B
  8
0
  6
CONTINUOUS
 62
     7
 10
-1574.25
 20
426.5000000000001
 30
0.0
 11
-1574.25
 21
429.4694559627324
 31
0.0
  0
LINE
  5
9C
  8
0
  6
CONTINUOUS
 62
     7
 10
-1528.549999999977
 20
427.3481771887891
 30
0.0
 11
-1528.550000000006
 21
318.3481771887902
 31
0.0
  0
CIRCLE
  5
9D
  8
0
  6
CONTINUOUS
 62
     7
 10
-1571.5
 20
372.5000000000001
 30
0.0
 40
2.999999999999999
  0
ARC
  5
9E
  8
0
  6
CONTINUOUS
 62
     7
 10
-1533.5
 20
372.5000000000001
 30
0.0
 40
2.999999999999997
 50
10.4753138419369
 51
349.5246861580296
  0
INSERT
  5
16B
  8
0
  6
CONTINUOUS
 62
     7
  2
D_FRAME_VIEW_5313
 10
0.0
 20
0.0
 30
0.0
  0
TEXT
  5
16C
  8
0
  6
CONTINUOUS
 62
     7
 10
-1508.119751156684
 20
184.1568400650244
 30
0.0
 40
6.0
  1
CSW-3NY-O
  0
INSERT
  5
17C
  8
0
  6
CONTINUOUS
 62
     7
  2
D_FRAME_VIEW_7598
 10
0.0
 20
0.0
 30
0.0
  0
INSERT
  5
18A
  8
0
  6
CONTINUOUS
 62
     7
  2
D_FRAME_VIEW_7065
 10
0.0
 20
0.0
 30
0.0
  0
ENDSEC
  0
EOF
