  0
SECTION
  2
HEADER
  9
$ACADVER
  1
AC1006
  9
$DWGCODEPAGE
  3
ansi_932
  9
$INSBASE
 10
0.0
 20
0.0
 30
0.0
  9
$EXTMIN
 10
-1535.5
 20
99.84090909090911
  9
$EXTMAX
 10
-1182.5
 20
395.4923893961835
  9
$LIMMIN
 10
0.0
 20
0.0
  9
$LIMMAX
 10
12.0
 20
9.0
  9
$ORTHOMODE
 70
     0
  9
$REGENMODE
 70
     1
  9
$FILLMODE
 70
     1
  9
$QTEXTMODE
 70
     0
  9
$MIRRTEXT
 70
     1
  9
$DRAGMODE
 70
     2
  9
$LTSCALE
 40
1.0
  9
$OSMODE
 70
    37
  9
$ATTMODE
 70
     1
  9
$TEXTSIZE
 40
0.2
  9
$TRACEWID
 40
0.05
  9
$TEXTSTYLE
  7
STANDARD
  9
$CLAYER
  8
0
  9
$CELTYPE
  6
BYLAYER
  9
$CECOLOR
 62
   256
  9
$DIMSCALE
 40
1.0
  9
$DIMASZ
 40
3.0
  9
$DIMEXO
 40
0.0625
  9
$DIMDLI
 40
0.38
  9
$DIMRND
 40
0.0
  9
$DIMDLE
 40
0.0
  9
$DIMEXE
 40
1.5
  9
$DIMTP
 40
0.0
  9
$DIMTM
 40
0.0
  9
$DIMTXT
 40
3.0
  9
$DIMCEN
 40
0.09
  9
$DIMTSZ
 40
0.0
  9
$DIMTOL
 70
     0
  9
$DIMLIM
 70
     0
  9
$DIMTIH
 70
     1
  9
$DIMTOH
 70
     1
  9
$DIMSE1
 70
     0
  9
$DIMSE2
 70
     0
  9
$DIMTAD
 70
     1
  9
$DIMZIN
 70
     0
  9
$DIMBLK
  1

  9
$DIMASO
 70
     1
  9
$DIMSHO
 70
     1
  9
$DIMPOST
  1

  9
$DIMAPOST
  1

  9
$DIMALT
 70
     0
  9
$DIMALTD
 70
     2
  9
$DIMALTF
 40
25.4
  9
$DIMLFAC
 40
1.0
  9
$DIMTOFL
 70
     0
  9
$DIMTVP
 40
0.0
  9
$DIMTIX
 70
     0
  9
$DIMSOXD
 70
     0
  9
$DIMSAH
 70
     0
  9
$DIMBLK1
  1

  9
$DIMBLK2
  1

  9
$LUNITS
 70
     2
  9
$LUPREC
 70
     4
  9
$SKETCHINC
 40
0.1
  9
$FILLETRAD
 40
0.5
  9
$AUNITS
 70
     0
  9
$AUPREC
 70
     0
  9
$MENU
  1
.
  9
$ELEVATION
 40
0.0
  9
$THICKNESS
 40
0.0
  9
$LIMCHECK
 70
     0
  9
$CHAMFERA
 40
0.0
  9
$CHAMFERB
 40
0.0
  9
$SKPOLY
 70
     0
  9
$TDCREATE
 40
2459233.372716528
  9
$TDUPDATE
 40
2459233.372716702
  9
$TDINDWG
 40
0.0000000116
  9
$TDUSRTIMER
 40
0.0000000116
  9
$USRTIMER
 70
     1
  9
$ANGBASE
 50
0.0
  9
$ANGDIR
 70
     0
  9
$PDMODE
 70
     0
  9
$PDSIZE
 40
0.0
  9
$PLINEWID
 40
0.0
  9
$COORDS
 70
     1
  9
$SPLFRAME
 70
     0
  9
$SPLINETYPE
 70
     6
  9
$SPLINESEGS
 70
     8
  9
$ATTDIA
 70
     0
  9
$ATTREQ
 70
     1
  9
$HANDLING
 70
     1
  9
$HANDSEED
  5
426
  9
$SURFTAB1
 70
     6
  9
$SURFTAB2
 70
     6
  9
$SURFTYPE
 70
     6
  9
$SURFU
 70
     6
  9
$SURFV
 70
     6
  9
$UCSNAME
  2

  9
$UCSORG
 10
0.0
 20
0.0
 30
0.0
  9
$UCSXDIR
 10
1.0
 20
0.0
 30
0.0
  9
$UCSYDIR
 10
0.0
 20
1.0
 30
0.0
  9
$USERI1
 70
     0
  9
$USERI2
 70
     0
  9
$USERI3
 70
     0
  9
$USERI4
 70
     0
  9
$USERI5
 70
     0
  9
$USERR1
 40
0.0
  9
$USERR2
 40
0.0
  9
$USERR3
 40
0.0
  9
$USERR4
 40
0.0
  9
$USERR5
 40
0.0
  9
$WORLDVIEW
 70
     1
  0
ENDSEC
  0
SECTION
  2
TABLES
  0
TABLE
  2
VPORT
 70
     1
  0
VPORT
  2
*ACTIVE
 70
     0
 10
0.0
 20
0.0
 11
1.0
 21
1.0
 12
-1359.0
 22
247.6666492435463
 13
0.0
 23
0.0
 14
0.5
 24
0.5
 15
0.5
 25
0.5
 16
0.0
 26
0.0
 36
1.0
 17
0.0
 27
0.0
 37
0.0
 40
295.6514803052744
 41
1.6
 42
50.0
 43
0.0
 44
0.0
 50
0.0
 51
0.0
 71
     0
 72
   100
 73
     1
 74
     3
 75
     0
 76
     0
 77
     0
 78
     0
  0
ENDTAB
  0
TABLE
  2
LTYPE
 70
     1
  0
LTYPE
  2
CONTINUOUS
 70
     0
  3
Solid line
 72
    65
 73
     0
 40
0.0
  0
ENDTAB
  0
TABLE
  2
LAYER
 70
     2
  0
LAYER
  2
0
 70
     0
 62
     7
  6
CONTINUOUS
  0
LAYER
  2
1
 70
     0
 62
     7
  6
CONTINUOUS
  0
ENDTAB
  0
TABLE
  2
STYLE
 70
     2
  0
STYLE
  2
STANDARD
 70
     0
 40
0.0
 41
1.0
 50
0.0
 71
     0
 42
0.2
  3
txt
  4

  0
STYLE
  2
ＭＳ_ゴシック
 70
     0
 40
0.0
 41
1.0
 50
0.0
 71
     0
 42
0.2
  3
ＭＳ ゴシック.shx
  4

  0
ENDTAB
  0
TABLE
  2
VIEW
 70
     0
  0
ENDTAB
  0
TABLE
  2
UCS
 70
     0
  0
ENDTAB
  0
ENDSEC
  0
SECTION
  2
BLOCKS
  0
BLOCK
  8
0
  2
D_FRAME_VIEW_1435
 70
     0
 10
0.0
 20
0.0
 30
0.0
  0
ARC
  5
72
  8
1
  6
CONTINUOUS
 62
     7
 10
-1366.5
 20
280.0
 30
0.0
 40
2.2
 50
76.86344121305513
 51
103.1365587869449
  0
LINE
  5
73
  8
1
  6
CONTINUOUS
 62
     7
 10
-1367.0
 20
281.0
 30
0.0
 11
-1367.0
 21
282.1424285285628
 31
0.0
  0
POLYLINE
  5
74
  8
1
  6
CONTINUOUS
 62
     7
 66
     1
 10
0.0
 20
0.0
 30
0.0
  0
VERTEX
  5
1F4
  8
1
  6
CONTINUOUS
 62
     7
 10
-1367.5
 20
280.5
 30
0.0
  0
VERTEX
  5
1F5
  8
1
  6
CONTINUOUS
 62
     7
 10
-1367.476369590649
 20
280.5005705136567
 30
0.0
  0
VERTEX
  5
1F6
  8
1
  6
CONTINUOUS
 62
     7
 10
-1367.452698400557
 20
280.5022754147434
 30
0.0
  0
VERTEX
  5
1F7
  8
1
  6
CONTINUOUS
 62
     7
 10
-1367.429067260467
 20
280.5051047434353
 30
0.0
  0
VERTEX
  5
1F8
  8
1
  6
CONTINUOUS
 62
     7
 10
-1367.405557001116
 20
280.5090485399075
 30
0.0
  0
VERTEX
  5
1F9
  8
1
  6
CONTINUOUS
 62
     7
 10
-1367.382248453247
 20
280.5140968443353
 30
0.0
  0
VERTEX
  5
1FA
  8
1
  6
CONTINUOUS
 62
     7
 10
-1367.359222447599
 20
280.5202396968938
 30
0.0
  0
VERTEX
  5
1FB
  8
1
  6
CONTINUOUS
 62
     7
 10
-1367.336559814912
 20
280.5274671377582
 30
0.0
  0
VERTEX
  5
1FC
  8
1
  6
CONTINUOUS
 62
     7
 10
-1367.314239193448
 20
280.5358015209601
 30
0.0
  0
VERTEX
  5
1FD
  8
1
  6
CONTINUOUS
 62
     7
 10
-1367.292262076009
 20
280.5452367317063
 30
0.0
  0
VERTEX
  5
1FE
  8
1
  6
CONTINUOUS
 62
     7
 10
-1367.270704095371
 20
280.555733762244
 30
0.0
  0
VERTEX
  5
1FF
  8
1
  6
CONTINUOUS
 62
     7
 10
-1367.249640884312
 20
280.5672536048204
 30
0.0
  0
VERTEX
  5
200
  8
1
  6
CONTINUOUS
 62
     7
 10
-1367.229148075606
 20
280.5797572516827
 30
0.0
  0
VERTEX
  5
201
  8
1
  6
CONTINUOUS
 62
     7
 10
-1367.20930130203
 20
280.593205695078
 30
0.0
  0
VERTEX
  5
202
  8
1
  6
CONTINUOUS
 62
     7
 10
-1367.190176196358
 20
280.6075599272536
 30
0.0
  0
VERTEX
  5
203
  8
1
  6
CONTINUOUS
 62
     7
 10
-1367.172002878676
 20
280.6226333420075
 30
0.0
  0
VERTEX
  5
204
  8
1
  6
CONTINUOUS
 62
     7
 10
-1367.154515439798
 20
280.6386052164569
 30
0.0
  0
VERTEX
  5
205
  8
1
  6
CONTINUOUS
 62
     7
 10
-1367.137769289395
 20
280.6554139253929
 30
0.0
  0
VERTEX
  5
206
  8
1
  6
CONTINUOUS
 62
     7
 10
-1367.121819837137
 20
280.6729978436061
 30
0.0
  0
VERTEX
  5
207
  8
1
  6
CONTINUOUS
 62
     7
 10
-1367.106722492692
 20
280.6912953458875
 30
0.0
  0
VERTEX
  5
208
  8
1
  6
CONTINUOUS
 62
     7
 10
-1367.092532665731
 20
280.7102448070278
 30
0.0
  0
VERTEX
  5
209
  8
1
  6
CONTINUOUS
 62
     7
 10
-1367.079305765923
 20
280.7297846018179
 30
0.0
  0
VERTEX
  5
20A
  8
1
  6
CONTINUOUS
 62
     7
 10
-1367.06711082356
 20
280.7498092443034
 30
0.0
  0
VERTEX
  5
20B
  8
1
  6
CONTINUOUS
 62
     7
 10
-1367.055851870354
 20
280.7704346014845
 30
0.0
  0
VERTEX
  5
20C
  8
1
  6
CONTINUOUS
 62
     7
 10
-1367.045558108258
 20
280.7915865543187
 30
0.0
  0
VERTEX
  5
20D
  8
1
  6
CONTINUOUS
 62
     7
 10
-1367.036258739224
 20
280.8131909837633
 30
0.0
  0
VERTEX
  5
20E
  8
1
  6
CONTINUOUS
 62
     7
 10
-1367.027982965205
 20
280.8351737707757
 30
0.0
  0
VERTEX
  5
20F
  8
1
  6
CONTINUOUS
 62
     7
 10
-1367.020759988153
 20
280.8574607963131
 30
0.0
  0
VERTEX
  5
210
  8
1
  6
CONTINUOUS
 62
     7
 10
-1367.01461901002
 20
280.8799779413329
 30
0.0
  0
VERTEX
  5
211
  8
1
  6
CONTINUOUS
 62
     7
 10
-1367.009373493165
 20
280.9036671378433
 30
0.0
  0
VERTEX
  5
212
  8
1
  6
CONTINUOUS
 62
     7
 10
-1367.005282336203
 20
280.9275998547669
 30
0.0
  0
VERTEX
  5
213
  8
1
  6
CONTINUOUS
 62
     7
 10
-1367.002352036667
 20
280.951690179302
 30
0.0
  0
VERTEX
  5
214
  8
1
  6
CONTINUOUS
 62
     7
 10
-1367.000589092089
 20
280.975852198647
 30
0.0
  0
VERTEX
  5
215
  8
1
  6
CONTINUOUS
 62
     7
 10
-1367.0
 20
281.0
 30
0.0
  0
SEQEND
  5
416
  8
1
  6
CONTINUOUS
 62
     7
  0
LINE
  5
75
  8
1
  6
CONTINUOUS
 62
     7
 10
-1366.0
 20
282.1424285285629
 30
0.0
 11
-1366.0
 21
281.0000000000001
 31
0.0
  0
POLYLINE
  5
76
  8
1
  6
CONTINUOUS
 62
     7
 66
     1
 10
0.0
 20
0.0
 30
0.0
  0
VERTEX
  5
216
  8
1
  6
CONTINUOUS
 62
     7
 10
-1366.0
 20
281.0
 30
0.0
  0
VERTEX
  5
217
  8
1
  6
CONTINUOUS
 62
     7
 10
-1365.999429486343
 20
280.9763695906488
 30
0.0
  0
VERTEX
  5
218
  8
1
  6
CONTINUOUS
 62
     7
 10
-1365.997724585256
 20
280.9526984005576
 30
0.0
  0
VERTEX
  5
219
  8
1
  6
CONTINUOUS
 62
     7
 10
-1365.994895256565
 20
280.9290672604666
 30
0.0
  0
VERTEX
  5
21A
  8
1
  6
CONTINUOUS
 62
     7
 10
-1365.990951460092
 20
280.9055570011162
 30
0.0
  0
VERTEX
  5
21B
  8
1
  6
CONTINUOUS
 62
     7
 10
-1365.985903155665
 20
280.8822484532468
 30
0.0
  0
VERTEX
  5
21C
  8
1
  6
CONTINUOUS
 62
     7
 10
-1365.979760303106
 20
280.8592224475987
 30
0.0
  0
VERTEX
  5
21D
  8
1
  6
CONTINUOUS
 62
     7
 10
-1365.972532862242
 20
280.8365598149121
 30
0.0
  0
VERTEX
  5
21E
  8
1
  6
CONTINUOUS
 62
     7
 10
-1365.96419847904
 20
280.8142391934476
 30
0.0
  0
VERTEX
  5
21F
  8
1
  6
CONTINUOUS
 62
     7
 10
-1365.954763268294
 20
280.7922620760089
 30
0.0
  0
VERTEX
  5
220
  8
1
  6
CONTINUOUS
 62
     7
 10
-1365.944266237756
 20
280.7707040953717
 30
0.0
  0
VERTEX
  5
221
  8
1
  6
CONTINUOUS
 62
     7
 10
-1365.932746395179
 20
280.7496408843122
 30
0.0
  0
VERTEX
  5
222
  8
1
  6
CONTINUOUS
 62
     7
 10
-1365.920242748317
 20
280.7291480756062
 30
0.0
  0
VERTEX
  5
223
  8
1
  6
CONTINUOUS
 62
     7
 10
-1365.906794304922
 20
280.7093013020297
 30
0.0
  0
VERTEX
  5
224
  8
1
  6
CONTINUOUS
 62
     7
 10
-1365.892440072746
 20
280.6901761963587
 30
0.0
  0
VERTEX
  5
225
  8
1
  6
CONTINUOUS
 62
     7
 10
-1365.877366657992
 20
280.6720028786759
 30
0.0
  0
VERTEX
  5
226
  8
1
  6
CONTINUOUS
 62
     7
 10
-1365.861394783543
 20
280.6545154397984
 30
0.0
  0
VERTEX
  5
227
  8
1
  6
CONTINUOUS
 62
     7
 10
-1365.844586074607
 20
280.6377692893956
 30
0.0
  0
VERTEX
  5
228
  8
1
  6
CONTINUOUS
 62
     7
 10
-1365.827002156394
 20
280.6218198371373
 30
0.0
  0
VERTEX
  5
229
  8
1
  6
CONTINUOUS
 62
     7
 10
-1365.808704654112
 20
280.6067224926927
 30
0.0
  0
VERTEX
  5
22A
  8
1
  6
CONTINUOUS
 62
     7
 10
-1365.789755192972
 20
280.5925326657316
 30
0.0
  0
VERTEX
  5
22B
  8
1
  6
CONTINUOUS
 62
     7
 10
-1365.770215398182
 20
280.5793057659235
 30
0.0
  0
VERTEX
  5
22C
  8
1
  6
CONTINUOUS
 62
     7
 10
-1365.750190755697
 20
280.5671108235604
 30
0.0
  0
VERTEX
  5
22D
  8
1
  6
CONTINUOUS
 62
     7
 10
-1365.729565398515
 20
280.5558518703545
 30
0.0
  0
VERTEX
  5
22E
  8
1
  6
CONTINUOUS
 62
     7
 10
-1365.708413445681
 20
280.5455581082583
 30
0.0
  0
VERTEX
  5
22F
  8
1
  6
CONTINUOUS
 62
     7
 10
-1365.686809016237
 20
280.5362587392241
 30
0.0
  0
VERTEX
  5
230
  8
1
  6
CONTINUOUS
 62
     7
 10
-1365.664826229224
 20
280.5279829652048
 30
0.0
  0
VERTEX
  5
231
  8
1
  6
CONTINUOUS
 62
     7
 10
-1365.642539203687
 20
280.5207599881529
 30
0.0
  0
VERTEX
  5
232
  8
1
  6
CONTINUOUS
 62
     7
 10
-1365.620022058667
 20
280.5146190100207
 30
0.0
  0
VERTEX
  5
233
  8
1
  6
CONTINUOUS
 62
     7
 10
-1365.596332862157
 20
280.5093734931651
 30
0.0
  0
VERTEX
  5
234
  8
1
  6
CONTINUOUS
 62
     7
 10
-1365.572400145233
 20
280.5052823362032
 30
0.0
  0
VERTEX
  5
235
  8
1
  6
CONTINUOUS
 62
     7
 10
-1365.548309820698
 20
280.5023520366672
 30
0.0
  0
VERTEX
  5
236
  8
1
  6
CONTINUOUS
 62
     7
 10
-1365.524147801353
 20
280.5005890920888
 30
0.0
  0
VERTEX
  5
237
  8
1
  6
CONTINUOUS
 62
     7
 10
-1365.5
 20
280.5
 30
0.0
  0
SEQEND
  5
417
  8
1
  6
CONTINUOUS
 62
     7
  0
ARC
  5
77
  8
1
  6
CONTINUOUS
 62
     7
 10
-1366.5
 20
280.0
 30
0.0
 40
2.2
 50
256.8634412130551
 51
283.1365587869449
  0
LINE
  5
78
  8
1
  6
CONTINUOUS
 62
     7
 10
-1366.0
 20
279.0
 30
0.0
 11
-1366.0
 21
277.8575714714372
 31
0.0
  0
LINE
  5
79
  8
1
  6
CONTINUOUS
 62
     7
 10
-1367.0
 20
277.8575714714372
 30
0.0
 11
-1367.0
 21
279.0
 31
0.0
  0
POLYLINE
  5
7A
  8
1
  6
CONTINUOUS
 62
     7
 66
     1
 10
0.0
 20
0.0
 30
0.0
  0
VERTEX
  5
238
  8
1
  6
CONTINUOUS
 62
     7
 10
-1367.0
 20
279.0
 30
0.0
  0
VERTEX
  5
239
  8
1
  6
CONTINUOUS
 62
     7
 10
-1367.000570513657
 20
279.0236304093513
 30
0.0
  0
VERTEX
  5
23A
  8
1
  6
CONTINUOUS
 62
     7
 10
-1367.002275414743
 20
279.0473015994426
 30
0.0
  0
VERTEX
  5
23B
  8
1
  6
CONTINUOUS
 62
     7
 10
-1367.005104743435
 20
279.0709327395335
 30
0.0
  0
VERTEX
  5
23C
  8
1
  6
CONTINUOUS
 62
     7
 10
-1367.009048539907
 20
279.0944429988838
 30
0.0
  0
VERTEX
  5
23D
  8
1
  6
CONTINUOUS
 62
     7
 10
-1367.014096844335
 20
279.1177515467533
 30
0.0
  0
VERTEX
  5
23E
  8
1
  6
CONTINUOUS
 62
     7
 10
-1367.020239696894
 20
279.1407775524014
 30
0.0
  0
VERTEX
  5
23F
  8
1
  6
CONTINUOUS
 62
     7
 10
-1367.027467137758
 20
279.1634401850879
 30
0.0
  0
VERTEX
  5
240
  8
1
  6
CONTINUOUS
 62
     7
 10
-1367.03580152096
 20
279.1857608065524
 30
0.0
  0
VERTEX
  5
241
  8
1
  6
CONTINUOUS
 62
     7
 10
-1367.045236731706
 20
279.2077379239912
 30
0.0
  0
VERTEX
  5
242
  8
1
  6
CONTINUOUS
 62
     7
 10
-1367.055733762244
 20
279.2292959046284
 30
0.0
  0
VERTEX
  5
243
  8
1
  6
CONTINUOUS
 62
     7
 10
-1367.06725360482
 20
279.250359115688
 30
0.0
  0
VERTEX
  5
244
  8
1
  6
CONTINUOUS
 62
     7
 10
-1367.079757251683
 20
279.2708519243939
 30
0.0
  0
VERTEX
  5
245
  8
1
  6
CONTINUOUS
 62
     7
 10
-1367.093205695078
 20
279.2906986979704
 30
0.0
  0
VERTEX
  5
246
  8
1
  6
CONTINUOUS
 62
     7
 10
-1367.107559927254
 20
279.3098238036415
 30
0.0
  0
VERTEX
  5
247
  8
1
  6
CONTINUOUS
 62
     7
 10
-1367.122633342007
 20
279.3279971213242
 30
0.0
  0
VERTEX
  5
248
  8
1
  6
CONTINUOUS
 62
     7
 10
-1367.138605216457
 20
279.3454845602017
 30
0.0
  0
VERTEX
  5
249
  8
1
  6
CONTINUOUS
 62
     7
 10
-1367.155413925393
 20
279.3622307106044
 30
0.0
  0
VERTEX
  5
24A
  8
1
  6
CONTINUOUS
 62
     7
 10
-1367.172997843606
 20
279.3781801628629
 30
0.0
  0
VERTEX
  5
24B
  8
1
  6
CONTINUOUS
 62
     7
 10
-1367.191295345887
 20
279.3932775073074
 30
0.0
  0
VERTEX
  5
24C
  8
1
  6
CONTINUOUS
 62
     7
 10
-1367.210244807027
 20
279.4074673342685
 30
0.0
  0
VERTEX
  5
24D
  8
1
  6
CONTINUOUS
 62
     7
 10
-1367.229784601818
 20
279.4206942340766
 30
0.0
  0
VERTEX
  5
24E
  8
1
  6
CONTINUOUS
 62
     7
 10
-1367.249809244303
 20
279.4328891764396
 30
0.0
  0
VERTEX
  5
24F
  8
1
  6
CONTINUOUS
 62
     7
 10
-1367.270434601484
 20
279.4441481296456
 30
0.0
  0
VERTEX
  5
250
  8
1
  6
CONTINUOUS
 62
     7
 10
-1367.291586554319
 20
279.4544418917419
 30
0.0
  0
VERTEX
  5
251
  8
1
  6
CONTINUOUS
 62
     7
 10
-1367.313190983763
 20
279.4637412607759
 30
0.0
  0
VERTEX
  5
252
  8
1
  6
CONTINUOUS
 62
     7
 10
-1367.335173770776
 20
279.4720170347952
 30
0.0
  0
VERTEX
  5
253
  8
1
  6
CONTINUOUS
 62
     7
 10
-1367.357460796313
 20
279.4792400118472
 30
0.0
  0
VERTEX
  5
254
  8
1
  6
CONTINUOUS
 62
     7
 10
-1367.379977941333
 20
279.4853809899794
 30
0.0
  0
VERTEX
  5
255
  8
1
  6
CONTINUOUS
 62
     7
 10
-1367.403667137843
 20
279.490626506835
 30
0.0
  0
VERTEX
  5
256
  8
1
  6
CONTINUOUS
 62
     7
 10
-1367.427599854767
 20
279.4947176637968
 30
0.0
  0
VERTEX
  5
257
  8
1
  6
CONTINUOUS
 62
     7
 10
-1367.451690179302
 20
279.4976479633329
 30
0.0
  0
VERTEX
  5
258
  8
1
  6
CONTINUOUS
 62
     7
 10
-1367.475852198647
 20
279.4994109079113
 30
0.0
  0
VERTEX
  5
259
  8
1
  6
CONTINUOUS
 62
     7
 10
-1367.5
 20
279.5
 30
0.0
  0
SEQEND
  5
418
  8
1
  6
CONTINUOUS
 62
     7
  0
POLYLINE
  5
7B
  8
1
  6
CONTINUOUS
 62
     7
 66
     1
 10
0.0
 20
0.0
 30
0.0
  0
VERTEX
  5
25A
  8
1
  6
CONTINUOUS
 62
     7
 10
-1365.5
 20
279.5
 30
0.0
  0
VERTEX
  5
25B
  8
1
  6
CONTINUOUS
 62
     7
 10
-1365.523630409351
 20
279.4994294863434
 30
0.0
  0
VERTEX
  5
25C
  8
1
  6
CONTINUOUS
 62
     7
 10
-1365.547301599442
 20
279.4977245852567
 30
0.0
  0
VERTEX
  5
25D
  8
1
  6
CONTINUOUS
 62
     7
 10
-1365.570932739533
 20
279.4948952565649
 30
0.0
  0
VERTEX
  5
25E
  8
1
  6
CONTINUOUS
 62
     7
 10
-1365.594442998884
 20
279.4909514600926
 30
0.0
  0
VERTEX
  5
25F
  8
1
  6
CONTINUOUS
 62
     7
 10
-1365.617751546753
 20
279.4859031556648
 30
0.0
  0
VERTEX
  5
260
  8
1
  6
CONTINUOUS
 62
     7
 10
-1365.640777552401
 20
279.4797603031063
 30
0.0
  0
VERTEX
  5
261
  8
1
  6
CONTINUOUS
 62
     7
 10
-1365.663440185088
 20
279.4725328622418
 30
0.0
  0
VERTEX
  5
262
  8
1
  6
CONTINUOUS
 62
     7
 10
-1365.685760806552
 20
279.4641984790399
 30
0.0
  0
VERTEX
  5
263
  8
1
  6
CONTINUOUS
 62
     7
 10
-1365.707737923991
 20
279.4547632682937
 30
0.0
  0
VERTEX
  5
264
  8
1
  6
CONTINUOUS
 62
     7
 10
-1365.729295904628
 20
279.4442662377561
 30
0.0
  0
VERTEX
  5
265
  8
1
  6
CONTINUOUS
 62
     7
 10
-1365.750359115688
 20
279.4327463951797
 30
0.0
  0
VERTEX
  5
266
  8
1
  6
CONTINUOUS
 62
     7
 10
-1365.770851924394
 20
279.4202427483174
 30
0.0
  0
VERTEX
  5
267
  8
1
  6
CONTINUOUS
 62
     7
 10
-1365.79069869797
 20
279.4067943049221
 30
0.0
  0
VERTEX
  5
268
  8
1
  6
CONTINUOUS
 62
     7
 10
-1365.809823803641
 20
279.3924400727464
 30
0.0
  0
VERTEX
  5
269
  8
1
  6
CONTINUOUS
 62
     7
 10
-1365.827997121324
 20
279.3773666579926
 30
0.0
  0
VERTEX
  5
26A
  8
1
  6
CONTINUOUS
 62
     7
 10
-1365.845484560201
 20
279.3613947835432
 30
0.0
  0
VERTEX
  5
26B
  8
1
  6
CONTINUOUS
 62
     7
 10
-1365.862230710604
 20
279.3445860746072
 30
0.0
  0
VERTEX
  5
26C
  8
1
  6
CONTINUOUS
 62
     7
 10
-1365.878180162863
 20
279.327002156394
 30
0.0
  0
VERTEX
  5
26D
  8
1
  6
CONTINUOUS
 62
     7
 10
-1365.893277507307
 20
279.3087046541127
 30
0.0
  0
VERTEX
  5
26E
  8
1
  6
CONTINUOUS
 62
     7
 10
-1365.907467334268
 20
279.2897551929723
 30
0.0
  0
VERTEX
  5
26F
  8
1
  6
CONTINUOUS
 62
     7
 10
-1365.920694234076
 20
279.2702153981822
 30
0.0
  0
VERTEX
  5
270
  8
1
  6
CONTINUOUS
 62
     7
 10
-1365.932889176439
 20
279.2501907556967
 30
0.0
  0
VERTEX
  5
271
  8
1
  6
CONTINUOUS
 62
     7
 10
-1365.944148129646
 20
279.2295653985155
 30
0.0
  0
VERTEX
  5
272
  8
1
  6
CONTINUOUS
 62
     7
 10
-1365.954441891742
 20
279.2084134456813
 30
0.0
  0
VERTEX
  5
273
  8
1
  6
CONTINUOUS
 62
     7
 10
-1365.963741260776
 20
279.1868090162367
 30
0.0
  0
VERTEX
  5
274
  8
1
  6
CONTINUOUS
 62
     7
 10
-1365.972017034795
 20
279.1648262292244
 30
0.0
  0
VERTEX
  5
275
  8
1
  6
CONTINUOUS
 62
     7
 10
-1365.979240011847
 20
279.142539203687
 30
0.0
  0
VERTEX
  5
276
  8
1
  6
CONTINUOUS
 62
     7
 10
-1365.985380989979
 20
279.1200220586671
 30
0.0
  0
VERTEX
  5
277
  8
1
  6
CONTINUOUS
 62
     7
 10
-1365.990626506835
 20
279.0963328621568
 30
0.0
  0
VERTEX
  5
278
  8
1
  6
CONTINUOUS
 62
     7
 10
-1365.994717663797
 20
279.0724001452332
 30
0.0
  0
VERTEX
  5
279
  8
1
  6
CONTINUOUS
 62
     7
 10
-1365.997647963333
 20
279.0483098206981
 30
0.0
  0
VERTEX
  5
27A
  8
1
  6
CONTINUOUS
 62
     7
 10
-1365.999410907911
 20
279.0241478013531
 30
0.0
  0
VERTEX
  5
27B
  8
1
  6
CONTINUOUS
 62
     7
 10
-1366.0
 20
279.0
 30
0.0
  0
SEQEND
  5
419
  8
1
  6
CONTINUOUS
 62
     7
  0
ARC
  5
7C
  8
1
  6
CONTINUOUS
 62
     7
 10
-1366.5
 20
280.0
 30
0.0
 40
3.3775158710637
 50
171.4867690477392
 51
188.5132309522607
  0
ARC
  5
7D
  8
1
  6
CONTINUOUS
 62
     7
 10
-1366.5
 20
280.0
 30
0.0
 40
3.3775158710637
 50
351.4867690477392
 51
8.513230952260699
  0
POLYLINE
  5
7E
  8
1
  6
CONTINUOUS
 62
     7
 66
     1
 10
0.0
 20
0.0
 30
0.0
  0
VERTEX
  5
27C
  8
1
  6
CONTINUOUS
 62
     7
 10
-1519.0
 20
281.0
 30
0.0
  0
VERTEX
  5
27D
  8
1
  6
CONTINUOUS
 62
     7
 10
-1519.000570513656
 20
280.9763695906487
 30
0.0
  0
VERTEX
  5
27E
  8
1
  6
CONTINUOUS
 62
     7
 10
-1519.002275414743
 20
280.9526984005576
 30
0.0
  0
VERTEX
  5
27F
  8
1
  6
CONTINUOUS
 62
     7
 10
-1519.005104743435
 20
280.9290672604666
 30
0.0
  0
VERTEX
  5
280
  8
1
  6
CONTINUOUS
 62
     7
 10
-1519.009048539907
 20
280.9055570011162
 30
0.0
  0
VERTEX
  5
281
  8
1
  6
CONTINUOUS
 62
     7
 10
-1519.014096844335
 20
280.8822484532468
 30
0.0
  0
VERTEX
  5
282
  8
1
  6
CONTINUOUS
 62
     7
 10
-1519.020239696894
 20
280.8592224475987
 30
0.0
  0
VERTEX
  5
283
  8
1
  6
CONTINUOUS
 62
     7
 10
-1519.027467137758
 20
280.8365598149121
 30
0.0
  0
VERTEX
  5
284
  8
1
  6
CONTINUOUS
 62
     7
 10
-1519.03580152096
 20
280.8142391934476
 30
0.0
  0
VERTEX
  5
285
  8
1
  6
CONTINUOUS
 62
     7
 10
-1519.045236731706
 20
280.7922620760089
 30
0.0
  0
VERTEX
  5
286
  8
1
  6
CONTINUOUS
 62
     7
 10
-1519.055733762244
 20
280.7707040953717
 30
0.0
  0
VERTEX
  5
287
  8
1
  6
CONTINUOUS
 62
     7
 10
-1519.06725360482
 20
280.7496408843122
 30
0.0
  0
VERTEX
  5
288
  8
1
  6
CONTINUOUS
 62
     7
 10
-1519.079757251682
 20
280.7291480756062
 30
0.0
  0
VERTEX
  5
289
  8
1
  6
CONTINUOUS
 62
     7
 10
-1519.093205695078
 20
280.7093013020296
 30
0.0
  0
VERTEX
  5
28A
  8
1
  6
CONTINUOUS
 62
     7
 10
-1519.107559927253
 20
280.6901761963587
 30
0.0
  0
VERTEX
  5
28B
  8
1
  6
CONTINUOUS
 62
     7
 10
-1519.122633342007
 20
280.6720028786759
 30
0.0
  0
VERTEX
  5
28C
  8
1
  6
CONTINUOUS
 62
     7
 10
-1519.138605216457
 20
280.6545154397984
 30
0.0
  0
VERTEX
  5
28D
  8
1
  6
CONTINUOUS
 62
     7
 10
-1519.155413925393
 20
280.6377692893956
 30
0.0
  0
VERTEX
  5
28E
  8
1
  6
CONTINUOUS
 62
     7
 10
-1519.172997843606
 20
280.6218198371373
 30
0.0
  0
VERTEX
  5
28F
  8
1
  6
CONTINUOUS
 62
     7
 10
-1519.191295345887
 20
280.6067224926927
 30
0.0
  0
VERTEX
  5
290
  8
1
  6
CONTINUOUS
 62
     7
 10
-1519.210244807027
 20
280.5925326657316
 30
0.0
  0
VERTEX
  5
291
  8
1
  6
CONTINUOUS
 62
     7
 10
-1519.229784601818
 20
280.5793057659235
 30
0.0
  0
VERTEX
  5
292
  8
1
  6
CONTINUOUS
 62
     7
 10
-1519.249809244303
 20
280.5671108235604
 30
0.0
  0
VERTEX
  5
293
  8
1
  6
CONTINUOUS
 62
     7
 10
-1519.270434601484
 20
280.5558518703545
 30
0.0
  0
VERTEX
  5
294
  8
1
  6
CONTINUOUS
 62
     7
 10
-1519.291586554319
 20
280.5455581082583
 30
0.0
  0
VERTEX
  5
295
  8
1
  6
CONTINUOUS
 62
     7
 10
-1519.313190983763
 20
280.5362587392241
 30
0.0
  0
VERTEX
  5
296
  8
1
  6
CONTINUOUS
 62
     7
 10
-1519.335173770775
 20
280.5279829652048
 30
0.0
  0
VERTEX
  5
297
  8
1
  6
CONTINUOUS
 62
     7
 10
-1519.357460796313
 20
280.5207599881529
 30
0.0
  0
VERTEX
  5
298
  8
1
  6
CONTINUOUS
 62
     7
 10
-1519.379977941333
 20
280.5146190100207
 30
0.0
  0
VERTEX
  5
299
  8
1
  6
CONTINUOUS
 62
     7
 10
-1519.403667137843
 20
280.509373493165
 30
0.0
  0
VERTEX
  5
29A
  8
1
  6
CONTINUOUS
 62
     7
 10
-1519.427599854767
 20
280.5052823362032
 30
0.0
  0
VERTEX
  5
29B
  8
1
  6
CONTINUOUS
 62
     7
 10
-1519.451690179302
 20
280.5023520366672
 30
0.0
  0
VERTEX
  5
29C
  8
1
  6
CONTINUOUS
 62
     7
 10
-1519.475852198647
 20
280.5005890920888
 30
0.0
  0
VERTEX
  5
29D
  8
1
  6
CONTINUOUS
 62
     7
 10
-1519.5
 20
280.5
 30
0.0
  0
SEQEND
  5
41A
  8
1
  6
CONTINUOUS
 62
     7
  0
POLYLINE
  5
7F
  8
1
  6
CONTINUOUS
 62
     7
 66
     1
 10
0.0
 20
0.0
 30
0.0
  0
VERTEX
  5
29E
  8
1
  6
CONTINUOUS
 62
     7
 10
-1517.5
 20
280.5
 30
0.0
  0
VERTEX
  5
29F
  8
1
  6
CONTINUOUS
 62
     7
 10
-1517.523630409351
 20
280.5005705136567
 30
0.0
  0
VERTEX
  5
2A0
  8
1
  6
CONTINUOUS
 62
     7
 10
-1517.547301599442
 20
280.5022754147434
 30
0.0
  0
VERTEX
  5
2A1
  8
1
  6
CONTINUOUS
 62
     7
 10
-1517.570932739533
 20
280.5051047434353
 30
0.0
  0
VERTEX
  5
2A2
  8
1
  6
CONTINUOUS
 62
     7
 10
-1517.594442998884
 20
280.5090485399075
 30
0.0
  0
VERTEX
  5
2A3
  8
1
  6
CONTINUOUS
 62
     7
 10
-1517.617751546753
 20
280.5140968443353
 30
0.0
  0
VERTEX
  5
2A4
  8
1
  6
CONTINUOUS
 62
     7
 10
-1517.640777552401
 20
280.5202396968938
 30
0.0
  0
VERTEX
  5
2A5
  8
1
  6
CONTINUOUS
 62
     7
 10
-1517.663440185088
 20
280.5274671377582
 30
0.0
  0
VERTEX
  5
2A6
  8
1
  6
CONTINUOUS
 62
     7
 10
-1517.685760806552
 20
280.5358015209601
 30
0.0
  0
VERTEX
  5
2A7
  8
1
  6
CONTINUOUS
 62
     7
 10
-1517.707737923991
 20
280.5452367317063
 30
0.0
  0
VERTEX
  5
2A8
  8
1
  6
CONTINUOUS
 62
     7
 10
-1517.729295904628
 20
280.555733762244
 30
0.0
  0
VERTEX
  5
2A9
  8
1
  6
CONTINUOUS
 62
     7
 10
-1517.750359115688
 20
280.5672536048204
 30
0.0
  0
VERTEX
  5
2AA
  8
1
  6
CONTINUOUS
 62
     7
 10
-1517.770851924394
 20
280.5797572516827
 30
0.0
  0
VERTEX
  5
2AB
  8
1
  6
CONTINUOUS
 62
     7
 10
-1517.79069869797
 20
280.593205695078
 30
0.0
  0
VERTEX
  5
2AC
  8
1
  6
CONTINUOUS
 62
     7
 10
-1517.809823803641
 20
280.6075599272536
 30
0.0
  0
VERTEX
  5
2AD
  8
1
  6
CONTINUOUS
 62
     7
 10
-1517.827997121324
 20
280.6226333420075
 30
0.0
  0
VERTEX
  5
2AE
  8
1
  6
CONTINUOUS
 62
     7
 10
-1517.845484560201
 20
280.6386052164569
 30
0.0
  0
VERTEX
  5
2AF
  8
1
  6
CONTINUOUS
 62
     7
 10
-1517.862230710604
 20
280.6554139253929
 30
0.0
  0
VERTEX
  5
2B0
  8
1
  6
CONTINUOUS
 62
     7
 10
-1517.878180162863
 20
280.6729978436061
 30
0.0
  0
VERTEX
  5
2B1
  8
1
  6
CONTINUOUS
 62
     7
 10
-1517.893277507307
 20
280.6912953458875
 30
0.0
  0
VERTEX
  5
2B2
  8
1
  6
CONTINUOUS
 62
     7
 10
-1517.907467334268
 20
280.7102448070278
 30
0.0
  0
VERTEX
  5
2B3
  8
1
  6
CONTINUOUS
 62
     7
 10
-1517.920694234076
 20
280.7297846018179
 30
0.0
  0
VERTEX
  5
2B4
  8
1
  6
CONTINUOUS
 62
     7
 10
-1517.932889176439
 20
280.7498092443034
 30
0.0
  0
VERTEX
  5
2B5
  8
1
  6
CONTINUOUS
 62
     7
 10
-1517.944148129645
 20
280.7704346014845
 30
0.0
  0
VERTEX
  5
2B6
  8
1
  6
CONTINUOUS
 62
     7
 10
-1517.954441891742
 20
280.7915865543187
 30
0.0
  0
VERTEX
  5
2B7
  8
1
  6
CONTINUOUS
 62
     7
 10
-1517.963741260776
 20
280.8131909837633
 30
0.0
  0
VERTEX
  5
2B8
  8
1
  6
CONTINUOUS
 62
     7
 10
-1517.972017034795
 20
280.8351737707757
 30
0.0
  0
VERTEX
  5
2B9
  8
1
  6
CONTINUOUS
 62
     7
 10
-1517.979240011847
 20
280.8574607963131
 30
0.0
  0
VERTEX
  5
2BA
  8
1
  6
CONTINUOUS
 62
     7
 10
-1517.985380989979
 20
280.8799779413329
 30
0.0
  0
VERTEX
  5
2BB
  8
1
  6
CONTINUOUS
 62
     7
 10
-1517.990626506835
 20
280.9036671378433
 30
0.0
  0
VERTEX
  5
2BC
  8
1
  6
CONTINUOUS
 62
     7
 10
-1517.994717663797
 20
280.9275998547669
 30
0.0
  0
VERTEX
  5
2BD
  8
1
  6
CONTINUOUS
 62
     7
 10
-1517.997647963333
 20
280.951690179302
 30
0.0
  0
VERTEX
  5
2BE
  8
1
  6
CONTINUOUS
 62
     7
 10
-1517.999410907911
 20
280.975852198647
 30
0.0
  0
VERTEX
  5
2BF
  8
1
  6
CONTINUOUS
 62
     7
 10
-1518.0
 20
281.0
 30
0.0
  0
SEQEND
  5
41B
  8
1
  6
CONTINUOUS
 62
     7
  0
LINE
  5
80
  8
1
  6
CONTINUOUS
 62
     7
 10
-1518.0
 20
281.0
 30
0.0
 11
-1518.0
 21
282.1424285285628
 31
0.0
  0
ARC
  5
81
  8
1
  6
CONTINUOUS
 62
     7
 10
-1518.5
 20
280.0
 30
0.0
 40
2.2
 50
76.86344121305514
 51
103.1365587869449
  0
LINE
  5
82
  8
1
  6
CONTINUOUS
 62
     7
 10
-1519.0
 20
282.1424285285629
 30
0.0
 11
-1519.0
 21
281.0000000000001
 31
0.0
  0
POLYLINE
  5
83
  8
1
  6
CONTINUOUS
 62
     7
 66
     1
 10
0.0
 20
0.0
 30
0.0
  0
VERTEX
  5
2C0
  8
1
  6
CONTINUOUS
 62
     7
 10
-1519.5
 20
279.5
 30
0.0
  0
VERTEX
  5
2C1
  8
1
  6
CONTINUOUS
 62
     7
 10
-1519.476369590649
 20
279.4994294863434
 30
0.0
  0
VERTEX
  5
2C2
  8
1
  6
CONTINUOUS
 62
     7
 10
-1519.452698400557
 20
279.4977245852567
 30
0.0
  0
VERTEX
  5
2C3
  8
1
  6
CONTINUOUS
 62
     7
 10
-1519.429067260466
 20
279.4948952565649
 30
0.0
  0
VERTEX
  5
2C4
  8
1
  6
CONTINUOUS
 62
     7
 10
-1519.405557001116
 20
279.4909514600926
 30
0.0
  0
VERTEX
  5
2C5
  8
1
  6
CONTINUOUS
 62
     7
 10
-1519.382248453247
 20
279.4859031556648
 30
0.0
  0
VERTEX
  5
2C6
  8
1
  6
CONTINUOUS
 62
     7
 10
-1519.359222447599
 20
279.4797603031063
 30
0.0
  0
VERTEX
  5
2C7
  8
1
  6
CONTINUOUS
 62
     7
 10
-1519.336559814912
 20
279.4725328622418
 30
0.0
  0
VERTEX
  5
2C8
  8
1
  6
CONTINUOUS
 62
     7
 10
-1519.314239193448
 20
279.4641984790399
 30
0.0
  0
VERTEX
  5
2C9
  8
1
  6
CONTINUOUS
 62
     7
 10
-1519.292262076009
 20
279.4547632682937
 30
0.0
  0
VERTEX
  5
2CA
  8
1
  6
CONTINUOUS
 62
     7
 10
-1519.270704095371
 20
279.4442662377561
 30
0.0
  0
VERTEX
  5
2CB
  8
1
  6
CONTINUOUS
 62
     7
 10
-1519.249640884312
 20
279.4327463951797
 30
0.0
  0
VERTEX
  5
2CC
  8
1
  6
CONTINUOUS
 62
     7
 10
-1519.229148075606
 20
279.4202427483174
 30
0.0
  0
VERTEX
  5
2CD
  8
1
  6
CONTINUOUS
 62
     7
 10
-1519.20930130203
 20
279.4067943049221
 30
0.0
  0
VERTEX
  5
2CE
  8
1
  6
CONTINUOUS
 62
     7
 10
-1519.190176196358
 20
279.3924400727464
 30
0.0
  0
VERTEX
  5
2CF
  8
1
  6
CONTINUOUS
 62
     7
 10
-1519.172002878676
 20
279.3773666579926
 30
0.0
  0
VERTEX
  5
2D0
  8
1
  6
CONTINUOUS
 62
     7
 10
-1519.154515439798
 20
279.3613947835432
 30
0.0
  0
VERTEX
  5
2D1
  8
1
  6
CONTINUOUS
 62
     7
 10
-1519.137769289395
 20
279.3445860746072
 30
0.0
  0
VERTEX
  5
2D2
  8
1
  6
CONTINUOUS
 62
     7
 10
-1519.121819837137
 20
279.327002156394
 30
0.0
  0
VERTEX
  5
2D3
  8
1
  6
CONTINUOUS
 62
     7
 10
-1519.106722492692
 20
279.3087046541127
 30
0.0
  0
VERTEX
  5
2D4
  8
1
  6
CONTINUOUS
 62
     7
 10
-1519.092532665731
 20
279.2897551929723
 30
0.0
  0
VERTEX
  5
2D5
  8
1
  6
CONTINUOUS
 62
     7
 10
-1519.079305765923
 20
279.2702153981822
 30
0.0
  0
VERTEX
  5
2D6
  8
1
  6
CONTINUOUS
 62
     7
 10
-1519.06711082356
 20
279.2501907556967
 30
0.0
  0
VERTEX
  5
2D7
  8
1
  6
CONTINUOUS
 62
     7
 10
-1519.055851870354
 20
279.2295653985155
 30
0.0
  0
VERTEX
  5
2D8
  8
1
  6
CONTINUOUS
 62
     7
 10
-1519.045558108258
 20
279.2084134456813
 30
0.0
  0
VERTEX
  5
2D9
  8
1
  6
CONTINUOUS
 62
     7
 10
-1519.036258739224
 20
279.1868090162367
 30
0.0
  0
VERTEX
  5
2DA
  8
1
  6
CONTINUOUS
 62
     7
 10
-1519.027982965205
 20
279.1648262292244
 30
0.0
  0
VERTEX
  5
2DB
  8
1
  6
CONTINUOUS
 62
     7
 10
-1519.020759988153
 20
279.142539203687
 30
0.0
  0
VERTEX
  5
2DC
  8
1
  6
CONTINUOUS
 62
     7
 10
-1519.01461901002
 20
279.1200220586671
 30
0.0
  0
VERTEX
  5
2DD
  8
1
  6
CONTINUOUS
 62
     7
 10
-1519.009373493165
 20
279.0963328621568
 30
0.0
  0
VERTEX
  5
2DE
  8
1
  6
CONTINUOUS
 62
     7
 10
-1519.005282336203
 20
279.0724001452332
 30
0.0
  0
VERTEX
  5
2DF
  8
1
  6
CONTINUOUS
 62
     7
 10
-1519.002352036667
 20
279.0483098206981
 30
0.0
  0
VERTEX
  5
2E0
  8
1
  6
CONTINUOUS
 62
     7
 10
-1519.000589092089
 20
279.0241478013531
 30
0.0
  0
VERTEX
  5
2E1
  8
1
  6
CONTINUOUS
 62
     7
 10
-1519.0
 20
279.0
 30
0.0
  0
SEQEND
  5
41C
  8
1
  6
CONTINUOUS
 62
     7
  0
LINE
  5
84
  8
1
  6
CONTINUOUS
 62
     7
 10
-1519.0
 20
279.0
 30
0.0
 11
-1519.0
 21
277.8575714714372
 31
0.0
  0
ARC
  5
85
  8
1
  6
CONTINUOUS
 62
     7
 10
-1518.5
 20
280.0
 30
0.0
 40
2.2
 50
256.8634412130551
 51
283.1365587869449
  0
LINE
  5
86
  8
1
  6
CONTINUOUS
 62
     7
 10
-1518.0
 20
277.8575714714372
 30
0.0
 11
-1518.0
 21
279.0
 31
0.0
  0
POLYLINE
  5
87
  8
1
  6
CONTINUOUS
 62
     7
 66
     1
 10
0.0
 20
0.0
 30
0.0
  0
VERTEX
  5
2E2
  8
1
  6
CONTINUOUS
 62
     7
 10
-1518.0
 20
279.0
 30
0.0
  0
VERTEX
  5
2E3
  8
1
  6
CONTINUOUS
 62
     7
 10
-1517.999429486343
 20
279.0236304093513
 30
0.0
  0
VERTEX
  5
2E4
  8
1
  6
CONTINUOUS
 62
     7
 10
-1517.997724585256
 20
279.0473015994426
 30
0.0
  0
VERTEX
  5
2E5
  8
1
  6
CONTINUOUS
 62
     7
 10
-1517.994895256565
 20
279.0709327395335
 30
0.0
  0
VERTEX
  5
2E6
  8
1
  6
CONTINUOUS
 62
     7
 10
-1517.990951460092
 20
279.0944429988838
 30
0.0
  0
VERTEX
  5
2E7
  8
1
  6
CONTINUOUS
 62
     7
 10
-1517.985903155665
 20
279.1177515467533
 30
0.0
  0
VERTEX
  5
2E8
  8
1
  6
CONTINUOUS
 62
     7
 10
-1517.979760303106
 20
279.1407775524014
 30
0.0
  0
VERTEX
  5
2E9
  8
1
  6
CONTINUOUS
 62
     7
 10
-1517.972532862242
 20
279.1634401850879
 30
0.0
  0
VERTEX
  5
2EA
  8
1
  6
CONTINUOUS
 62
     7
 10
-1517.96419847904
 20
279.1857608065524
 30
0.0
  0
VERTEX
  5
2EB
  8
1
  6
CONTINUOUS
 62
     7
 10
-1517.954763268293
 20
279.2077379239912
 30
0.0
  0
VERTEX
  5
2EC
  8
1
  6
CONTINUOUS
 62
     7
 10
-1517.944266237756
 20
279.2292959046284
 30
0.0
  0
VERTEX
  5
2ED
  8
1
  6
CONTINUOUS
 62
     7
 10
-1517.932746395179
 20
279.250359115688
 30
0.0
  0
VERTEX
  5
2EE
  8
1
  6
CONTINUOUS
 62
     7
 10
-1517.920242748317
 20
279.2708519243939
 30
0.0
  0
VERTEX
  5
2EF
  8
1
  6
CONTINUOUS
 62
     7
 10
-1517.906794304922
 20
279.2906986979704
 30
0.0
  0
VERTEX
  5
2F0
  8
1
  6
CONTINUOUS
 62
     7
 10
-1517.892440072746
 20
279.3098238036415
 30
0.0
  0
VERTEX
  5
2F1
  8
1
  6
CONTINUOUS
 62
     7
 10
-1517.877366657992
 20
279.3279971213242
 30
0.0
  0
VERTEX
  5
2F2
  8
1
  6
CONTINUOUS
 62
     7
 10
-1517.861394783543
 20
279.3454845602017
 30
0.0
  0
VERTEX
  5
2F3
  8
1
  6
CONTINUOUS
 62
     7
 10
-1517.844586074607
 20
279.3622307106044
 30
0.0
  0
VERTEX
  5
2F4
  8
1
  6
CONTINUOUS
 62
     7
 10
-1517.827002156394
 20
279.3781801628629
 30
0.0
  0
VERTEX
  5
2F5
  8
1
  6
CONTINUOUS
 62
     7
 10
-1517.808704654112
 20
279.3932775073074
 30
0.0
  0
VERTEX
  5
2F6
  8
1
  6
CONTINUOUS
 62
     7
 10
-1517.789755192972
 20
279.4074673342685
 30
0.0
  0
VERTEX
  5
2F7
  8
1
  6
CONTINUOUS
 62
     7
 10
-1517.770215398182
 20
279.4206942340766
 30
0.0
  0
VERTEX
  5
2F8
  8
1
  6
CONTINUOUS
 62
     7
 10
-1517.750190755696
 20
279.4328891764396
 30
0.0
  0
VERTEX
  5
2F9
  8
1
  6
CONTINUOUS
 62
     7
 10
-1517.729565398515
 20
279.4441481296456
 30
0.0
  0
VERTEX
  5
2FA
  8
1
  6
CONTINUOUS
 62
     7
 10
-1517.708413445681
 20
279.4544418917419
 30
0.0
  0
VERTEX
  5
2FB
  8
1
  6
CONTINUOUS
 62
     7
 10
-1517.686809016237
 20
279.4637412607759
 30
0.0
  0
VERTEX
  5
2FC
  8
1
  6
CONTINUOUS
 62
     7
 10
-1517.664826229224
 20
279.4720170347952
 30
0.0
  0
VERTEX
  5
2FD
  8
1
  6
CONTINUOUS
 62
     7
 10
-1517.642539203687
 20
279.4792400118472
 30
0.0
  0
VERTEX
  5
2FE
  8
1
  6
CONTINUOUS
 62
     7
 10
-1517.620022058667
 20
279.4853809899794
 30
0.0
  0
VERTEX
  5
2FF
  8
1
  6
CONTINUOUS
 62
     7
 10
-1517.596332862157
 20
279.490626506835
 30
0.0
  0
VERTEX
  5
300
  8
1
  6
CONTINUOUS
 62
     7
 10
-1517.572400145233
 20
279.4947176637968
 30
0.0
  0
VERTEX
  5
301
  8
1
  6
CONTINUOUS
 62
     7
 10
-1517.548309820698
 20
279.4976479633329
 30
0.0
  0
VERTEX
  5
302
  8
1
  6
CONTINUOUS
 62
     7
 10
-1517.524147801353
 20
279.4994109079113
 30
0.0
  0
VERTEX
  5
303
  8
1
  6
CONTINUOUS
 62
     7
 10
-1517.5
 20
279.5
 30
0.0
  0
SEQEND
  5
41D
  8
1
  6
CONTINUOUS
 62
     7
  0
ARC
  5
88
  8
1
  6
CONTINUOUS
 62
     7
 10
-1518.5
 20
280.0
 30
0.0
 40
3.3775158710637
 50
351.4867690477394
 51
8.513230952260756
  0
ARC
  5
89
  8
1
  6
CONTINUOUS
 62
     7
 10
-1518.5
 20
280.0
 30
0.0
 40
3.3775158710637
 50
171.4867690477393
 51
188.5132309522607
  0
POLYLINE
  5
8A
  8
1
  6
CONTINUOUS
 62
     7
 66
     1
 10
0.0
 20
0.0
 30
0.0
  0
VERTEX
  5
304
  8
1
  6
CONTINUOUS
 62
     7
 10
-1366.0
 20
384.0
 30
0.0
  0
VERTEX
  5
305
  8
1
  6
CONTINUOUS
 62
     7
 10
-1365.999429486343
 20
384.0236304093513
 30
0.0
  0
VERTEX
  5
306
  8
1
  6
CONTINUOUS
 62
     7
 10
-1365.997724585256
 20
384.0473015994425
 30
0.0
  0
VERTEX
  5
307
  8
1
  6
CONTINUOUS
 62
     7
 10
-1365.994895256565
 20
384.0709327395335
 30
0.0
  0
VERTEX
  5
308
  8
1
  6
CONTINUOUS
 62
     7
 10
-1365.990951460092
 20
384.0944429988838
 30
0.0
  0
VERTEX
  5
309
  8
1
  6
CONTINUOUS
 62
     7
 10
-1365.985903155665
 20
384.1177515467532
 30
0.0
  0
VERTEX
  5
30A
  8
1
  6
CONTINUOUS
 62
     7
 10
-1365.979760303106
 20
384.1407775524013
 30
0.0
  0
VERTEX
  5
30B
  8
1
  6
CONTINUOUS
 62
     7
 10
-1365.972532862242
 20
384.1634401850879
 30
0.0
  0
VERTEX
  5
30C
  8
1
  6
CONTINUOUS
 62
     7
 10
-1365.96419847904
 20
384.1857608065524
 30
0.0
  0
VERTEX
  5
30D
  8
1
  6
CONTINUOUS
 62
     7
 10
-1365.954763268294
 20
384.2077379239911
 30
0.0
  0
VERTEX
  5
30E
  8
1
  6
CONTINUOUS
 62
     7
 10
-1365.944266237756
 20
384.2292959046283
 30
0.0
  0
VERTEX
  5
30F
  8
1
  6
CONTINUOUS
 62
     7
 10
-1365.932746395179
 20
384.2503591156879
 30
0.0
  0
VERTEX
  5
310
  8
1
  6
CONTINUOUS
 62
     7
 10
-1365.920242748317
 20
384.2708519243939
 30
0.0
  0
VERTEX
  5
311
  8
1
  6
CONTINUOUS
 62
     7
 10
-1365.906794304922
 20
384.2906986979704
 30
0.0
  0
VERTEX
  5
312
  8
1
  6
CONTINUOUS
 62
     7
 10
-1365.892440072746
 20
384.3098238036413
 30
0.0
  0
VERTEX
  5
313
  8
1
  6
CONTINUOUS
 62
     7
 10
-1365.877366657992
 20
384.3279971213241
 30
0.0
  0
VERTEX
  5
314
  8
1
  6
CONTINUOUS
 62
     7
 10
-1365.861394783543
 20
384.3454845602016
 30
0.0
  0
VERTEX
  5
315
  8
1
  6
CONTINUOUS
 62
     7
 10
-1365.844586074607
 20
384.3622307106044
 30
0.0
  0
VERTEX
  5
316
  8
1
  6
CONTINUOUS
 62
     7
 10
-1365.827002156394
 20
384.3781801628628
 30
0.0
  0
VERTEX
  5
317
  8
1
  6
CONTINUOUS
 62
     7
 10
-1365.808704654112
 20
384.3932775073073
 30
0.0
  0
VERTEX
  5
318
  8
1
  6
CONTINUOUS
 62
     7
 10
-1365.789755192972
 20
384.4074673342685
 30
0.0
  0
VERTEX
  5
319
  8
1
  6
CONTINUOUS
 62
     7
 10
-1365.770215398182
 20
384.4206942340765
 30
0.0
  0
VERTEX
  5
31A
  8
1
  6
CONTINUOUS
 62
     7
 10
-1365.750190755697
 20
384.4328891764396
 30
0.0
  0
VERTEX
  5
31B
  8
1
  6
CONTINUOUS
 62
     7
 10
-1365.729565398515
 20
384.4441481296455
 30
0.0
  0
VERTEX
  5
31C
  8
1
  6
CONTINUOUS
 62
     7
 10
-1365.708413445681
 20
384.4544418917417
 30
0.0
  0
VERTEX
  5
31D
  8
1
  6
CONTINUOUS
 62
     7
 10
-1365.686809016237
 20
384.4637412607759
 30
0.0
  0
VERTEX
  5
31E
  8
1
  6
CONTINUOUS
 62
     7
 10
-1365.664826229224
 20
384.4720170347952
 30
0.0
  0
VERTEX
  5
31F
  8
1
  6
CONTINUOUS
 62
     7
 10
-1365.642539203687
 20
384.4792400118472
 30
0.0
  0
VERTEX
  5
320
  8
1
  6
CONTINUOUS
 62
     7
 10
-1365.620022058667
 20
384.4853809899793
 30
0.0
  0
VERTEX
  5
321
  8
1
  6
CONTINUOUS
 62
     7
 10
-1365.596332862157
 20
384.490626506835
 30
0.0
  0
VERTEX
  5
322
  8
1
  6
CONTINUOUS
 62
     7
 10
-1365.572400145233
 20
384.4947176637968
 30
0.0
  0
VERTEX
  5
323
  8
1
  6
CONTINUOUS
 62
     7
 10
-1365.548309820698
 20
384.4976479633328
 30
0.0
  0
VERTEX
  5
324
  8
1
  6
CONTINUOUS
 62
     7
 10
-1365.524147801353
 20
384.4994109079112
 30
0.0
  0
VERTEX
  5
325
  8
1
  6
CONTINUOUS
 62
     7
 10
-1365.5
 20
384.5
 30
0.0
  0
SEQEND
  5
41E
  8
1
  6
CONTINUOUS
 62
     7
  0
POLYLINE
  5
8B
  8
1
  6
CONTINUOUS
 62
     7
 66
     1
 10
0.0
 20
0.0
 30
0.0
  0
VERTEX
  5
326
  8
1
  6
CONTINUOUS
 62
     7
 10
-1367.5
 20
384.5
 30
0.0
  0
VERTEX
  5
327
  8
1
  6
CONTINUOUS
 62
     7
 10
-1367.476369590649
 20
384.4994294863433
 30
0.0
  0
VERTEX
  5
328
  8
1
  6
CONTINUOUS
 62
     7
 10
-1367.452698400557
 20
384.4977245852567
 30
0.0
  0
VERTEX
  5
329
  8
1
  6
CONTINUOUS
 62
     7
 10
-1367.429067260467
 20
384.4948952565647
 30
0.0
  0
VERTEX
  5
32A
  8
1
  6
CONTINUOUS
 62
     7
 10
-1367.405557001116
 20
384.4909514600926
 30
0.0
  0
VERTEX
  5
32B
  8
1
  6
CONTINUOUS
 62
     7
 10
-1367.382248453247
 20
384.4859031556647
 30
0.0
  0
VERTEX
  5
32C
  8
1
  6
CONTINUOUS
 62
     7
 10
-1367.359222447599
 20
384.4797603031062
 30
0.0
  0
VERTEX
  5
32D
  8
1
  6
CONTINUOUS
 62
     7
 10
-1367.336559814912
 20
384.4725328622418
 30
0.0
  0
VERTEX
  5
32E
  8
1
  6
CONTINUOUS
 62
     7
 10
-1367.314239193448
 20
384.4641984790399
 30
0.0
  0
VERTEX
  5
32F
  8
1
  6
CONTINUOUS
 62
     7
 10
-1367.292262076009
 20
384.4547632682937
 30
0.0
  0
VERTEX
  5
330
  8
1
  6
CONTINUOUS
 62
     7
 10
-1367.270704095371
 20
384.444266237756
 30
0.0
  0
VERTEX
  5
331
  8
1
  6
CONTINUOUS
 62
     7
 10
-1367.249640884312
 20
384.4327463951797
 30
0.0
  0
VERTEX
  5
332
  8
1
  6
CONTINUOUS
 62
     7
 10
-1367.229148075606
 20
384.4202427483174
 30
0.0
  0
VERTEX
  5
333
  8
1
  6
CONTINUOUS
 62
     7
 10
-1367.20930130203
 20
384.406794304922
 30
0.0
  0
VERTEX
  5
334
  8
1
  6
CONTINUOUS
 62
     7
 10
-1367.190176196358
 20
384.3924400727464
 30
0.0
  0
VERTEX
  5
335
  8
1
  6
CONTINUOUS
 62
     7
 10
-1367.172002878676
 20
384.3773666579925
 30
0.0
  0
VERTEX
  5
336
  8
1
  6
CONTINUOUS
 62
     7
 10
-1367.154515439798
 20
384.3613947835431
 30
0.0
  0
VERTEX
  5
337
  8
1
  6
CONTINUOUS
 62
     7
 10
-1367.137769289395
 20
384.3445860746072
 30
0.0
  0
VERTEX
  5
338
  8
1
  6
CONTINUOUS
 62
     7
 10
-1367.121819837137
 20
384.3270021563939
 30
0.0
  0
VERTEX
  5
339
  8
1
  6
CONTINUOUS
 62
     7
 10
-1367.106722492692
 20
384.3087046541126
 30
0.0
  0
VERTEX
  5
33A
  8
1
  6
CONTINUOUS
 62
     7
 10
-1367.092532665731
 20
384.2897551929723
 30
0.0
  0
VERTEX
  5
33B
  8
1
  6
CONTINUOUS
 62
     7
 10
-1367.079305765923
 20
384.2702153981822
 30
0.0
  0
VERTEX
  5
33C
  8
1
  6
CONTINUOUS
 62
     7
 10
-1367.06711082356
 20
384.2501907556967
 30
0.0
  0
VERTEX
  5
33D
  8
1
  6
CONTINUOUS
 62
     7
 10
-1367.055851870354
 20
384.2295653985155
 30
0.0
  0
VERTEX
  5
33E
  8
1
  6
CONTINUOUS
 62
     7
 10
-1367.045558108258
 20
384.2084134456813
 30
0.0
  0
VERTEX
  5
33F
  8
1
  6
CONTINUOUS
 62
     7
 10
-1367.036258739224
 20
384.1868090162367
 30
0.0
  0
VERTEX
  5
340
  8
1
  6
CONTINUOUS
 62
     7
 10
-1367.027982965205
 20
384.1648262292244
 30
0.0
  0
VERTEX
  5
341
  8
1
  6
CONTINUOUS
 62
     7
 10
-1367.020759988153
 20
384.142539203687
 30
0.0
  0
VERTEX
  5
342
  8
1
  6
CONTINUOUS
 62
     7
 10
-1367.01461901002
 20
384.1200220586671
 30
0.0
  0
VERTEX
  5
343
  8
1
  6
CONTINUOUS
 62
     7
 10
-1367.009373493165
 20
384.0963328621567
 30
0.0
  0
VERTEX
  5
344
  8
1
  6
CONTINUOUS
 62
     7
 10
-1367.005282336203
 20
384.0724001452331
 30
0.0
  0
VERTEX
  5
345
  8
1
  6
CONTINUOUS
 62
     7
 10
-1367.002352036667
 20
384.048309820698
 30
0.0
  0
VERTEX
  5
346
  8
1
  6
CONTINUOUS
 62
     7
 10
-1367.000589092089
 20
384.0241478013531
 30
0.0
  0
VERTEX
  5
347
  8
1
  6
CONTINUOUS
 62
     7
 10
-1367.0
 20
384.0
 30
0.0
  0
SEQEND
  5
41F
  8
1
  6
CONTINUOUS
 62
     7
  0
LINE
  5
8C
  8
1
  6
CONTINUOUS
 62
     7
 10
-1367.0
 20
384.0
 30
0.0
 11
-1367.0
 21
382.8575714714372
 31
0.0
  0
ARC
  5
8D
  8
1
  6
CONTINUOUS
 62
     7
 10
-1366.5
 20
385.0
 30
0.0
 40
2.2
 50
256.8634412130551
 51
283.1365587869449
  0
LINE
  5
8E
  8
1
  6
CONTINUOUS
 62
     7
 10
-1366.0
 20
382.8575714714371
 30
0.0
 11
-1366.0
 21
383.9999999999999
 31
0.0
  0
POLYLINE
  5
8F
  8
1
  6
CONTINUOUS
 62
     7
 66
     1
 10
0.0
 20
0.0
 30
0.0
  0
VERTEX
  5
348
  8
1
  6
CONTINUOUS
 62
     7
 10
-1367.0
 20
386.0
 30
0.0
  0
VERTEX
  5
349
  8
1
  6
CONTINUOUS
 62
     7
 10
-1367.000570513657
 20
385.9763695906487
 30
0.0
  0
VERTEX
  5
34A
  8
1
  6
CONTINUOUS
 62
     7
 10
-1367.002275414743
 20
385.9526984005574
 30
0.0
  0
VERTEX
  5
34B
  8
1
  6
CONTINUOUS
 62
     7
 10
-1367.005104743435
 20
385.9290672604665
 30
0.0
  0
VERTEX
  5
34C
  8
1
  6
CONTINUOUS
 62
     7
 10
-1367.009048539907
 20
385.9055570011162
 30
0.0
  0
VERTEX
  5
34D
  8
1
  6
CONTINUOUS
 62
     7
 10
-1367.014096844335
 20
385.8822484532467
 30
0.0
  0
VERTEX
  5
34E
  8
1
  6
CONTINUOUS
 62
     7
 10
-1367.020239696894
 20
385.8592224475986
 30
0.0
  0
VERTEX
  5
34F
  8
1
  6
CONTINUOUS
 62
     7
 10
-1367.027467137758
 20
385.8365598149121
 30
0.0
  0
VERTEX
  5
350
  8
1
  6
CONTINUOUS
 62
     7
 10
-1367.03580152096
 20
385.8142391934476
 30
0.0
  0
VERTEX
  5
351
  8
1
  6
CONTINUOUS
 62
     7
 10
-1367.045236731706
 20
385.7922620760088
 30
0.0
  0
VERTEX
  5
352
  8
1
  6
CONTINUOUS
 62
     7
 10
-1367.055733762244
 20
385.7707040953716
 30
0.0
  0
VERTEX
  5
353
  8
1
  6
CONTINUOUS
 62
     7
 10
-1367.06725360482
 20
385.749640884312
 30
0.0
  0
VERTEX
  5
354
  8
1
  6
CONTINUOUS
 62
     7
 10
-1367.079757251683
 20
385.7291480756061
 30
0.0
  0
VERTEX
  5
355
  8
1
  6
CONTINUOUS
 62
     7
 10
-1367.093205695078
 20
385.7093013020296
 30
0.0
  0
VERTEX
  5
356
  8
1
  6
CONTINUOUS
 62
     7
 10
-1367.107559927254
 20
385.6901761963586
 30
0.0
  0
VERTEX
  5
357
  8
1
  6
CONTINUOUS
 62
     7
 10
-1367.122633342007
 20
385.6720028786759
 30
0.0
  0
VERTEX
  5
358
  8
1
  6
CONTINUOUS
 62
     7
 10
-1367.138605216457
 20
385.6545154397983
 30
0.0
  0
VERTEX
  5
359
  8
1
  6
CONTINUOUS
 62
     7
 10
-1367.155413925393
 20
385.6377692893956
 30
0.0
  0
VERTEX
  5
35A
  8
1
  6
CONTINUOUS
 62
     7
 10
-1367.172997843606
 20
385.6218198371371
 30
0.0
  0
VERTEX
  5
35B
  8
1
  6
CONTINUOUS
 62
     7
 10
-1367.191295345887
 20
385.6067224926926
 30
0.0
  0
VERTEX
  5
35C
  8
1
  6
CONTINUOUS
 62
     7
 10
-1367.210244807027
 20
385.5925326657315
 30
0.0
  0
VERTEX
  5
35D
  8
1
  6
CONTINUOUS
 62
     7
 10
-1367.229784601818
 20
385.5793057659235
 30
0.0
  0
VERTEX
  5
35E
  8
1
  6
CONTINUOUS
 62
     7
 10
-1367.249809244303
 20
385.5671108235604
 30
0.0
  0
VERTEX
  5
35F
  8
1
  6
CONTINUOUS
 62
     7
 10
-1367.270434601484
 20
385.5558518703544
 30
0.0
  0
VERTEX
  5
360
  8
1
  6
CONTINUOUS
 62
     7
 10
-1367.291586554319
 20
385.5455581082582
 30
0.0
  0
VERTEX
  5
361
  8
1
  6
CONTINUOUS
 62
     7
 10
-1367.313190983763
 20
385.5362587392241
 30
0.0
  0
VERTEX
  5
362
  8
1
  6
CONTINUOUS
 62
     7
 10
-1367.335173770776
 20
385.5279829652048
 30
0.0
  0
VERTEX
  5
363
  8
1
  6
CONTINUOUS
 62
     7
 10
-1367.357460796313
 20
385.5207599881528
 30
0.0
  0
VERTEX
  5
364
  8
1
  6
CONTINUOUS
 62
     7
 10
-1367.379977941333
 20
385.5146190100206
 30
0.0
  0
VERTEX
  5
365
  8
1
  6
CONTINUOUS
 62
     7
 10
-1367.403667137843
 20
385.509373493165
 30
0.0
  0
VERTEX
  5
366
  8
1
  6
CONTINUOUS
 62
     7
 10
-1367.427599854767
 20
385.5052823362032
 30
0.0
  0
VERTEX
  5
367
  8
1
  6
CONTINUOUS
 62
     7
 10
-1367.451690179302
 20
385.5023520366671
 30
0.0
  0
VERTEX
  5
368
  8
1
  6
CONTINUOUS
 62
     7
 10
-1367.475852198647
 20
385.5005890920887
 30
0.0
  0
VERTEX
  5
369
  8
1
  6
CONTINUOUS
 62
     7
 10
-1367.5
 20
385.5
 30
0.0
  0
SEQEND
  5
420
  8
1
  6
CONTINUOUS
 62
     7
  0
POLYLINE
  5
90
  8
1
  6
CONTINUOUS
 62
     7
 66
     1
 10
0.0
 20
0.0
 30
0.0
  0
VERTEX
  5
36A
  8
1
  6
CONTINUOUS
 62
     7
 10
-1365.5
 20
385.5
 30
0.0
  0
VERTEX
  5
36B
  8
1
  6
CONTINUOUS
 62
     7
 10
-1365.523630409351
 20
385.5005705136566
 30
0.0
  0
VERTEX
  5
36C
  8
1
  6
CONTINUOUS
 62
     7
 10
-1365.547301599442
 20
385.5022754147433
 30
0.0
  0
VERTEX
  5
36D
  8
1
  6
CONTINUOUS
 62
     7
 10
-1365.570932739533
 20
385.5051047434352
 30
0.0
  0
VERTEX
  5
36E
  8
1
  6
CONTINUOUS
 62
     7
 10
-1365.594442998884
 20
385.5090485399074
 30
0.0
  0
VERTEX
  5
36F
  8
1
  6
CONTINUOUS
 62
     7
 10
-1365.617751546753
 20
385.5140968443353
 30
0.0
  0
VERTEX
  5
370
  8
1
  6
CONTINUOUS
 62
     7
 10
-1365.640777552401
 20
385.5202396968937
 30
0.0
  0
VERTEX
  5
371
  8
1
  6
CONTINUOUS
 62
     7
 10
-1365.663440185088
 20
385.5274671377582
 30
0.0
  0
VERTEX
  5
372
  8
1
  6
CONTINUOUS
 62
     7
 10
-1365.685760806552
 20
385.5358015209601
 30
0.0
  0
VERTEX
  5
373
  8
1
  6
CONTINUOUS
 62
     7
 10
-1365.707737923991
 20
385.5452367317063
 30
0.0
  0
VERTEX
  5
374
  8
1
  6
CONTINUOUS
 62
     7
 10
-1365.729295904628
 20
385.555733762244
 30
0.0
  0
VERTEX
  5
375
  8
1
  6
CONTINUOUS
 62
     7
 10
-1365.750359115688
 20
385.5672536048203
 30
0.0
  0
VERTEX
  5
376
  8
1
  6
CONTINUOUS
 62
     7
 10
-1365.770851924394
 20
385.5797572516826
 30
0.0
  0
VERTEX
  5
377
  8
1
  6
CONTINUOUS
 62
     7
 10
-1365.79069869797
 20
385.5932056950779
 30
0.0
  0
VERTEX
  5
378
  8
1
  6
CONTINUOUS
 62
     7
 10
-1365.809823803641
 20
385.6075599272536
 30
0.0
  0
VERTEX
  5
379
  8
1
  6
CONTINUOUS
 62
     7
 10
-1365.827997121324
 20
385.6226333420075
 30
0.0
  0
VERTEX
  5
37A
  8
1
  6
CONTINUOUS
 62
     7
 10
-1365.845484560201
 20
385.6386052164569
 30
0.0
  0
VERTEX
  5
37B
  8
1
  6
CONTINUOUS
 62
     7
 10
-1365.862230710604
 20
385.6554139253928
 30
0.0
  0
VERTEX
  5
37C
  8
1
  6
CONTINUOUS
 62
     7
 10
-1365.878180162863
 20
385.672997843606
 30
0.0
  0
VERTEX
  5
37D
  8
1
  6
CONTINUOUS
 62
     7
 10
-1365.893277507307
 20
385.6912953458873
 30
0.0
  0
VERTEX
  5
37E
  8
1
  6
CONTINUOUS
 62
     7
 10
-1365.907467334268
 20
385.7102448070277
 30
0.0
  0
VERTEX
  5
37F
  8
1
  6
CONTINUOUS
 62
     7
 10
-1365.920694234076
 20
385.7297846018178
 30
0.0
  0
VERTEX
  5
380
  8
1
  6
CONTINUOUS
 62
     7
 10
-1365.932889176439
 20
385.7498092443033
 30
0.0
  0
VERTEX
  5
381
  8
1
  6
CONTINUOUS
 62
     7
 10
-1365.944148129646
 20
385.7704346014845
 30
0.0
  0
VERTEX
  5
382
  8
1
  6
CONTINUOUS
 62
     7
 10
-1365.954441891742
 20
385.7915865543187
 30
0.0
  0
VERTEX
  5
383
  8
1
  6
CONTINUOUS
 62
     7
 10
-1365.963741260776
 20
385.8131909837633
 30
0.0
  0
VERTEX
  5
384
  8
1
  6
CONTINUOUS
 62
     7
 10
-1365.972017034795
 20
385.8351737707756
 30
0.0
  0
VERTEX
  5
385
  8
1
  6
CONTINUOUS
 62
     7
 10
-1365.979240011847
 20
385.857460796313
 30
0.0
  0
VERTEX
  5
386
  8
1
  6
CONTINUOUS
 62
     7
 10
-1365.985380989979
 20
385.8799779413329
 30
0.0
  0
VERTEX
  5
387
  8
1
  6
CONTINUOUS
 62
     7
 10
-1365.990626506835
 20
385.9036671378432
 30
0.0
  0
VERTEX
  5
388
  8
1
  6
CONTINUOUS
 62
     7
 10
-1365.994717663797
 20
385.9275998547668
 30
0.0
  0
VERTEX
  5
389
  8
1
  6
CONTINUOUS
 62
     7
 10
-1365.997647963333
 20
385.9516901793019
 30
0.0
  0
VERTEX
  5
38A
  8
1
  6
CONTINUOUS
 62
     7
 10
-1365.999410907911
 20
385.9758521986469
 30
0.0
  0
VERTEX
  5
38B
  8
1
  6
CONTINUOUS
 62
     7
 10
-1366.0
 20
386.0
 30
0.0
  0
SEQEND
  5
421
  8
1
  6
CONTINUOUS
 62
     7
  0
LINE
  5
91
  8
1
  6
CONTINUOUS
 62
     7
 10
-1366.0
 20
386.0
 30
0.0
 11
-1366.0
 21
387.1424285285628
 31
0.0
  0
ARC
  5
92
  8
1
  6
CONTINUOUS
 62
     7
 10
-1366.5
 20
385.0
 30
0.0
 40
2.2
 50
76.86344121305514
 51
103.1365587869449
  0
LINE
  5
93
  8
1
  6
CONTINUOUS
 62
     7
 10
-1367.0
 20
387.1424285285628
 30
0.0
 11
-1367.0
 21
386.0
 31
0.0
  0
ARC
  5
94
  8
1
  6
CONTINUOUS
 62
     7
 10
-1366.5
 20
385.0
 30
0.0
 40
3.3775158710637
 50
171.4867690477393
 51
188.5132309522607
  0
ARC
  5
95
  8
1
  6
CONTINUOUS
 62
     7
 10
-1366.5
 20
385.0
 30
0.0
 40
3.3775158710637
 50
351.4867690477394
 51
8.513230952260756
  0
ARC
  5
96
  8
1
  6
CONTINUOUS
 62
     7
 10
-1518.5
 20
385.0
 30
0.0
 40
2.2
 50
256.8634412130551
 51
283.1365587869449
  0
LINE
  5
97
  8
1
  6
CONTINUOUS
 62
     7
 10
-1518.0
 20
384.0
 30
0.0
 11
-1518.0
 21
382.8575714714372
 31
0.0
  0
POLYLINE
  5
98
  8
1
  6
CONTINUOUS
 62
     7
 66
     1
 10
0.0
 20
0.0
 30
0.0
  0
VERTEX
  5
38C
  8
1
  6
CONTINUOUS
 62
     7
 10
-1517.5
 20
384.5
 30
0.0
  0
VERTEX
  5
38D
  8
1
  6
CONTINUOUS
 62
     7
 10
-1517.523630409351
 20
384.4994294863433
 30
0.0
  0
VERTEX
  5
38E
  8
1
  6
CONTINUOUS
 62
     7
 10
-1517.547301599442
 20
384.4977245852567
 30
0.0
  0
VERTEX
  5
38F
  8
1
  6
CONTINUOUS
 62
     7
 10
-1517.570932739533
 20
384.4948952565647
 30
0.0
  0
VERTEX
  5
390
  8
1
  6
CONTINUOUS
 62
     7
 10
-1517.594442998884
 20
384.4909514600926
 30
0.0
  0
VERTEX
  5
391
  8
1
  6
CONTINUOUS
 62
     7
 10
-1517.617751546753
 20
384.4859031556647
 30
0.0
  0
VERTEX
  5
392
  8
1
  6
CONTINUOUS
 62
     7
 10
-1517.640777552401
 20
384.4797603031062
 30
0.0
  0
VERTEX
  5
393
  8
1
  6
CONTINUOUS
 62
     7
 10
-1517.663440185088
 20
384.4725328622418
 30
0.0
  0
VERTEX
  5
394
  8
1
  6
CONTINUOUS
 62
     7
 10
-1517.685760806552
 20
384.4641984790399
 30
0.0
  0
VERTEX
  5
395
  8
1
  6
CONTINUOUS
 62
     7
 10
-1517.707737923991
 20
384.4547632682937
 30
0.0
  0
VERTEX
  5
396
  8
1
  6
CONTINUOUS
 62
     7
 10
-1517.729295904628
 20
384.444266237756
 30
0.0
  0
VERTEX
  5
397
  8
1
  6
CONTINUOUS
 62
     7
 10
-1517.750359115688
 20
384.4327463951797
 30
0.0
  0
VERTEX
  5
398
  8
1
  6
CONTINUOUS
 62
     7
 10
-1517.770851924394
 20
384.4202427483174
 30
0.0
  0
VERTEX
  5
399
  8
1
  6
CONTINUOUS
 62
     7
 10
-1517.79069869797
 20
384.406794304922
 30
0.0
  0
VERTEX
  5
39A
  8
1
  6
CONTINUOUS
 62
     7
 10
-1517.809823803641
 20
384.3924400727464
 30
0.0
  0
VERTEX
  5
39B
  8
1
  6
CONTINUOUS
 62
     7
 10
-1517.827997121324
 20
384.3773666579925
 30
0.0
  0
VERTEX
  5
39C
  8
1
  6
CONTINUOUS
 62
     7
 10
-1517.845484560201
 20
384.3613947835431
 30
0.0
  0
VERTEX
  5
39D
  8
1
  6
CONTINUOUS
 62
     7
 10
-1517.862230710604
 20
384.3445860746072
 30
0.0
  0
VERTEX
  5
39E
  8
1
  6
CONTINUOUS
 62
     7
 10
-1517.878180162863
 20
384.3270021563939
 30
0.0
  0
VERTEX
  5
39F
  8
1
  6
CONTINUOUS
 62
     7
 10
-1517.893277507307
 20
384.3087046541126
 30
0.0
  0
VERTEX
  5
3A0
  8
1
  6
CONTINUOUS
 62
     7
 10
-1517.907467334268
 20
384.2897551929723
 30
0.0
  0
VERTEX
  5
3A1
  8
1
  6
CONTINUOUS
 62
     7
 10
-1517.920694234076
 20
384.2702153981822
 30
0.0
  0
VERTEX
  5
3A2
  8
1
  6
CONTINUOUS
 62
     7
 10
-1517.932889176439
 20
384.2501907556967
 30
0.0
  0
VERTEX
  5
3A3
  8
1
  6
CONTINUOUS
 62
     7
 10
-1517.944148129645
 20
384.2295653985155
 30
0.0
  0
VERTEX
  5
3A4
  8
1
  6
CONTINUOUS
 62
     7
 10
-1517.954441891742
 20
384.2084134456813
 30
0.0
  0
VERTEX
  5
3A5
  8
1
  6
CONTINUOUS
 62
     7
 10
-1517.963741260776
 20
384.1868090162367
 30
0.0
  0
VERTEX
  5
3A6
  8
1
  6
CONTINUOUS
 62
     7
 10
-1517.972017034795
 20
384.1648262292244
 30
0.0
  0
VERTEX
  5
3A7
  8
1
  6
CONTINUOUS
 62
     7
 10
-1517.979240011847
 20
384.142539203687
 30
0.0
  0
VERTEX
  5
3A8
  8
1
  6
CONTINUOUS
 62
     7
 10
-1517.985380989979
 20
384.1200220586671
 30
0.0
  0
VERTEX
  5
3A9
  8
1
  6
CONTINUOUS
 62
     7
 10
-1517.990626506835
 20
384.0963328621567
 30
0.0
  0
VERTEX
  5
3AA
  8
1
  6
CONTINUOUS
 62
     7
 10
-1517.994717663797
 20
384.0724001452331
 30
0.0
  0
VERTEX
  5
3AB
  8
1
  6
CONTINUOUS
 62
     7
 10
-1517.997647963333
 20
384.048309820698
 30
0.0
  0
VERTEX
  5
3AC
  8
1
  6
CONTINUOUS
 62
     7
 10
-1517.999410907911
 20
384.0241478013531
 30
0.0
  0
VERTEX
  5
3AD
  8
1
  6
CONTINUOUS
 62
     7
 10
-1518.0
 20
384.0
 30
0.0
  0
SEQEND
  5
422
  8
1
  6
CONTINUOUS
 62
     7
  0
LINE
  5
99
  8
1
  6
CONTINUOUS
 62
     7
 10
-1519.0
 20
382.8575714714371
 30
0.0
 11
-1519.0
 21
383.9999999999999
 31
0.0
  0
POLYLINE
  5
9A
  8
1
  6
CONTINUOUS
 62
     7
 66
     1
 10
0.0
 20
0.0
 30
0.0
  0
VERTEX
  5
3AE
  8
1
  6
CONTINUOUS
 62
     7
 10
-1519.0
 20
384.0
 30
0.0
  0
VERTEX
  5
3AF
  8
1
  6
CONTINUOUS
 62
     7
 10
-1519.000570513656
 20
384.0236304093512
 30
0.0
  0
VERTEX
  5
3B0
  8
1
  6
CONTINUOUS
 62
     7
 10
-1519.002275414743
 20
384.0473015994425
 30
0.0
  0
VERTEX
  5
3B1
  8
1
  6
CONTINUOUS
 62
     7
 10
-1519.005104743435
 20
384.0709327395335
 30
0.0
  0
VERTEX
  5
3B2
  8
1
  6
CONTINUOUS
 62
     7
 10
-1519.009048539907
 20
384.0944429988838
 30
0.0
  0
VERTEX
  5
3B3
  8
1
  6
CONTINUOUS
 62
     7
 10
-1519.014096844335
 20
384.1177515467532
 30
0.0
  0
VERTEX
  5
3B4
  8
1
  6
CONTINUOUS
 62
     7
 10
-1519.020239696894
 20
384.1407775524013
 30
0.0
  0
VERTEX
  5
3B5
  8
1
  6
CONTINUOUS
 62
     7
 10
-1519.027467137758
 20
384.1634401850879
 30
0.0
  0
VERTEX
  5
3B6
  8
1
  6
CONTINUOUS
 62
     7
 10
-1519.03580152096
 20
384.1857608065524
 30
0.0
  0
VERTEX
  5
3B7
  8
1
  6
CONTINUOUS
 62
     7
 10
-1519.045236731706
 20
384.2077379239911
 30
0.0
  0
VERTEX
  5
3B8
  8
1
  6
CONTINUOUS
 62
     7
 10
-1519.055733762244
 20
384.2292959046283
 30
0.0
  0
VERTEX
  5
3B9
  8
1
  6
CONTINUOUS
 62
     7
 10
-1519.06725360482
 20
384.2503591156879
 30
0.0
  0
VERTEX
  5
3BA
  8
1
  6
CONTINUOUS
 62
     7
 10
-1519.079757251682
 20
384.2708519243939
 30
0.0
  0
VERTEX
  5
3BB
  8
1
  6
CONTINUOUS
 62
     7
 10
-1519.093205695078
 20
384.2906986979703
 30
0.0
  0
VERTEX
  5
3BC
  8
1
  6
CONTINUOUS
 62
     7
 10
-1519.107559927253
 20
384.3098238036413
 30
0.0
  0
VERTEX
  5
3BD
  8
1
  6
CONTINUOUS
 62
     7
 10
-1519.122633342007
 20
384.3279971213241
 30
0.0
  0
VERTEX
  5
3BE
  8
1
  6
CONTINUOUS
 62
     7
 10
-1519.138605216457
 20
384.3454845602016
 30
0.0
  0
VERTEX
  5
3BF
  8
1
  6
CONTINUOUS
 62
     7
 10
-1519.155413925393
 20
384.3622307106044
 30
0.0
  0
VERTEX
  5
3C0
  8
1
  6
CONTINUOUS
 62
     7
 10
-1519.172997843606
 20
384.3781801628628
 30
0.0
  0
VERTEX
  5
3C1
  8
1
  6
CONTINUOUS
 62
     7
 10
-1519.191295345887
 20
384.3932775073073
 30
0.0
  0
VERTEX
  5
3C2
  8
1
  6
CONTINUOUS
 62
     7
 10
-1519.210244807027
 20
384.4074673342685
 30
0.0
  0
VERTEX
  5
3C3
  8
1
  6
CONTINUOUS
 62
     7
 10
-1519.229784601818
 20
384.4206942340765
 30
0.0
  0
VERTEX
  5
3C4
  8
1
  6
CONTINUOUS
 62
     7
 10
-1519.249809244303
 20
384.4328891764396
 30
0.0
  0
VERTEX
  5
3C5
  8
1
  6
CONTINUOUS
 62
     7
 10
-1519.270434601484
 20
384.4441481296455
 30
0.0
  0
VERTEX
  5
3C6
  8
1
  6
CONTINUOUS
 62
     7
 10
-1519.291586554319
 20
384.4544418917417
 30
0.0
  0
VERTEX
  5
3C7
  8
1
  6
CONTINUOUS
 62
     7
 10
-1519.313190983763
 20
384.4637412607759
 30
0.0
  0
VERTEX
  5
3C8
  8
1
  6
CONTINUOUS
 62
     7
 10
-1519.335173770775
 20
384.4720170347952
 30
0.0
  0
VERTEX
  5
3C9
  8
1
  6
CONTINUOUS
 62
     7
 10
-1519.357460796313
 20
384.4792400118472
 30
0.0
  0
VERTEX
  5
3CA
  8
1
  6
CONTINUOUS
 62
     7
 10
-1519.379977941333
 20
384.4853809899793
 30
0.0
  0
VERTEX
  5
3CB
  8
1
  6
CONTINUOUS
 62
     7
 10
-1519.403667137843
 20
384.4906265068349
 30
0.0
  0
VERTEX
  5
3CC
  8
1
  6
CONTINUOUS
 62
     7
 10
-1519.427599854767
 20
384.4947176637968
 30
0.0
  0
VERTEX
  5
3CD
  8
1
  6
CONTINUOUS
 62
     7
 10
-1519.451690179302
 20
384.4976479633328
 30
0.0
  0
VERTEX
  5
3CE
  8
1
  6
CONTINUOUS
 62
     7
 10
-1519.475852198647
 20
384.4994109079112
 30
0.0
  0
VERTEX
  5
3CF
  8
1
  6
CONTINUOUS
 62
     7
 10
-1519.5
 20
384.5
 30
0.0
  0
SEQEND
  5
423
  8
1
  6
CONTINUOUS
 62
     7
  0
ARC
  5
9B
  8
1
  6
CONTINUOUS
 62
     7
 10
-1518.5
 20
385.0
 30
0.0
 40
2.2
 50
76.86344121305513
 51
103.1365587869449
  0
LINE
  5
9C
  8
1
  6
CONTINUOUS
 62
     7
 10
-1519.0
 20
386.0
 30
0.0
 11
-1519.0
 21
387.1424285285628
 31
0.0
  0
LINE
  5
9D
  8
1
  6
CONTINUOUS
 62
     7
 10
-1518.0
 20
387.1424285285628
 30
0.0
 11
-1518.0
 21
386.0
 31
0.0
  0
POLYLINE
  5
9E
  8
1
  6
CONTINUOUS
 62
     7
 66
     1
 10
0.0
 20
0.0
 30
0.0
  0
VERTEX
  5
3D0
  8
1
  6
CONTINUOUS
 62
     7
 10
-1518.0
 20
386.0
 30
0.0
  0
VERTEX
  5
3D1
  8
1
  6
CONTINUOUS
 62
     7
 10
-1517.999429486343
 20
385.9763695906487
 30
0.0
  0
VERTEX
  5
3D2
  8
1
  6
CONTINUOUS
 62
     7
 10
-1517.997724585256
 20
385.9526984005574
 30
0.0
  0
VERTEX
  5
3D3
  8
1
  6
CONTINUOUS
 62
     7
 10
-1517.994895256565
 20
385.9290672604665
 30
0.0
  0
VERTEX
  5
3D4
  8
1
  6
CONTINUOUS
 62
     7
 10
-1517.990951460092
 20
385.9055570011162
 30
0.0
  0
VERTEX
  5
3D5
  8
1
  6
CONTINUOUS
 62
     7
 10
-1517.985903155665
 20
385.8822484532467
 30
0.0
  0
VERTEX
  5
3D6
  8
1
  6
CONTINUOUS
 62
     7
 10
-1517.979760303106
 20
385.8592224475986
 30
0.0
  0
VERTEX
  5
3D7
  8
1
  6
CONTINUOUS
 62
     7
 10
-1517.972532862242
 20
385.8365598149121
 30
0.0
  0
VERTEX
  5
3D8
  8
1
  6
CONTINUOUS
 62
     7
 10
-1517.96419847904
 20
385.8142391934476
 30
0.0
  0
VERTEX
  5
3D9
  8
1
  6
CONTINUOUS
 62
     7
 10
-1517.954763268293
 20
385.7922620760088
 30
0.0
  0
VERTEX
  5
3DA
  8
1
  6
CONTINUOUS
 62
     7
 10
-1517.944266237756
 20
385.7707040953716
 30
0.0
  0
VERTEX
  5
3DB
  8
1
  6
CONTINUOUS
 62
     7
 10
-1517.932746395179
 20
385.749640884312
 30
0.0
  0
VERTEX
  5
3DC
  8
1
  6
CONTINUOUS
 62
     7
 10
-1517.920242748317
 20
385.7291480756061
 30
0.0
  0
VERTEX
  5
3DD
  8
1
  6
CONTINUOUS
 62
     7
 10
-1517.906794304922
 20
385.7093013020296
 30
0.0
  0
VERTEX
  5
3DE
  8
1
  6
CONTINUOUS
 62
     7
 10
-1517.892440072746
 20
385.6901761963586
 30
0.0
  0
VERTEX
  5
3DF
  8
1
  6
CONTINUOUS
 62
     7
 10
-1517.877366657992
 20
385.6720028786759
 30
0.0
  0
VERTEX
  5
3E0
  8
1
  6
CONTINUOUS
 62
     7
 10
-1517.861394783543
 20
385.6545154397983
 30
0.0
  0
VERTEX
  5
3E1
  8
1
  6
CONTINUOUS
 62
     7
 10
-1517.844586074607
 20
385.6377692893956
 30
0.0
  0
VERTEX
  5
3E2
  8
1
  6
CONTINUOUS
 62
     7
 10
-1517.827002156394
 20
385.6218198371371
 30
0.0
  0
VERTEX
  5
3E3
  8
1
  6
CONTINUOUS
 62
     7
 10
-1517.808704654112
 20
385.6067224926926
 30
0.0
  0
VERTEX
  5
3E4
  8
1
  6
CONTINUOUS
 62
     7
 10
-1517.789755192972
 20
385.5925326657315
 30
0.0
  0
VERTEX
  5
3E5
  8
1
  6
CONTINUOUS
 62
     7
 10
-1517.770215398182
 20
385.5793057659235
 30
0.0
  0
VERTEX
  5
3E6
  8
1
  6
CONTINUOUS
 62
     7
 10
-1517.750190755696
 20
385.5671108235604
 30
0.0
  0
VERTEX
  5
3E7
  8
1
  6
CONTINUOUS
 62
     7
 10
-1517.729565398515
 20
385.5558518703544
 30
0.0
  0
VERTEX
  5
3E8
  8
1
  6
CONTINUOUS
 62
     7
 10
-1517.708413445681
 20
385.5455581082582
 30
0.0
  0
VERTEX
  5
3E9
  8
1
  6
CONTINUOUS
 62
     7
 10
-1517.686809016237
 20
385.5362587392241
 30
0.0
  0
VERTEX
  5
3EA
  8
1
  6
CONTINUOUS
 62
     7
 10
-1517.664826229224
 20
385.5279829652048
 30
0.0
  0
VERTEX
  5
3EB
  8
1
  6
CONTINUOUS
 62
     7
 10
-1517.642539203687
 20
385.5207599881528
 30
0.0
  0
VERTEX
  5
3EC
  8
1
  6
CONTINUOUS
 62
     7
 10
-1517.620022058667
 20
385.5146190100206
 30
0.0
  0
VERTEX
  5
3ED
  8
1
  6
CONTINUOUS
 62
     7
 10
-1517.596332862157
 20
385.509373493165
 30
0.0
  0
VERTEX
  5
3EE
  8
1
  6
CONTINUOUS
 62
     7
 10
-1517.572400145233
 20
385.5052823362032
 30
0.0
  0
VERTEX
  5
3EF
  8
1
  6
CONTINUOUS
 62
     7
 10
-1517.548309820698
 20
385.5023520366671
 30
0.0
  0
VERTEX
  5
3F0
  8
1
  6
CONTINUOUS
 62
     7
 10
-1517.524147801353
 20
385.5005890920887
 30
0.0
  0
VERTEX
  5
3F1
  8
1
  6
CONTINUOUS
 62
     7
 10
-1517.5
 20
385.5
 30
0.0
  0
SEQEND
  5
424
  8
1
  6
CONTINUOUS
 62
     7
  0
POLYLINE
  5
9F
  8
1
  6
CONTINUOUS
 62
     7
 66
     1
 10
0.0
 20
0.0
 30
0.0
  0
VERTEX
  5
3F2
  8
1
  6
CONTINUOUS
 62
     7
 10
-1519.5
 20
385.5
 30
0.0
  0
VERTEX
  5
3F3
  8
1
  6
CONTINUOUS
 62
     7
 10
-1519.476369590649
 20
385.5005705136566
 30
0.0
  0
VERTEX
  5
3F4
  8
1
  6
CONTINUOUS
 62
     7
 10
-1519.452698400557
 20
385.5022754147433
 30
0.0
  0
VERTEX
  5
3F5
  8
1
  6
CONTINUOUS
 62
     7
 10
-1519.429067260466
 20
385.5051047434352
 30
0.0
  0
VERTEX
  5
3F6
  8
1
  6
CONTINUOUS
 62
     7
 10
-1519.405557001116
 20
385.5090485399074
 30
0.0
  0
VERTEX
  5
3F7
  8
1
  6
CONTINUOUS
 62
     7
 10
-1519.382248453247
 20
385.5140968443353
 30
0.0
  0
VERTEX
  5
3F8
  8
1
  6
CONTINUOUS
 62
     7
 10
-1519.359222447599
 20
385.5202396968937
 30
0.0
  0
VERTEX
  5
3F9
  8
1
  6
CONTINUOUS
 62
     7
 10
-1519.336559814912
 20
385.5274671377582
 30
0.0
  0
VERTEX
  5
3FA
  8
1
  6
CONTINUOUS
 62
     7
 10
-1519.314239193448
 20
385.5358015209601
 30
0.0
  0
VERTEX
  5
3FB
  8
1
  6
CONTINUOUS
 62
     7
 10
-1519.292262076009
 20
385.5452367317063
 30
0.0
  0
VERTEX
  5
3FC
  8
1
  6
CONTINUOUS
 62
     7
 10
-1519.270704095371
 20
385.555733762244
 30
0.0
  0
VERTEX
  5
3FD
  8
1
  6
CONTINUOUS
 62
     7
 10
-1519.249640884312
 20
385.5672536048203
 30
0.0
  0
VERTEX
  5
3FE
  8
1
  6
CONTINUOUS
 62
     7
 10
-1519.229148075606
 20
385.5797572516826
 30
0.0
  0
VERTEX
  5
3FF
  8
1
  6
CONTINUOUS
 62
     7
 10
-1519.20930130203
 20
385.5932056950779
 30
0.0
  0
VERTEX
  5
400
  8
1
  6
CONTINUOUS
 62
     7
 10
-1519.190176196358
 20
385.6075599272536
 30
0.0
  0
VERTEX
  5
401
  8
1
  6
CONTINUOUS
 62
     7
 10
-1519.172002878676
 20
385.6226333420074
 30
0.0
  0
VERTEX
  5
402
  8
1
  6
CONTINUOUS
 62
     7
 10
-1519.154515439798
 20
385.6386052164569
 30
0.0
  0
VERTEX
  5
403
  8
1
  6
CONTINUOUS
 62
     7
 10
-1519.137769289395
 20
385.6554139253928
 30
0.0
  0
VERTEX
  5
404
  8
1
  6
CONTINUOUS
 62
     7
 10
-1519.121819837137
 20
385.672997843606
 30
0.0
  0
VERTEX
  5
405
  8
1
  6
CONTINUOUS
 62
     7
 10
-1519.106722492692
 20
385.6912953458873
 30
0.0
  0
VERTEX
  5
406
  8
1
  6
CONTINUOUS
 62
     7
 10
-1519.092532665731
 20
385.7102448070277
 30
0.0
  0
VERTEX
  5
407
  8
1
  6
CONTINUOUS
 62
     7
 10
-1519.079305765923
 20
385.7297846018178
 30
0.0
  0
VERTEX
  5
408
  8
1
  6
CONTINUOUS
 62
     7
 10
-1519.06711082356
 20
385.7498092443033
 30
0.0
  0
VERTEX
  5
409
  8
1
  6
CONTINUOUS
 62
     7
 10
-1519.055851870354
 20
385.7704346014845
 30
0.0
  0
VERTEX
  5
40A
  8
1
  6
CONTINUOUS
 62
     7
 10
-1519.045558108258
 20
385.7915865543187
 30
0.0
  0
VERTEX
  5
40B
  8
1
  6
CONTINUOUS
 62
     7
 10
-1519.036258739224
 20
385.8131909837633
 30
0.0
  0
VERTEX
  5
40C
  8
1
  6
CONTINUOUS
 62
     7
 10
-1519.027982965205
 20
385.8351737707756
 30
0.0
  0
VERTEX
  5
40D
  8
1
  6
CONTINUOUS
 62
     7
 10
-1519.020759988153
 20
385.857460796313
 30
0.0
  0
VERTEX
  5
40E
  8
1
  6
CONTINUOUS
 62
     7
 10
-1519.01461901002
 20
385.8799779413329
 30
0.0
  0
VERTEX
  5
40F
  8
1
  6
CONTINUOUS
 62
     7
 10
-1519.009373493165
 20
385.9036671378432
 30
0.0
  0
VERTEX
  5
410
  8
1
  6
CONTINUOUS
 62
     7
 10
-1519.005282336203
 20
385.9275998547668
 30
0.0
  0
VERTEX
  5
411
  8
1
  6
CONTINUOUS
 62
     7
 10
-1519.002352036667
 20
385.9516901793019
 30
0.0
  0
VERTEX
  5
412
  8
1
  6
CONTINUOUS
 62
     7
 10
-1519.000589092089
 20
385.9758521986469
 30
0.0
  0
VERTEX
  5
413
  8
1
  6
CONTINUOUS
 62
     7
 10
-1519.0
 20
386.0
 30
0.0
  0
SEQEND
  5
425
  8
1
  6
CONTINUOUS
 62
     7
  0
ARC
  5
A0
  8
1
  6
CONTINUOUS
 62
     7
 10
-1518.5
 20
385.0
 30
0.0
 40
3.3775158710637
 50
351.4867690477392
 51
8.513230952260699
  0
ARC
  5
A1
  8
1
  6
CONTINUOUS
 62
     7
 10
-1518.5
 20
385.0
 30
0.0
 40
3.3775158710637
 50
171.4867690477392
 51
188.5132309522607
  0
CIRCLE
  5
A2
  8
1
  6
CONTINUOUS
 62
     7
 10
-1396.5
 20
290.75
 30
0.0
 40
2.099999999999998
  0
CIRCLE
  5
A3
  8
1
  6
CONTINUOUS
 62
     7
 10
-1396.5
 20
290.75
 30
0.0
 40
3.999999999999996
  0
CIRCLE
  5
A4
  8
1
  6
CONTINUOUS
 62
     7
 10
-1488.5
 20
290.75
 30
0.0
 40
2.099999999999998
  0
CIRCLE
  5
A5
  8
1
  6
CONTINUOUS
 62
     7
 10
-1488.5
 20
290.75
 30
0.0
 40
3.999999999999996
  0
CIRCLE
  5
A6
  8
1
  6
CONTINUOUS
 62
     7
 10
-1442.5
 20
290.75
 30
0.0
 40
4.000000000000004
  0
CIRCLE
  5
A7
  8
1
  6
CONTINUOUS
 62
     7
 10
-1442.5
 20
290.75
 30
0.0
 40
2.1
  0
CIRCLE
  5
A8
  8
1
  6
CONTINUOUS
 62
     7
 10
-1396.5
 20
374.25
 30
0.0
 40
2.099999999999998
  0
CIRCLE
  5
A9
  8
1
  6
CONTINUOUS
 62
     7
 10
-1396.5
 20
374.25
 30
0.0
 40
3.999999999999996
  0
CIRCLE
  5
AA
  8
1
  6
CONTINUOUS
 62
     7
 10
-1442.5
 20
374.25
 30
0.0
 40
4.000000000000004
  0
CIRCLE
  5
AB
  8
1
  6
CONTINUOUS
 62
     7
 10
-1442.5
 20
374.25
 30
0.0
 40
2.1
  0
CIRCLE
  5
AC
  8
1
  6
CONTINUOUS
 62
     7
 10
-1488.5
 20
374.25
 30
0.0
 40
2.099999999999998
  0
CIRCLE
  5
AD
  8
1
  6
CONTINUOUS
 62
     7
 10
-1488.5
 20
374.25
 30
0.0
 40
3.999999999999996
  0
LINE
  5
AE
  8
1
  6
CONTINUOUS
 62
     7
 10
-1449.5
 20
378.5
 30
0.0
 11
-1481.5
 21
378.5
 31
0.0
  0
ARC
  5
AF
  8
1
  6
CONTINUOUS
 62
     7
 10
-1488.5
 20
374.25
 30
0.0
 40
5.5
 50
180.0
 51
252.6585571972406
  0
LINE
  5
B0
  8
1
  6
CONTINUOUS
 62
     7
 10
-1495.5
 20
378.5
 30
0.0
 11
-1510.0
 21
378.5
 31
0.0
  0
ARC
  5
B1
  8
1
  6
CONTINUOUS
 62
     7
 10
-1512.0
 20
369.5000000000001
 30
0.0
 40
0.5000000000000004
 50
270.0
 51
0.0
  0
LINE
  5
B2
  8
1
  6
CONTINUOUS
 62
     7
 10
-1435.5
 20
286.5
 30
0.0
 11
-1403.5
 21
286.5
 31
0.0
  0
LINE
  5
B3
  8
1
  6
CONTINUOUS
 62
     7
 10
-1389.5
 20
286.5
 30
0.0
 11
-1375.0
 21
286.5
 31
0.0
  0
ARC
  5
B4
  8
1
  6
CONTINUOUS
 62
     7
 10
-1510.5
 20
288.0
 30
0.0
 40
4.500000000000004
 50
180.0
 51
270.0
  0
LINE
  5
B5
  8
1
  6
CONTINUOUS
 62
     7
 10
-1494.0
 20
374.25
 30
0.0
 11
-1494.0
 21
377.0
 31
0.0
  0
LINE
  5
B6
  8
1
  6
CONTINUOUS
 62
     7
 10
-1391.0
 20
290.75
 30
0.0
 11
-1391.0
 21
288.0
 31
0.0
  0
LINE
  5
B7
  8
1
  6
CONTINUOUS
 62
     7
 10
-1486.860640368924
 20
369.0
 30
0.0
 11
-1490.139359631075
 21
369.0
 31
0.0
  0
LINE
  5
B8
  8
1
  6
CONTINUOUS
 62
     7
 10
-1511.5
 20
377.0
 30
0.0
 11
-1511.5
 21
369.5
 31
0.0
  0
LINE
  5
B9
  8
1
  6
CONTINUOUS
 62
     7
 10
-1483.0
 20
377.0
 30
0.0
 11
-1483.0
 21
374.25
 31
0.0
  0
LINE
  5
BA
  8
1
  6
CONTINUOUS
 62
     7
 10
-1448.0
 20
374.25
 30
0.0
 11
-1448.0
 21
377.0
 31
0.0
  0
ARC
  5
BB
  8
1
  6
CONTINUOUS
 62
     7
 10
-1442.5
 20
374.25
 30
0.0
 40
5.500000000000003
 50
180.0
 51
252.6585571972407
  0
ARC
  5
BC
  8
1
  6
CONTINUOUS
 62
     7
 10
-1442.5
 20
290.75
 30
0.0
 40
5.500000000000003
 50
0.0
 51
72.65855719724078
  0
LINE
  5
BD
  8
1
  6
CONTINUOUS
 62
     7
 10
-1440.860640368924
 20
369.0
 30
0.0
 11
-1444.139359631075
 21
369.0
 31
0.0
  0
ARC
  5
BE
  8
1
  6
CONTINUOUS
 62
     7
 10
-1373.0
 20
295.5
 30
0.0
 40
0.5000000000000004
 50
90.0
 51
180.0
  0
LINE
  5
BF
  8
1
  6
CONTINUOUS
 62
     7
 10
-1512.0
 20
369.0
 30
0.0
 11
-1512.0
 21
296.0
 31
0.0
  0
ARC
  5
C0
  8
1
  6
CONTINUOUS
 62
     7
 10
-1375.0
 20
288.0
 30
0.0
 40
1.500000000000001
 50
270.0
 51
0.0
  0
LINE
  5
C1
  8
1
  6
CONTINUOUS
 62
     7
 10
-1511.5
 20
288.0
 30
0.0
 11
-1511.5
 21
295.5000000000001
 31
0.0
  0
LINE
  5
C2
  8
1
  6
CONTINUOUS
 62
     7
 10
-1495.5
 20
286.5
 30
0.0
 11
-1510.0
 21
286.5
 31
0.0
  0
ARC
  5
C3
  8
1
  6
CONTINUOUS
 62
     7
 10
-1510.0
 20
377.0
 30
0.0
 40
1.500000000000001
 50
90.0
 51
180.0
  0
LINE
  5
C4
  8
1
  6
CONTINUOUS
 62
     7
 10
-1437.0
 20
290.75
 30
0.0
 11
-1437.0
 21
288.0
 31
0.0
  0
ARC
  5
C5
  8
1
  6
CONTINUOUS
 62
     7
 10
-1374.5
 20
377.0
 30
0.0
 40
4.500000000000004
 50
0.0
 51
90.0
  0
ARC
  5
C6
  8
1
  6
CONTINUOUS
 62
     7
 10
-1435.5
 20
377.0
 30
0.0
 40
1.500000000000001
 50
90.0
 51
180.0
  0
ARC
  5
C7
  8
1
  6
CONTINUOUS
 62
     7
 10
-1403.5
 20
377.0
 30
0.0
 40
1.500000000000001
 50
0.0
 51
90.0
  0
LINE
  5
C8
  8
1
  6
CONTINUOUS
 62
     7
 10
-1515.0
 20
288.0
 30
0.0
 11
-1515.0
 21
377.0
 31
0.0
  0
LINE
  5
C9
  8
1
  6
CONTINUOUS
 62
     7
 10
-1494.0
 20
290.75
 30
0.0
 11
-1494.0
 21
288.0
 31
0.0
  0
ARC
  5
CA
  8
1
  6
CONTINUOUS
 62
     7
 10
-1396.5
 20
290.75
 30
0.0
 40
5.5
 50
0.0
 51
72.65855719724061
  0
LINE
  5
CB
  8
1
  6
CONTINUOUS
 62
     7
 10
-1398.139359631075
 20
296.0000000000001
 30
0.0
 11
-1394.860640368925
 21
296.0000000000001
 31
0.0
  0
ARC
  5
CC
  8
1
  6
CONTINUOUS
 62
     7
 10
-1488.5
 20
374.25
 30
0.0
 40
5.499999999999998
 50
287.3414428027593
 51
0.0
  0
LINE
  5
CD
  8
1
  6
CONTINUOUS
 62
     7
 10
-1402.0
 20
288.0
 30
0.0
 11
-1402.0
 21
290.75
 31
0.0
  0
LINE
  5
CE
  8
1
  6
CONTINUOUS
 62
     7
 10
-1448.0
 20
290.75
 30
0.0
 11
-1448.0
 21
288.0
 31
0.0
  0
ARC
  5
CF
  8
1
  6
CONTINUOUS
 62
     7
 10
-1442.5
 20
290.75
 30
0.0
 40
5.500000000000003
 50
107.3414428027592
 51
180.0
  0
LINE
  5
D0
  8
1
  6
CONTINUOUS
 62
     7
 10
-1440.860640368924
 20
296.0000000000001
 30
0.0
 11
-1444.139359631075
 21
296.0000000000001
 31
0.0
  0
LINE
  5
D1
  8
1
  6
CONTINUOUS
 62
     7
 10
-1510.5
 20
283.5
 30
0.0
 11
-1374.5
 21
283.5
 31
0.0
  0
LINE
  5
D2
  8
1
  6
CONTINUOUS
 62
     7
 10
-1510.5
 20
381.5
 30
0.0
 11
-1374.5
 21
381.5
 31
0.0
  0
ARC
  5
D3
  8
1
  6
CONTINUOUS
 62
     7
 10
-1512.0
 20
295.5
 30
0.0
 40
0.5000000000000004
 50
0.0
 51
90.0
  0
ARC
  5
D4
  8
1
  6
CONTINUOUS
 62
     7
 10
-1510.0
 20
288.0
 30
0.0
 40
1.500000000000001
 50
180.0
 51
270.0
  0
LINE
  5
D5
  8
1
  6
CONTINUOUS
 62
     7
 10
-1449.5
 20
286.5
 30
0.0
 11
-1481.5
 21
286.5
 31
0.0
  0
LINE
  5
D6
  8
1
  6
CONTINUOUS
 62
     7
 10
-1370.0
 20
288.0
 30
0.0
 11
-1370.0
 21
377.0
 31
0.0
  0
LINE
  5
D7
  8
1
  6
CONTINUOUS
 62
     7
 10
-1391.0
 20
374.25
 30
0.0
 11
-1391.0
 21
377.0
 31
0.0
  0
ARC
  5
D8
  8
1
  6
CONTINUOUS
 62
     7
 10
-1396.5
 20
374.25
 30
0.0
 40
5.5
 50
287.3414428027593
 51
0.0
  0
LINE
  5
D9
  8
1
  6
CONTINUOUS
 62
     7
 10
-1398.139359631075
 20
369.0
 30
0.0
 11
-1394.860640368925
 21
369.0
 31
0.0
  0
ARC
  5
DA
  8
1
  6
CONTINUOUS
 62
     7
 10
-1488.5
 20
290.75
 30
0.0
 40
5.5
 50
107.3414428027594
 51
180.0
  0
LINE
  5
DB
  8
1
  6
CONTINUOUS
 62
     7
 10
-1486.860640368924
 20
296.0000000000001
 30
0.0
 11
-1490.139359631075
 21
296.0000000000001
 31
0.0
  0
ARC
  5
DC
  8
1
  6
CONTINUOUS
 62
     7
 10
-1488.5
 20
290.75
 30
0.0
 40
5.499999999999998
 50
0.0
 51
72.65855719724063
  0
LINE
  5
DD
  8
1
  6
CONTINUOUS
 62
     7
 10
-1483.0
 20
288.0
 30
0.0
 11
-1483.0
 21
290.75
 31
0.0
  0
ARC
  5
DE
  8
1
  6
CONTINUOUS
 62
     7
 10
-1396.5
 20
290.75
 30
0.0
 40
5.499999999999998
 50
107.3414428027594
 51
180.0
  0
LINE
  5
DF
  8
1
  6
CONTINUOUS
 62
     7
 10
-1373.0
 20
369.0
 30
0.0
 11
-1373.0
 21
296.0
 31
0.0
  0
ARC
  5
E0
  8
1
  6
CONTINUOUS
 62
     7
 10
-1373.0
 20
369.5000000000001
 30
0.0
 40
0.5000000000000004
 50
180.0
 51
270.0
  0
LINE
  5
E1
  8
1
  6
CONTINUOUS
 62
     7
 10
-1373.5
 20
377.0
 30
0.0
 11
-1373.5
 21
369.5
 31
0.0
  0
ARC
  5
E2
  8
1
  6
CONTINUOUS
 62
     7
 10
-1375.0
 20
377.0
 30
0.0
 40
1.500000000000001
 50
0.0
 51
90.0
  0
LINE
  5
E3
  8
1
  6
CONTINUOUS
 62
     7
 10
-1389.5
 20
378.5
 30
0.0
 11
-1375.0
 21
378.5
 31
0.0
  0
LINE
  5
E4
  8
1
  6
CONTINUOUS
 62
     7
 10
-1373.5
 20
288.0
 30
0.0
 11
-1373.5
 21
295.5000000000001
 31
0.0
  0
LINE
  5
E5
  8
1
  6
CONTINUOUS
 62
     7
 10
-1435.5
 20
378.5
 30
0.0
 11
-1403.5
 21
378.5
 31
0.0
  0
ARC
  5
E6
  8
1
  6
CONTINUOUS
 62
     7
 10
-1510.5
 20
377.0
 30
0.0
 40
4.500000000000004
 50
90.0
 51
180.0
  0
ARC
  5
E7
  8
1
  6
CONTINUOUS
 62
     7
 10
-1449.5
 20
377.0
 30
0.0
 40
1.500000000000001
 50
0.0
 51
90.0
  0
ARC
  5
E8
  8
1
  6
CONTINUOUS
 62
     7
 10
-1481.5
 20
377.0
 30
0.0
 40
1.500000000000001
 50
90.0
 51
180.0
  0
ARC
  5
E9
  8
1
  6
CONTINUOUS
 62
     7
 10
-1495.5
 20
377.0
 30
0.0
 40
1.500000000000001
 50
0.0
 51
90.0
  0
ARC
  5
EA
  8
1
  6
CONTINUOUS
 62
     7
 10
-1449.5
 20
288.0
 30
0.0
 40
1.500000000000001
 50
270.0
 51
0.0
  0
ARC
  5
EB
  8
1
  6
CONTINUOUS
 62
     7
 10
-1481.5
 20
288.0
 30
0.0
 40
1.500000000000001
 50
180.0
 51
270.0
  0
ARC
  5
EC
  8
1
  6
CONTINUOUS
 62
     7
 10
-1495.5
 20
288.0
 30
0.0
 40
1.500000000000001
 50
270.0
 51
0.0
  0
ARC
  5
ED
  8
1
  6
CONTINUOUS
 62
     7
 10
-1389.5
 20
377.0
 30
0.0
 40
1.500000000000001
 50
90.0
 51
180.0
  0
ARC
  5
EE
  8
1
  6
CONTINUOUS
 62
     7
 10
-1396.5
 20
374.25
 30
0.0
 40
5.499999999999998
 50
180.0
 51
252.6585571972406
  0
LINE
  5
EF
  8
1
  6
CONTINUOUS
 62
     7
 10
-1402.0
 20
377.0
 30
0.0
 11
-1402.0
 21
374.25
 31
0.0
  0
LINE
  5
F0
  8
1
  6
CONTINUOUS
 62
     7
 10
-1437.0
 20
374.25
 30
0.0
 11
-1437.0
 21
377.0
 31
0.0
  0
ARC
  5
F1
  8
1
  6
CONTINUOUS
 62
     7
 10
-1442.5
 20
374.25
 30
0.0
 40
5.500000000000003
 50
287.3414428027592
 51
0.0
  0
ARC
  5
F2
  8
1
  6
CONTINUOUS
 62
     7
 10
-1374.5
 20
288.0
 30
0.0
 40
4.500000000000004
 50
270.0
 51
0.0
  0
ARC
  5
F3
  8
1
  6
CONTINUOUS
 62
     7
 10
-1435.5
 20
288.0
 30
0.0
 40
1.500000000000001
 50
180.0
 51
270.0
  0
ARC
  5
F4
  8
1
  6
CONTINUOUS
 62
     7
 10
-1403.5
 20
288.0
 30
0.0
 40
1.500000000000001
 50
270.0
 51
0.0
  0
ARC
  5
F5
  8
1
  6
CONTINUOUS
 62
     7
 10
-1389.5
 20
288.0
 30
0.0
 40
1.500000000000001
 50
180.0
 51
270.0
  0
LINE
  5
F6
  8
1
  6
CONTINUOUS
 62
     7
 10
-1442.0
 20
393.5
 30
0.0
 11
-1442.0
 21
394.0
 31
0.0
  0
LINE
  5
F7
  8
1
  6
CONTINUOUS
 62
     7
 10
-1350.5
 20
333.0
 30
0.0
 11
-1351.0
 21
333.0
 31
0.0
  0
LINE
  5
F8
  8
1
  6
CONTINUOUS
 62
     7
 10
-1534.5
 20
332.0
 30
0.0
 11
-1534.5
 21
272.5
 31
0.0
  0
LINE
  5
F9
  8
1
  6
CONTINUOUS
 62
     7
 10
-1534.5
 20
332.0
 30
0.0
 11
-1534.0
 21
332.0
 31
0.0
  0
LINE
  5
FA
  8
1
  6
CONTINUOUS
 62
     7
 10
-1361.897305991436
 20
281.8702159938182
 30
0.0
 11
-1363.031625889257
 21
280.4694475773989
 31
0.0
  0
LINE
  5
FB
  8
1
  6
CONTINUOUS
 62
     7
 10
-1366.23807349575
 20
276.5098145455619
 30
0.0
 11
-1367.37239339357
 21
275.1090461291425
 31
0.0
  0
ARC
  5
FC
  8
1
  6
CONTINUOUS
 62
     7
 10
-1369.237543701067
 20
276.6194150676622
 30
0.0
 40
2.399999999999999
 50
141.0000000000011
 51
320.9999999999986
  0
LINE
  5
FD
  8
1
  6
CONTINUOUS
 62
     7
 10
-1534.5
 20
333.0
 30
0.0
 11
-1534.0
 21
333.0
 31
0.0
  0
LINE
  5
FE
  8
1
  6
CONTINUOUS
 62
     7
 10
-1350.5
 20
333.0
 30
0.0
 11
-1350.5
 21
392.5
 31
0.0
  0
ARC
  5
FF
  8
1
  6
CONTINUOUS
 62
     7
 10
-1352.0
 20
272.5
 30
0.0
 40
1.500000000000001
 50
270.0
 51
0.0
  0
LINE
  5
100
  8
1
  6
CONTINUOUS
 62
     7
 10
-1350.5
 20
332.0
 30
0.0
 11
-1350.5
 21
272.5
 31
0.0
  0
LINE
  5
101
  8
1
  6
CONTINUOUS
 62
     7
 10
-1350.5
 20
332.0
 30
0.0
 11
-1351.0
 21
332.0
 31
0.0
  0
LINE
  5
102
  8
1
  6
CONTINUOUS
 62
     7
 10
-1442.0
 20
271.5
 30
0.0
 11
-1442.0
 21
271.0
 31
0.0
  0
ARC
  5
103
  8
1
  6
CONTINUOUS
 62
     7
 10
-1369.237543701067
 20
388.3805849323379
 30
0.0
 40
2.399999999999999
 50
39.00000000000137
 51
218.9999999999989
  0
LINE
  5
104
  8
1
  6
CONTINUOUS
 62
     7
 10
-1361.897305991436
 20
383.1297840061819
 30
0.0
 11
-1363.031625889257
 21
384.5305524226011
 31
0.0
  0
LINE
  5
105
  8
1
  6
CONTINUOUS
 62
     7
 10
-1366.23807349575
 20
388.4901854544381
 30
0.0
 11
-1367.37239339357
 21
389.8909538708575
 31
0.0
  0
ARC
  5
106
  8
1
  6
CONTINUOUS
 62
     7
 10
-1363.762456298933
 20
381.6194150676622
 30
0.0
 40
2.399999999999995
 50
218.9999999999987
 51
39.00000000000136
  0
LINE
  5
107
  8
1
  6
CONTINUOUS
 62
     7
 10
-1443.0
 20
271.5
 30
0.0
 11
-1443.0
 21
271.0
 31
0.0
  0
LINE
  5
108
  8
1
  6
CONTINUOUS
 62
     7
 10
-1371.102694008564
 20
278.1297840061818
 30
0.0
 11
-1369.968374110743
 21
279.5305524226011
 31
0.0
  0
LINE
  5
109
  8
1
  6
CONTINUOUS
 62
     7
 10
-1366.76192650425
 20
283.4901854544382
 30
0.0
 11
-1365.62760660643
 21
284.8909538708574
 31
0.0
  0
LINE
  5
10A
  8
1
  6
CONTINUOUS
 62
     7
 10
-1523.102694008563
 20
281.8702159938182
 30
0.0
 11
-1521.968374110743
 21
280.4694475773989
 31
0.0
  0
LINE
  5
10B
  8
1
  6
CONTINUOUS
 62
     7
 10
-1518.76192650425
 20
276.5098145455619
 30
0.0
 11
-1517.62760660643
 21
275.1090461291425
 31
0.0
  0
ARC
  5
10C
  8
1
  6
CONTINUOUS
 62
     7
 10
-1521.237543701066
 20
283.3805849323378
 30
0.0
 40
2.399999999999995
 50
38.99999999999873
 51
219.0000000000014
  0
ARC
  5
10D
  8
1
  6
CONTINUOUS
 62
     7
 10
-1363.762456298933
 20
283.3805849323378
 30
0.0
 40
2.399999999999995
 50
320.9999999999986
 51
141.0000000000013
  0
LINE
  5
10E
  8
1
  6
CONTINUOUS
 62
     7
 10
-1371.102694008564
 20
386.8702159938182
 30
0.0
 11
-1369.968374110743
 21
385.4694475773989
 31
0.0
  0
LINE
  5
10F
  8
1
  6
CONTINUOUS
 62
     7
 10
-1366.76192650425
 20
381.5098145455619
 30
0.0
 11
-1365.62760660643
 21
380.1090461291427
 31
0.0
  0
LINE
  5
110
  8
1
  6
CONTINUOUS
 62
     7
 10
-1443.0
 20
393.5
 30
0.0
 11
-1443.0
 21
394.0
 31
0.0
  0
LINE
  5
111
  8
1
  6
CONTINUOUS
 62
     7
 10
-1523.102694008563
 20
383.1297840061819
 30
0.0
 11
-1521.968374110743
 21
384.5305524226011
 31
0.0
  0
LINE
  5
112
  8
1
  6
CONTINUOUS
 62
     7
 10
-1518.76192650425
 20
388.4901854544381
 30
0.0
 11
-1517.62760660643
 21
389.8909538708575
 31
0.0
  0
LINE
  5
113
  8
1
  6
CONTINUOUS
 62
     7
 10
-1534.5
 20
333.0
 30
0.0
 11
-1534.5
 21
392.5
 31
0.0
  0
LINE
  5
114
  8
1
  6
CONTINUOUS
 62
     7
 10
-1352.0
 20
394.0
 30
0.0
 11
-1442.0
 21
394.0
 31
0.0
  0
LINE
  5
115
  8
1
  6
CONTINUOUS
 62
     7
 10
-1513.897305991436
 20
278.1297840061818
 30
0.0
 11
-1515.031625889256
 21
279.5305524226011
 31
0.0
  0
LINE
  5
116
  8
1
  6
CONTINUOUS
 62
     7
 10
-1518.23807349575
 20
283.4901854544382
 30
0.0
 11
-1519.37239339357
 21
284.8909538708574
 31
0.0
  0
LINE
  5
117
  8
1
  6
CONTINUOUS
 62
     7
 10
-1533.0
 20
394.0
 30
0.0
 11
-1443.0
 21
394.0
 31
0.0
  0
ARC
  5
118
  8
1
  6
CONTINUOUS
 62
     7
 10
-1533.0
 20
392.5
 30
0.0
 40
1.500000000000001
 50
90.0
 51
180.0
  0
ARC
  5
119
  8
1
  6
CONTINUOUS
 62
     7
 10
-1533.0
 20
272.5
 30
0.0
 40
1.500000000000001
 50
180.0
 51
270.0
  0
LINE
  5
11A
  8
1
  6
CONTINUOUS
 62
     7
 10
-1533.0
 20
271.0
 30
0.0
 11
-1443.0
 21
271.0
 31
0.0
  0
ARC
  5
11B
  8
1
  6
CONTINUOUS
 62
     7
 10
-1515.762456298933
 20
388.3805849323379
 30
0.0
 40
2.399999999999999
 50
321.0000000000011
 51
140.9999999999986
  0
ARC
  5
11C
  8
1
  6
CONTINUOUS
 62
     7
 10
-1515.762456298933
 20
276.6194150676622
 30
0.0
 40
2.399999999999999
 50
219.0000000000014
 51
38.99999999999887
  0
LINE
  5
11D
  8
1
  6
CONTINUOUS
 62
     7
 10
-1352.0
 20
271.0
 30
0.0
 11
-1442.0
 21
271.0
 31
0.0
  0
ARC
  5
11E
  8
1
  6
CONTINUOUS
 62
     7
 10
-1521.237543701066
 20
381.6194150676622
 30
0.0
 40
2.399999999999995
 50
140.9999999999986
 51
321.0000000000013
  0
LINE
  5
11F
  8
1
  6
CONTINUOUS
 62
     7
 10
-1513.897305991436
 20
386.8702159938182
 30
0.0
 11
-1515.031625889256
 21
385.4694475773989
 31
0.0
  0
LINE
  5
120
  8
1
  6
CONTINUOUS
 62
     7
 10
-1518.23807349575
 20
381.5098145455619
 30
0.0
 11
-1519.37239339357
 21
380.1090461291427
 31
0.0
  0
ARC
  5
121
  8
1
  6
CONTINUOUS
 62
     7
 10
-1352.0
 20
392.5
 30
0.0
 40
1.500000000000001
 50
0.0
 51
90.0
  0
CIRCLE
  5
122
  8
1
  6
CONTINUOUS
 62
     7
 10
-1442.5
 20
332.5
 30
0.0
 40
13.5
  0
CIRCLE
  5
123
  8
1
  6
CONTINUOUS
 62
     7
 10
-1442.5
 20
332.5
 30
0.0
 40
5.749999999999999
  0
LINE
  5
124
  8
1
  6
CONTINUOUS
 62
     7
 10
-1429.037087982164
 20
331.5
 30
0.0
 11
-1427.887482193696
 21
331.5
 31
0.0
  0
LINE
  5
125
  8
1
  6
CONTINUOUS
 62
     7
 10
-1462.75
 20
378.5
 30
0.0
 11
-1462.75
 21
337.5
 31
0.0
  0
ARC
  5
126
  8
1
  6
CONTINUOUS
 62
     7
 10
-1462.25
 20
337.5
 30
0.0
 40
0.5000000000000004
 50
180.0
 51
270.0
  0
LINE
  5
127
  8
1
  6
CONTINUOUS
 62
     7
 10
-1462.25
 20
337.0
 30
0.0
 11
-1461.5
 21
337.0
 31
0.0
  0
ARC
  5
128
  8
1
  6
CONTINUOUS
 62
     7
 10
-1461.5
 20
332.5
 30
0.0
 40
4.5
 50
12.83958840690423
 51
90.00000000000011
  0
LINE
  5
129
  8
1
  6
CONTINUOUS
 62
     7
 10
-1455.962912017836
 20
333.5
 30
0.0
 11
-1457.112517806304
 21
333.5
 31
0.0
  0
LINE
  5
12A
  8
1
  6
CONTINUOUS
 62
     7
 10
-1457.112517806304
 20
331.5
 30
0.0
 11
-1455.962912017836
 21
331.5
 31
0.0
  0
ARC
  5
12B
  8
1
  6
CONTINUOUS
 62
     7
 10
-1461.5
 20
332.5
 30
0.0
 40
4.5
 50
270.0
 51
347.1604115930959
  0
LINE
  5
12C
  8
1
  6
CONTINUOUS
 62
     7
 10
-1461.5
 20
328.0
 30
0.0
 11
-1462.25
 21
328.0
 31
0.0
  0
ARC
  5
12D
  8
1
  6
CONTINUOUS
 62
     7
 10
-1462.25
 20
327.5
 30
0.0
 40
0.5000000000000004
 50
90.0
 51
180.0
  0
LINE
  5
12E
  8
1
  6
CONTINUOUS
 62
     7
 10
-1462.75
 20
327.5
 30
0.0
 11
-1462.75
 21
286.5
 31
0.0
  0
LINE
  5
12F
  8
1
  6
CONTINUOUS
 62
     7
 10
-1427.887482193696
 20
333.5
 30
0.0
 11
-1429.037087982164
 21
333.5
 31
0.0
  0
LINE
  5
130
  8
1
  6
CONTINUOUS
 62
     7
 10
-1422.25
 20
327.5
 30
0.0
 11
-1422.25
 21
286.5
 31
0.0
  0
ARC
  5
131
  8
1
  6
CONTINUOUS
 62
     7
 10
-1422.75
 20
327.5
 30
0.0
 40
0.5000000000000004
 50
0.0
 51
90.0
  0
LINE
  5
132
  8
1
  6
CONTINUOUS
 62
     7
 10
-1423.5
 20
328.0
 30
0.0
 11
-1422.75
 21
328.0
 31
0.0
  0
ARC
  5
133
  8
1
  6
CONTINUOUS
 62
     7
 10
-1423.5
 20
332.5
 30
0.0
 40
4.5
 50
192.8395884069042
 51
270.0
  0
ARC
  5
134
  8
1
  6
CONTINUOUS
 62
     7
 10
-1423.5
 20
332.5
 30
0.0
 40
4.5
 50
89.99999999999991
 51
167.1604115930958
  0
LINE
  5
135
  8
1
  6
CONTINUOUS
 62
     7
 10
-1422.75
 20
337.0
 30
0.0
 11
-1423.5
 21
337.0
 31
0.0
  0
ARC
  5
136
  8
1
  6
CONTINUOUS
 62
     7
 10
-1422.75
 20
337.5
 30
0.0
 40
0.5000000000000004
 50
270.0
 51
0.0
  0
LINE
  5
137
  8
1
  6
CONTINUOUS
 62
     7
 10
-1422.25
 20
378.5
 30
0.0
 11
-1422.25
 21
337.5
 31
0.0
  0
CIRCLE
  5
138
  8
1
  6
CONTINUOUS
 62
     7
 10
-1442.5
 20
313.5
 30
0.0
 40
2.999999999999999
  0
LINE
  5
139
  8
1
  6
CONTINUOUS
 62
     7
 10
-1443.5
 20
319.0370879821637
 30
0.0
 11
-1443.5
 21
317.887482193696
 31
0.0
  0
LINE
  5
13A
  8
1
  6
CONTINUOUS
 62
     7
 10
-1441.5
 20
317.8874821936961
 30
0.0
 11
-1441.5
 21
319.0370879821638
 31
0.0
  0
ARC
  5
13B
  8
1
  6
CONTINUOUS
 62
     7
 10
-1442.5
 20
313.5
 30
0.0
 40
4.5
 50
102.8395884069041
 51
77.16041159309584
  0
CIRCLE
  5
13C
  8
1
  6
CONTINUOUS
 62
     7
 10
-1442.5
 20
351.5
 30
0.0
 40
2.999999999999999
  0
ARC
  5
13D
  8
1
  6
CONTINUOUS
 62
     7
 10
-1442.5
 20
351.5
 30
0.0
 40
4.5
 50
282.8395884069041
 51
257.1604115930959
  0
LINE
  5
13E
  8
1
  6
CONTINUOUS
 62
     7
 10
-1441.5
 20
345.9629120178363
 30
0.0
 11
-1441.5
 21
347.112517806304
 31
0.0
  0
LINE
  5
13F
  8
1
  6
CONTINUOUS
 62
     7
 10
-1443.5
 20
347.1125178063039
 30
0.0
 11
-1443.5
 21
345.9629120178362
 31
0.0
  0
LINE
  5
140
  8
1
  6
CONTINUOUS
 62
     7
 10
-1373.0
 20
333.5
 30
0.0
 11
-1405.612517806304
 21
333.5
 31
0.0
  0
LINE
  5
141
  8
1
  6
CONTINUOUS
 62
     7
 10
-1468.25
 20
333.5
 30
0.0
 11
-1470.612517806304
 21
333.5
 31
0.0
  0
LINE
  5
142
  8
1
  6
CONTINUOUS
 62
     7
 10
-1414.387482193696
 20
333.5
 30
0.0
 11
-1416.75
 21
333.5
 31
0.0
  0
LINE
  5
143
  8
1
  6
CONTINUOUS
 62
     7
 10
-1479.387482193696
 20
333.5
 30
0.0
 11
-1512.0
 21
333.5
 31
0.0
  0
LINE
  5
144
  8
1
  6
CONTINUOUS
 62
     7
 10
-1512.0
 20
331.5
 30
0.0
 11
-1479.387482193696
 21
331.5
 31
0.0
  0
CIRCLE
  5
145
  8
1
  6
CONTINUOUS
 62
     7
 10
-1410.0
 20
332.5
 30
0.0
 40
2.999999999999996
  0
LINE
  5
146
  8
1
  6
CONTINUOUS
 62
     7
 10
-1416.75
 20
331.5
 30
0.0
 11
-1414.387482193696
 21
331.5
 31
0.0
  0
LINE
  5
147
  8
1
  6
CONTINUOUS
 62
     7
 10
-1416.75
 20
333.5
 30
0.0
 11
-1416.75
 21
378.5
 31
0.0
  0
LINE
  5
148
  8
1
  6
CONTINUOUS
 62
     7
 10
-1405.612517806304
 20
331.5
 30
0.0
 11
-1373.0
 21
331.5
 31
0.0
  0
ARC
  5
149
  8
1
  6
CONTINUOUS
 62
     7
 10
-1410.0
 20
332.5
 30
0.0
 40
4.500000000000003
 50
192.8395884069041
 51
347.1604115930959
  0
ARC
  5
14A
  8
1
  6
CONTINUOUS
 62
     7
 10
-1410.0
 20
332.5
 30
0.0
 40
4.5
 50
12.83958840690411
 51
167.1604115930959
  0
LINE
  5
14B
  8
1
  6
CONTINUOUS
 62
     7
 10
-1416.75
 20
286.5
 30
0.0
 11
-1416.75
 21
331.5
 31
0.0
  0
CIRCLE
  5
14C
  8
1
  6
CONTINUOUS
 62
     7
 10
-1475.0
 20
332.5
 30
0.0
 40
2.999999999999996
  0
LINE
  5
14D
  8
1
  6
CONTINUOUS
 62
     7
 10
-1470.612517806304
 20
331.5
 30
0.0
 11
-1468.25
 21
331.5
 31
0.0
  0
ARC
  5
14E
  8
1
  6
CONTINUOUS
 62
     7
 10
-1475.0
 20
332.5
 30
0.0
 40
4.500000000000003
 50
192.8395884069041
 51
347.1604115930958
  0
LINE
  5
14F
  8
1
  6
CONTINUOUS
 62
     7
 10
-1468.25
 20
333.5
 30
0.0
 11
-1468.25
 21
378.5
 31
0.0
  0
ARC
  5
150
  8
1
  6
CONTINUOUS
 62
     7
 10
-1475.0
 20
332.5
 30
0.0
 40
4.5
 50
12.83958840690415
 51
167.1604115930958
  0
LINE
  5
151
  8
1
  6
CONTINUOUS
 62
     7
 10
-1468.25
 20
286.5
 30
0.0
 11
-1468.25
 21
331.5
 31
0.0
  0
ENDBLK
  8
0
  0
BLOCK
  8
0
  2
D_FRAME_VIEW_3371
 70
     0
 10
0.0
 20
0.0
 30
0.0
  0
LINE
  5
167
  8
1
  6
CONTINUOUS
 62
     7
 10
-1363.122484128936
 20
222.4000000000001
 30
0.0
 11
-1363.159698597538
 21
222.4000000000001
 31
0.0
  0
LINE
  5
168
  8
1
  6
CONTINUOUS
 62
     7
 10
-1369.840301402462
 20
222.4000000000001
 30
0.0
 11
-1369.877515871064
 21
222.4000000000001
 31
0.0
  0
LINE
  5
169
  8
1
  6
CONTINUOUS
 62
     7
 10
-1369.833117626114
 20
222.4812042990444
 30
0.0
 11
-1369.840301402462
 21
222.4000000000001
 31
0.0
  0
LINE
  5
16A
  8
1
  6
CONTINUOUS
 62
     7
 10
-1363.159698597538
 20
222.4000000000001
 30
0.0
 11
-1363.166882373885
 21
222.4812042990444
 31
0.0
  0
ARC
  5
16B
  8
1
  6
CONTINUOUS
 62
     7
 10
-1368.540101253365
 20
222.3639908512722
 30
0.0
 40
1.298318270893352
 50
112.9119507901822
 51
174.8202280498839
  0
ARC
  5
16C
  8
1
  6
CONTINUOUS
 62
     7
 10
-1364.45941513352
 20
222.3643439466382
 30
0.0
 40
1.297804791443822
 50
5.166174632904007
 51
67.10164652703092
  0
LINE
  5
16D
  8
1
  6
CONTINUOUS
 62
     7
 10
-1366.0
 20
223.7163714733493
 30
0.0
 11
-1367.0
 21
223.7163714733493
 31
0.0
  0
LINE
  5
16E
  8
1
  6
CONTINUOUS
 62
     7
 10
-1366.0
 20
224.0031242374329
 30
0.0
 11
-1366.0
 21
223.7163714733493
 31
0.0
  0
LINE
  5
16F
  8
1
  6
CONTINUOUS
 62
     7
 10
-1365.5
 20
224.0031242374329
 30
0.0
 11
-1366.0
 21
224.0031242374329
 31
0.0
  0
ARC
  5
170
  8
1
  6
CONTINUOUS
 62
     7
 10
-1366.5
 20
217.6000000000001
 30
0.0
 40
6.480740698407832
 50
66.87190898975547
 51
81.12360491902666
  0
ARC
  5
171
  8
1
  6
CONTINUOUS
 62
     7
 10
-1366.5
 20
217.6000000000001
 30
0.0
 40
6.48074069840789
 50
98.87639508097337
 51
113.1280910102446
  0
LINE
  5
172
  8
1
  6
CONTINUOUS
 62
     7
 10
-1367.0
 20
224.0031242374329
 30
0.0
 11
-1367.5
 21
224.0031242374329
 31
0.0
  0
LINE
  5
173
  8
1
  6
CONTINUOUS
 62
     7
 10
-1367.0
 20
223.7163714733493
 30
0.0
 11
-1367.0
 21
224.0031242374329
 31
0.0
  0
LINE
  5
174
  8
1
  6
CONTINUOUS
 62
     7
 10
-1521.877515871063
 20
222.4000000000001
 30
0.0
 11
-1521.840301402462
 21
222.4000000000001
 31
0.0
  0
LINE
  5
175
  8
1
  6
CONTINUOUS
 62
     7
 10
-1521.840301402462
 20
222.4000000000001
 30
0.0
 11
-1521.833117626114
 21
222.4812042990444
 31
0.0
  0
LINE
  5
176
  8
1
  6
CONTINUOUS
 62
     7
 10
-1515.166882373885
 20
222.4812042990444
 30
0.0
 11
-1515.159698597538
 21
222.4000000000001
 31
0.0
  0
LINE
  5
177
  8
1
  6
CONTINUOUS
 62
     7
 10
-1515.159698597538
 20
222.4000000000001
 30
0.0
 11
-1515.122484128936
 21
222.4000000000001
 31
0.0
  0
ARC
  5
178
  8
1
  6
CONTINUOUS
 62
     7
 10
-1520.540584866479
 20
222.3643439466382
 30
0.0
 40
1.297804791443822
 50
112.8983534729691
 51
174.833825367096
  0
ARC
  5
179
  8
1
  6
CONTINUOUS
 62
     7
 10
-1516.459898746634
 20
222.3639908512722
 30
0.0
 40
1.298318270893352
 50
5.17977195011605
 51
67.08804920981783
  0
LINE
  5
17A
  8
1
  6
CONTINUOUS
 62
     7
 10
-1518.0
 20
224.0031242374329
 30
0.0
 11
-1517.5
 21
224.0031242374329
 31
0.0
  0
ARC
  5
17B
  8
1
  6
CONTINUOUS
 62
     7
 10
-1518.5
 20
217.6000000000001
 30
0.0
 40
6.48074069840789
 50
66.87190898975547
 51
81.12360491902666
  0
ARC
  5
17C
  8
1
  6
CONTINUOUS
 62
     7
 10
-1518.5
 20
217.6000000000001
 30
0.0
 40
6.480740698407832
 50
98.87639508097334
 51
113.1280910102445
  0
LINE
  5
17D
  8
1
  6
CONTINUOUS
 62
     7
 10
-1519.5
 20
224.0031242374329
 30
0.0
 11
-1519.0
 21
224.0031242374329
 31
0.0
  0
LINE
  5
17E
  8
1
  6
CONTINUOUS
 62
     7
 10
-1519.0
 20
224.0031242374329
 30
0.0
 11
-1519.0
 21
223.7163714733493
 31
0.0
  0
LINE
  5
17F
  8
1
  6
CONTINUOUS
 62
     7
 10
-1519.0
 20
223.7163714733493
 30
0.0
 11
-1518.0
 21
223.7163714733493
 31
0.0
  0
LINE
  5
180
  8
1
  6
CONTINUOUS
 62
     7
 10
-1518.0
 20
223.7163714733493
 30
0.0
 11
-1518.0
 21
224.0031242374329
 31
0.0
  0
LINE
  5
181
  8
1
  6
CONTINUOUS
 62
     7
 10
-1442.0
 20
221.0000000000001
 30
0.0
 11
-1442.0
 21
217.5000000000001
 31
0.0
  0
LINE
  5
182
  8
1
  6
CONTINUOUS
 62
     7
 10
-1443.0
 20
221.0000000000001
 30
0.0
 11
-1443.0
 21
217.5000000000001
 31
0.0
  0
LINE
  5
183
  8
1
  6
CONTINUOUS
 62
     7
 10
-1350.5
 20
221.0000000000001
 30
0.0
 11
-1350.5
 21
217.5000000000001
 31
0.0
  0
LINE
  5
184
  8
1
  6
CONTINUOUS
 62
     7
 10
-1534.5
 20
221.0000000000001
 30
0.0
 11
-1534.5
 21
217.5000000000001
 31
0.0
  0
ARC
  5
185
  8
1
  6
CONTINUOUS
 62
     7
 10
-1516.0
 20
222.0000000000001
 30
0.0
 40
0.9999999999998899
 50
340.3728783091673
 51
0.0
  0
ARC
  5
186
  8
1
  6
CONTINUOUS
 62
     7
 10
-1369.0
 20
222.0000000000001
 30
0.0
 40
1.000000000000002
 50
180.0
 51
199.6271216908326
  0
LINE
  5
187
  8
1
  6
CONTINUOUS
 62
     7
 10
-1515.0
 20
231.5000000000001
 30
0.0
 11
-1515.0
 21
222.0000000000001
 31
0.0
  0
LINE
  5
188
  8
1
  6
CONTINUOUS
 62
     7
 10
-1370.0
 20
231.5000000000001
 30
0.0
 11
-1370.0
 21
222.0000000000001
 31
0.0
  0
CIRCLE
  5
189
  8
1
  6
CONTINUOUS
 62
     7
 10
-1442.5
 20
188.5
 30
0.0
 40
16.9999999999999
  0
CIRCLE
  5
18A
  8
1
  6
CONTINUOUS
 62
     7
 10
-1495.5
 20
188.5
 30
0.0
 40
16.9999999999999
  0
CIRCLE
  5
18B
  8
1
  6
CONTINUOUS
 62
     7
 10
-1389.5
 20
188.5
 30
0.0
 40
17.00000000000012
  0
LINE
  5
18C
  8
1
  6
CONTINUOUS
 62
     7
 10
-1443.25
 20
213.25
 30
0.0
 11
-1443.25
 21
217.5
 31
0.0
  0
ARC
  5
18D
  8
1
  6
CONTINUOUS
 62
     7
 10
-1442.5
 20
213.25
 30
0.0
 40
0.7500000000000284
 50
180.0000000000006
 51
0.0
  0
LINE
  5
18E
  8
1
  6
CONTINUOUS
 62
     7
 10
-1441.75
 20
217.5
 30
0.0
 11
-1441.75
 21
213.25
 31
0.0
  0
CIRCLE
  5
18F
  8
1
  6
CONTINUOUS
 62
     7
 10
-1360.25
 20
169.6
 30
0.0
 40
2.099999999999991
  0
CIRCLE
  5
190
  8
1
  6
CONTINUOUS
 62
     7
 10
-1524.75
 20
169.6
 30
0.0
 40
2.099999999999991
  0
LINE
  5
191
  8
1
  6
CONTINUOUS
 62
     7
 10
-1351.5
 20
217.5
 30
0.0
 11
-1351.5
 21
166.5
 31
0.0
  0
LINE
  5
192
  8
1
  6
CONTINUOUS
 62
     7
 10
-1533.5
 20
166.5
 30
0.0
 11
-1533.5
 21
217.5
 31
0.0
  0
ARC
  5
193
  8
1
  6
CONTINUOUS
 62
     7
 10
-1530.5
 20
166.5
 30
0.0
 40
2.999999999999892
 50
180.0
 51
270.0
  0
ARC
  5
194
  8
1
  6
CONTINUOUS
 62
     7
 10
-1354.5
 20
166.5
 30
0.0
 40
3.000000000000003
 50
270.0
 51
0.0000000000000568
  0
LINE
  5
195
  8
1
  6
CONTINUOUS
 62
     7
 10
-1363.0
 20
221.0000000000001
 30
0.0
 11
-1363.122484128936
 21
222.4000000000001
 31
0.0
  0
LINE
  5
196
  8
1
  6
CONTINUOUS
 62
     7
 10
-1369.877515871064
 20
222.4000000000001
 30
0.0
 11
-1370.0
 21
221.0000000000001
 31
0.0
  0
LINE
  5
197
  8
1
  6
CONTINUOUS
 62
     7
 10
-1515.0
 20
221.0000000000001
 30
0.0
 11
-1515.122484128936
 21
222.4000000000001
 31
0.0
  0
LINE
  5
198
  8
1
  6
CONTINUOUS
 62
     7
 10
-1521.877515871063
 20
222.4000000000001
 30
0.0
 11
-1522.0
 21
221.0000000000001
 31
0.0
  0
ENDBLK
  8
0
  0
BLOCK
  8
0
  2
D_FRAME_VIEW_2747
 70
     0
 10
0.0
 20
0.0
 30
0.0
  0
LINE
  5
1BA
  8
1
  6
CONTINUOUS
 62
     7
 10
-1287.4
 20
280.5
 30
0.0
 11
-1287.4
 21
279.5
 31
0.0
  0
LINE
  5
1BB
  8
1
  6
CONTINUOUS
 62
     7
 10
-1288.716371473349
 20
282.2
 30
0.0
 11
-1288.716371473349
 21
282.1424285285629
 31
0.0
  0
LINE
  5
1BC
  8
1
  6
CONTINUOUS
 62
     7
 10
-1289.003124237433
 20
281.0
 30
0.0
 11
-1289.003124237433
 21
280.5
 31
0.0
  0
ARC
  5
1BD
  8
1
  6
CONTINUOUS
 62
     7
 10
-1282.6
 20
280.0
 30
0.0
 40
6.480740698407864
 50
160.6957803932083
 51
171.1236049190266
  0
LINE
  5
1BE
  8
1
  6
CONTINUOUS
 62
     7
 10
-1288.716371473349
 20
277.8575714714372
 30
0.0
 11
-1288.716371473349
 21
277.8000000000001
 31
0.0
  0
ARC
  5
1BF
  8
1
  6
CONTINUOUS
 62
     7
 10
-1282.6
 20
280.0
 30
0.0
 40
6.480740698407955
 50
188.8763950809733
 51
199.3042196067915
  0
LINE
  5
1C0
  8
1
  6
CONTINUOUS
 62
     7
 10
-1289.003124237433
 20
279.5
 30
0.0
 11
-1289.003124237433
 21
279.0
 31
0.0
  0
LINE
  5
1C1
  8
1
  6
CONTINUOUS
 62
     7
 10
-1287.4
 20
384.5
 30
0.0
 11
-1287.4
 21
385.5
 31
0.0
  0
LINE
  5
1C2
  8
1
  6
CONTINUOUS
 62
     7
 10
-1288.716371473349
 20
382.8
 30
0.0
 11
-1288.716371473349
 21
382.8575714714371
 31
0.0
  0
LINE
  5
1C3
  8
1
  6
CONTINUOUS
 62
     7
 10
-1289.003124237433
 20
384.0
 30
0.0
 11
-1289.003124237433
 21
384.5
 31
0.0
  0
ARC
  5
1C4
  8
1
  6
CONTINUOUS
 62
     7
 10
-1282.6
 20
385.0
 30
0.0
 40
6.480740698407864
 50
188.8763950809734
 51
199.3042196067916
  0
LINE
  5
1C5
  8
1
  6
CONTINUOUS
 62
     7
 10
-1289.003124237433
 20
385.5
 30
0.0
 11
-1289.003124237433
 21
386.0
 31
0.0
  0
ARC
  5
1C6
  8
1
  6
CONTINUOUS
 62
     7
 10
-1282.6
 20
385.0
 30
0.0
 40
6.480740698407955
 50
160.6957803932085
 51
171.1236049190267
  0
LINE
  5
1C7
  8
1
  6
CONTINUOUS
 62
     7
 10
-1288.716371473349
 20
387.1424285285628
 30
0.0
 11
-1288.716371473349
 21
387.2
 31
0.0
  0
LINE
  5
1C8
  8
1
  6
CONTINUOUS
 62
     7
 10
-1286.0
 20
333.0
 30
0.0
 11
-1282.5
 21
333.0
 31
0.0
  0
LINE
  5
1C9
  8
1
  6
CONTINUOUS
 62
     7
 10
-1282.5
 20
394.0
 30
0.0
 11
-1286.0
 21
394.0
 31
0.0
  0
LINE
  5
1CA
  8
1
  6
CONTINUOUS
 62
     7
 10
-1282.5
 20
271.0
 30
0.0
 11
-1286.0
 21
271.0
 31
0.0
  0
LINE
  5
1CB
  8
1
  6
CONTINUOUS
 62
     7
 10
-1286.0
 20
332.0
 30
0.0
 11
-1282.5
 21
332.0
 31
0.0
  0
ARC
  5
1CC
  8
1
  6
CONTINUOUS
 62
     7
 10
-1287.0
 20
282.5
 30
0.0
 40
0.9999999999999742
 50
70.37287830916557
 51
90.00000000000001
  0
ARC
  5
1CD
  8
1
  6
CONTINUOUS
 62
     7
 10
-1287.0
 20
382.5
 30
0.0
 40
0.9999999999999742
 50
270.0
 51
289.6271216908335
  0
LINE
  5
1CE
  8
1
  6
CONTINUOUS
 62
     7
 10
-1287.0
 20
381.5
 30
0.0
 11
-1296.5
 21
381.5
 31
0.0
  0
LINE
  5
1CF
  8
1
  6
CONTINUOUS
 62
     7
 10
-1287.0
 20
283.5
 30
0.0
 11
-1296.5
 21
283.5
 31
0.0
  0
LINE
  5
1D0
  8
1
  6
CONTINUOUS
 62
     7
 10
-1282.5
 20
331.7500000000001
 30
0.0
 11
-1278.25
 21
331.7500000000001
 31
0.0
  0
ARC
  5
1D1
  8
1
  6
CONTINUOUS
 62
     7
 10
-1278.25
 20
332.5
 30
0.0
 40
0.7499999999999729
 50
270.0
 51
90.0
  0
LINE
  5
1D2
  8
1
  6
CONTINUOUS
 62
     7
 10
-1278.25
 20
333.2500000000001
 30
0.0
 11
-1282.5
 21
333.2500000000001
 31
0.0
  0
CIRCLE
  5
1D3
  8
1
  6
CONTINUOUS
 62
     7
 10
-1257.2
 20
294.0000000000001
 30
0.0
 40
13.54999999999995
  0
CIRCLE
  5
1D4
  8
1
  6
CONTINUOUS
 62
     7
 10
-1257.2
 20
371.0
 30
0.0
 40
13.55000000000001
  0
CIRCLE
  5
1D5
  8
1
  6
CONTINUOUS
 62
     7
 10
-1259.2
 20
332.5
 30
0.0
 40
10.89999999999996
  0
LINE
  5
1D6
  8
1
  6
CONTINUOUS
 62
     7
 10
-1233.185786437627
 20
271.5
 30
0.0
 11
-1233.5
 21
271.5032342904703
 31
0.0
  0
LINE
  5
1D7
  8
1
  6
CONTINUOUS
 62
     7
 10
-1233.5
 20
271.5032342904703
 30
0.0
 11
-1233.5
 21
271.5717967697245
 31
0.0
  0
LINE
  5
1D8
  8
1
  6
CONTINUOUS
 62
     7
 10
-1235.7
 20
271.5032342904703
 30
0.0
 11
-1236.014213562373
 21
271.5
 31
0.0
  0
ARC
  5
1D9
  8
1
  6
CONTINUOUS
 62
     7
 10
-1231.5
 20
390.5
 30
0.0
 40
3.000000000000003
 50
0.0
 51
90.0
  0
ARC
  5
1DA
  8
1
  6
CONTINUOUS
 62
     7
 10
-1237.8
 20
336.0
 30
0.0
 40
0.5000000000000004
 50
90.0
 51
180.0
  0
LINE
  5
1DB
  8
1
  6
CONTINUOUS
 62
     7
 10
-1238.3
 20
336.0
 30
0.0
 11
-1238.3
 21
329.0
 31
0.0
  0
ARC
  5
1DC
  8
1
  6
CONTINUOUS
 62
     7
 10
-1229.0
 20
328.0
 30
0.0
 40
0.4999999999999449
 50
0.0
 51
90.0000000000003
  0
ARC
  5
1DD
  8
1
  6
CONTINUOUS
 62
     7
 10
-1237.8
 20
329.0
 30
0.0
 40
0.4999999999999449
 50
180.0
 51
270.0
  0
ARC
  5
1DE
  8
1
  6
CONTINUOUS
 62
     7
 10
-1229.0
 20
337.0
 30
0.0
 40
0.5000000000000004
 50
269.9999999999997
 51
0.0000000000003979
  0
ARC
  5
1DF
  8
1
  6
CONTINUOUS
 62
     7
 10
-1231.5
 20
274.5
 30
0.0
 40
2.999999999999892
 50
269.9999999999999
 51
0.0
  0
LINE
  5
1E0
  8
1
  6
CONTINUOUS
 62
     7
 10
-1286.0
 20
283.5
 30
0.0
 11
-1287.481204299044
 21
283.3704114154678
 31
0.0
  0
LINE
  5
1E1
  8
1
  6
CONTINUOUS
 62
     7
 10
-1287.481204299044
 20
276.6295885845323
 30
0.0
 11
-1286.0
 21
276.5
 31
0.0
  0
ARC
  5
1E2
  8
1
  6
CONTINUOUS
 62
     7
 10
-1287.367901833472
 20
277.9246416920515
 30
0.0
 40
1.300000000000137
 50
203.5223875269062
 51
264.9999999999999
  0
ARC
  5
1E3
  8
1
  6
CONTINUOUS
 62
     7
 10
-1287.367901833472
 20
282.0753583079485
 30
0.0
 40
1.299999999999992
 50
95.00000000000014
 51
156.4776124730939
  0
ARC
  5
1E4
  8
1
  6
CONTINUOUS
 62
     7
 10
-1282.6
 20
280.0
 30
0.0
 40
6.500000000000098
 50
156.4776124730938
 51
160.2168296273383
  0
ARC
  5
1E5
  8
1
  6
CONTINUOUS
 62
     7
 10
-1282.6
 20
280.0
 30
0.0
 40
6.499999999999985
 50
199.7831703726617
 51
203.5223875269062
  0
LINE
  5
1E6
  8
1
  6
CONTINUOUS
 62
     7
 10
-1286.0
 20
388.5
 30
0.0
 11
-1287.481204299044
 21
388.3704114154677
 31
0.0
  0
LINE
  5
1E7
  8
1
  6
CONTINUOUS
 62
     7
 10
-1287.481204299044
 20
381.6295885845322
 30
0.0
 11
-1286.0
 21
381.5
 31
0.0
  0
ARC
  5
1E8
  8
1
  6
CONTINUOUS
 62
     7
 10
-1287.367901833472
 20
387.0753583079485
 30
0.0
 40
1.299999999999992
 50
95.00000000000014
 51
156.4776124730939
  0
ARC
  5
1E9
  8
1
  6
CONTINUOUS
 62
     7
 10
-1287.367901833472
 20
382.9246416920515
 30
0.0
 40
1.300000000000137
 50
203.5223875269062
 51
264.9999999999999
  0
ARC
  5
1EA
  8
1
  6
CONTINUOUS
 62
     7
 10
-1282.6
 20
385.0
 30
0.0
 40
6.500000000000004
 50
199.7831703726617
 51
203.5223875269064
  0
ARC
  5
1EB
  8
1
  6
CONTINUOUS
 62
     7
 10
-1282.6
 20
385.0
 30
0.0
 40
6.500000000000075
 50
156.4776124730937
 51
160.2168296273385
  0
ENDBLK
  8
0
  0
ENDSEC
  0
SECTION
  2
ENTITIES
  0
LINE
  5
70
  8
1
  6
CONTINUOUS
 62
     7
 10
-1464.549999999978
 20
378.5000000000001
 30
0.0
 11
-1464.550000000003
 21
286.5
 31
0.0
  0
INSERT
  5
152
  8
1
  6
CONTINUOUS
 62
     7
  2
D_FRAME_VIEW_1435
 10
0.0
 20
0.0
 30
0.0
  0
LINE
  5
153
  8
1
  6
CONTINUOUS
 62
     7
 10
-1287.4
 20
385.5
 30
0.0
 11
-1289.003124237433
 21
385.5
 31
0.0
  0
LINE
  5
154
  8
1
  6
CONTINUOUS
 62
     7
 10
-1282.5
 20
394.0
 30
0.0
 11
-1282.5
 21
271.0
 31
0.0
  0
LINE
  5
155
  8
1
  6
CONTINUOUS
 62
     7
 10
-1282.5
 20
271.5
 30
0.0
 11
-1231.5
 21
271.5
 31
0.0
  0
LINE
  5
156
  8
1
  6
CONTINUOUS
 62
     7
 10
-1282.5
 20
393.5
 30
0.0
 11
-1231.5
 21
393.5
 31
0.0
  0
LINE
  5
157
  8
1
  6
CONTINUOUS
 62
     7
 10
-1296.5
 20
283.5
 30
0.0
 11
-1296.5
 21
381.5
 31
0.0
  0
LINE
  5
158
  8
1
  6
CONTINUOUS
 62
     7
 10
-1228.5
 20
328.5
 30
0.0
 11
-1237.8
 21
328.5
 31
0.0
  0
LINE
  5
159
  8
1
  6
CONTINUOUS
 62
     7
 10
-1287.4
 20
279.5
 30
0.0
 11
-1289.003124237433
 21
279.5
 31
0.0
  0
LINE
  5
15A
  8
1
  6
CONTINUOUS
 62
     7
 10
-1286.0
 20
394.0
 30
0.0
 11
-1286.0
 21
271.0
 31
0.0
  0
LINE
  5
15B
  8
1
  6
CONTINUOUS
 62
     7
 10
-1237.8
 20
336.5
 30
0.0
 11
-1228.5
 21
336.5
 31
0.0
  0
LINE
  5
15C
  8
1
  6
CONTINUOUS
 62
     7
 10
-1289.003124237433
 20
384.5
 30
0.0
 11
-1287.4
 21
384.5
 31
0.0
  0
LINE
  5
15D
  8
1
  6
CONTINUOUS
 62
     7
 10
-1289.003124237433
 20
280.5
 30
0.0
 11
-1287.4
 21
280.5
 31
0.0
  0
LINE
  5
15E
  8
1
  6
CONTINUOUS
 62
     7
 10
-1466.549999999977
 20
378.5
 30
0.0
 11
-1466.550000000002
 21
286.5
 31
0.0
  0
LINE
  5
15F
  8
1
  6
CONTINUOUS
 62
     7
 10
-1354.5
 20
163.5
 30
0.0
 11
-1530.5
 21
163.5
 31
0.0
  0
LINE
  5
160
  8
1
  6
CONTINUOUS
 62
     7
 10
-1228.5
 20
390.5
 30
0.0
 11
-1228.5
 21
274.5
 31
0.0
  0
LINE
  5
161
  8
1
  6
CONTINUOUS
 62
     7
 10
-1534.5
 20
217.5000000000001
 30
0.0
 11
-1350.5
 21
217.5000000000001
 31
0.0
  0
LINE
  5
162
  8
1
  6
CONTINUOUS
 62
     7
 10
-1534.5
 20
221.0000000000001
 30
0.0
 11
-1350.5
 21
221.0000000000001
 31
0.0
  0
LINE
  5
163
  8
1
  6
CONTINUOUS
 62
     7
 10
-1515.0
 20
231.5000000000001
 30
0.0
 11
-1370.0
 21
231.5000000000001
 31
0.0
  0
INSERT
  5
199
  8
1
  6
CONTINUOUS
 62
     7
  2
D_FRAME_VIEW_3371
 10
0.0
 20
0.0
 30
0.0
  0
TEXT
  5
19A
  8
1
  6
CONTINUOUS
 62
     7
 10
-1409.669751156684
 20
99.1568400650244
 30
0.0
 40
6.0
  1
CSW-3NY
  0
LINE
  5
19B
  8
1
  6
CONTINUOUS
 62
     7
 10
-1420.549999999977
 20
378.5
 30
0.0
 11
-1420.550000000002
 21
286.5
 31
0.0
  0
ARC
  5
19C
  8
1
  6
CONTINUOUS
 62
     7
 10
-1442.5
 20
393.5
 30
0.0
 40
0.5000000000000004
 50
180.0
 51
0.0
  0
LINE
  5
19D
  8
1
  6
CONTINUOUS
 62
     7
 10
-1515.166882373885
 20
280.5
 30
0.0
 11
-1517.5
 21
280.5
 31
0.0
  0
CIRCLE
  5
19E
  8
1
  6
CONTINUOUS
 62
     7
 10
-1366.5
 20
385.0
 30
0.0
 40
3.499999999999995
  0
LINE
  5
19F
  8
1
  6
CONTINUOUS
 62
     7
 10
-1367.5
 20
385.5
 30
0.0
 11
-1369.833117626114
 21
385.5
 31
0.0
  0
LINE
  5
1A0
  8
1
  6
CONTINUOUS
 62
     7
 10
-1521.833117626114
 20
385.5
 30
0.0
 11
-1519.5
 21
385.5
 31
0.0
  0
LINE
  5
1A1
  8
1
  6
CONTINUOUS
 62
     7
 10
-1515.166882373885
 20
384.5
 30
0.0
 11
-1517.5
 21
384.5
 31
0.0
  0
LINE
  5
1A2
  8
1
  6
CONTINUOUS
 62
     7
 10
-1517.5
 20
385.5
 30
0.0
 11
-1515.166882373885
 21
385.5
 31
0.0
  0
LINE
  5
1A3
  8
1
  6
CONTINUOUS
 62
     7
 10
-1517.5
 20
279.5
 30
0.0
 11
-1515.166882373885
 21
279.5
 31
0.0
  0
LINE
  5
1A4
  8
1
  6
CONTINUOUS
 62
     7
 10
-1363.166882373885
 20
385.5
 30
0.0
 11
-1365.5
 21
385.5
 31
0.0
  0
CIRCLE
  5
1A5
  8
1
  6
CONTINUOUS
 62
     7
 10
-1461.5
 20
332.5
 30
0.0
 40
2.999999999999999
  0
LINE
  5
1A6
  8
1
  6
CONTINUOUS
 62
     7
 10
-1521.833117626114
 20
279.5
 30
0.0
 11
-1519.5
 21
279.5
 31
0.0
  0
LINE
  5
1A7
  8
1
  6
CONTINUOUS
 62
     7
 10
-1363.166882373885
 20
279.5
 30
0.0
 11
-1365.5
 21
279.5
 31
0.0
  0
ARC
  5
1A8
  8
1
  6
CONTINUOUS
 62
     7
 10
-1351.0
 20
332.5
 30
0.0
 40
0.5000000000000004
 50
90.0
 51
270.0
  0
CIRCLE
  5
1A9
  8
1
  6
CONTINUOUS
 62
     7
 10
-1518.5
 20
280.0
 30
0.0
 40
3.500000000000006
  0
LINE
  5
1AA
  8
1
  6
CONTINUOUS
 62
     7
 10
-1519.5
 20
280.5
 30
0.0
 11
-1521.833117626114
 21
280.5
 31
0.0
  0
LINE
  5
1AB
  8
1
  6
CONTINUOUS
 62
     7
 10
-1365.5
 20
384.5
 30
0.0
 11
-1363.166882373885
 21
384.5
 31
0.0
  0
LINE
  5
1AC
  8
1
  6
CONTINUOUS
 62
     7
 10
-1369.833117626114
 20
280.5
 30
0.0
 11
-1367.5
 21
280.5
 31
0.0
  0
ARC
  5
1AD
  8
1
  6
CONTINUOUS
 62
     7
 10
-1423.5
 20
332.5
 30
0.0
 40
2.999999999999997
 50
10.4753138419369
 51
349.5246861580296
  0
ARC
  5
1AE
  8
1
  6
CONTINUOUS
 62
     7
 10
-1442.5
 20
271.5
 30
0.0
 40
0.5000000000000004
 50
0.0
 51
180.0
  0
CIRCLE
  5
1AF
  8
1
  6
CONTINUOUS
 62
     7
 10
-1518.5
 20
385.0
 30
0.0
 40
3.500000000000004
  0
ARC
  5
1B0
  8
1
  6
CONTINUOUS
 62
     7
 10
-1534.0
 20
332.5
 30
0.0
 40
0.5000000000000004
 50
270.0
 51
90.0
  0
LINE
  5
1B1
  8
1
  6
CONTINUOUS
 62
     7
 10
-1418.549999999978
 20
378.5000000000001
 30
0.0
 11
-1418.550000000003
 21
286.5
 31
0.0
  0
LINE
  5
1B2
  8
1
  6
CONTINUOUS
 62
     7
 10
-1369.833117626114
 20
384.5
 30
0.0
 11
-1367.5
 21
384.5
 31
0.0
  0
LINE
  5
1B3
  8
1
  6
CONTINUOUS
 62
     7
 10
-1365.5
 20
280.5
 30
0.0
 11
-1363.166882373885
 21
280.5
 31
0.0
  0
LINE
  5
1B4
  8
1
  6
CONTINUOUS
 62
     7
 10
-1519.5
 20
384.5
 30
0.0
 11
-1521.833117626114
 21
384.5
 31
0.0
  0
LINE
  5
1B5
  8
1
  6
CONTINUOUS
 62
     7
 10
-1367.5
 20
279.5
 30
0.0
 11
-1369.833117626114
 21
279.5
 31
0.0
  0
CIRCLE
  5
1B6
  8
1
  6
CONTINUOUS
 62
     7
 10
-1366.5
 20
280.0
 30
0.0
 40
3.500000000000006
  0
INSERT
  5
1EC
  8
1
  6
CONTINUOUS
 62
     7
  2
D_FRAME_VIEW_2747
 10
0.0
 20
0.0
 30
0.0
  0
ENDSEC
  0
EOF
