  0
SECTION
  2
HEADER
  9
$ACADVER
  1
AC1006
  9
$DWGCODEPAGE
  3
ansi_932
  9
$INSBASE
 10
0.0
 20
0.0
 30
0.0
  9
$EXTMIN
 10
-1555.5
 20
60.80000000000005
  9
$EXTMAX
 10
-1130.8
 20
395.4923893961835
  9
$LIMMIN
 10
0.0
 20
0.0
  9
$LIMMAX
 10
12.0
 20
9.0
  9
$ORTHOMODE
 70
     0
  9
$REGENMODE
 70
     1
  9
$FILLMODE
 70
     1
  9
$QTEXTMODE
 70
     0
  9
$MIRRTEXT
 70
     1
  9
$DRAGMODE
 70
     2
  9
$LTSCALE
 40
1.0
  9
$OSMODE
 70
    37
  9
$ATTMODE
 70
     1
  9
$TEXTSIZE
 40
0.2
  9
$TRACEWID
 40
0.05
  9
$TEXTSTYLE
  7
STANDARD
  9
$CLAYER
  8
0
  9
$CELTYPE
  6
BYLAYER
  9
$CECOLOR
 62
   256
  9
$DIMSCALE
 40
1.0
  9
$DIMASZ
 40
3.0
  9
$DIMEXO
 40
0.0625
  9
$DIMDLI
 40
0.38
  9
$DIMRND
 40
0.0
  9
$DIMDLE
 40
0.0
  9
$DIMEXE
 40
1.5
  9
$DIMTP
 40
0.0
  9
$DIMTM
 40
0.0
  9
$DIMTXT
 40
3.0
  9
$DIMCEN
 40
0.09
  9
$DIMTSZ
 40
0.0
  9
$DIMTOL
 70
     0
  9
$DIMLIM
 70
     0
  9
$DIMTIH
 70
     1
  9
$DIMTOH
 70
     1
  9
$DIMSE1
 70
     0
  9
$DIMSE2
 70
     0
  9
$DIMTAD
 70
     1
  9
$DIMZIN
 70
     0
  9
$DIMBLK
  1

  9
$DIMASO
 70
     1
  9
$DIMSHO
 70
     1
  9
$DIMPOST
  1

  9
$DIMAPOST
  1

  9
$DIMALT
 70
     0
  9
$DIMALTD
 70
     2
  9
$DIMALTF
 40
25.4
  9
$DIMLFAC
 40
1.0
  9
$DIMTOFL
 70
     0
  9
$DIMTVP
 40
0.0
  9
$DIMTIX
 70
     0
  9
$DIMSOXD
 70
     0
  9
$DIMSAH
 70
     0
  9
$DIMBLK1
  1

  9
$DIMBLK2
  1

  9
$LUNITS
 70
     2
  9
$LUPREC
 70
     4
  9
$SKETCHINC
 40
0.1
  9
$FILLETRAD
 40
0.5
  9
$AUNITS
 70
     0
  9
$AUPREC
 70
     0
  9
$MENU
  1
.
  9
$ELEVATION
 40
0.0
  9
$THICKNESS
 40
0.0
  9
$LIMCHECK
 70
     0
  9
$CHAMFERA
 40
0.0
  9
$CHAMFERB
 40
0.0
  9
$SKPOLY
 70
     0
  9
$TDCREATE
 40
2459233.387858553
  9
$TDUPDATE
 40
2459233.387858727
  9
$TDINDWG
 40
0.0000000116
  9
$TDUSRTIMER
 40
0.0000000116
  9
$USRTIMER
 70
     1
  9
$ANGBASE
 50
0.0
  9
$ANGDIR
 70
     0
  9
$PDMODE
 70
     0
  9
$PDSIZE
 40
0.0
  9
$PLINEWID
 40
0.0
  9
$COORDS
 70
     1
  9
$SPLFRAME
 70
     0
  9
$SPLINETYPE
 70
     6
  9
$SPLINESEGS
 70
     8
  9
$ATTDIA
 70
     0
  9
$ATTREQ
 70
     1
  9
$HANDLING
 70
     1
  9
$HANDSEED
  5
1E1
  9
$SURFTAB1
 70
     6
  9
$SURFTAB2
 70
     6
  9
$SURFTYPE
 70
     6
  9
$SURFU
 70
     6
  9
$SURFV
 70
     6
  9
$UCSNAME
  2

  9
$UCSORG
 10
0.0
 20
0.0
 30
0.0
  9
$UCSXDIR
 10
1.0
 20
0.0
 30
0.0
  9
$UCSYDIR
 10
0.0
 20
1.0
 30
0.0
  9
$USERI1
 70
     0
  9
$USERI2
 70
     0
  9
$USERI3
 70
     0
  9
$USERI4
 70
     0
  9
$USERI5
 70
     0
  9
$USERR1
 40
0.0
  9
$USERR2
 40
0.0
  9
$USERR3
 40
0.0
  9
$USERR4
 40
0.0
  9
$USERR5
 40
0.0
  9
$WORLDVIEW
 70
     1
  0
ENDSEC
  0
SECTION
  2
TABLES
  0
TABLE
  2
VPORT
 70
     1
  0
VPORT
  2
*ACTIVE
 70
     0
 10
0.0
 20
0.0
 11
1.0
 21
1.0
 12
-1343.15
 22
228.1461946980918
 13
0.0
 23
0.0
 14
0.5
 24
0.5
 15
0.5
 25
0.5
 16
0.0
 26
0.0
 36
1.0
 17
0.0
 27
0.0
 37
0.0
 40
334.6923893961834
 41
1.6
 42
50.0
 43
0.0
 44
0.0
 50
0.0
 51
0.0
 71
     0
 72
   100
 73
     1
 74
     3
 75
     0
 76
     0
 77
     0
 78
     0
  0
ENDTAB
  0
TABLE
  2
LTYPE
 70
     1
  0
LTYPE
  2
CONTINUOUS
 70
     0
  3
Solid line
 72
    65
 73
     0
 40
0.0
  0
ENDTAB
  0
TABLE
  2
LAYER
 70
     2
  0
LAYER
  2
0
 70
     0
 62
     7
  6
CONTINUOUS
  0
LAYER
  2
1
 70
     0
 62
     7
  6
CONTINUOUS
  0
ENDTAB
  0
TABLE
  2
STYLE
 70
     2
  0
STYLE
  2
STANDARD
 70
     0
 40
0.0
 41
1.0
 50
0.0
 71
     0
 42
0.2
  3
txt
  4

  0
STYLE
  2
ＭＳ_ゴシック
 70
     0
 40
0.0
 41
1.0
 50
0.0
 71
     0
 42
0.2
  3
ＭＳ ゴシック.shx
  4

  0
ENDTAB
  0
TABLE
  2
VIEW
 70
     0
  0
ENDTAB
  0
TABLE
  2
UCS
 70
     0
  0
ENDTAB
  0
ENDSEC
  0
SECTION
  2
BLOCKS
  0
BLOCK
  8
0
  2
D_FRAME_VIEW_3447
 70
     0
 10
0.0
 20
0.0
 30
0.0
  0
LINE
  5
71
  8
0
  6
CONTINUOUS
 62
     7
 10
-1383.75
 20
280.5
 30
0.0
 11
-1385.2
 21
280.5
 31
0.0
  0
ARC
  5
72
  8
0
  6
CONTINUOUS
 62
     7
 10
-1385.2
 20
281.3
 30
0.0
 40
0.800000000000002
 50
180.0
 51
269.999999999999
  0
LINE
  5
73
  8
0
  6
CONTINUOUS
 62
     7
 10
-1386.0
 20
281.3
 30
0.0
 11
-1386.0
 21
282.193741096848
 31
0.0
  0
ARC
  5
74
  8
0
  6
CONTINUOUS
 62
     7
 10
-1386.5
 20
280.0
 30
0.0
 40
2.250000000000005
 50
77.16041159309587
 51
102.8395884069042
  0
LINE
  5
75
  8
0
  6
CONTINUOUS
 62
     7
 10
-1387.0
 20
282.193741096848
 30
0.0
 11
-1387.0
 21
281.3
 31
0.0
  0
ARC
  5
76
  8
0
  6
CONTINUOUS
 62
     7
 10
-1387.8
 20
281.3
 30
0.0
 40
0.800000000000009
 50
270.0
 51
359.9999999999996
  0
LINE
  5
77
  8
0
  6
CONTINUOUS
 62
     7
 10
-1387.8
 20
280.5
 30
0.0
 11
-1389.25
 21
280.5
 31
0.0
  0
LINE
  5
78
  8
0
  6
CONTINUOUS
 62
     7
 10
-1389.25
 20
280.5
 30
0.0
 11
-1389.25
 21
279.5
 31
0.0
  0
LINE
  5
79
  8
0
  6
CONTINUOUS
 62
     7
 10
-1389.25
 20
279.5
 30
0.0
 11
-1387.8
 21
279.5
 31
0.0
  0
ARC
  5
7A
  8
0
  6
CONTINUOUS
 62
     7
 10
-1387.8
 20
278.7
 30
0.0
 40
0.800000000000002
 50
0.0
 51
89.99999999999898
  0
LINE
  5
7B
  8
0
  6
CONTINUOUS
 62
     7
 10
-1387.0
 20
278.7
 30
0.0
 11
-1387.0
 21
277.806258903152
 31
0.0
  0
ARC
  5
7C
  8
0
  6
CONTINUOUS
 62
     7
 10
-1386.5
 20
280.0
 30
0.0
 40
2.250000000000005
 50
257.1604115930959
 51
282.8395884069041
  0
LINE
  5
7D
  8
0
  6
CONTINUOUS
 62
     7
 10
-1386.0
 20
277.806258903152
 30
0.0
 11
-1386.0
 21
278.7
 31
0.0
  0
ARC
  5
7E
  8
0
  6
CONTINUOUS
 62
     7
 10
-1385.2
 20
278.7
 30
0.0
 40
0.800000000000009
 50
90.0
 51
180.0
  0
LINE
  5
7F
  8
0
  6
CONTINUOUS
 62
     7
 10
-1385.2
 20
279.5
 30
0.0
 11
-1383.75
 21
279.5
 31
0.0
  0
LINE
  5
80
  8
0
  6
CONTINUOUS
 62
     7
 10
-1383.75
 20
279.5
 30
0.0
 11
-1383.75
 21
280.5
 31
0.0
  0
LINE
  5
81
  8
0
  6
CONTINUOUS
 62
     7
 10
-1539.8
 20
279.5
 30
0.0
 11
-1541.25
 21
279.5
 31
0.0
  0
ARC
  5
82
  8
0
  6
CONTINUOUS
 62
     7
 10
-1539.8
 20
278.7
 30
0.0
 40
0.800000000000009
 50
0.0
 51
90.0
  0
LINE
  5
83
  8
0
  6
CONTINUOUS
 62
     7
 10
-1539.0
 20
277.806258903152
 30
0.0
 11
-1539.0
 21
278.7
 31
0.0
  0
ARC
  5
84
  8
0
  6
CONTINUOUS
 62
     7
 10
-1538.5
 20
280.0
 30
0.0
 40
2.250000000000005
 50
257.1604115930959
 51
282.8395884069041
  0
LINE
  5
85
  8
0
  6
CONTINUOUS
 62
     7
 10
-1538.0
 20
278.7
 30
0.0
 11
-1538.0
 21
277.806258903152
 31
0.0
  0
ARC
  5
86
  8
0
  6
CONTINUOUS
 62
     7
 10
-1537.2
 20
278.7
 30
0.0
 40
0.800000000000002
 50
90.000000000001
 51
180.0
  0
LINE
  5
87
  8
0
  6
CONTINUOUS
 62
     7
 10
-1535.75
 20
279.5
 30
0.0
 11
-1537.2
 21
279.5
 31
0.0
  0
LINE
  5
88
  8
0
  6
CONTINUOUS
 62
     7
 10
-1535.75
 20
280.5
 30
0.0
 11
-1535.75
 21
279.5
 31
0.0
  0
LINE
  5
89
  8
0
  6
CONTINUOUS
 62
     7
 10
-1537.2
 20
280.5
 30
0.0
 11
-1535.75
 21
280.5
 31
0.0
  0
ARC
  5
8A
  8
0
  6
CONTINUOUS
 62
     7
 10
-1537.2
 20
281.3
 30
0.0
 40
0.800000000000009
 50
180.0000000000005
 51
270.0
  0
LINE
  5
8B
  8
0
  6
CONTINUOUS
 62
     7
 10
-1538.0
 20
282.193741096848
 30
0.0
 11
-1538.0
 21
281.3
 31
0.0
  0
ARC
  5
8C
  8
0
  6
CONTINUOUS
 62
     7
 10
-1538.5
 20
280.0
 30
0.0
 40
2.250000000000005
 50
77.16041159309589
 51
102.8395884069041
  0
LINE
  5
8D
  8
0
  6
CONTINUOUS
 62
     7
 10
-1539.0
 20
281.3
 30
0.0
 11
-1539.0
 21
282.193741096848
 31
0.0
  0
ARC
  5
8E
  8
0
  6
CONTINUOUS
 62
     7
 10
-1539.8
 20
281.3
 30
0.0
 40
0.800000000000002
 50
270.000000000001
 51
0.0
  0
LINE
  5
8F
  8
0
  6
CONTINUOUS
 62
     7
 10
-1541.25
 20
280.5
 30
0.0
 11
-1539.8
 21
280.5
 31
0.0
  0
LINE
  5
90
  8
0
  6
CONTINUOUS
 62
     7
 10
-1541.25
 20
279.5
 30
0.0
 11
-1541.25
 21
280.5
 31
0.0
  0
LINE
  5
91
  8
0
  6
CONTINUOUS
 62
     7
 10
-1385.2
 20
385.5
 30
0.0
 11
-1383.75
 21
385.5
 31
0.0
  0
ARC
  5
92
  8
0
  6
CONTINUOUS
 62
     7
 10
-1385.2
 20
386.3
 30
0.0
 40
0.800000000000009
 50
180.0
 51
270.0
  0
LINE
  5
93
  8
0
  6
CONTINUOUS
 62
     7
 10
-1386.0
 20
387.193741096848
 30
0.0
 11
-1386.0
 21
386.3
 31
0.0
  0
ARC
  5
94
  8
0
  6
CONTINUOUS
 62
     7
 10
-1386.5
 20
385.0
 30
0.0
 40
2.250000000000005
 50
77.16041159309589
 51
102.8395884069041
  0
LINE
  5
95
  8
0
  6
CONTINUOUS
 62
     7
 10
-1387.0
 20
386.3
 30
0.0
 11
-1387.0
 21
387.193741096848
 31
0.0
  0
ARC
  5
96
  8
0
  6
CONTINUOUS
 62
     7
 10
-1387.8
 20
386.3
 30
0.0
 40
0.800000000000002
 50
270.000000000001
 51
0.0
  0
LINE
  5
97
  8
0
  6
CONTINUOUS
 62
     7
 10
-1389.25
 20
385.5
 30
0.0
 11
-1387.8
 21
385.5
 31
0.0
  0
LINE
  5
98
  8
0
  6
CONTINUOUS
 62
     7
 10
-1389.25
 20
384.5
 30
0.0
 11
-1389.25
 21
385.5
 31
0.0
  0
LINE
  5
99
  8
0
  6
CONTINUOUS
 62
     7
 10
-1387.8
 20
384.5
 30
0.0
 11
-1389.25
 21
384.5
 31
0.0
  0
ARC
  5
9A
  8
0
  6
CONTINUOUS
 62
     7
 10
-1387.8
 20
383.7
 30
0.0
 40
0.800000000000009
 50
0.000000000000497
 51
90.0
  0
LINE
  5
9B
  8
0
  6
CONTINUOUS
 62
     7
 10
-1387.0
 20
382.806258903152
 30
0.0
 11
-1387.0
 21
383.7
 31
0.0
  0
ARC
  5
9C
  8
0
  6
CONTINUOUS
 62
     7
 10
-1386.5
 20
385.0
 30
0.0
 40
2.250000000000005
 50
257.1604115930959
 51
282.8395884069041
  0
LINE
  5
9D
  8
0
  6
CONTINUOUS
 62
     7
 10
-1386.0
 20
383.7
 30
0.0
 11
-1386.0
 21
382.806258903152
 31
0.0
  0
ARC
  5
9E
  8
0
  6
CONTINUOUS
 62
     7
 10
-1385.2
 20
383.7
 30
0.0
 40
0.800000000000002
 50
90.000000000001
 51
180.0
  0
LINE
  5
9F
  8
0
  6
CONTINUOUS
 62
     7
 10
-1383.75
 20
384.5
 30
0.0
 11
-1385.2
 21
384.5
 31
0.0
  0
LINE
  5
A0
  8
0
  6
CONTINUOUS
 62
     7
 10
-1383.75
 20
385.5
 30
0.0
 11
-1383.75
 21
384.5
 31
0.0
  0
LINE
  5
A1
  8
0
  6
CONTINUOUS
 62
     7
 10
-1541.25
 20
384.5
 30
0.0
 11
-1539.8
 21
384.5
 31
0.0
  0
ARC
  5
A2
  8
0
  6
CONTINUOUS
 62
     7
 10
-1539.8
 20
383.7
 30
0.0
 40
0.800000000000002
 50
0.0
 51
89.99999999999898
  0
LINE
  5
A3
  8
0
  6
CONTINUOUS
 62
     7
 10
-1539.0
 20
383.7
 30
0.0
 11
-1539.0
 21
382.806258903152
 31
0.0
  0
ARC
  5
A4
  8
0
  6
CONTINUOUS
 62
     7
 10
-1538.5
 20
385.0
 30
0.0
 40
2.250000000000005
 50
257.1604115930959
 51
282.8395884069041
  0
LINE
  5
A5
  8
0
  6
CONTINUOUS
 62
     7
 10
-1538.0
 20
382.806258903152
 30
0.0
 11
-1538.0
 21
383.7
 31
0.0
  0
ARC
  5
A6
  8
0
  6
CONTINUOUS
 62
     7
 10
-1537.2
 20
383.7
 30
0.0
 40
0.800000000000009
 50
90.0
 51
179.9999999999995
  0
LINE
  5
A7
  8
0
  6
CONTINUOUS
 62
     7
 10
-1537.2
 20
384.5
 30
0.0
 11
-1535.75
 21
384.5
 31
0.0
  0
LINE
  5
A8
  8
0
  6
CONTINUOUS
 62
     7
 10
-1535.75
 20
384.5
 30
0.0
 11
-1535.75
 21
385.5
 31
0.0
  0
LINE
  5
A9
  8
0
  6
CONTINUOUS
 62
     7
 10
-1535.75
 20
385.5
 30
0.0
 11
-1537.2
 21
385.5
 31
0.0
  0
ARC
  5
AA
  8
0
  6
CONTINUOUS
 62
     7
 10
-1537.2
 20
386.3
 30
0.0
 40
0.800000000000002
 50
180.0
 51
269.999999999999
  0
LINE
  5
AB
  8
0
  6
CONTINUOUS
 62
     7
 10
-1538.0
 20
386.3
 30
0.0
 11
-1538.0
 21
387.193741096848
 31
0.0
  0
ARC
  5
AC
  8
0
  6
CONTINUOUS
 62
     7
 10
-1538.5
 20
385.0
 30
0.0
 40
2.250000000000005
 50
77.16041159309587
 51
102.8395884069042
  0
LINE
  5
AD
  8
0
  6
CONTINUOUS
 62
     7
 10
-1539.0
 20
387.193741096848
 30
0.0
 11
-1539.0
 21
386.3
 31
0.0
  0
ARC
  5
AE
  8
0
  6
CONTINUOUS
 62
     7
 10
-1539.8
 20
386.3
 30
0.0
 40
0.800000000000009
 50
270.0
 51
0.0
  0
LINE
  5
AF
  8
0
  6
CONTINUOUS
 62
     7
 10
-1539.8
 20
385.5
 30
0.0
 11
-1541.25
 21
385.5
 31
0.0
  0
LINE
  5
B0
  8
0
  6
CONTINUOUS
 62
     7
 10
-1541.25
 20
385.5
 30
0.0
 11
-1541.25
 21
384.5
 31
0.0
  0
POLYLINE
  5
B1
  8
0
  6
CONTINUOUS
 62
     7
 66
     1
 10
0.0
 20
0.0
 30
0.0
  0
VERTEX
  5
1B7
  8
0
  6
CONTINUOUS
 62
     7
 10
-1549.5
 20
278.4998857691925
 30
0.0
  0
VERTEX
  5
1B8
  8
0
  6
CONTINUOUS
 62
     7
 10
-1549.442359217517
 20
277.9146249176862
 30
0.0
  0
VERTEX
  5
1B9
  8
0
  6
CONTINUOUS
 62
     7
 10
-1549.271651758933
 20
277.3518619177609
 30
0.0
  0
VERTEX
  5
1BA
  8
0
  6
CONTINUOUS
 62
     7
 10
-1548.994437182129
 20
276.8332213457664
 30
0.0
  0
VERTEX
  5
1BB
  8
0
  6
CONTINUOUS
 62
     7
 10
-1548.621367658235
 20
276.3786323417646
 30
0.0
  0
VERTEX
  5
1BC
  8
0
  6
CONTINUOUS
 62
     7
 10
-1548.166778654234
 20
276.0055628178714
 30
0.0
  0
VERTEX
  5
1BD
  8
0
  6
CONTINUOUS
 62
     7
 10
-1547.648138082239
 20
275.7283482410672
 30
0.0
  0
VERTEX
  5
1BE
  8
0
  6
CONTINUOUS
 62
     7
 10
-1547.085375082314
 20
275.5576407824828
 30
0.0
  0
VERTEX
  5
1BF
  8
0
  6
CONTINUOUS
 62
     7
 10
-1546.500114230807
 20
275.5000000000001
 30
0.0
  0
SEQEND
  5
1DD
  8
0
  6
CONTINUOUS
 62
     7
  0
LINE
  5
B2
  8
0
  6
CONTINUOUS
 62
     7
 10
-1546.500114230807
 20
275.5
 30
0.0
 11
-1378.499885769193
 21
275.5
 31
0.0
  0
LINE
  5
B3
  8
0
  6
CONTINUOUS
 62
     7
 10
-1487.75
 20
275.5305440372676
 30
0.0
 11
-1487.789817755758
 21
275.65
 31
0.0
  0
LINE
  5
B4
  8
0
  6
CONTINUOUS
 62
     7
 10
-1486.75
 20
275.5305440372676
 30
0.0
 11
-1487.75
 21
275.5305440372676
 31
0.0
  0
LINE
  5
B5
  8
0
  6
CONTINUOUS
 62
     7
 10
-1483.25
 20
275.5305440372676
 30
0.0
 11
-1484.25
 21
275.5305440372676
 31
0.0
  0
LINE
  5
B6
  8
0
  6
CONTINUOUS
 62
     7
 10
-1483.210182244242
 20
275.65
 30
0.0
 11
-1483.25
 21
275.5305440372676
 31
0.0
  0
LINE
  5
B7
  8
0
  6
CONTINUOUS
 62
     7
 10
-1441.75
 20
275.5305440372676
 30
0.0
 11
-1441.789817755758
 21
275.65
 31
0.0
  0
LINE
  5
B8
  8
0
  6
CONTINUOUS
 62
     7
 10
-1440.75
 20
275.5305440372676
 30
0.0
 11
-1441.75
 21
275.5305440372676
 31
0.0
  0
LINE
  5
B9
  8
0
  6
CONTINUOUS
 62
     7
 10
-1437.25
 20
275.5305440372676
 30
0.0
 11
-1438.25
 21
275.5305440372676
 31
0.0
  0
LINE
  5
BA
  8
0
  6
CONTINUOUS
 62
     7
 10
-1437.210182244242
 20
275.65
 30
0.0
 11
-1437.25
 21
275.5305440372676
 31
0.0
  0
POLYLINE
  5
BB
  8
0
  6
CONTINUOUS
 62
     7
 66
     1
 10
0.0
 20
0.0
 30
0.0
  0
VERTEX
  5
1C0
  8
0
  6
CONTINUOUS
 62
     7
 10
-1546.500114230807
 20
389.4999999999999
 30
0.0
  0
VERTEX
  5
1C1
  8
0
  6
CONTINUOUS
 62
     7
 10
-1547.085375082314
 20
389.4423592175172
 30
0.0
  0
VERTEX
  5
1C2
  8
0
  6
CONTINUOUS
 62
     7
 10
-1547.648138082239
 20
389.2716517589328
 30
0.0
  0
VERTEX
  5
1C3
  8
0
  6
CONTINUOUS
 62
     7
 10
-1548.166778654234
 20
388.9944371821286
 30
0.0
  0
VERTEX
  5
1C4
  8
0
  6
CONTINUOUS
 62
     7
 10
-1548.621367658235
 20
388.6213676582354
 30
0.0
  0
VERTEX
  5
1C5
  8
0
  6
CONTINUOUS
 62
     7
 10
-1548.994437182129
 20
388.1667786542336
 30
0.0
  0
VERTEX
  5
1C6
  8
0
  6
CONTINUOUS
 62
     7
 10
-1549.271651758933
 20
387.6481380822391
 30
0.0
  0
VERTEX
  5
1C7
  8
0
  6
CONTINUOUS
 62
     7
 10
-1549.442359217517
 20
387.0853750823138
 30
0.0
  0
VERTEX
  5
1C8
  8
0
  6
CONTINUOUS
 62
     7
 10
-1549.5
 20
386.5001142308075
 30
0.0
  0
SEQEND
  5
1DE
  8
0
  6
CONTINUOUS
 62
     7
  0
LINE
  5
BC
  8
0
  6
CONTINUOUS
 62
     7
 10
-1375.5
 20
278.4998857691925
 30
0.0
 11
-1375.5
 21
386.5001142308075
 31
0.0
  0
LINE
  5
BD
  8
0
  6
CONTINUOUS
 62
     7
 10
-1437.210182244242
 20
389.35
 30
0.0
 11
-1437.25
 21
389.4694559627324
 31
0.0
  0
LINE
  5
BE
  8
0
  6
CONTINUOUS
 62
     7
 10
-1437.25
 20
389.4694559627324
 30
0.0
 11
-1438.25
 21
389.4694559627324
 31
0.0
  0
LINE
  5
BF
  8
0
  6
CONTINUOUS
 62
     7
 10
-1440.75
 20
389.4694559627324
 30
0.0
 11
-1441.75
 21
389.4694559627324
 31
0.0
  0
LINE
  5
C0
  8
0
  6
CONTINUOUS
 62
     7
 10
-1441.75
 20
389.4694559627324
 30
0.0
 11
-1441.789817755758
 21
389.35
 31
0.0
  0
LINE
  5
C1
  8
0
  6
CONTINUOUS
 62
     7
 10
-1483.210182244242
 20
389.35
 30
0.0
 11
-1483.25
 21
389.4694559627324
 31
0.0
  0
LINE
  5
C2
  8
0
  6
CONTINUOUS
 62
     7
 10
-1483.25
 20
389.4694559627324
 30
0.0
 11
-1484.25
 21
389.4694559627324
 31
0.0
  0
LINE
  5
C3
  8
0
  6
CONTINUOUS
 62
     7
 10
-1486.75
 20
389.4694559627324
 30
0.0
 11
-1487.75
 21
389.4694559627324
 31
0.0
  0
LINE
  5
C4
  8
0
  6
CONTINUOUS
 62
     7
 10
-1487.75
 20
389.4694559627324
 30
0.0
 11
-1487.789817755758
 21
389.35
 31
0.0
  0
LINE
  5
C5
  8
0
  6
CONTINUOUS
 62
     7
 10
-1378.499885769192
 20
389.5
 30
0.0
 11
-1546.500114230807
 21
389.5
 31
0.0
  0
LINE
  5
C6
  8
0
  6
CONTINUOUS
 62
     7
 10
-1549.5
 20
386.5001142308075
 30
0.0
 11
-1549.5
 21
278.4998857691925
 31
0.0
  0
ARC
  5
C7
  8
0
  6
CONTINUOUS
 62
     7
 10
-1546.5
 20
386.5
 30
0.0
 40
6.999999999999999
 50
90.0
 51
180.0
  0
LINE
  5
C8
  8
0
  6
CONTINUOUS
 62
     7
 10
-1463.25
 20
393.5
 30
0.0
 11
-1463.25
 21
393.2
 31
0.0
  0
LINE
  5
C9
  8
0
  6
CONTINUOUS
 62
     7
 10
-1461.75
 20
393.5
 30
0.0
 11
-1461.75
 21
393.2
 31
0.0
  0
ARC
  5
CA
  8
0
  6
CONTINUOUS
 62
     7
 10
-1378.5
 20
386.5
 30
0.0
 40
7.000000000000006
 50
359.9999999999999
 51
90.0
  0
LINE
  5
CB
  8
0
  6
CONTINUOUS
 62
     7
 10
-1463.25
 20
271.5
 30
0.0
 11
-1463.25
 21
271.8
 31
0.0
  0
POLYLINE
  5
CC
  8
0
  6
CONTINUOUS
 62
     7
 66
     1
 10
0.0
 20
0.0
 30
0.0
  0
VERTEX
  5
1C9
  8
0
  6
CONTINUOUS
 62
     7
 10
-1378.499885769192
 20
275.5000000000001
 30
0.0
  0
VERTEX
  5
1CA
  8
0
  6
CONTINUOUS
 62
     7
 10
-1377.914624917686
 20
275.5576407824828
 30
0.0
  0
VERTEX
  5
1CB
  8
0
  6
CONTINUOUS
 62
     7
 10
-1377.351861917761
 20
275.7283482410672
 30
0.0
  0
VERTEX
  5
1CC
  8
0
  6
CONTINUOUS
 62
     7
 10
-1376.833221345766
 20
276.0055628178714
 30
0.0
  0
VERTEX
  5
1CD
  8
0
  6
CONTINUOUS
 62
     7
 10
-1376.378632341764
 20
276.3786323417646
 30
0.0
  0
VERTEX
  5
1CE
  8
0
  6
CONTINUOUS
 62
     7
 10
-1376.005562817871
 20
276.8332213457664
 30
0.0
  0
VERTEX
  5
1CF
  8
0
  6
CONTINUOUS
 62
     7
 10
-1375.728348241067
 20
277.3518619177609
 30
0.0
  0
VERTEX
  5
1D0
  8
0
  6
CONTINUOUS
 62
     7
 10
-1375.557640782483
 20
277.9146249176862
 30
0.0
  0
VERTEX
  5
1D1
  8
0
  6
CONTINUOUS
 62
     7
 10
-1375.5
 20
278.4998857691925
 30
0.0
  0
SEQEND
  5
1DF
  8
0
  6
CONTINUOUS
 62
     7
  0
POLYLINE
  5
CD
  8
0
  6
CONTINUOUS
 62
     7
 66
     1
 10
0.0
 20
0.0
 30
0.0
  0
VERTEX
  5
1D2
  8
0
  6
CONTINUOUS
 62
     7
 10
-1375.5
 20
386.5001142308075
 30
0.0
  0
VERTEX
  5
1D3
  8
0
  6
CONTINUOUS
 62
     7
 10
-1375.557640782483
 20
387.0853750823138
 30
0.0
  0
VERTEX
  5
1D4
  8
0
  6
CONTINUOUS
 62
     7
 10
-1375.728348241067
 20
387.6481380822391
 30
0.0
  0
VERTEX
  5
1D5
  8
0
  6
CONTINUOUS
 62
     7
 10
-1376.005562817871
 20
388.1667786542336
 30
0.0
  0
VERTEX
  5
1D6
  8
0
  6
CONTINUOUS
 62
     7
 10
-1376.378632341764
 20
388.6213676582354
 30
0.0
  0
VERTEX
  5
1D7
  8
0
  6
CONTINUOUS
 62
     7
 10
-1376.833221345766
 20
388.9944371821286
 30
0.0
  0
VERTEX
  5
1D8
  8
0
  6
CONTINUOUS
 62
     7
 10
-1377.351861917761
 20
389.2716517589328
 30
0.0
  0
VERTEX
  5
1D9
  8
0
  6
CONTINUOUS
 62
     7
 10
-1377.914624917686
 20
389.4423592175172
 30
0.0
  0
VERTEX
  5
1DA
  8
0
  6
CONTINUOUS
 62
     7
 10
-1378.499885769192
 20
389.4999999999999
 30
0.0
  0
SEQEND
  5
1E0
  8
0
  6
CONTINUOUS
 62
     7
  0
ARC
  5
CE
  8
0
  6
CONTINUOUS
 62
     7
 10
-1546.5
 20
278.5
 30
0.0
 40
7.000000000000006
 50
179.9999999999999
 51
270.0
  0
LINE
  5
CF
  8
0
  6
CONTINUOUS
 62
     7
 10
-1461.75
 20
271.5
 30
0.0
 11
-1461.75
 21
271.8
 31
0.0
  0
LINE
  5
D0
  8
0
  6
CONTINUOUS
 62
     7
 10
-1463.25
 20
393.2
 30
0.0
 11
-1461.75
 21
393.2
 31
0.0
  0
ARC
  5
D1
  8
0
  6
CONTINUOUS
 62
     7
 10
-1378.5
 20
278.5
 30
0.0
 40
6.999999999999999
 50
270.0
 51
0.0
  0
LINE
  5
D2
  8
0
  6
CONTINUOUS
 62
     7
 10
-1463.25
 20
271.8
 30
0.0
 11
-1461.75
 21
271.8
 31
0.0
  0
LINE
  5
D3
  8
0
  6
CONTINUOUS
 62
     7
 10
-1383.0
 20
395.4923893961835
 30
0.0
 11
-1390.0
 21
395.4923893961835
 31
0.0
  0
LINE
  5
D4
  8
0
  6
CONTINUOUS
 62
     7
 10
-1390.0
 20
393.5
 30
0.0
 11
-1390.0
 21
395.4923893961835
 31
0.0
  0
LINE
  5
D5
  8
0
  6
CONTINUOUS
 62
     7
 10
-1383.0
 20
393.5
 30
0.0
 11
-1383.0
 21
395.4923893961835
 31
0.0
  0
LINE
  5
D6
  8
0
  6
CONTINUOUS
 62
     7
 10
-1487.75
 20
275.5305440372676
 30
0.0
 11
-1487.75
 21
275.65
 31
0.0
  0
LINE
  5
D7
  8
0
  6
CONTINUOUS
 62
     7
 10
-1437.25
 20
275.5305440372676
 30
0.0
 11
-1437.25
 21
275.65
 31
0.0
  0
LINE
  5
D8
  8
0
  6
CONTINUOUS
 62
     7
 10
-1441.75
 20
275.5305440372676
 30
0.0
 11
-1441.75
 21
275.65
 31
0.0
  0
LINE
  5
D9
  8
0
  6
CONTINUOUS
 62
     7
 10
-1440.75
 20
275.5305440372676
 30
0.0
 11
-1440.75
 21
275.65
 31
0.0
  0
LINE
  5
DA
  8
0
  6
CONTINUOUS
 62
     7
 10
-1486.75
 20
275.5305440372676
 30
0.0
 11
-1486.75
 21
275.65
 31
0.0
  0
LINE
  5
DB
  8
0
  6
CONTINUOUS
 62
     7
 10
-1483.25
 20
275.5305440372676
 30
0.0
 11
-1483.25
 21
275.65
 31
0.0
  0
LINE
  5
DC
  8
0
  6
CONTINUOUS
 62
     7
 10
-1437.25
 20
389.4694559627324
 30
0.0
 11
-1437.25
 21
389.35
 31
0.0
  0
LINE
  5
DD
  8
0
  6
CONTINUOUS
 62
     7
 10
-1438.25
 20
389.4694559627324
 30
0.0
 11
-1438.25
 21
389.35
 31
0.0
  0
LINE
  5
DE
  8
0
  6
CONTINUOUS
 62
     7
 10
-1441.75
 20
389.4694559627324
 30
0.0
 11
-1441.75
 21
389.35
 31
0.0
  0
LINE
  5
DF
  8
0
  6
CONTINUOUS
 62
     7
 10
-1440.75
 20
389.4694559627324
 30
0.0
 11
-1440.75
 21
389.35
 31
0.0
  0
LINE
  5
E0
  8
0
  6
CONTINUOUS
 62
     7
 10
-1438.25
 20
275.5305440372676
 30
0.0
 11
-1438.25
 21
275.65
 31
0.0
  0
LINE
  5
E1
  8
0
  6
CONTINUOUS
 62
     7
 10
-1487.75
 20
389.4694559627324
 30
0.0
 11
-1487.75
 21
389.35
 31
0.0
  0
LINE
  5
E2
  8
0
  6
CONTINUOUS
 62
     7
 10
-1484.25
 20
275.5305440372676
 30
0.0
 11
-1484.25
 21
275.65
 31
0.0
  0
LINE
  5
E3
  8
0
  6
CONTINUOUS
 62
     7
 10
-1483.25
 20
389.4694559627324
 30
0.0
 11
-1483.25
 21
389.35
 31
0.0
  0
LINE
  5
E4
  8
0
  6
CONTINUOUS
 62
     7
 10
-1484.25
 20
389.4694559627324
 30
0.0
 11
-1484.25
 21
389.35
 31
0.0
  0
LINE
  5
E5
  8
0
  6
CONTINUOUS
 62
     7
 10
-1486.75
 20
389.4694559627324
 30
0.0
 11
-1486.75
 21
389.35
 31
0.0
  0
CIRCLE
  5
E6
  8
0
  6
CONTINUOUS
 62
     7
 10
-1462.5
 20
332.5
 30
0.0
 40
5.749999999999999
  0
CIRCLE
  5
E7
  8
0
  6
CONTINUOUS
 62
     7
 10
-1462.5
 20
332.5
 30
0.0
 40
13.5
  0
LINE
  5
E8
  8
0
  6
CONTINUOUS
 62
     7
 10
-1482.75
 20
378.5000000000001
 30
0.0
 11
-1482.75
 21
337.5000000000001
 31
0.0
  0
ARC
  5
E9
  8
0
  6
CONTINUOUS
 62
     7
 10
-1482.25
 20
337.5
 30
0.0
 40
0.5000000000000004
 50
180.0
 51
270.0
  0
LINE
  5
EA
  8
0
  6
CONTINUOUS
 62
     7
 10
-1482.25
 20
337.0
 30
0.0
 11
-1481.5
 21
337.0
 31
0.0
  0
ARC
  5
EB
  8
0
  6
CONTINUOUS
 62
     7
 10
-1481.5
 20
332.5
 30
0.0
 40
4.5
 50
12.83958840690423
 51
90.00000000000011
  0
LINE
  5
EC
  8
0
  6
CONTINUOUS
 62
     7
 10
-1475.962912017836
 20
333.5
 30
0.0
 11
-1477.112517806304
 21
333.5
 31
0.0
  0
LINE
  5
ED
  8
0
  6
CONTINUOUS
 62
     7
 10
-1477.112517806304
 20
331.5
 30
0.0
 11
-1475.962912017836
 21
331.5
 31
0.0
  0
ARC
  5
EE
  8
0
  6
CONTINUOUS
 62
     7
 10
-1481.5
 20
332.5
 30
0.0
 40
4.5
 50
270.0
 51
347.1604115930959
  0
LINE
  5
EF
  8
0
  6
CONTINUOUS
 62
     7
 10
-1481.5
 20
328.0
 30
0.0
 11
-1482.25
 21
328.0
 31
0.0
  0
ARC
  5
F0
  8
0
  6
CONTINUOUS
 62
     7
 10
-1482.25
 20
327.5
 30
0.0
 40
0.5000000000000004
 50
90.0
 51
180.0
  0
LINE
  5
F1
  8
0
  6
CONTINUOUS
 62
     7
 10
-1482.75
 20
327.5
 30
0.0
 11
-1482.75
 21
286.5
 31
0.0
  0
LINE
  5
F2
  8
0
  6
CONTINUOUS
 62
     7
 10
-1449.037087982164
 20
331.5
 30
0.0
 11
-1447.887482193696
 21
331.5
 31
0.0
  0
LINE
  5
F3
  8
0
  6
CONTINUOUS
 62
     7
 10
-1442.25
 20
327.5
 30
0.0
 11
-1442.25
 21
286.5
 31
0.0
  0
ARC
  5
F4
  8
0
  6
CONTINUOUS
 62
     7
 10
-1442.75
 20
327.5
 30
0.0
 40
0.5000000000000004
 50
0.0
 51
90.0
  0
LINE
  5
F5
  8
0
  6
CONTINUOUS
 62
     7
 10
-1443.5
 20
328.0
 30
0.0
 11
-1442.75
 21
328.0
 31
0.0
  0
ARC
  5
F6
  8
0
  6
CONTINUOUS
 62
     7
 10
-1443.5
 20
332.5
 30
0.0
 40
4.5
 50
192.8395884069042
 51
270.0
  0
LINE
  5
F7
  8
0
  6
CONTINUOUS
 62
     7
 10
-1447.887482193696
 20
333.5
 30
0.0
 11
-1449.037087982164
 21
333.5
 31
0.0
  0
ARC
  5
F8
  8
0
  6
CONTINUOUS
 62
     7
 10
-1443.5
 20
332.5
 30
0.0
 40
4.5
 50
89.99999999999991
 51
167.1604115930958
  0
LINE
  5
F9
  8
0
  6
CONTINUOUS
 62
     7
 10
-1442.75
 20
337.0
 30
0.0
 11
-1443.5
 21
337.0
 31
0.0
  0
ARC
  5
FA
  8
0
  6
CONTINUOUS
 62
     7
 10
-1442.75
 20
337.5
 30
0.0
 40
0.5000000000000004
 50
270.0
 51
0.0
  0
LINE
  5
FB
  8
0
  6
CONTINUOUS
 62
     7
 10
-1442.25
 20
378.5000000000001
 30
0.0
 11
-1442.25
 21
337.5000000000001
 31
0.0
  0
LINE
  5
FC
  8
0
  6
CONTINUOUS
 62
     7
 10
-1499.387482193696
 20
333.5
 30
0.0
 11
-1532.0
 21
333.5
 31
0.0
  0
CIRCLE
  5
FD
  8
0
  6
CONTINUOUS
 62
     7
 10
-1495.0
 20
332.5
 30
0.0
 40
2.999999999999996
  0
LINE
  5
FE
  8
0
  6
CONTINUOUS
 62
     7
 10
-1488.25
 20
333.5
 30
0.0
 11
-1490.612517806304
 21
333.5
 31
0.0
  0
LINE
  5
FF
  8
0
  6
CONTINUOUS
 62
     7
 10
-1488.25
 20
333.5
 30
0.0
 11
-1488.25
 21
378.5
 31
0.0
  0
LINE
  5
100
  8
0
  6
CONTINUOUS
 62
     7
 10
-1488.25
 20
286.5
 30
0.0
 11
-1488.25
 21
331.5
 31
0.0
  0
LINE
  5
101
  8
0
  6
CONTINUOUS
 62
     7
 10
-1490.612517806304
 20
331.5
 30
0.0
 11
-1488.25
 21
331.5
 31
0.0
  0
ARC
  5
102
  8
0
  6
CONTINUOUS
 62
     7
 10
-1495.0
 20
332.5
 30
0.0
 40
4.500000000000003
 50
192.8395884069041
 51
347.1604115930958
  0
LINE
  5
103
  8
0
  6
CONTINUOUS
 62
     7
 10
-1532.0
 20
331.5
 30
0.0
 11
-1499.387482193696
 21
331.5
 31
0.0
  0
ARC
  5
104
  8
0
  6
CONTINUOUS
 62
     7
 10
-1495.0
 20
332.5
 30
0.0
 40
4.5
 50
12.83958840690415
 51
167.1604115930958
  0
LINE
  5
105
  8
0
  6
CONTINUOUS
 62
     7
 10
-1436.75
 20
331.5
 30
0.0
 11
-1434.387482193696
 21
331.5
 31
0.0
  0
LINE
  5
106
  8
0
  6
CONTINUOUS
 62
     7
 10
-1463.5
 20
319.0370879821637
 30
0.0
 11
-1463.5
 21
317.887482193696
 31
0.0
  0
LINE
  5
107
  8
0
  6
CONTINUOUS
 62
     7
 10
-1461.5
 20
345.9629120178363
 30
0.0
 11
-1461.5
 21
347.112517806304
 31
0.0
  0
LINE
  5
108
  8
0
  6
CONTINUOUS
 62
     7
 10
-1463.5
 20
347.1125178063039
 30
0.0
 11
-1463.5
 21
345.9629120178362
 31
0.0
  0
LINE
  5
109
  8
0
  6
CONTINUOUS
 62
     7
 10
-1393.0
 20
333.5
 30
0.0
 11
-1425.612517806304
 21
333.5
 31
0.0
  0
LINE
  5
10A
  8
0
  6
CONTINUOUS
 62
     7
 10
-1461.5
 20
317.8874821936961
 30
0.0
 11
-1461.5
 21
319.0370879821638
 31
0.0
  0
CIRCLE
  5
10B
  8
0
  6
CONTINUOUS
 62
     7
 10
-1462.5
 20
351.5
 30
0.0
 40
2.999999999999999
  0
ARC
  5
10C
  8
0
  6
CONTINUOUS
 62
     7
 10
-1462.5
 20
351.5
 30
0.0
 40
4.5
 50
282.8395884069041
 51
257.1604115930959
  0
LINE
  5
10D
  8
0
  6
CONTINUOUS
 62
     7
 10
-1425.612517806304
 20
331.5
 30
0.0
 11
-1393.0
 21
331.5
 31
0.0
  0
CIRCLE
  5
10E
  8
0
  6
CONTINUOUS
 62
     7
 10
-1430.0
 20
332.5
 30
0.0
 40
2.999999999999996
  0
LINE
  5
10F
  8
0
  6
CONTINUOUS
 62
     7
 10
-1434.387482193696
 20
333.5
 30
0.0
 11
-1436.75
 21
333.5
 31
0.0
  0
ARC
  5
110
  8
0
  6
CONTINUOUS
 62
     7
 10
-1430.0
 20
332.5
 30
0.0
 40
4.5
 50
12.83958840690411
 51
167.1604115930959
  0
ARC
  5
111
  8
0
  6
CONTINUOUS
 62
     7
 10
-1430.0
 20
332.5
 30
0.0
 40
4.500000000000003
 50
192.8395884069041
 51
347.1604115930959
  0
LINE
  5
112
  8
0
  6
CONTINUOUS
 62
     7
 10
-1436.75
 20
286.5
 30
0.0
 11
-1436.75
 21
331.5
 31
0.0
  0
LINE
  5
113
  8
0
  6
CONTINUOUS
 62
     7
 10
-1436.75
 20
333.5
 30
0.0
 11
-1436.75
 21
378.5
 31
0.0
  0
CIRCLE
  5
114
  8
0
  6
CONTINUOUS
 62
     7
 10
-1462.5
 20
313.5
 30
0.0
 40
2.999999999999999
  0
ARC
  5
115
  8
0
  6
CONTINUOUS
 62
     7
 10
-1462.5
 20
313.5
 30
0.0
 40
4.5
 50
102.8395884069041
 51
77.16041159309584
  0
CIRCLE
  5
116
  8
0
  6
CONTINUOUS
 62
     7
 10
-1416.5
 20
374.25
 30
0.0
 40
4.000000000000004
  0
CIRCLE
  5
117
  8
0
  6
CONTINUOUS
 62
     7
 10
-1508.5
 20
290.75
 30
0.0
 40
4.000000000000004
  0
LINE
  5
118
  8
0
  6
CONTINUOUS
 62
     7
 10
-1549.35
 20
288.2
 30
0.0
 11
-1549.35
 21
278.65
 31
0.0
  0
LINE
  5
119
  8
0
  6
CONTINUOUS
 62
     7
 10
-1547.65
 20
289.2
 30
0.0
 11
-1548.35
 21
289.2
 31
0.0
  0
ARC
  5
11A
  8
0
  6
CONTINUOUS
 62
     7
 10
-1547.65
 20
290.2
 30
0.0
 40
1.000000000000001
 50
270.0
 51
359.9999999999996
  0
ARC
  5
11B
  8
0
  6
CONTINUOUS
 62
     7
 10
-1508.5
 20
290.75
 30
0.0
 40
5.100000000000001
 50
0.0
 51
180.0
  0
ARC
  5
11C
  8
0
  6
CONTINUOUS
 62
     7
 10
-1546.35
 20
278.65
 30
0.0
 40
3.000000000000003
 50
180.0000000000002
 51
270.0
  0
ARC
  5
11D
  8
0
  6
CONTINUOUS
 62
     7
 10
-1469.1
 20
288.0
 30
0.0
 40
1.5
 50
270.0000000000001
 51
0.0
  0
ARC
  5
11E
  8
0
  6
CONTINUOUS
 62
     7
 10
-1462.5
 20
290.75
 30
0.0
 40
5.1
 50
359.9999999999999
 51
180.0000000000001
  0
CIRCLE
  5
11F
  8
0
  6
CONTINUOUS
 62
     7
 10
-1462.5
 20
374.25
 30
0.0
 40
4.000000000000003
  0
ARC
  5
120
  8
0
  6
CONTINUOUS
 62
     7
 10
-1515.1
 20
377.0
 30
0.0
 40
1.500000000000001
 50
0.0
 51
90.0
  0
LINE
  5
121
  8
0
  6
CONTINUOUS
 62
     7
 10
-1515.1
 20
378.5
 30
0.0
 11
-1530.5
 21
378.5
 31
0.0
  0
ARC
  5
122
  8
0
  6
CONTINUOUS
 62
     7
 10
-1515.1
 20
288.0
 30
0.0
 40
1.500000000000001
 50
270.0
 51
0.0
  0
ARC
  5
123
  8
0
  6
CONTINUOUS
 62
     7
 10
-1501.9
 20
288.0
 30
0.0
 40
1.500000000000001
 50
180.0
 51
270.0
  0
LINE
  5
124
  8
0
  6
CONTINUOUS
 62
     7
 10
-1546.35
 20
275.65
 30
0.0
 11
-1378.65
 21
275.65
 31
0.0
  0
ARC
  5
125
  8
0
  6
CONTINUOUS
 62
     7
 10
-1548.35
 20
288.2
 30
0.0
 40
1.000000000000001
 50
90.0
 51
180.0000000000004
  0
LINE
  5
126
  8
0
  6
CONTINUOUS
 62
     7
 10
-1513.6
 20
290.75
 30
0.0
 11
-1513.6
 21
288.0
 31
0.0
  0
LINE
  5
127
  8
0
  6
CONTINUOUS
 62
     7
 10
-1513.6
 20
374.25
 30
0.0
 11
-1513.6
 21
377.0
 31
0.0
  0
LINE
  5
128
  8
0
  6
CONTINUOUS
 62
     7
 10
-1503.4
 20
288.0
 30
0.0
 11
-1503.4
 21
290.75
 31
0.0
  0
LINE
  5
129
  8
0
  6
CONTINUOUS
 62
     7
 10
-1469.1
 20
286.4999999999999
 30
0.0
 11
-1501.9
 21
286.4999999999999
 31
0.0
  0
LINE
  5
12A
  8
0
  6
CONTINUOUS
 62
     7
 10
-1467.6
 20
290.75
 30
0.0
 11
-1467.6
 21
288.0
 31
0.0
  0
CIRCLE
  5
12B
  8
0
  6
CONTINUOUS
 62
     7
 10
-1462.5
 20
290.75
 30
0.0
 40
4.000000000000003
  0
ARC
  5
12C
  8
0
  6
CONTINUOUS
 62
     7
 10
-1547.65
 20
302.8
 30
0.0
 40
1.000000000000001
 50
0.0
 51
90.0
  0
ARC
  5
12D
  8
0
  6
CONTINUOUS
 62
     7
 10
-1548.35
 20
304.8
 30
0.0
 40
1.000000000000001
 50
180.0000000000004
 51
270.0
  0
ARC
  5
12E
  8
0
  6
CONTINUOUS
 62
     7
 10
-1530.5
 20
288.0
 30
0.0
 40
1.500000000000001
 50
180.0000000000004
 51
270.0
  0
ARC
  5
12F
  8
0
  6
CONTINUOUS
 62
     7
 10
-1378.65
 20
386.35
 30
0.0
 40
3.000000000000003
 50
0.000000000000265
 51
90.0
  0
LINE
  5
130
  8
0
  6
CONTINUOUS
 62
     7
 10
-1377.35
 20
375.8
 30
0.0
 11
-1376.65
 21
375.8
 31
0.0
  0
ARC
  5
131
  8
0
  6
CONTINUOUS
 62
     7
 10
-1377.35
 20
374.8
 30
0.0
 40
1.000000000000001
 50
90.0
 51
179.9999999999995
  0
LINE
  5
132
  8
0
  6
CONTINUOUS
 62
     7
 10
-1378.35
 20
362.2
 30
0.0
 11
-1378.35
 21
374.8
 31
0.0
  0
ARC
  5
133
  8
0
  6
CONTINUOUS
 62
     7
 10
-1377.35
 20
362.2
 30
0.0
 40
1.000000000000001
 50
180.0
 51
270.0
  0
LINE
  5
134
  8
0
  6
CONTINUOUS
 62
     7
 10
-1376.65
 20
361.2
 30
0.0
 11
-1377.35
 21
361.2
 31
0.0
  0
ARC
  5
135
  8
0
  6
CONTINUOUS
 62
     7
 10
-1394.5
 20
377.0
 30
0.0
 40
1.500000000000001
 50
0.0000000000005116
 51
90.0
  0
LINE
  5
136
  8
0
  6
CONTINUOUS
 62
     7
 10
-1411.4
 20
374.25
 30
0.0
 11
-1411.4
 21
377.0
 31
0.0
  0
ARC
  5
137
  8
0
  6
CONTINUOUS
 62
     7
 10
-1416.5
 20
374.25
 30
0.0
 40
5.100000000000001
 50
180.0
 51
0.0
  0
LINE
  5
138
  8
0
  6
CONTINUOUS
 62
     7
 10
-1421.6
 20
377.0
 30
0.0
 11
-1421.6
 21
374.25
 31
0.0
  0
ARC
  5
139
  8
0
  6
CONTINUOUS
 62
     7
 10
-1423.1
 20
377.0
 30
0.0
 40
1.500000000000001
 50
0.0
 51
90.0
  0
LINE
  5
13A
  8
0
  6
CONTINUOUS
 62
     7
 10
-1455.9
 20
378.5000000000001
 30
0.0
 11
-1423.1
 21
378.5000000000001
 31
0.0
  0
ARC
  5
13B
  8
0
  6
CONTINUOUS
 62
     7
 10
-1455.9
 20
377.0
 30
0.0
 40
1.5
 50
90.00000000000006
 51
180.0
  0
LINE
  5
13C
  8
0
  6
CONTINUOUS
 62
     7
 10
-1457.4
 20
374.25
 30
0.0
 11
-1457.4
 21
377.0
 31
0.0
  0
LINE
  5
13D
  8
0
  6
CONTINUOUS
 62
     7
 10
-1409.9
 20
378.5
 30
0.0
 11
-1394.5
 21
378.5
 31
0.0
  0
ARC
  5
13E
  8
0
  6
CONTINUOUS
 62
     7
 10
-1409.9
 20
377.0
 30
0.0
 40
1.500000000000001
 50
90.0
 51
180.0
  0
LINE
  5
13F
  8
0
  6
CONTINUOUS
 62
     7
 10
-1546.65
 20
302.8
 30
0.0
 11
-1546.65
 21
290.2
 31
0.0
  0
ARC
  5
140
  8
0
  6
CONTINUOUS
 62
     7
 10
-1548.35
 20
360.2
 30
0.0
 40
1.000000000000001
 50
90.0
 51
179.9999999999995
  0
LINE
  5
141
  8
0
  6
CONTINUOUS
 62
     7
 10
-1548.35
 20
303.8
 30
0.0
 11
-1547.65
 21
303.8
 31
0.0
  0
ARC
  5
142
  8
0
  6
CONTINUOUS
 62
     7
 10
-1376.65
 20
376.8
 30
0.0
 40
1.000000000000001
 50
270.0
 51
0.0000000000003979
  0
LINE
  5
143
  8
0
  6
CONTINUOUS
 62
     7
 10
-1421.6
 20
288.0
 30
0.0
 11
-1421.6
 21
290.75
 31
0.0
  0
LINE
  5
144
  8
0
  6
CONTINUOUS
 62
     7
 10
-1457.4
 20
290.75
 30
0.0
 11
-1457.4
 21
288.0
 31
0.0
  0
LINE
  5
145
  8
0
  6
CONTINUOUS
 62
     7
 10
-1375.65
 20
376.8
 30
0.0
 11
-1375.65
 21
386.35
 31
0.0
  0
CIRCLE
  5
146
  8
0
  6
CONTINUOUS
 62
     7
 10
-1508.5
 20
374.25
 30
0.0
 40
4.000000000000004
  0
ARC
  5
147
  8
0
  6
CONTINUOUS
 62
     7
 10
-1376.65
 20
360.2
 30
0.0
 40
1.000000000000001
 50
0.0000000000003976
 51
90.0
  0
LINE
  5
148
  8
0
  6
CONTINUOUS
 62
     7
 10
-1375.65
 20
304.8
 30
0.0
 11
-1375.65
 21
360.2
 31
0.0
  0
LINE
  5
149
  8
0
  6
CONTINUOUS
 62
     7
 10
-1393.0
 20
377.0
 30
0.0
 11
-1393.0
 21
288.0
 31
0.0
  0
LINE
  5
14A
  8
0
  6
CONTINUOUS
 62
     7
 10
-1515.1
 20
286.5
 30
0.0
 11
-1530.5
 21
286.5
 31
0.0
  0
ARC
  5
14B
  8
0
  6
CONTINUOUS
 62
     7
 10
-1546.35
 20
386.35
 30
0.0
 40
3.000000000000003
 50
90.0
 51
179.9999999999998
  0
LINE
  5
14C
  8
0
  6
CONTINUOUS
 62
     7
 10
-1549.35
 20
376.8
 30
0.0
 11
-1549.35
 21
386.35
 31
0.0
  0
ARC
  5
14D
  8
0
  6
CONTINUOUS
 62
     7
 10
-1548.35
 20
376.8
 30
0.0
 40
1.000000000000001
 50
179.9999999999995
 51
270.0
  0
LINE
  5
14E
  8
0
  6
CONTINUOUS
 62
     7
 10
-1547.65
 20
375.8
 30
0.0
 11
-1548.35
 21
375.8
 31
0.0
  0
ARC
  5
14F
  8
0
  6
CONTINUOUS
 62
     7
 10
-1547.65
 20
374.8
 30
0.0
 40
1.000000000000001
 50
0.0000000000003976
 51
90.0
  0
LINE
  5
150
  8
0
  6
CONTINUOUS
 62
     7
 10
-1546.65
 20
362.2
 30
0.0
 11
-1546.65
 21
374.8
 31
0.0
  0
ARC
  5
151
  8
0
  6
CONTINUOUS
 62
     7
 10
-1547.65
 20
362.2
 30
0.0
 40
1.000000000000001
 50
270.0
 51
0.0
  0
LINE
  5
152
  8
0
  6
CONTINUOUS
 62
     7
 10
-1548.35
 20
361.2
 30
0.0
 11
-1547.65
 21
361.2
 31
0.0
  0
LINE
  5
153
  8
0
  6
CONTINUOUS
 62
     7
 10
-1549.35
 20
304.8
 30
0.0
 11
-1549.35
 21
360.2
 31
0.0
  0
LINE
  5
154
  8
0
  6
CONTINUOUS
 62
     7
 10
-1532.0
 20
377.0
 30
0.0
 11
-1532.0
 21
288.0
 31
0.0
  0
ARC
  5
155
  8
0
  6
CONTINUOUS
 62
     7
 10
-1530.5
 20
377.0
 30
0.0
 40
1.500000000000001
 50
90.0
 51
179.9999999999995
  0
ARC
  5
156
  8
0
  6
CONTINUOUS
 62
     7
 10
-1508.5
 20
374.25
 30
0.0
 40
5.100000000000001
 50
180.0
 51
0.0
  0
LINE
  5
157
  8
0
  6
CONTINUOUS
 62
     7
 10
-1503.4
 20
377.0
 30
0.0
 11
-1503.4
 21
374.25
 31
0.0
  0
ARC
  5
158
  8
0
  6
CONTINUOUS
 62
     7
 10
-1501.9
 20
377.0
 30
0.0
 40
1.500000000000001
 50
90.0
 51
180.0
  0
LINE
  5
159
  8
0
  6
CONTINUOUS
 62
     7
 10
-1469.1
 20
378.5000000000001
 30
0.0
 11
-1501.9
 21
378.5000000000001
 31
0.0
  0
ARC
  5
15A
  8
0
  6
CONTINUOUS
 62
     7
 10
-1469.1
 20
377.0
 30
0.0
 40
1.5
 50
0.0
 51
89.99999999999991
  0
LINE
  5
15B
  8
0
  6
CONTINUOUS
 62
     7
 10
-1467.6
 20
374.25
 30
0.0
 11
-1467.6
 21
377.0
 31
0.0
  0
ARC
  5
15C
  8
0
  6
CONTINUOUS
 62
     7
 10
-1462.5
 20
374.25
 30
0.0
 40
5.1
 50
179.9999999999999
 51
0.0000000000000568
  0
CIRCLE
  5
15D
  8
0
  6
CONTINUOUS
 62
     7
 10
-1416.5
 20
290.75
 30
0.0
 40
4.000000000000004
  0
LINE
  5
15E
  8
0
  6
CONTINUOUS
 62
     7
 10
-1546.35
 20
389.35
 30
0.0
 11
-1378.65
 21
389.35
 31
0.0
  0
ARC
  5
15F
  8
0
  6
CONTINUOUS
 62
     7
 10
-1378.65
 20
278.65
 30
0.0
 40
3.000000000000003
 50
270.0
 51
359.9999999999998
  0
LINE
  5
160
  8
0
  6
CONTINUOUS
 62
     7
 10
-1375.65
 20
288.2
 30
0.0
 11
-1375.65
 21
278.65
 31
0.0
  0
ARC
  5
161
  8
0
  6
CONTINUOUS
 62
     7
 10
-1376.65
 20
288.2
 30
0.0
 40
1.000000000000001
 50
359.9999999999996
 51
90.0
  0
LINE
  5
162
  8
0
  6
CONTINUOUS
 62
     7
 10
-1377.35
 20
289.2
 30
0.0
 11
-1376.65
 21
289.2
 31
0.0
  0
ARC
  5
163
  8
0
  6
CONTINUOUS
 62
     7
 10
-1377.35
 20
290.2
 30
0.0
 40
1.000000000000001
 50
180.0000000000004
 51
270.0
  0
LINE
  5
164
  8
0
  6
CONTINUOUS
 62
     7
 10
-1378.35
 20
302.8
 30
0.0
 11
-1378.35
 21
290.2
 31
0.0
  0
ARC
  5
165
  8
0
  6
CONTINUOUS
 62
     7
 10
-1377.35
 20
302.8
 30
0.0
 40
1.000000000000001
 50
90.0
 51
180.0
  0
LINE
  5
166
  8
0
  6
CONTINUOUS
 62
     7
 10
-1376.65
 20
303.8
 30
0.0
 11
-1377.35
 21
303.8
 31
0.0
  0
ARC
  5
167
  8
0
  6
CONTINUOUS
 62
     7
 10
-1376.65
 20
304.8
 30
0.0
 40
1.000000000000001
 50
270.0
 51
359.9999999999996
  0
ARC
  5
168
  8
0
  6
CONTINUOUS
 62
     7
 10
-1394.5
 20
288.0
 30
0.0
 40
1.500000000000001
 50
270.0
 51
359.9999999999995
  0
LINE
  5
169
  8
0
  6
CONTINUOUS
 62
     7
 10
-1411.4
 20
290.75
 30
0.0
 11
-1411.4
 21
288.0
 31
0.0
  0
ARC
  5
16A
  8
0
  6
CONTINUOUS
 62
     7
 10
-1416.5
 20
290.75
 30
0.0
 40
5.100000000000001
 50
0.0
 51
180.0
  0
ARC
  5
16B
  8
0
  6
CONTINUOUS
 62
     7
 10
-1423.1
 20
288.0
 30
0.0
 40
1.500000000000001
 50
270.0
 51
0.0
  0
LINE
  5
16C
  8
0
  6
CONTINUOUS
 62
     7
 10
-1455.9
 20
286.4999999999999
 30
0.0
 11
-1423.1
 21
286.4999999999999
 31
0.0
  0
ARC
  5
16D
  8
0
  6
CONTINUOUS
 62
     7
 10
-1455.9
 20
288.0
 30
0.0
 40
1.5
 50
180.0
 51
269.9999999999999
  0
LINE
  5
16E
  8
0
  6
CONTINUOUS
 62
     7
 10
-1409.9
 20
286.5
 30
0.0
 11
-1394.5
 21
286.5
 31
0.0
  0
ARC
  5
16F
  8
0
  6
CONTINUOUS
 62
     7
 10
-1409.9
 20
288.0
 30
0.0
 40
1.500000000000001
 50
180.0
 51
270.0
  0
CIRCLE
  5
170
  8
0
  6
CONTINUOUS
 62
     7
 10
-1508.5
 20
290.75
 30
0.0
 40
2.099999999999998
  0
CIRCLE
  5
171
  8
0
  6
CONTINUOUS
 62
     7
 10
-1462.5
 20
290.75
 30
0.0
 40
2.100000000000004
  0
CIRCLE
  5
172
  8
0
  6
CONTINUOUS
 62
     7
 10
-1416.5
 20
374.25
 30
0.0
 40
2.099999999999998
  0
CIRCLE
  5
173
  8
0
  6
CONTINUOUS
 62
     7
 10
-1416.5
 20
290.75
 30
0.0
 40
2.099999999999998
  0
CIRCLE
  5
174
  8
0
  6
CONTINUOUS
 62
     7
 10
-1462.5
 20
374.25
 30
0.0
 40
2.100000000000004
  0
CIRCLE
  5
175
  8
0
  6
CONTINUOUS
 62
     7
 10
-1508.5
 20
374.25
 30
0.0
 40
2.099999999999998
  0
ENDBLK
  8
0
  0
BLOCK
  8
0
  2
D_FRAME_VIEW_5289
 70
     0
 10
0.0
 20
0.0
 30
0.0
  0
LINE
  5
191
  8
0
  6
CONTINUOUS
 62
     7
 10
-1371.5
 20
164.4999999999999
 30
0.0
 11
-1371.5
 21
113.4999999999999
 31
0.0
  0
LINE
  5
192
  8
0
  6
CONTINUOUS
 62
     7
 10
-1553.5
 20
113.4999999999999
 30
0.0
 11
-1553.5
 21
164.4999999999999
 31
0.0
  0
CIRCLE
  5
193
  8
0
  6
CONTINUOUS
 62
     7
 10
-1380.25
 20
116.5999999999999
 30
0.0
 40
2.099999999999991
  0
ARC
  5
194
  8
0
  6
CONTINUOUS
 62
     7
 10
-1374.5
 20
113.4999999999999
 30
0.0
 40
3.000000000000003
 50
270.0
 51
0.0000000000000568
  0
ARC
  5
195
  8
0
  6
CONTINUOUS
 62
     7
 10
-1550.5
 20
113.4999999999999
 30
0.0
 40
2.999999999999892
 50
180.0
 51
270.0
  0
CIRCLE
  5
196
  8
0
  6
CONTINUOUS
 62
     7
 10
-1462.5
 20
135.4999999999999
 30
0.0
 40
16.9999999999999
  0
LINE
  5
197
  8
0
  6
CONTINUOUS
 62
     7
 10
-1463.25
 20
160.2499999999999
 30
0.0
 11
-1463.25
 21
164.4999999999999
 31
0.0
  0
ARC
  5
198
  8
0
  6
CONTINUOUS
 62
     7
 10
-1462.5
 20
160.2499999999999
 30
0.0
 40
0.7500000000000284
 50
180.0000000000006
 51
0.0
  0
LINE
  5
199
  8
0
  6
CONTINUOUS
 62
     7
 10
-1461.75
 20
164.4999999999999
 30
0.0
 11
-1461.75
 21
160.2499999999999
 31
0.0
  0
CIRCLE
  5
19A
  8
0
  6
CONTINUOUS
 62
     7
 10
-1515.5
 20
135.4999999999999
 30
0.0
 40
16.9999999999999
  0
CIRCLE
  5
19B
  8
0
  6
CONTINUOUS
 62
     7
 10
-1409.5
 20
135.4999999999999
 30
0.0
 40
17.00000000000012
  0
CIRCLE
  5
19C
  8
0
  6
CONTINUOUS
 62
     7
 10
-1544.75
 20
116.5999999999999
 30
0.0
 40
2.099999999999991
  0
ENDBLK
  8
0
  0
BLOCK
  8
0
  2
D_FRAME_VIEW_4742
 70
     0
 10
0.0
 20
0.0
 30
0.0
  0
LINE
  5
1A1
  8
0
  6
CONTINUOUS
 62
     7
 10
-1234.5
 20
331.7500000000001
 30
0.0
 11
-1230.25
 21
331.7500000000001
 31
0.0
  0
ARC
  5
1A2
  8
0
  6
CONTINUOUS
 62
     7
 10
-1230.25
 20
332.5
 30
0.0
 40
0.7499999999999729
 50
270.0
 51
90.0
  0
LINE
  5
1A3
  8
0
  6
CONTINUOUS
 62
     7
 10
-1230.25
 20
333.2500000000001
 30
0.0
 11
-1234.5
 21
333.2500000000001
 31
0.0
  0
CIRCLE
  5
1A4
  8
0
  6
CONTINUOUS
 62
     7
 10
-1209.2
 20
294.0000000000001
 30
0.0
 40
13.54999999999995
  0
CIRCLE
  5
1A5
  8
0
  6
CONTINUOUS
 62
     7
 10
-1211.2
 20
332.5
 30
0.0
 40
10.89999999999996
  0
CIRCLE
  5
1A6
  8
0
  6
CONTINUOUS
 62
     7
 10
-1209.2
 20
371.0
 30
0.0
 40
13.55000000000001
  0
LINE
  5
1A7
  8
0
  6
CONTINUOUS
 62
     7
 10
-1185.5
 20
393.4967657095297
 30
0.0
 11
-1185.185786437627
 21
393.5
 31
0.0
  0
ARC
  5
1A8
  8
0
  6
CONTINUOUS
 62
     7
 10
-1183.5
 20
390.5
 30
0.0
 40
3.000000000000003
 50
0.0
 51
90.0
  0
ARC
  5
1A9
  8
0
  6
CONTINUOUS
 62
     7
 10
-1189.8
 20
336.0
 30
0.0
 40
0.5000000000000004
 50
90.0
 51
180.0
  0
ARC
  5
1AA
  8
0
  6
CONTINUOUS
 62
     7
 10
-1181.0
 20
337.0
 30
0.0
 40
0.5000000000000004
 50
269.9999999999997
 51
0.0000000000003979
  0
LINE
  5
1AB
  8
0
  6
CONTINUOUS
 62
     7
 10
-1190.3
 20
336.0
 30
0.0
 11
-1190.3
 21
329.0
 31
0.0
  0
ARC
  5
1AC
  8
0
  6
CONTINUOUS
 62
     7
 10
-1189.8
 20
329.0
 30
0.0
 40
0.4999999999999449
 50
180.0
 51
270.0
  0
ARC
  5
1AD
  8
0
  6
CONTINUOUS
 62
     7
 10
-1183.5
 20
274.5
 30
0.0
 40
2.999999999999892
 50
269.9999999999999
 51
0.0
  0
ARC
  5
1AE
  8
0
  6
CONTINUOUS
 62
     7
 10
-1181.0
 20
328.0
 30
0.0
 40
0.4999999999999449
 50
0.0
 51
90.0000000000003
  0
ENDBLK
  8
0
  0
ENDSEC
  0
SECTION
  2
ENTITIES
  0
INSERT
  5
176
  8
0
  6
CONTINUOUS
 62
     7
  2
D_FRAME_VIEW_3447
 10
0.0
 20
0.0
 30
0.0
  0
TEXT
  5
177
  8
1
  6
CONTINUOUS
 62
     7
 10
-1411.360660247593
 20
99.1568400650244
 30
0.0
 40
6.0
  1
CSW-3NYF
  0
ARC
  5
178
  8
0
  6
CONTINUOUS
 62
     7
 10
-1443.5
 20
332.5
 30
0.0
 40
2.999999999999997
 50
10.4753138419369
 51
349.5246861580296
  0
LINE
  5
179
  8
0
  6
CONTINUOUS
 62
     7
 10
-1438.549999999978
 20
378.5000000000001
 30
0.0
 11
-1438.550000000003
 21
286.5
 31
0.0
  0
CIRCLE
  5
17A
  8
0
  6
CONTINUOUS
 62
     7
 10
-1386.5
 20
280.0
 30
0.0
 40
4.000000000000007
  0
LINE
  5
17B
  8
0
  6
CONTINUOUS
 62
     7
 10
-1440.549999999977
 20
378.5
 30
0.0
 11
-1440.550000000002
 21
286.5
 31
0.0
  0
CIRCLE
  5
17C
  8
0
  6
CONTINUOUS
 62
     7
 10
-1386.5
 20
385.0
 30
0.0
 40
4.000000000000007
  0
CIRCLE
  5
17D
  8
0
  6
CONTINUOUS
 62
     7
 10
-1481.5
 20
332.5
 30
0.0
 40
2.999999999999999
  0
CIRCLE
  5
17E
  8
0
  6
CONTINUOUS
 62
     7
 10
-1538.5
 20
385.0
 30
0.0
 40
4.000000000000007
  0
CIRCLE
  5
17F
  8
0
  6
CONTINUOUS
 62
     7
 10
-1538.5
 20
280.0
 30
0.0
 40
4.000000000000007
  0
LINE
  5
180
  8
0
  6
CONTINUOUS
 62
     7
 10
-1553.5
 20
164.4999999999999
 30
0.0
 11
-1371.5
 21
164.4999999999999
 31
0.0
  0
LINE
  5
181
  8
0
  6
CONTINUOUS
 62
     7
 10
-1234.5
 20
393.5
 30
0.0
 11
-1183.5
 21
393.5
 31
0.0
  0
LINE
  5
182
  8
0
  6
CONTINUOUS
 62
     7
 10
-1234.5
 20
271.5
 30
0.0
 11
-1183.5
 21
271.5
 31
0.0
  0
LINE
  5
183
  8
0
  6
CONTINUOUS
 62
     7
 10
-1374.5
 20
110.4999999999999
 30
0.0
 11
-1550.5
 21
110.4999999999999
 31
0.0
  0
LINE
  5
184
  8
0
  6
CONTINUOUS
 62
     7
 10
-1180.5
 20
390.5
 30
0.0
 11
-1180.5
 21
274.5
 31
0.0
  0
LINE
  5
185
  8
0
  6
CONTINUOUS
 62
     7
 10
-1234.5
 20
393.5
 30
0.0
 11
-1234.5
 21
271.5
 31
0.0
  0
LINE
  5
186
  8
0
  6
CONTINUOUS
 62
     7
 10
-1371.5
 20
386.5000000000001
 30
0.0
 11
-1371.5
 21
278.5
 31
0.0
  0
LINE
  5
187
  8
0
  6
CONTINUOUS
 62
     7
 10
-1546.5
 20
271.4999999999993
 30
0.0
 11
-1378.5
 21
271.5000000000008
 31
0.0
  0
LINE
  5
188
  8
0
  6
CONTINUOUS
 62
     7
 10
-1181.0
 20
336.5
 30
0.0
 11
-1189.8
 21
336.5
 31
0.0
  0
LINE
  5
189
  8
0
  6
CONTINUOUS
 62
     7
 10
-1553.5
 20
386.5
 30
0.0
 11
-1553.5
 21
278.5
 31
0.0
  0
LINE
  5
18A
  8
0
  6
CONTINUOUS
 62
     7
 10
-1484.549999999978
 20
378.5000000000001
 30
0.0
 11
-1484.550000000003
 21
286.5
 31
0.0
  0
LINE
  5
18B
  8
0
  6
CONTINUOUS
 62
     7
 10
-1546.5
 20
393.5000000000008
 30
0.0
 11
-1378.5
 21
393.4999999999992
 31
0.0
  0
LINE
  5
18C
  8
0
  6
CONTINUOUS
 62
     7
 10
-1486.549999999977
 20
378.5
 30
0.0
 11
-1486.550000000002
 21
286.5
 31
0.0
  0
LINE
  5
18D
  8
0
  6
CONTINUOUS
 62
     7
 10
-1189.8
 20
328.5
 30
0.0
 11
-1181.0
 21
328.5
 31
0.0
  0
INSERT
  5
19D
  8
0
  6
CONTINUOUS
 62
     7
  2
D_FRAME_VIEW_5289
 10
0.0
 20
0.0
 30
0.0
  0
INSERT
  5
1AF
  8
0
  6
CONTINUOUS
 62
     7
  2
D_FRAME_VIEW_4742
 10
0.0
 20
0.0
 30
0.0
  0
ENDSEC
  0
EOF
