  0
SECTION
  2
HEADER
  9
$ACADVER
  1
AC1006
  9
$DWGCODEPAGE
  3
ansi_932
  9
$INSBASE
 10
0.0
 20
0.0
 30
0.0
  9
$EXTMIN
 10
-531.0
 20
177.3409090909091
  9
$EXTMAX
 10
-259.625
 20
422.9923893961835
  9
$LIMMIN
 10
0.0
 20
0.0
  9
$LIMMAX
 10
12.0
 20
9.0
  9
$ORTHOMODE
 70
     0
  9
$REGENMODE
 70
     1
  9
$FILLMODE
 70
     1
  9
$QTEXTMODE
 70
     0
  9
$MIRRTEXT
 70
     1
  9
$DRAGMODE
 70
     2
  9
$LTSCALE
 40
1.0
  9
$OSMODE
 70
    37
  9
$ATTMODE
 70
     1
  9
$TEXTSIZE
 40
0.2
  9
$TRACEWID
 40
0.05
  9
$TEXTSTYLE
  7
STANDARD
  9
$CLAYER
  8
0
  9
$CELTYPE
  6
BYLAYER
  9
$CECOLOR
 62
   256
  9
$DIMSCALE
 40
1.0
  9
$DIMASZ
 40
3.0
  9
$DIMEXO
 40
0.0625
  9
$DIMDLI
 40
0.38
  9
$DIMRND
 40
0.0
  9
$DIMDLE
 40
0.0
  9
$DIMEXE
 40
1.5
  9
$DIMTP
 40
0.0
  9
$DIMTM
 40
0.0
  9
$DIMTXT
 40
3.0
  9
$DIMCEN
 40
0.09
  9
$DIMTSZ
 40
0.0
  9
$DIMTOL
 70
     0
  9
$DIMLIM
 70
     0
  9
$DIMTIH
 70
     1
  9
$DIMTOH
 70
     1
  9
$DIMSE1
 70
     0
  9
$DIMSE2
 70
     0
  9
$DIMTAD
 70
     1
  9
$DIMZIN
 70
     0
  9
$DIMBLK
  1

  9
$DIMASO
 70
     1
  9
$DIMSHO
 70
     1
  9
$DIMPOST
  1

  9
$DIMAPOST
  1

  9
$DIMALT
 70
     0
  9
$DIMALTD
 70
     2
  9
$DIMALTF
 40
25.4
  9
$DIMLFAC
 40
1.0
  9
$DIMTOFL
 70
     0
  9
$DIMTVP
 40
0.0
  9
$DIMTIX
 70
     0
  9
$DIMSOXD
 70
     0
  9
$DIMSAH
 70
     0
  9
$DIMBLK1
  1

  9
$DIMBLK2
  1

  9
$LUNITS
 70
     2
  9
$LUPREC
 70
     4
  9
$SKETCHINC
 40
0.1
  9
$FILLETRAD
 40
0.5
  9
$AUNITS
 70
     0
  9
$AUPREC
 70
     0
  9
$MENU
  1
.
  9
$ELEVATION
 40
0.0
  9
$THICKNESS
 40
0.0
  9
$LIMCHECK
 70
     0
  9
$CHAMFERA
 40
0.0
  9
$CHAMFERB
 40
0.0
  9
$SKPOLY
 70
     0
  9
$TDCREATE
 40
2459065.585342477
  9
$TDUPDATE
 40
2459065.585342836
  9
$TDINDWG
 40
0.0000000116
  9
$TDUSRTIMER
 40
0.0000000116
  9
$USRTIMER
 70
     1
  9
$ANGBASE
 50
0.0
  9
$ANGDIR
 70
     0
  9
$PDMODE
 70
     0
  9
$PDSIZE
 40
0.0
  9
$PLINEWID
 40
0.0
  9
$COORDS
 70
     1
  9
$SPLFRAME
 70
     0
  9
$SPLINETYPE
 70
     6
  9
$SPLINESEGS
 70
     8
  9
$ATTDIA
 70
     0
  9
$ATTREQ
 70
     1
  9
$HANDLING
 70
     1
  9
$HANDSEED
  5
682
  9
$SURFTAB1
 70
     6
  9
$SURFTAB2
 70
     6
  9
$SURFTYPE
 70
     6
  9
$SURFU
 70
     6
  9
$SURFV
 70
     6
  9
$UCSNAME
  2

  9
$UCSORG
 10
0.0
 20
0.0
 30
0.0
  9
$UCSXDIR
 10
1.0
 20
0.0
 30
0.0
  9
$UCSYDIR
 10
0.0
 20
1.0
 30
0.0
  9
$USERI1
 70
     0
  9
$USERI2
 70
     0
  9
$USERI3
 70
     0
  9
$USERI4
 70
     0
  9
$USERI5
 70
     0
  9
$USERR1
 40
0.0
  9
$USERR2
 40
0.0
  9
$USERR3
 40
0.0
  9
$USERR4
 40
0.0
  9
$USERR5
 40
0.0
  9
$WORLDVIEW
 70
     1
  0
ENDSEC
  0
SECTION
  2
TABLES
  0
TABLE
  2
VPORT
 70
     1
  0
VPORT
  2
*ACTIVE
 70
     0
 10
0.0
 20
0.0
 11
1.0
 21
1.0
 12
-395.3125
 22
300.1666492435463
 13
0.0
 23
0.0
 14
0.5
 24
0.5
 15
0.5
 25
0.5
 16
0.0
 26
0.0
 36
1.0
 17
0.0
 27
0.0
 37
0.0
 40
245.6514803052744
 41
1.6
 42
50.0
 43
0.0
 44
0.0
 50
0.0
 51
0.0
 71
     0
 72
   100
 73
     1
 74
     3
 75
     0
 76
     0
 77
     0
 78
     0
  0
ENDTAB
  0
TABLE
  2
LTYPE
 70
     1
  0
LTYPE
  2
CONTINUOUS
 70
     0
  3
Solid line
 72
    65
 73
     0
 40
0.0
  0
ENDTAB
  0
TABLE
  2
LAYER
 70
     1
  0
LAYER
  2
0
 70
     0
 62
     7
  6
CONTINUOUS
  0
ENDTAB
  0
TABLE
  2
STYLE
 70
     2
  0
STYLE
  2
STANDARD
 70
     0
 40
0.0
 41
1.0
 50
0.0
 71
     0
 42
0.2
  3
txt
  4

  0
STYLE
  2
ＭＳ_ゴシック
 70
     0
 40
0.0
 41
1.0
 50
0.0
 71
     0
 42
0.2
  3
ＭＳ ゴシック.shx
  4

  0
ENDTAB
  0
TABLE
  2
VIEW
 70
     0
  0
ENDTAB
  0
TABLE
  2
UCS
 70
     0
  0
ENDTAB
  0
ENDSEC
  0
SECTION
  2
BLOCKS
  0
BLOCK
  8
0
  2
D_FRAME_VIEW_3529
 70
     0
 10
0.0
 20
0.0
 30
0.0
  0
ARC
  5
70
  8
0
  6
CONTINUOUS
 62
     7
 10
-268.075
 20
363.5
 30
0.0
 40
0.5000000000000004
 50
90.0
 51
179.9999999999995
  0
LINE
  5
71
  8
0
  6
CONTINUOUS
 62
     7
 10
-268.575
 20
363.5
 30
0.0
 11
-268.575
 21
356.5
 31
0.0
  0
ARC
  5
72
  8
0
  6
CONTINUOUS
 62
     7
 10
-268.075
 20
356.5
 30
0.0
 40
0.5000000000000004
 50
180.0000000000004
 51
270.0
  0
ARC
  5
73
  8
0
  6
CONTINUOUS
 62
     7
 10
-263.375
 20
418.0
 30
0.0
 40
3.000000000000003
 50
66.42182152179925
 51
90.0
  0
ARC
  5
74
  8
0
  6
CONTINUOUS
 62
     7
 10
-263.4232390510401
 20
417.9687291613889
 30
0.0
 40
3.048120695750857
 50
0.5878108786433244
 51
65.82587771653118
  0
ARC
  5
75
  8
0
  6
CONTINUOUS
 62
     7
 10
-263.4261237602446
 20
302.0331590316133
 30
0.0
 40
3.051025190265299
 50
294.2090233946795
 51
359.3772880101378
  0
ARC
  5
76
  8
0
  6
CONTINUOUS
 62
     7
 10
-263.375
 20
302.0
 30
0.0
 40
3.000000000000005
 50
270.0
 51
293.5781784782008
  0
CIRCLE
  5
77
  8
0
  6
CONTINUOUS
 62
     7
 10
-282.475
 20
322.5
 30
0.0
 40
10.89999999999996
  0
CIRCLE
  5
78
  8
0
  6
CONTINUOUS
 62
     7
 10
-282.475
 20
397.4999999999999
 30
0.0
 40
10.90000000000002
  0
LINE
  5
79
  8
0
  6
CONTINUOUS
 62
     7
 10
-260.3752787641404
 20
418.0
 30
0.0
 11
-260.375
 21
418.0
 31
0.0
  0
LINE
  5
7A
  8
0
  6
CONTINUOUS
 62
     7
 10
-260.3752787641402
 20
302.0
 30
0.0
 11
-260.375
 21
302.0
 31
0.0
  0
LINE
  5
7B
  8
0
  6
CONTINUOUS
 62
     7
 10
-259.625
 20
344.9999999999999
 30
0.0
 11
-260.375
 21
344.9999999999999
 31
0.0
  0
LINE
  5
7C
  8
0
  6
CONTINUOUS
 62
     7
 10
-259.625
 20
375.0
 30
0.0
 11
-260.375
 21
375.0
 31
0.0
  0
ARC
  5
7D
  8
0
  6
CONTINUOUS
 62
     7
 10
-297.875
 20
421.0
 30
0.0
 40
2.000000000000002
 50
95.00000000000018
 51
180.0
  0
ARC
  5
7E
  8
0
  6
CONTINUOUS
 62
     7
 10
-297.875
 20
299.0
 30
0.0
 40
1.999999999999968
 50
180.0
 51
264.9999999999998
  0
ARC
  5
7F
  8
0
  6
CONTINUOUS
 62
     7
 10
-262.625
 20
418.0
 30
0.0
 40
3.000000000000003
 50
0.0
 51
90.0
  0
ARC
  5
80
  8
0
  6
CONTINUOUS
 62
     7
 10
-262.625
 20
302.0
 30
0.0
 40
3.000000000000003
 50
270.0
 51
0.0
  0
LINE
  5
81
  8
0
  6
CONTINUOUS
 62
     7
 10
-259.625
 20
302.0
 30
0.0
 11
-259.625
 21
344.9999999999999
 31
0.0
  0
LINE
  5
82
  8
0
  6
CONTINUOUS
 62
     7
 10
-259.625
 20
375.0
 30
0.0
 11
-259.625
 21
418.0
 31
0.0
  0
ENDBLK
  8
0
  0
BLOCK
  8
0
  2
D_FRAME_VIEW_3894
 70
     0
 10
0.0
 20
0.0
 30
0.0
  0
LINE
  5
87
  8
0
  6
CONTINUOUS
 62
     7
 10
-367.5
 20
248.0318803369458
 30
0.0
 11
-367.5
 21
249.675
 31
0.0
  0
ARC
  5
88
  8
0
  6
CONTINUOUS
 62
     7
 10
-367.3
 20
249.675
 30
0.0
 40
0.199999999999978
 50
90.0
 51
180.0
  0
POLYLINE
  5
89
  8
0
  6
CONTINUOUS
 62
     7
 66
     1
 10
0.0
 20
0.0
 30
0.0
  0
VERTEX
  5
274
  8
0
  6
CONTINUOUS
 62
     7
 10
-367.3
 20
248.0493114854953
 30
0.0
  0
VERTEX
  5
275
  8
0
  6
CONTINUOUS
 62
     7
 10
-367.3390180644033
 20
248.0489765508637
 30
0.0
  0
VERTEX
  5
276
  8
0
  6
CONTINUOUS
 62
     7
 10
-367.3765366864731
 20
248.0479846183188
 30
0.0
  0
VERTEX
  5
277
  8
0
  6
CONTINUOUS
 62
     7
 10
-367.4111140466039
 20
248.0463738072722
 30
0.0
  0
VERTEX
  5
278
  8
0
  6
CONTINUOUS
 62
     7
 10
-367.4414213562374
 20
248.044206020289
 30
0.0
  0
VERTEX
  5
279
  8
0
  6
CONTINUOUS
 62
     7
 10
-367.4662939224605
 20
248.0415645642072
 30
0.0
  0
VERTEX
  5
27A
  8
0
  6
CONTINUOUS
 62
     7
 10
-367.4847759065023
 20
248.0385509487028
 30
0.0
  0
VERTEX
  5
27B
  8
0
  6
CONTINUOUS
 62
     7
 10
-367.4961570560807
 20
248.0352809853294
 30
0.0
  0
VERTEX
  5
27C
  8
0
  6
CONTINUOUS
 62
     7
 10
-367.5000000000001
 20
248.0318803369458
 30
0.0
  0
SEQEND
  5
646
  8
0
  6
CONTINUOUS
 62
     7
  0
ARC
  5
8A
  8
0
  6
CONTINUOUS
 62
     7
 10
-360.7
 20
249.675
 30
0.0
 40
0.2000000000000057
 50
0.0
 51
90.0
  0
LINE
  5
8B
  8
0
  6
CONTINUOUS
 62
     7
 10
-360.5
 20
249.675
 30
0.0
 11
-360.5
 21
248.0318803369458
 31
0.0
  0
POLYLINE
  5
8C
  8
0
  6
CONTINUOUS
 62
     7
 66
     1
 10
0.0
 20
0.0
 30
0.0
  0
VERTEX
  5
27D
  8
0
  6
CONTINUOUS
 62
     7
 10
-360.4999999999999
 20
248.0318803369458
 30
0.0
  0
VERTEX
  5
27E
  8
0
  6
CONTINUOUS
 62
     7
 10
-360.5038429439193
 20
248.0352809853294
 30
0.0
  0
VERTEX
  5
27F
  8
0
  6
CONTINUOUS
 62
     7
 10
-360.5152240934977
 20
248.0385509487027
 30
0.0
  0
VERTEX
  5
280
  8
0
  6
CONTINUOUS
 62
     7
 10
-360.5337060775394
 20
248.0415645642072
 30
0.0
  0
VERTEX
  5
281
  8
0
  6
CONTINUOUS
 62
     7
 10
-360.5585786437626
 20
248.044206020289
 30
0.0
  0
VERTEX
  5
282
  8
0
  6
CONTINUOUS
 62
     7
 10
-360.588885953396
 20
248.0463738072722
 30
0.0
  0
VERTEX
  5
283
  8
0
  6
CONTINUOUS
 62
     7
 10
-360.6234633135269
 20
248.0479846183188
 30
0.0
  0
VERTEX
  5
284
  8
0
  6
CONTINUOUS
 62
     7
 10
-360.6609819355967
 20
248.0489765508637
 30
0.0
  0
VERTEX
  5
285
  8
0
  6
CONTINUOUS
 62
     7
 10
-360.7
 20
248.0493114854953
 30
0.0
  0
SEQEND
  5
647
  8
0
  6
CONTINUOUS
 62
     7
  0
POLYLINE
  5
8D
  8
0
  6
CONTINUOUS
 62
     7
 66
     1
 10
0.0
 20
0.0
 30
0.0
  0
VERTEX
  5
286
  8
0
  6
CONTINUOUS
 62
     7
 10
-519.3
 20
248.0493114854953
 30
0.0
  0
VERTEX
  5
287
  8
0
  6
CONTINUOUS
 62
     7
 10
-519.3390180644031
 20
248.0489765508637
 30
0.0
  0
VERTEX
  5
288
  8
0
  6
CONTINUOUS
 62
     7
 10
-519.376536686473
 20
248.0479846183188
 30
0.0
  0
VERTEX
  5
289
  8
0
  6
CONTINUOUS
 62
     7
 10
-519.4111140466039
 20
248.0463738072722
 30
0.0
  0
VERTEX
  5
28A
  8
0
  6
CONTINUOUS
 62
     7
 10
-519.4414213562372
 20
248.044206020289
 30
0.0
  0
VERTEX
  5
28B
  8
0
  6
CONTINUOUS
 62
     7
 10
-519.4662939224604
 20
248.0415645642072
 30
0.0
  0
VERTEX
  5
28C
  8
0
  6
CONTINUOUS
 62
     7
 10
-519.4847759065021
 20
248.0385509487028
 30
0.0
  0
VERTEX
  5
28D
  8
0
  6
CONTINUOUS
 62
     7
 10
-519.4961570560806
 20
248.0352809853294
 30
0.0
  0
VERTEX
  5
28E
  8
0
  6
CONTINUOUS
 62
     7
 10
-519.4999999999999
 20
248.0318803369458
 30
0.0
  0
SEQEND
  5
648
  8
0
  6
CONTINUOUS
 62
     7
  0
LINE
  5
8E
  8
0
  6
CONTINUOUS
 62
     7
 10
-519.3
 20
248.0493114854953
 30
0.0
 11
-512.7
 21
248.0493114854953
 31
0.0
  0
POLYLINE
  5
8F
  8
0
  6
CONTINUOUS
 62
     7
 66
     1
 10
0.0
 20
0.0
 30
0.0
  0
VERTEX
  5
28F
  8
0
  6
CONTINUOUS
 62
     7
 10
-512.5
 20
248.0318803369458
 30
0.0
  0
VERTEX
  5
290
  8
0
  6
CONTINUOUS
 62
     7
 10
-512.5038429439193
 20
248.0352809853294
 30
0.0
  0
VERTEX
  5
291
  8
0
  6
CONTINUOUS
 62
     7
 10
-512.5152240934977
 20
248.0385509487028
 30
0.0
  0
VERTEX
  5
292
  8
0
  6
CONTINUOUS
 62
     7
 10
-512.5337060775395
 20
248.0415645642072
 30
0.0
  0
VERTEX
  5
293
  8
0
  6
CONTINUOUS
 62
     7
 10
-512.5585786437626
 20
248.044206020289
 30
0.0
  0
VERTEX
  5
294
  8
0
  6
CONTINUOUS
 62
     7
 10
-512.588885953396
 20
248.0463738072722
 30
0.0
  0
VERTEX
  5
295
  8
0
  6
CONTINUOUS
 62
     7
 10
-512.6234633135269
 20
248.0479846183188
 30
0.0
  0
VERTEX
  5
296
  8
0
  6
CONTINUOUS
 62
     7
 10
-512.6609819355967
 20
248.0489765508637
 30
0.0
  0
VERTEX
  5
297
  8
0
  6
CONTINUOUS
 62
     7
 10
-512.7
 20
248.0493114854953
 30
0.0
  0
SEQEND
  5
649
  8
0
  6
CONTINUOUS
 62
     7
  0
LINE
  5
90
  8
0
  6
CONTINUOUS
 62
     7
 10
-519.5
 20
248.0318803369458
 30
0.0
 11
-519.5
 21
249.675
 31
0.0
  0
ARC
  5
91
  8
0
  6
CONTINUOUS
 62
     7
 10
-519.3
 20
249.675
 30
0.0
 40
0.199999999999978
 50
90.0
 51
180.0
  0
ARC
  5
92
  8
0
  6
CONTINUOUS
 62
     7
 10
-512.7
 20
249.675
 30
0.0
 40
0.2000000000000057
 50
0.0
 51
90.0
  0
LINE
  5
93
  8
0
  6
CONTINUOUS
 62
     7
 10
-512.5
 20
249.675
 30
0.0
 11
-512.5
 21
248.0318803369458
 31
0.0
  0
LINE
  5
94
  8
0
  6
CONTINUOUS
 62
     7
 10
-360.7
 20
248.0493114854953
 30
0.0
 11
-367.3
 21
248.0493114854953
 31
0.0
  0
LINE
  5
95
  8
0
  6
CONTINUOUS
 62
     7
 10
-519.3
 20
249.875
 30
0.0
 11
-512.7
 21
249.875
 31
0.0
  0
LINE
  5
96
  8
0
  6
CONTINUOUS
 62
     7
 10
-360.7
 20
249.875
 30
0.0
 11
-367.3
 21
249.875
 31
0.0
  0
ARC
  5
97
  8
0
  6
CONTINUOUS
 62
     7
 10
-522.25
 20
215.175
 30
0.0
 40
2.250000000000008
 50
209.2675775975312
 51
330.7324224024687
  0
ARC
  5
98
  8
0
  6
CONTINUOUS
 62
     7
 10
-519.5
 20
214.575
 30
0.0
 40
0.4999999999999449
 50
270.0000000000015
 51
0.0000000000005116
  0
LINE
  5
99
  8
0
  6
CONTINUOUS
 62
     7
 10
-519.0
 20
215.7749999999999
 30
0.0
 11
-519.0
 21
214.575
 31
0.0
  0
ARC
  5
9A
  8
0
  6
CONTINUOUS
 62
     7
 10
-519.5
 20
215.7749999999999
 30
0.0
 40
0.5000000000000004
 50
0.0000000000002842
 51
90.0
  0
ARC
  5
9B
  8
0
  6
CONTINUOUS
 62
     7
 10
-522.25
 20
215.175
 30
0.0
 40
2.249999999999995
 50
29.26757759753139
 51
150.7324224024687
  0
ARC
  5
9C
  8
0
  6
CONTINUOUS
 62
     7
 10
-357.75
 20
215.175
 30
0.0
 40
2.249999999999995
 50
29.26757759753136
 51
150.7324224024686
  0
ARC
  5
9D
  8
0
  6
CONTINUOUS
 62
     7
 10
-360.5000000000001
 20
215.7749999999999
 30
0.0
 40
0.5000000000000004
 50
90.0
 51
179.9999999999997
  0
LINE
  5
9E
  8
0
  6
CONTINUOUS
 62
     7
 10
-361.0
 20
215.7749999999999
 30
0.0
 11
-361.0
 21
214.575
 31
0.0
  0
ARC
  5
9F
  8
0
  6
CONTINUOUS
 62
     7
 10
-360.5
 20
214.575
 30
0.0
 40
0.5000000000000004
 50
179.9999999999995
 51
269.9999999999984
  0
ARC
  5
A0
  8
0
  6
CONTINUOUS
 62
     7
 10
-357.75
 20
215.175
 30
0.0
 40
2.250000000000008
 50
209.2675775975313
 51
330.7324224024687
  0
CIRCLE
  5
A1
  8
0
  6
CONTINUOUS
 62
     7
 10
-387.0
 20
229.875
 30
0.0
 40
13.55000000000001
  0
CIRCLE
  5
A2
  8
0
  6
CONTINUOUS
 62
     7
 10
-440.0
 20
229.875
 30
0.0
 40
13.55000000000001
  0
CIRCLE
  5
A3
  8
0
  6
CONTINUOUS
 62
     7
 10
-493.0
 20
229.875
 30
0.0
 40
13.54999999999995
  0
ARC
  5
A4
  8
0
  6
CONTINUOUS
 62
     7
 10
-352.0
 20
213.375
 30
0.0
 40
3.000000000000003
 50
270.0
 51
0.0000000000000568
  0
LINE
  5
A5
  8
0
  6
CONTINUOUS
 62
     7
 10
-352.0
 20
210.375
 30
0.0
 11
-354.963873656849
 21
210.375
 31
0.0
  0
LINE
  5
A6
  8
0
  6
CONTINUOUS
 62
     7
 10
-360.536126343151
 20
210.375
 30
0.0
 11
-519.4638736568489
 21
210.375
 31
0.0
  0
LINE
  5
A7
  8
0
  6
CONTINUOUS
 62
     7
 10
-525.036126343151
 20
210.375
 30
0.0
 11
-528.0
 21
210.375
 31
0.0
  0
ARC
  5
A8
  8
0
  6
CONTINUOUS
 62
     7
 10
-528.0
 20
213.375
 30
0.0
 40
3.000000000000003
 50
180.0
 51
270.0
  0
POLYLINE
  5
A9
  8
0
  6
CONTINUOUS
 62
     7
 66
     1
 10
0.0
 20
0.0
 30
0.0
  0
VERTEX
  5
298
  8
0
  6
CONTINUOUS
 62
     7
 10
-355.0
 20
214.075
 30
0.0
  0
VERTEX
  5
299
  8
0
  6
CONTINUOUS
 62
     7
 10
-354.9791455100528
 20
214.075436791602
 30
0.0
  0
VERTEX
  5
29A
  8
0
  6
CONTINUOUS
 62
     7
 10
-354.9583144041646
 20
214.0767437378931
 30
0.0
  0
VERTEX
  5
29B
  8
0
  6
CONTINUOUS
 62
     7
 10
-354.9375606571008
 20
214.0789156961011
 30
0.0
  0
VERTEX
  5
29C
  8
0
  6
CONTINUOUS
 62
     7
 10
-354.916938243627
 20
214.0819475234539
 30
0.0
  0
VERTEX
  5
29D
  8
0
  6
CONTINUOUS
 62
     7
 10
-354.8958713462006
 20
214.08596487015
 30
0.0
  0
VERTEX
  5
29E
  8
0
  6
CONTINUOUS
 62
     7
 10
-354.8749814244936
 20
214.0908853052913
 30
0.0
  0
VERTEX
  5
29F
  8
0
  6
CONTINUOUS
 62
     7
 10
-354.8543250330048
 20
214.0966936776271
 30
0.0
  0
VERTEX
  5
2A0
  8
0
  6
CONTINUOUS
 62
     7
 10
-354.8339587262332
 20
214.1033748359068
 30
0.0
  0
VERTEX
  5
2A1
  8
0
  6
CONTINUOUS
 62
     7
 10
-354.81446598746
 20
214.110698924126
 30
0.0
  0
VERTEX
  5
2A2
  8
0
  6
CONTINUOUS
 62
     7
 10
-354.7952807740592
 20
214.118834328951
 30
0.0
  0
VERTEX
  5
2A3
  8
0
  6
CONTINUOUS
 62
     7
 10
-354.7764516543218
 20
214.1277590182828
 30
0.0
  0
VERTEX
  5
2A4
  8
0
  6
CONTINUOUS
 62
     7
 10
-354.7580271965387
 20
214.1374509600226
 30
0.0
  0
VERTEX
  5
2A5
  8
0
  6
CONTINUOUS
 62
     7
 10
-354.7395107429915
 20
214.148217250959
 30
0.0
  0
VERTEX
  5
2A6
  8
0
  6
CONTINUOUS
 62
     7
 10
-354.7214556379311
 20
214.1597774331987
 30
0.0
  0
VERTEX
  5
2A7
  8
0
  6
CONTINUOUS
 62
     7
 10
-354.7039101063421
 20
214.1720993385682
 30
0.0
  0
VERTEX
  5
2A8
  8
0
  6
CONTINUOUS
 62
     7
 10
-354.686922373209
 20
214.1851507988941
 30
0.0
  0
VERTEX
  5
2A9
  8
0
  6
CONTINUOUS
 62
     7
 10
-354.6709222647294
 20
214.1985611880428
 30
0.0
  0
VERTEX
  5
2AA
  8
0
  6
CONTINUOUS
 62
     7
 10
-354.6554801078961
 20
214.2126423269208
 30
0.0
  0
VERTEX
  5
2AB
  8
0
  6
CONTINUOUS
 62
     7
 10
-354.6406352855926
 20
214.227357457008
 30
0.0
  0
VERTEX
  5
2AC
  8
0
  6
CONTINUOUS
 62
     7
 10
-354.6264271807028
 20
214.2426698197841
 30
0.0
  0
VERTEX
  5
2AD
  8
0
  6
CONTINUOUS
 62
     7
 10
-354.6124837890303
 20
214.259042279909
 30
0.0
  0
VERTEX
  5
2AE
  8
0
  6
CONTINUOUS
 62
     7
 10
-354.5992414626551
 20
214.2760197215345
 30
0.0
  0
VERTEX
  5
2AF
  8
0
  6
CONTINUOUS
 62
     7
 10
-354.5867363564477
 20
214.2935550556189
 30
0.0
  0
VERTEX
  5
2B0
  8
0
  6
CONTINUOUS
 62
     7
 10
-354.5750046252786
 20
214.3116011931207
 30
0.0
  0
VERTEX
  5
2B1
  8
0
  6
CONTINUOUS
 62
     7
 10
-354.5644016165736
 20
214.3295364921577
 30
0.0
  0
VERTEX
  5
2B2
  8
0
  6
CONTINUOUS
 62
     7
 10
-354.5545433618786
 20
214.3479199813606
 30
0.0
  0
VERTEX
  5
2B3
  8
0
  6
CONTINUOUS
 62
     7
 10
-354.5454553683195
 20
214.3667034224983
 30
0.0
  0
VERTEX
  5
2B4
  8
0
  6
CONTINUOUS
 62
     7
 10
-354.5371631430221
 20
214.3858385773398
 30
0.0
  0
VERTEX
  5
2B5
  8
0
  6
CONTINUOUS
 62
     7
 10
-354.5294678152032
 20
214.405892087171
 30
0.0
  0
VERTEX
  5
2B6
  8
0
  6
CONTINUOUS
 62
     7
 10
-354.5226325781273
 20
214.426282720125
 30
0.0
  0
VERTEX
  5
2B7
  8
0
  6
CONTINUOUS
 62
     7
 10
-354.5166760943364
 20
214.4469530307822
 30
0.0
  0
VERTEX
  5
2B8
  8
0
  6
CONTINUOUS
 62
     7
 10
-354.5116170263726
 20
214.4678455737228
 30
0.0
  0
VERTEX
  5
2B9
  8
0
  6
CONTINUOUS
 62
     7
 10
-354.507453416226
 20
214.4890102710914
 30
0.0
  0
VERTEX
  5
2BA
  8
0
  6
CONTINUOUS
 62
     7
 10
-354.5042029637602
 20
214.5103693100682
 30
0.0
  0
VERTEX
  5
2BB
  8
0
  6
CONTINUOUS
 62
     7
 10
-354.5018726137303
 20
214.5318614429884
 30
0.0
  0
VERTEX
  5
2BC
  8
0
  6
CONTINUOUS
 62
     7
 10
-354.5004693108918
 20
214.5534254221872
 30
0.0
  0
VERTEX
  5
2BD
  8
0
  6
CONTINUOUS
 62
     7
 10
-354.5000000000001
 20
214.575
 30
0.0
  0
SEQEND
  5
64A
  8
0
  6
CONTINUOUS
 62
     7
  0
LINE
  5
AA
  8
0
  6
CONTINUOUS
 62
     7
 10
-354.5000000000001
 20
214.575
 30
0.0
 11
-354.5
 21
215.775
 31
0.0
  0
POLYLINE
  5
AB
  8
0
  6
CONTINUOUS
 62
     7
 66
     1
 10
0.0
 20
0.0
 30
0.0
  0
VERTEX
  5
2BE
  8
0
  6
CONTINUOUS
 62
     7
 10
-354.5
 20
215.775
 30
0.0
  0
VERTEX
  5
2BF
  8
0
  6
CONTINUOUS
 62
     7
 10
-354.5004265592733
 20
215.7956076932833
 30
0.0
  0
VERTEX
  5
2C0
  8
0
  6
CONTINUOUS
 62
     7
 10
-354.501703149092
 20
215.8161973799239
 30
0.0
  0
VERTEX
  5
2C1
  8
0
  6
CONTINUOUS
 62
     7
 10
-354.5038251374544
 20
215.8367155185071
 30
0.0
  0
VERTEX
  5
2C2
  8
0
  6
CONTINUOUS
 62
     7
 10
-354.506787892359
 20
215.8571085676185
 30
0.0
  0
VERTEX
  5
2C3
  8
0
  6
CONTINUOUS
 62
     7
 10
-354.5107148613811
 20
215.8779474208738
 30
0.0
  0
VERTEX
  5
2C4
  8
0
  6
CONTINUOUS
 62
     7
 10
-354.515525279047
 20
215.8986159267875
 30
0.0
  0
VERTEX
  5
2C5
  8
0
  6
CONTINUOUS
 62
     7
 10
-354.521204176702
 20
215.9190578950212
 30
0.0
  0
VERTEX
  5
2C6
  8
0
  6
CONTINUOUS
 62
     7
 10
-354.5277365856912
 20
215.939217135237
 30
0.0
  0
VERTEX
  5
2C7
  8
0
  6
CONTINUOUS
 62
     7
 10
-354.5348968936729
 20
215.9585142035549
 30
0.0
  0
VERTEX
  5
2C8
  8
0
  6
CONTINUOUS
 62
     7
 10
-354.5428497357114
 20
215.9775110429649
 30
0.0
  0
VERTEX
  5
2C9
  8
0
  6
CONTINUOUS
 62
     7
 10
-354.5515730929837
 20
215.996159830265
 30
0.0
  0
VERTEX
  5
2CA
  8
0
  6
CONTINUOUS
 62
     7
 10
-354.5610449466665
 20
216.0144127422529
 30
0.0
  0
VERTEX
  5
2CB
  8
0
  6
CONTINUOUS
 62
     7
 10
-354.5715625152002
 20
216.0327586772528
 30
0.0
  0
VERTEX
  5
2CC
  8
0
  6
CONTINUOUS
 62
     7
 10
-354.5828528330186
 20
216.0506538838872
 30
0.0
  0
VERTEX
  5
2CD
  8
0
  6
CONTINUOUS
 62
     7
 10
-354.5948840711625
 20
216.0680516970901
 30
0.0
  0
VERTEX
  5
2CE
  8
0
  6
CONTINUOUS
 62
     7
 10
-354.6076244006725
 20
216.0849054517952
 30
0.0
  0
VERTEX
  5
2CF
  8
0
  6
CONTINUOUS
 62
     7
 10
-354.6207700506775
 20
216.1008573966625
 30
0.0
  0
VERTEX
  5
2D0
  8
0
  6
CONTINUOUS
 62
     7
 10
-354.6345719636628
 20
216.116261628875
 30
0.0
  0
VERTEX
  5
2D1
  8
0
  6
CONTINUOUS
 62
     7
 10
-354.6489940125308
 20
216.1310803187838
 30
0.0
  0
VERTEX
  5
2D2
  8
0
  6
CONTINUOUS
 62
     7
 10
-354.6640000701835
 20
216.1452756367403
 30
0.0
  0
VERTEX
  5
2D3
  8
0
  6
CONTINUOUS
 62
     7
 10
-354.6800313763487
 20
216.1592112804431
 30
0.0
  0
VERTEX
  5
2D4
  8
0
  6
CONTINUOUS
 62
     7
 10
-354.6966525877855
 20
216.1724634521026
 30
0.0
  0
VERTEX
  5
2D5
  8
0
  6
CONTINUOUS
 62
     7
 10
-354.7138185941778
 20
216.1849980862209
 30
0.0
  0
VERTEX
  5
2D6
  8
0
  6
CONTINUOUS
 62
     7
 10
-354.7314842852097
 20
216.1967811172997
 30
0.0
  0
VERTEX
  5
2D7
  8
0
  6
CONTINUOUS
 62
     7
 10
-354.7492878866033
 20
216.2075988843065
 30
0.0
  0
VERTEX
  5
2D8
  8
0
  6
CONTINUOUS
 62
     7
 10
-354.7675424074033
 20
216.2176743140014
 30
0.0
  0
VERTEX
  5
2D9
  8
0
  6
CONTINUOUS
 62
     7
 10
-354.7862006407009
 20
216.2269825135908
 30
0.0
  0
VERTEX
  5
2DA
  8
0
  6
CONTINUOUS
 62
     7
 10
-354.805215379587
 20
216.2354985902809
 30
0.0
  0
VERTEX
  5
2DB
  8
0
  6
CONTINUOUS
 62
     7
 10
-354.8251367299694
 20
216.2434239293599
 30
0.0
  0
VERTEX
  5
2DC
  8
0
  6
CONTINUOUS
 62
     7
 10
-354.8454007594624
 20
216.2504952876848
 30
0.0
  0
VERTEX
  5
2DD
  8
0
  6
CONTINUOUS
 62
     7
 10
-354.8659520124996
 20
216.2566941752413
 30
0.0
  0
VERTEX
  5
2DE
  8
0
  6
CONTINUOUS
 62
     7
 10
-354.8867350335146
 20
216.262002102015
 30
0.0
  0
VERTEX
  5
2DF
  8
0
  6
CONTINUOUS
 62
     7
 10
-354.9090689425207
 20
216.2666576355536
 30
0.0
  0
VERTEX
  5
2E0
  8
0
  6
CONTINUOUS
 62
     7
 10
-354.9316328949362
 20
216.2702940832724
 30
0.0
  0
VERTEX
  5
2E1
  8
0
  6
CONTINUOUS
 62
     7
 10
-354.9543563894971
 20
216.2729025540204
 30
0.0
  0
VERTEX
  5
2E2
  8
0
  6
CONTINUOUS
 62
     7
 10
-354.9771689249398
 20
216.2744741566466
 30
0.0
  0
VERTEX
  5
2E3
  8
0
  6
CONTINUOUS
 62
     7
 10
-355.0
 20
216.2749999999999
 30
0.0
  0
SEQEND
  5
64B
  8
0
  6
CONTINUOUS
 62
     7
  0
LINE
  5
AC
  8
0
  6
CONTINUOUS
 62
     7
 10
-348.9999999999999
 20
250.375
 30
0.0
 11
-348.9999999999999
 21
213.375
 31
0.0
  0
ARC
  5
AD
  8
0
  6
CONTINUOUS
 62
     7
 10
-522.25
 20
215.175
 30
0.0
 40
5.549999999999983
 50
239.8615459693588
 51
239.8672781689898
  0
LINE
  5
AE
  8
0
  6
CONTINUOUS
 62
     7
 10
-525.5
 20
215.775
 30
0.0
 11
-525.5
 21
214.575
 31
0.0
  0
LINE
  5
AF
  8
0
  6
CONTINUOUS
 62
     7
 10
-531.0
 20
213.375
 30
0.0
 11
-531.0
 21
250.375
 31
0.0
  0
POLYLINE
  5
B0
  8
0
  6
CONTINUOUS
 62
     7
 66
     1
 10
0.0
 20
0.0
 30
0.0
  0
VERTEX
  5
2E4
  8
0
  6
CONTINUOUS
 62
     7
 10
-525.5
 20
214.575
 30
0.0
  0
VERTEX
  5
2E5
  8
0
  6
CONTINUOUS
 62
     7
 10
-525.4995734407267
 20
214.5543923067167
 30
0.0
  0
VERTEX
  5
2E6
  8
0
  6
CONTINUOUS
 62
     7
 10
-525.4982968509081
 20
214.5338026200761
 30
0.0
  0
VERTEX
  5
2E7
  8
0
  6
CONTINUOUS
 62
     7
 10
-525.4961748625456
 20
214.5132844814928
 30
0.0
  0
VERTEX
  5
2E8
  8
0
  6
CONTINUOUS
 62
     7
 10
-525.4932121076409
 20
214.4928914323815
 30
0.0
  0
VERTEX
  5
2E9
  8
0
  6
CONTINUOUS
 62
     7
 10
-525.4892851386189
 20
214.4720525791261
 30
0.0
  0
VERTEX
  5
2EA
  8
0
  6
CONTINUOUS
 62
     7
 10
-525.4844747209529
 20
214.4513840732125
 30
0.0
  0
VERTEX
  5
2EB
  8
0
  6
CONTINUOUS
 62
     7
 10
-525.478795823298
 20
214.4309421049787
 30
0.0
  0
VERTEX
  5
2EC
  8
0
  6
CONTINUOUS
 62
     7
 10
-525.4722634143087
 20
214.410782864763
 30
0.0
  0
VERTEX
  5
2ED
  8
0
  6
CONTINUOUS
 62
     7
 10
-525.4651031063271
 20
214.391485796445
 30
0.0
  0
VERTEX
  5
2EE
  8
0
  6
CONTINUOUS
 62
     7
 10
-525.4571502642887
 20
214.372488957035
 30
0.0
  0
VERTEX
  5
2EF
  8
0
  6
CONTINUOUS
 62
     7
 10
-525.4484269070163
 20
214.353840169735
 30
0.0
  0
VERTEX
  5
2F0
  8
0
  6
CONTINUOUS
 62
     7
 10
-525.4389550533335
 20
214.335587257747
 30
0.0
  0
VERTEX
  5
2F1
  8
0
  6
CONTINUOUS
 62
     7
 10
-525.4284374847998
 20
214.3172413227471
 30
0.0
  0
VERTEX
  5
2F2
  8
0
  6
CONTINUOUS
 62
     7
 10
-525.4171471669813
 20
214.2993461161127
 30
0.0
  0
VERTEX
  5
2F3
  8
0
  6
CONTINUOUS
 62
     7
 10
-525.4051159288374
 20
214.2819483029099
 30
0.0
  0
VERTEX
  5
2F4
  8
0
  6
CONTINUOUS
 62
     7
 10
-525.3923755993275
 20
214.2650945482047
 30
0.0
  0
VERTEX
  5
2F5
  8
0
  6
CONTINUOUS
 62
     7
 10
-525.3792299493225
 20
214.2491426033374
 30
0.0
  0
VERTEX
  5
2F6
  8
0
  6
CONTINUOUS
 62
     7
 10
-525.3654280363371
 20
214.233738371125
 30
0.0
  0
VERTEX
  5
2F7
  8
0
  6
CONTINUOUS
 62
     7
 10
-525.3510059874692
 20
214.2189196812161
 30
0.0
  0
VERTEX
  5
2F8
  8
0
  6
CONTINUOUS
 62
     7
 10
-525.3359999298165
 20
214.2047243632597
 30
0.0
  0
VERTEX
  5
2F9
  8
0
  6
CONTINUOUS
 62
     7
 10
-525.3199686236512
 20
214.1907887195569
 30
0.0
  0
VERTEX
  5
2FA
  8
0
  6
CONTINUOUS
 62
     7
 10
-525.3033474122145
 20
214.1775365478973
 30
0.0
  0
VERTEX
  5
2FB
  8
0
  6
CONTINUOUS
 62
     7
 10
-525.2861814058222
 20
214.1650019137791
 30
0.0
  0
VERTEX
  5
2FC
  8
0
  6
CONTINUOUS
 62
     7
 10
-525.2685157147903
 20
214.1532188827002
 30
0.0
  0
VERTEX
  5
2FD
  8
0
  6
CONTINUOUS
 62
     7
 10
-525.2507121133967
 20
214.1424011156935
 30
0.0
  0
VERTEX
  5
2FE
  8
0
  6
CONTINUOUS
 62
     7
 10
-525.2324575925967
 20
214.1323256859986
 30
0.0
  0
VERTEX
  5
2FF
  8
0
  6
CONTINUOUS
 62
     7
 10
-525.2137993592991
 20
214.1230174864092
 30
0.0
  0
VERTEX
  5
300
  8
0
  6
CONTINUOUS
 62
     7
 10
-525.194784620413
 20
214.1145014097191
 30
0.0
  0
VERTEX
  5
301
  8
0
  6
CONTINUOUS
 62
     7
 10
-525.1748632700305
 20
214.10657607064
 30
0.0
  0
VERTEX
  5
302
  8
0
  6
CONTINUOUS
 62
     7
 10
-525.1545992405376
 20
214.0995047123151
 30
0.0
  0
VERTEX
  5
303
  8
0
  6
CONTINUOUS
 62
     7
 10
-525.1340479875004
 20
214.0933058247587
 30
0.0
  0
VERTEX
  5
304
  8
0
  6
CONTINUOUS
 62
     7
 10
-525.1132649664853
 20
214.0879978979849
 30
0.0
  0
VERTEX
  5
305
  8
0
  6
CONTINUOUS
 62
     7
 10
-525.0909310574793
 20
214.0833423644463
 30
0.0
  0
VERTEX
  5
306
  8
0
  6
CONTINUOUS
 62
     7
 10
-525.0683671050638
 20
214.0797059167275
 30
0.0
  0
VERTEX
  5
307
  8
0
  6
CONTINUOUS
 62
     7
 10
-525.0456436105028
 20
214.0770974459795
 30
0.0
  0
VERTEX
  5
308
  8
0
  6
CONTINUOUS
 62
     7
 10
-525.0228310750601
 20
214.0755258433533
 30
0.0
  0
VERTEX
  5
309
  8
0
  6
CONTINUOUS
 62
     7
 10
-525.0
 20
214.075
 30
0.0
  0
SEQEND
  5
64C
  8
0
  6
CONTINUOUS
 62
     7
  0
POLYLINE
  5
B1
  8
0
  6
CONTINUOUS
 62
     7
 66
     1
 10
0.0
 20
0.0
 30
0.0
  0
VERTEX
  5
30A
  8
0
  6
CONTINUOUS
 62
     7
 10
-525.0
 20
216.2749999999999
 30
0.0
  0
VERTEX
  5
30B
  8
0
  6
CONTINUOUS
 62
     7
 10
-525.0208544899472
 20
216.274563208398
 30
0.0
  0
VERTEX
  5
30C
  8
0
  6
CONTINUOUS
 62
     7
 10
-525.0416855958352
 20
216.2732562621069
 30
0.0
  0
VERTEX
  5
30D
  8
0
  6
CONTINUOUS
 62
     7
 10
-525.0624393428991
 20
216.2710843038988
 30
0.0
  0
VERTEX
  5
30E
  8
0
  6
CONTINUOUS
 62
     7
 10
-525.0830617563731
 20
216.2680524765461
 30
0.0
  0
VERTEX
  5
30F
  8
0
  6
CONTINUOUS
 62
     7
 10
-525.1041286537994
 20
216.2640351298499
 30
0.0
  0
VERTEX
  5
310
  8
0
  6
CONTINUOUS
 62
     7
 10
-525.1250185755064
 20
216.2591146947086
 30
0.0
  0
VERTEX
  5
311
  8
0
  6
CONTINUOUS
 62
     7
 10
-525.1456749669951
 20
216.2533063223728
 30
0.0
  0
VERTEX
  5
312
  8
0
  6
CONTINUOUS
 62
     7
 10
-525.1660412737667
 20
216.2466251640932
 30
0.0
  0
VERTEX
  5
313
  8
0
  6
CONTINUOUS
 62
     7
 10
-525.18553401254
 20
216.239301075874
 30
0.0
  0
VERTEX
  5
314
  8
0
  6
CONTINUOUS
 62
     7
 10
-525.2047192259408
 20
216.231165671049
 30
0.0
  0
VERTEX
  5
315
  8
0
  6
CONTINUOUS
 62
     7
 10
-525.2235483456782
 20
216.2222409817171
 30
0.0
  0
VERTEX
  5
316
  8
0
  6
CONTINUOUS
 62
     7
 10
-525.2419728034613
 20
216.2125490399773
 30
0.0
  0
VERTEX
  5
317
  8
0
  6
CONTINUOUS
 62
     7
 10
-525.2604892570084
 20
216.2017827490409
 30
0.0
  0
VERTEX
  5
318
  8
0
  6
CONTINUOUS
 62
     7
 10
-525.2785443620688
 20
216.1902225668013
 30
0.0
  0
VERTEX
  5
319
  8
0
  6
CONTINUOUS
 62
     7
 10
-525.296089893658
 20
216.1779006614317
 30
0.0
  0
VERTEX
  5
31A
  8
0
  6
CONTINUOUS
 62
     7
 10
-525.313077626791
 20
216.1648492011059
 30
0.0
  0
VERTEX
  5
31B
  8
0
  6
CONTINUOUS
 62
     7
 10
-525.3290777352706
 20
216.1514388119571
 30
0.0
  0
VERTEX
  5
31C
  8
0
  6
CONTINUOUS
 62
     7
 10
-525.3445198921039
 20
216.1373576730791
 30
0.0
  0
VERTEX
  5
31D
  8
0
  6
CONTINUOUS
 62
     7
 10
-525.3593647144073
 20
216.122642542992
 30
0.0
  0
VERTEX
  5
31E
  8
0
  6
CONTINUOUS
 62
     7
 10
-525.3735728192972
 20
216.1073301802159
 30
0.0
  0
VERTEX
  5
31F
  8
0
  6
CONTINUOUS
 62
     7
 10
-525.3875162109697
 20
216.0909577200909
 30
0.0
  0
VERTEX
  5
320
  8
0
  6
CONTINUOUS
 62
     7
 10
-525.4007585373449
 20
216.0739802784655
 30
0.0
  0
VERTEX
  5
321
  8
0
  6
CONTINUOUS
 62
     7
 10
-525.4132636435522
 20
216.0564449443811
 30
0.0
  0
VERTEX
  5
322
  8
0
  6
CONTINUOUS
 62
     7
 10
-525.4249953747214
 20
216.0383988068792
 30
0.0
  0
VERTEX
  5
323
  8
0
  6
CONTINUOUS
 62
     7
 10
-525.4355983834264
 20
216.0204635078423
 30
0.0
  0
VERTEX
  5
324
  8
0
  6
CONTINUOUS
 62
     7
 10
-525.4454566381213
 20
216.0020800186394
 30
0.0
  0
VERTEX
  5
325
  8
0
  6
CONTINUOUS
 62
     7
 10
-525.4545446316805
 20
215.9832965775016
 30
0.0
  0
VERTEX
  5
326
  8
0
  6
CONTINUOUS
 62
     7
 10
-525.4628368569779
 20
215.9641614226601
 30
0.0
  0
VERTEX
  5
327
  8
0
  6
CONTINUOUS
 62
     7
 10
-525.4705321847968
 20
215.944107912829
 30
0.0
  0
VERTEX
  5
328
  8
0
  6
CONTINUOUS
 62
     7
 10
-525.4773674218727
 20
215.9237172798749
 30
0.0
  0
VERTEX
  5
329
  8
0
  6
CONTINUOUS
 62
     7
 10
-525.4833239056635
 20
215.9030469692178
 30
0.0
  0
VERTEX
  5
32A
  8
0
  6
CONTINUOUS
 62
     7
 10
-525.4883829736274
 20
215.8821544262772
 30
0.0
  0
VERTEX
  5
32B
  8
0
  6
CONTINUOUS
 62
     7
 10
-525.492546583774
 20
215.8609897289085
 30
0.0
  0
VERTEX
  5
32C
  8
0
  6
CONTINUOUS
 62
     7
 10
-525.4957970362398
 20
215.8396306899317
 30
0.0
  0
VERTEX
  5
32D
  8
0
  6
CONTINUOUS
 62
     7
 10
-525.4981273862696
 20
215.8181385570116
 30
0.0
  0
VERTEX
  5
32E
  8
0
  6
CONTINUOUS
 62
     7
 10
-525.4995306891082
 20
215.7965745778127
 30
0.0
  0
VERTEX
  5
32F
  8
0
  6
CONTINUOUS
 62
     7
 10
-525.5
 20
215.775
 30
0.0
  0
SEQEND
  5
64D
  8
0
  6
CONTINUOUS
 62
     7
  0
ARC
  5
B2
  8
0
  6
CONTINUOUS
 62
     7
 10
-357.75
 20
215.175
 30
0.0
 40
5.55
 50
300.1327218310103
 51
300.1384540306357
  0
ENDBLK
  8
0
  0
BLOCK
  8
0
  2
D_FRAME_VIEW_1323
 70
     0
 10
0.0
 20
0.0
 30
0.0
  0
LINE
  5
B7
  8
0
  6
CONTINUOUS
 62
     7
 10
-418.1500000000262
 20
417.3787436346041
 30
0.0
 11
-416.1500000000266
 21
417.3787436346049
 31
0.0
  0
LINE
  5
B8
  8
0
  6
CONTINUOUS
 62
     7
 10
-418.1500000000262
 20
417.3787436346041
 30
0.0
 11
-418.1500000000254
 21
415.3784389785163
 31
0.0
  0
LINE
  5
B9
  8
0
  6
CONTINUOUS
 62
     7
 10
-415.650000000026
 20
415.3784389785172
 30
0.0
 11
-416.1500000000259
 21
415.3784389785171
 31
0.0
  0
LINE
  5
BA
  8
0
  6
CONTINUOUS
 62
     7
 10
-418.6500000000253
 20
415.3784389785162
 30
0.0
 11
-418.1500000000254
 21
415.3784389785163
 31
0.0
  0
LINE
  5
BB
  8
0
  6
CONTINUOUS
 62
     7
 10
-416.1500000000266
 20
417.3787436346049
 30
0.0
 11
-416.1500000000259
 21
415.3784389785171
 31
0.0
  0
LINE
  5
BC
  8
0
  6
CONTINUOUS
 62
     7
 10
-415.6499999999861
 20
305.5790482906953
 30
0.0
 11
-416.149999999986
 21
305.5790482906951
 31
0.0
  0
LINE
  5
BD
  8
0
  6
CONTINUOUS
 62
     7
 10
-418.6499999999854
 20
305.5790482906942
 30
0.0
 11
-418.1499999999855
 21
305.5790482906943
 31
0.0
  0
LINE
  5
BE
  8
0
  6
CONTINUOUS
 62
     7
 10
-464.1500000000261
 20
417.3787436346069
 30
0.0
 11
-462.1500000000266
 21
417.3787436346076
 31
0.0
  0
LINE
  5
BF
  8
0
  6
CONTINUOUS
 62
     7
 10
-464.1500000000261
 20
417.3787436346069
 30
0.0
 11
-464.1500000000254
 21
415.3784389785191
 31
0.0
  0
LINE
  5
C0
  8
0
  6
CONTINUOUS
 62
     7
 10
-461.650000000026
 20
415.37843897852
 30
0.0
 11
-462.1500000000258
 21
415.3784389785199
 31
0.0
  0
LINE
  5
C1
  8
0
  6
CONTINUOUS
 62
     7
 10
-464.6500000000253
 20
415.3784389785189
 30
0.0
 11
-464.1500000000254
 21
415.3784389785191
 31
0.0
  0
LINE
  5
C2
  8
0
  6
CONTINUOUS
 62
     7
 10
-462.1500000000266
 20
417.3787436346076
 30
0.0
 11
-462.1500000000258
 21
415.3784389785198
 31
0.0
  0
LINE
  5
C3
  8
0
  6
CONTINUOUS
 62
     7
 10
-461.6499999999861
 20
305.579048290698
 30
0.0
 11
-462.1499999999859
 21
305.5790482906978
 31
0.0
  0
LINE
  5
C4
  8
0
  6
CONTINUOUS
 62
     7
 10
-464.6499999999854
 20
305.5790482906969
 30
0.0
 11
-464.1499999999855
 21
305.5790482906971
 31
0.0
  0
LINE
  5
C5
  8
0
  6
CONTINUOUS
 62
     7
 10
-373.0
 20
342.9999999999999
 30
0.0
 11
-366.0
 21
342.9999999999999
 31
0.0
  0
LINE
  5
C6
  8
0
  6
CONTINUOUS
 62
     7
 10
-370.0
 20
341.6
 30
0.0
 11
-369.0
 21
341.6
 31
0.0
  0
LINE
  5
C7
  8
0
  6
CONTINUOUS
 62
     7
 10
-367.3575714714371
 20
340.2836285266508
 30
0.0
 11
-367.3
 21
340.2836285266508
 31
0.0
  0
ARC
  5
C8
  8
0
  6
CONTINUOUS
 62
     7
 10
-369.5
 20
346.4
 30
0.0
 40
6.480740698407862
 50
278.8763950809733
 51
289.3042196067917
  0
LINE
  5
C9
  8
0
  6
CONTINUOUS
 62
     7
 10
-369.0
 20
339.9968757625671
 30
0.0
 11
-368.5
 21
339.9968757625671
 31
0.0
  0
LINE
  5
CA
  8
0
  6
CONTINUOUS
 62
     7
 10
-371.7
 20
340.2836285266508
 30
0.0
 11
-371.6424285285628
 21
340.2836285266508
 31
0.0
  0
LINE
  5
CB
  8
0
  6
CONTINUOUS
 62
     7
 10
-370.5
 20
339.9968757625671
 30
0.0
 11
-370.0
 21
339.9968757625671
 31
0.0
  0
ARC
  5
CC
  8
0
  6
CONTINUOUS
 62
     7
 10
-369.5
 20
346.4
 30
0.0
 40
6.480740698407862
 50
250.6957803932084
 51
261.1236049190267
  0
LINE
  5
CD
  8
0
  6
CONTINUOUS
 62
     7
 10
-507.0
 20
342.9999999999999
 30
0.0
 11
-514.0
 21
342.9999999999999
 31
0.0
  0
LINE
  5
CE
  8
0
  6
CONTINUOUS
 62
     7
 10
-510.0
 20
341.6
 30
0.0
 11
-511.0
 21
341.6
 31
0.0
  0
LINE
  5
CF
  8
0
  6
CONTINUOUS
 62
     7
 10
-508.3
 20
340.2836285266508
 30
0.0
 11
-508.3575714714371
 21
340.2836285266508
 31
0.0
  0
LINE
  5
D0
  8
0
  6
CONTINUOUS
 62
     7
 10
-509.5000000000001
 20
339.9968757625671
 30
0.0
 11
-510.0
 21
339.9968757625671
 31
0.0
  0
ARC
  5
D1
  8
0
  6
CONTINUOUS
 62
     7
 10
-510.4999999999999
 20
346.4
 30
0.0
 40
6.480740698407862
 50
278.8763950809732
 51
289.3042196067915
  0
LINE
  5
D2
  8
0
  6
CONTINUOUS
 62
     7
 10
-511.0
 20
339.9968757625671
 30
0.0
 11
-511.5000000000001
 21
339.9968757625671
 31
0.0
  0
ARC
  5
D3
  8
0
  6
CONTINUOUS
 62
     7
 10
-510.4999999999999
 20
346.4
 30
0.0
 40
6.480740698407862
 50
250.6957803932083
 51
261.1236049190267
  0
LINE
  5
D4
  8
0
  6
CONTINUOUS
 62
     7
 10
-512.6424285285628
 20
340.2836285266508
 30
0.0
 11
-512.7
 21
340.2836285266508
 31
0.0
  0
LINE
  5
D5
  8
0
  6
CONTINUOUS
 62
     7
 10
-373.0
 20
377.0
 30
0.0
 11
-366.0
 21
377.0
 31
0.0
  0
LINE
  5
D6
  8
0
  6
CONTINUOUS
 62
     7
 10
-370.0
 20
378.4
 30
0.0
 11
-369.0
 21
378.4
 31
0.0
  0
LINE
  5
D7
  8
0
  6
CONTINUOUS
 62
     7
 10
-369.0
 20
380.0031242374328
 30
0.0
 11
-368.5
 21
380.0031242374328
 31
0.0
  0
ARC
  5
D8
  8
0
  6
CONTINUOUS
 62
     7
 10
-369.5
 20
373.6
 30
0.0
 40
6.480740698407862
 50
70.69578039320827
 51
81.12360491902666
  0
LINE
  5
D9
  8
0
  6
CONTINUOUS
 62
     7
 10
-367.3575714714371
 20
379.7163714733492
 30
0.0
 11
-367.3
 21
379.7163714733492
 31
0.0
  0
LINE
  5
DA
  8
0
  6
CONTINUOUS
 62
     7
 10
-371.7
 20
379.7163714733492
 30
0.0
 11
-371.6424285285628
 21
379.7163714733492
 31
0.0
  0
LINE
  5
DB
  8
0
  6
CONTINUOUS
 62
     7
 10
-370.5
 20
380.0031242374328
 30
0.0
 11
-370.0
 21
380.0031242374328
 31
0.0
  0
ARC
  5
DC
  8
0
  6
CONTINUOUS
 62
     7
 10
-369.5
 20
373.6
 30
0.0
 40
6.480740698407862
 50
98.87639508097327
 51
109.3042196067916
  0
LINE
  5
DD
  8
0
  6
CONTINUOUS
 62
     7
 10
-507.0
 20
377.0
 30
0.0
 11
-514.0
 21
377.0
 31
0.0
  0
LINE
  5
DE
  8
0
  6
CONTINUOUS
 62
     7
 10
-510.0
 20
378.4
 30
0.0
 11
-511.0
 21
378.4
 31
0.0
  0
LINE
  5
DF
  8
0
  6
CONTINUOUS
 62
     7
 10
-508.3
 20
379.7163714733492
 30
0.0
 11
-508.3575714714371
 21
379.7163714733492
 31
0.0
  0
LINE
  5
E0
  8
0
  6
CONTINUOUS
 62
     7
 10
-509.5000000000001
 20
380.0031242374328
 30
0.0
 11
-510.0
 21
380.0031242374328
 31
0.0
  0
ARC
  5
E1
  8
0
  6
CONTINUOUS
 62
     7
 10
-510.4999999999999
 20
373.6
 30
0.0
 40
6.480740698407862
 50
70.69578039320841
 51
81.1236049190267
  0
LINE
  5
E2
  8
0
  6
CONTINUOUS
 62
     7
 10
-512.6424285285628
 20
379.7163714733492
 30
0.0
 11
-512.7
 21
379.7163714733492
 31
0.0
  0
ARC
  5
E3
  8
0
  6
CONTINUOUS
 62
     7
 10
-510.4999999999999
 20
373.6
 30
0.0
 40
6.480740698407862
 50
98.87639508097335
 51
109.3042196067917
  0
LINE
  5
E4
  8
0
  6
CONTINUOUS
 62
     7
 10
-511.0
 20
380.0031242374328
 30
0.0
 11
-511.5000000000001
 21
380.0031242374328
 31
0.0
  0
CIRCLE
  5
E5
  8
0
  6
CONTINUOUS
 62
     7
 10
-364.0
 20
307.5
 30
0.0
 40
1.649999999999999
  0
CIRCLE
  5
E6
  8
0
  6
CONTINUOUS
 62
     7
 10
-516.0
 20
307.5
 30
0.0
 40
1.649999999999999
  0
CIRCLE
  5
E7
  8
0
  6
CONTINUOUS
 62
     7
 10
-364.0
 20
412.4999999999999
 30
0.0
 40
1.649999999999999
  0
CIRCLE
  5
E8
  8
0
  6
CONTINUOUS
 62
     7
 10
-516.0
 20
412.4999999999999
 30
0.0
 40
1.649999999999999
  0
LINE
  5
E9
  8
0
  6
CONTINUOUS
 62
     7
 10
-351.7499999999999
 20
305.0
 30
0.0
 11
-351.7499999999999
 21
415.0
 31
0.0
  0
LINE
  5
EA
  8
0
  6
CONTINUOUS
 62
     7
 10
-349.75
 20
414.9999999999999
 30
0.0
 11
-349.75
 21
304.9999999999999
 31
0.0
  0
ARC
  5
EB
  8
0
  6
CONTINUOUS
 62
     7
 10
-524.5
 20
305.5
 30
0.0
 40
3.000000000000003
 50
180.0
 51
270.0
  0
LINE
  5
EC
  8
0
  6
CONTINUOUS
 62
     7
 10
-524.5
 20
302.5
 30
0.0
 11
-355.5
 21
302.5
 31
0.0
  0
ARC
  5
ED
  8
0
  6
CONTINUOUS
 62
     7
 10
-355.5000000000001
 20
305.5
 30
0.0
 40
3.000000000000003
 50
270.0
 51
0.0
  0
LINE
  5
EE
  8
0
  6
CONTINUOUS
 62
     7
 10
-352.5
 20
305.5
 30
0.0
 11
-352.5
 21
414.4999999999999
 31
0.0
  0
ARC
  5
EF
  8
0
  6
CONTINUOUS
 62
     7
 10
-355.5000000000001
 20
414.4999999999999
 30
0.0
 40
3.000000000000003
 50
0.0
 51
90.0
  0
LINE
  5
F0
  8
0
  6
CONTINUOUS
 62
     7
 10
-355.5000000000001
 20
417.5
 30
0.0
 11
-524.5
 21
417.5
 31
0.0
  0
ARC
  5
F1
  8
0
  6
CONTINUOUS
 62
     7
 10
-524.5
 20
414.4999999999999
 30
0.0
 40
3.000000000000003
 50
90.0
 51
180.0
  0
LINE
  5
F2
  8
0
  6
CONTINUOUS
 62
     7
 10
-527.5
 20
414.4999999999999
 30
0.0
 11
-527.5
 21
305.5
 31
0.0
  0
ARC
  5
F3
  8
0
  6
CONTINUOUS
 62
     7
 10
-355.5000000000001
 20
305.5
 30
0.0
 40
6.499999999999999
 50
270.0
 51
0.0
  0
LINE
  5
F4
  8
0
  6
CONTINUOUS
 62
     7
 10
-524.5
 20
299.0
 30
0.0
 11
-355.5
 21
299.0
 31
0.0
  0
ARC
  5
F5
  8
0
  6
CONTINUOUS
 62
     7
 10
-524.5
 20
305.5
 30
0.0
 40
6.500000000000005
 50
179.9999999999999
 51
270.0
  0
LINE
  5
F6
  8
0
  6
CONTINUOUS
 62
     7
 10
-531.0
 20
414.4999999999999
 30
0.0
 11
-531.0
 21
305.5
 31
0.0
  0
ARC
  5
F7
  8
0
  6
CONTINUOUS
 62
     7
 10
-524.5
 20
414.4999999999999
 30
0.0
 40
6.499999999999999
 50
90.0
 51
180.0
  0
LINE
  5
F8
  8
0
  6
CONTINUOUS
 62
     7
 10
-355.5000000000001
 20
421.0
 30
0.0
 11
-524.5
 21
421.0
 31
0.0
  0
ARC
  5
F9
  8
0
  6
CONTINUOUS
 62
     7
 10
-355.5000000000001
 20
414.4999999999999
 30
0.0
 40
6.500000000000005
 50
359.9999999999999
 51
90.0
  0
LINE
  5
FA
  8
0
  6
CONTINUOUS
 62
     7
 10
-348.9999999999999
 20
305.5
 30
0.0
 11
-348.9999999999999
 21
414.4999999999999
 31
0.0
  0
LINE
  5
FB
  8
0
  6
CONTINUOUS
 62
     7
 10
-528.25
 20
414.9999999999999
 30
0.0
 11
-528.25
 21
304.9999999999999
 31
0.0
  0
LINE
  5
FC
  8
0
  6
CONTINUOUS
 62
     7
 10
-530.25
 20
305.0
 30
0.0
 11
-530.25
 21
415.0
 31
0.0
  0
LINE
  5
FD
  8
0
  6
CONTINUOUS
 62
     7
 10
-530.25
 20
305.0
 30
0.0
 11
-528.25
 21
305.0
 31
0.0
  0
LINE
  5
FE
  8
0
  6
CONTINUOUS
 62
     7
 10
-351.7499999999999
 20
414.9999999999999
 30
0.0
 11
-349.7499999999999
 21
414.9999999999999
 31
0.0
  0
LINE
  5
FF
  8
0
  6
CONTINUOUS
 62
     7
 10
-528.25
 20
414.9999999999999
 30
0.0
 11
-530.25
 21
414.9999999999999
 31
0.0
  0
LINE
  5
100
  8
0
  6
CONTINUOUS
 62
     7
 10
-349.75
 20
305.0
 30
0.0
 11
-351.75
 21
305.0
 31
0.0
  0
LINE
  5
101
  8
0
  6
CONTINUOUS
 62
     7
 10
-360.7
 20
297.0076106038165
 30
0.0
 11
-367.3
 21
297.0076106038165
 31
0.0
  0
LINE
  5
102
  8
0
  6
CONTINUOUS
 62
     7
 10
-512.5
 20
422.7931504565651
 30
0.0
 11
-512.5
 21
421.0
 31
0.0
  0
POLYLINE
  5
103
  8
0
  6
CONTINUOUS
 62
     7
 66
     1
 10
0.0
 20
0.0
 30
0.0
  0
VERTEX
  5
332
  8
0
  6
CONTINUOUS
 62
     7
 10
-512.5
 20
422.7931504565651
 30
0.0
  0
VERTEX
  5
333
  8
0
  6
CONTINUOUS
 62
     7
 10
-512.5038429439194
 20
422.8320200454534
 30
0.0
  0
VERTEX
  5
334
  8
0
  6
CONTINUOUS
 62
     7
 10
-512.5152240934977
 20
422.8693958978391
 30
0.0
  0
VERTEX
  5
335
  8
0
  6
CONTINUOUS
 62
     7
 10
-512.5337060775395
 20
422.9038416806754
 30
0.0
  0
VERTEX
  5
336
  8
0
  6
CONTINUOUS
 62
     7
 10
-512.5585786437628
 20
422.9340336618457
 30
0.0
  0
VERTEX
  5
337
  8
0
  6
CONTINUOUS
 62
     7
 10
-512.5888859533961
 20
422.9588115804452
 30
0.0
  0
VERTEX
  5
338
  8
0
  6
CONTINUOUS
 62
     7
 10
-512.623463313527
 20
422.9772232349578
 30
0.0
  0
VERTEX
  5
339
  8
0
  6
CONTINUOUS
 62
     7
 10
-512.6609819355969
 20
422.9885610758259
 30
0.0
  0
VERTEX
  5
33A
  8
0
  6
CONTINUOUS
 62
     7
 10
-512.7
 20
422.9923893961835
 30
0.0
  0
SEQEND
  5
64E
  8
0
  6
CONTINUOUS
 62
     7
  0
LINE
  5
104
  8
0
  6
CONTINUOUS
 62
     7
 10
-360.7
 20
422.9923893961835
 30
0.0
 11
-367.3
 21
422.9923893961835
 31
0.0
  0
LINE
  5
105
  8
0
  6
CONTINUOUS
 62
     7
 10
-519.5
 20
421.0
 30
0.0
 11
-519.5
 21
422.7931504565651
 31
0.0
  0
POLYLINE
  5
106
  8
0
  6
CONTINUOUS
 62
     7
 66
     1
 10
0.0
 20
0.0
 30
0.0
  0
VERTEX
  5
33B
  8
0
  6
CONTINUOUS
 62
     7
 10
-519.2999999999998
 20
422.9923893961835
 30
0.0
  0
VERTEX
  5
33C
  8
0
  6
CONTINUOUS
 62
     7
 10
-519.339018064403
 20
422.988561075826
 30
0.0
  0
VERTEX
  5
33D
  8
0
  6
CONTINUOUS
 62
     7
 10
-519.3765366864728
 20
422.9772232349578
 30
0.0
  0
VERTEX
  5
33E
  8
0
  6
CONTINUOUS
 62
     7
 10
-519.4111140466038
 20
422.9588115804452
 30
0.0
  0
VERTEX
  5
33F
  8
0
  6
CONTINUOUS
 62
     7
 10
-519.4414213562372
 20
422.9340336618457
 30
0.0
  0
VERTEX
  5
340
  8
0
  6
CONTINUOUS
 62
     7
 10
-519.4662939224604
 20
422.9038416806755
 30
0.0
  0
VERTEX
  5
341
  8
0
  6
CONTINUOUS
 62
     7
 10
-519.4847759065023
 20
422.8693958978391
 30
0.0
  0
VERTEX
  5
342
  8
0
  6
CONTINUOUS
 62
     7
 10
-519.4961570560806
 20
422.8320200454534
 30
0.0
  0
VERTEX
  5
343
  8
0
  6
CONTINUOUS
 62
     7
 10
-519.5
 20
422.7931504565651
 30
0.0
  0
SEQEND
  5
64F
  8
0
  6
CONTINUOUS
 62
     7
  0
LINE
  5
107
  8
0
  6
CONTINUOUS
 62
     7
 10
-360.5
 20
422.7931504565651
 30
0.0
 11
-360.5
 21
421.0
 31
0.0
  0
POLYLINE
  5
108
  8
0
  6
CONTINUOUS
 62
     7
 66
     1
 10
0.0
 20
0.0
 30
0.0
  0
VERTEX
  5
344
  8
0
  6
CONTINUOUS
 62
     7
 10
-360.5
 20
422.7931504565651
 30
0.0
  0
VERTEX
  5
345
  8
0
  6
CONTINUOUS
 62
     7
 10
-360.5038429439193
 20
422.8320200454534
 30
0.0
  0
VERTEX
  5
346
  8
0
  6
CONTINUOUS
 62
     7
 10
-360.5152240934977
 20
422.8693958978391
 30
0.0
  0
VERTEX
  5
347
  8
0
  6
CONTINUOUS
 62
     7
 10
-360.5337060775395
 20
422.9038416806754
 30
0.0
  0
VERTEX
  5
348
  8
0
  6
CONTINUOUS
 62
     7
 10
-360.5585786437627
 20
422.9340336618457
 30
0.0
  0
VERTEX
  5
349
  8
0
  6
CONTINUOUS
 62
     7
 10
-360.5888859533961
 20
422.9588115804452
 30
0.0
  0
VERTEX
  5
34A
  8
0
  6
CONTINUOUS
 62
     7
 10
-360.6234633135269
 20
422.9772232349578
 30
0.0
  0
VERTEX
  5
34B
  8
0
  6
CONTINUOUS
 62
     7
 10
-360.6609819355967
 20
422.9885610758259
 30
0.0
  0
VERTEX
  5
34C
  8
0
  6
CONTINUOUS
 62
     7
 10
-360.7
 20
422.9923893961835
 30
0.0
  0
SEQEND
  5
650
  8
0
  6
CONTINUOUS
 62
     7
  0
LINE
  5
109
  8
0
  6
CONTINUOUS
 62
     7
 10
-519.3
 20
422.9923893961835
 30
0.0
 11
-512.6999999999999
 21
422.9923893961835
 31
0.0
  0
LINE
  5
10A
  8
0
  6
CONTINUOUS
 62
     7
 10
-512.5
 20
299.0
 30
0.0
 11
-512.5
 21
297.2068495434348
 31
0.0
  0
POLYLINE
  5
10B
  8
0
  6
CONTINUOUS
 62
     7
 66
     1
 10
0.0
 20
0.0
 30
0.0
  0
VERTEX
  5
34D
  8
0
  6
CONTINUOUS
 62
     7
 10
-512.7000000000002
 20
297.0076106038165
 30
0.0
  0
VERTEX
  5
34E
  8
0
  6
CONTINUOUS
 62
     7
 10
-512.660981935597
 20
297.0114389241739
 30
0.0
  0
VERTEX
  5
34F
  8
0
  6
CONTINUOUS
 62
     7
 10
-512.6234633135272
 20
297.0227767650421
 30
0.0
  0
VERTEX
  5
350
  8
0
  6
CONTINUOUS
 62
     7
 10
-512.5888859533962
 20
297.0411884195547
 30
0.0
  0
VERTEX
  5
351
  8
0
  6
CONTINUOUS
 62
     7
 10
-512.5585786437628
 20
297.0659663381542
 30
0.0
  0
VERTEX
  5
352
  8
0
  6
CONTINUOUS
 62
     7
 10
-512.5337060775396
 20
297.0961583193244
 30
0.0
  0
VERTEX
  5
353
  8
0
  6
CONTINUOUS
 62
     7
 10
-512.5152240934977
 20
297.1306041021609
 30
0.0
  0
VERTEX
  5
354
  8
0
  6
CONTINUOUS
 62
     7
 10
-512.5038429439194
 20
297.1679799545465
 30
0.0
  0
VERTEX
  5
355
  8
0
  6
CONTINUOUS
 62
     7
 10
-512.5
 20
297.2068495434348
 30
0.0
  0
SEQEND
  5
651
  8
0
  6
CONTINUOUS
 62
     7
  0
LINE
  5
10C
  8
0
  6
CONTINUOUS
 62
     7
 10
-519.3
 20
297.0076106038165
 30
0.0
 11
-512.6999999999999
 21
297.0076106038165
 31
0.0
  0
LINE
  5
10D
  8
0
  6
CONTINUOUS
 62
     7
 10
-367.5
 20
297.2068495434348
 30
0.0
 11
-367.5
 21
299.0
 31
0.0
  0
POLYLINE
  5
10E
  8
0
  6
CONTINUOUS
 62
     7
 66
     1
 10
0.0
 20
0.0
 30
0.0
  0
VERTEX
  5
356
  8
0
  6
CONTINUOUS
 62
     7
 10
-367.5
 20
297.2068495434348
 30
0.0
  0
VERTEX
  5
357
  8
0
  6
CONTINUOUS
 62
     7
 10
-367.4961570560807
 20
297.1679799545465
 30
0.0
  0
VERTEX
  5
358
  8
0
  6
CONTINUOUS
 62
     7
 10
-367.4847759065023
 20
297.1306041021609
 30
0.0
  0
VERTEX
  5
359
  8
0
  6
CONTINUOUS
 62
     7
 10
-367.4662939224605
 20
297.0961583193245
 30
0.0
  0
VERTEX
  5
35A
  8
0
  6
CONTINUOUS
 62
     7
 10
-367.4414213562373
 20
297.0659663381543
 30
0.0
  0
VERTEX
  5
35B
  8
0
  6
CONTINUOUS
 62
     7
 10
-367.4111140466039
 20
297.0411884195548
 30
0.0
  0
VERTEX
  5
35C
  8
0
  6
CONTINUOUS
 62
     7
 10
-367.3765366864731
 20
297.0227767650422
 30
0.0
  0
VERTEX
  5
35D
  8
0
  6
CONTINUOUS
 62
     7
 10
-367.3390180644033
 20
297.011438924174
 30
0.0
  0
VERTEX
  5
35E
  8
0
  6
CONTINUOUS
 62
     7
 10
-367.3
 20
297.0076106038165
 30
0.0
  0
SEQEND
  5
652
  8
0
  6
CONTINUOUS
 62
     7
  0
LINE
  5
10F
  8
0
  6
CONTINUOUS
 62
     7
 10
-360.5
 20
299.0
 30
0.0
 11
-360.5
 21
297.2068495434348
 31
0.0
  0
POLYLINE
  5
110
  8
0
  6
CONTINUOUS
 62
     7
 66
     1
 10
0.0
 20
0.0
 30
0.0
  0
VERTEX
  5
35F
  8
0
  6
CONTINUOUS
 62
     7
 10
-360.7000000000002
 20
297.0076106038165
 30
0.0
  0
VERTEX
  5
360
  8
0
  6
CONTINUOUS
 62
     7
 10
-360.6609819355969
 20
297.0114389241739
 30
0.0
  0
VERTEX
  5
361
  8
0
  6
CONTINUOUS
 62
     7
 10
-360.6234633135271
 20
297.0227767650421
 30
0.0
  0
VERTEX
  5
362
  8
0
  6
CONTINUOUS
 62
     7
 10
-360.5888859533961
 20
297.0411884195547
 30
0.0
  0
VERTEX
  5
363
  8
0
  6
CONTINUOUS
 62
     7
 10
-360.5585786437627
 20
297.0659663381542
 30
0.0
  0
VERTEX
  5
364
  8
0
  6
CONTINUOUS
 62
     7
 10
-360.5337060775395
 20
297.0961583193244
 30
0.0
  0
VERTEX
  5
365
  8
0
  6
CONTINUOUS
 62
     7
 10
-360.5152240934977
 20
297.1306041021609
 30
0.0
  0
VERTEX
  5
366
  8
0
  6
CONTINUOUS
 62
     7
 10
-360.5038429439193
 20
297.1679799545465
 30
0.0
  0
VERTEX
  5
367
  8
0
  6
CONTINUOUS
 62
     7
 10
-360.5
 20
297.2068495434348
 30
0.0
  0
SEQEND
  5
653
  8
0
  6
CONTINUOUS
 62
     7
  0
LINE
  5
111
  8
0
  6
CONTINUOUS
 62
     7
 10
-367.5
 20
421.0
 30
0.0
 11
-367.5
 21
422.7931504565651
 31
0.0
  0
POLYLINE
  5
112
  8
0
  6
CONTINUOUS
 62
     7
 66
     1
 10
0.0
 20
0.0
 30
0.0
  0
VERTEX
  5
368
  8
0
  6
CONTINUOUS
 62
     7
 10
-367.2999999999998
 20
422.9923893961835
 30
0.0
  0
VERTEX
  5
369
  8
0
  6
CONTINUOUS
 62
     7
 10
-367.3390180644031
 20
422.988561075826
 30
0.0
  0
VERTEX
  5
36A
  8
0
  6
CONTINUOUS
 62
     7
 10
-367.3765366864729
 20
422.9772232349578
 30
0.0
  0
VERTEX
  5
36B
  8
0
  6
CONTINUOUS
 62
     7
 10
-367.4111140466039
 20
422.9588115804452
 30
0.0
  0
VERTEX
  5
36C
  8
0
  6
CONTINUOUS
 62
     7
 10
-367.4414213562373
 20
422.9340336618457
 30
0.0
  0
VERTEX
  5
36D
  8
0
  6
CONTINUOUS
 62
     7
 10
-367.4662939224605
 20
422.9038416806755
 30
0.0
  0
VERTEX
  5
36E
  8
0
  6
CONTINUOUS
 62
     7
 10
-367.4847759065023
 20
422.8693958978391
 30
0.0
  0
VERTEX
  5
36F
  8
0
  6
CONTINUOUS
 62
     7
 10
-367.4961570560807
 20
422.8320200454534
 30
0.0
  0
VERTEX
  5
370
  8
0
  6
CONTINUOUS
 62
     7
 10
-367.5
 20
422.7931504565651
 30
0.0
  0
SEQEND
  5
654
  8
0
  6
CONTINUOUS
 62
     7
  0
LINE
  5
113
  8
0
  6
CONTINUOUS
 62
     7
 10
-519.5
 20
297.2068495434348
 30
0.0
 11
-519.5
 21
299.0
 31
0.0
  0
POLYLINE
  5
114
  8
0
  6
CONTINUOUS
 62
     7
 66
     1
 10
0.0
 20
0.0
 30
0.0
  0
VERTEX
  5
371
  8
0
  6
CONTINUOUS
 62
     7
 10
-519.5
 20
297.2068495434348
 30
0.0
  0
VERTEX
  5
372
  8
0
  6
CONTINUOUS
 62
     7
 10
-519.4961570560806
 20
297.1679799545465
 30
0.0
  0
VERTEX
  5
373
  8
0
  6
CONTINUOUS
 62
     7
 10
-519.4847759065023
 20
297.1306041021609
 30
0.0
  0
VERTEX
  5
374
  8
0
  6
CONTINUOUS
 62
     7
 10
-519.4662939224605
 20
297.0961583193245
 30
0.0
  0
VERTEX
  5
375
  8
0
  6
CONTINUOUS
 62
     7
 10
-519.4414213562372
 20
297.0659663381543
 30
0.0
  0
VERTEX
  5
376
  8
0
  6
CONTINUOUS
 62
     7
 10
-519.4111140466039
 20
297.0411884195548
 30
0.0
  0
VERTEX
  5
377
  8
0
  6
CONTINUOUS
 62
     7
 10
-519.376536686473
 20
297.0227767650422
 30
0.0
  0
VERTEX
  5
378
  8
0
  6
CONTINUOUS
 62
     7
 10
-519.3390180644031
 20
297.011438924174
 30
0.0
  0
VERTEX
  5
379
  8
0
  6
CONTINUOUS
 62
     7
 10
-519.3
 20
297.0076106038165
 30
0.0
  0
SEQEND
  5
655
  8
0
  6
CONTINUOUS
 62
     7
  0
POLYLINE
  5
115
  8
0
  6
CONTINUOUS
 62
     7
 66
     1
 10
0.0
 20
0.0
 30
0.0
  0
VERTEX
  5
37A
  8
0
  6
CONTINUOUS
 62
     7
 10
-510.5000000000001
 20
303.0253269557861
 30
0.0
  0
VERTEX
  5
37B
  8
0
  6
CONTINUOUS
 62
     7
 10
-510.4903926402017
 20
302.9277780804157
 30
0.0
  0
VERTEX
  5
37C
  8
0
  6
CONTINUOUS
 62
     7
 10
-510.4619397662557
 20
302.8339779536199
 30
0.0
  0
VERTEX
  5
37D
  8
0
  6
CONTINUOUS
 62
     7
 10
-510.4157348061514
 20
302.7475312616675
 30
0.0
  0
VERTEX
  5
37E
  8
0
  6
CONTINUOUS
 62
     7
 10
-510.3535533905934
 20
302.6717601024504
 30
0.0
  0
VERTEX
  5
37F
  8
0
  6
CONTINUOUS
 62
     7
 10
-510.2777851165099
 20
302.6095763191245
 30
0.0
  0
VERTEX
  5
380
  8
0
  6
CONTINUOUS
 62
     7
 10
-510.1913417161826
 20
302.5633695996098
 30
0.0
  0
VERTEX
  5
381
  8
0
  6
CONTINUOUS
 62
     7
 10
-510.0975451610082
 20
302.5349156422243
 30
0.0
  0
VERTEX
  5
382
  8
0
  6
CONTINUOUS
 62
     7
 10
-510.0000000000001
 20
302.5253079165932
 30
0.0
  0
SEQEND
  5
656
  8
0
  6
CONTINUOUS
 62
     7
  0
POLYLINE
  5
116
  8
0
  6
CONTINUOUS
 62
     7
 66
     1
 10
0.0
 20
0.0
 30
0.0
  0
VERTEX
  5
383
  8
0
  6
CONTINUOUS
 62
     7
 10
-357.9999999999999
 20
417.4746920834068
 30
0.0
  0
VERTEX
  5
384
  8
0
  6
CONTINUOUS
 62
     7
 10
-358.097545161008
 20
417.4650843577757
 30
0.0
  0
VERTEX
  5
385
  8
0
  6
CONTINUOUS
 62
     7
 10
-358.1913417161825
 20
417.4366304003902
 30
0.0
  0
VERTEX
  5
386
  8
0
  6
CONTINUOUS
 62
     7
 10
-358.2777851165097
 20
417.3904236808755
 30
0.0
  0
VERTEX
  5
387
  8
0
  6
CONTINUOUS
 62
     7
 10
-358.3535533905932
 20
417.3282398975496
 30
0.0
  0
VERTEX
  5
388
  8
0
  6
CONTINUOUS
 62
     7
 10
-358.4157348061512
 20
417.2524687383325
 30
0.0
  0
VERTEX
  5
389
  8
0
  6
CONTINUOUS
 62
     7
 10
-358.4619397662555
 20
417.1660220463801
 30
0.0
  0
VERTEX
  5
38A
  8
0
  6
CONTINUOUS
 62
     7
 10
-358.4903926402015
 20
417.0722219195843
 30
0.0
  0
VERTEX
  5
38B
  8
0
  6
CONTINUOUS
 62
     7
 10
-358.4999999999999
 20
416.9746730442139
 30
0.0
  0
SEQEND
  5
657
  8
0
  6
CONTINUOUS
 62
     7
  0
POLYLINE
  5
117
  8
0
  6
CONTINUOUS
 62
     7
 66
     1
 10
0.0
 20
0.0
 30
0.0
  0
VERTEX
  5
38C
  8
0
  6
CONTINUOUS
 62
     7
 10
-369.9999999999999
 20
302.5253079165932
 30
0.0
  0
VERTEX
  5
38D
  8
0
  6
CONTINUOUS
 62
     7
 10
-369.9024548389918
 20
302.5349156422243
 30
0.0
  0
VERTEX
  5
38E
  8
0
  6
CONTINUOUS
 62
     7
 10
-369.8086582838174
 20
302.5633695996098
 30
0.0
  0
VERTEX
  5
38F
  8
0
  6
CONTINUOUS
 62
     7
 10
-369.7222148834901
 20
302.6095763191245
 30
0.0
  0
VERTEX
  5
390
  8
0
  6
CONTINUOUS
 62
     7
 10
-369.6464466094066
 20
302.6717601024504
 30
0.0
  0
VERTEX
  5
391
  8
0
  6
CONTINUOUS
 62
     7
 10
-369.5842651938486
 20
302.7475312616674
 30
0.0
  0
VERTEX
  5
392
  8
0
  6
CONTINUOUS
 62
     7
 10
-369.5380602337443
 20
302.8339779536198
 30
0.0
  0
VERTEX
  5
393
  8
0
  6
CONTINUOUS
 62
     7
 10
-369.5096073597983
 20
302.9277780804157
 30
0.0
  0
VERTEX
  5
394
  8
0
  6
CONTINUOUS
 62
     7
 10
-369.4999999999999
 20
303.0253269557861
 30
0.0
  0
SEQEND
  5
658
  8
0
  6
CONTINUOUS
 62
     7
  0
POLYLINE
  5
118
  8
0
  6
CONTINUOUS
 62
     7
 66
     1
 10
0.0
 20
0.0
 30
0.0
  0
VERTEX
  5
395
  8
0
  6
CONTINUOUS
 62
     7
 10
-358.4999999999999
 20
303.0253269557861
 30
0.0
  0
VERTEX
  5
396
  8
0
  6
CONTINUOUS
 62
     7
 10
-358.4903926402015
 20
302.9277780804157
 30
0.0
  0
VERTEX
  5
397
  8
0
  6
CONTINUOUS
 62
     7
 10
-358.4619397662555
 20
302.8339779536199
 30
0.0
  0
VERTEX
  5
398
  8
0
  6
CONTINUOUS
 62
     7
 10
-358.4157348061511
 20
302.7475312616675
 30
0.0
  0
VERTEX
  5
399
  8
0
  6
CONTINUOUS
 62
     7
 10
-358.3535533905932
 20
302.6717601024504
 30
0.0
  0
VERTEX
  5
39A
  8
0
  6
CONTINUOUS
 62
     7
 10
-358.2777851165097
 20
302.6095763191245
 30
0.0
  0
VERTEX
  5
39B
  8
0
  6
CONTINUOUS
 62
     7
 10
-358.1913417161824
 20
302.5633695996098
 30
0.0
  0
VERTEX
  5
39C
  8
0
  6
CONTINUOUS
 62
     7
 10
-358.0975451610079
 20
302.5349156422243
 30
0.0
  0
VERTEX
  5
39D
  8
0
  6
CONTINUOUS
 62
     7
 10
-357.9999999999999
 20
302.5253079165932
 30
0.0
  0
SEQEND
  5
659
  8
0
  6
CONTINUOUS
 62
     7
  0
POLYLINE
  5
119
  8
0
  6
CONTINUOUS
 62
     7
 66
     1
 10
0.0
 20
0.0
 30
0.0
  0
VERTEX
  5
39E
  8
0
  6
CONTINUOUS
 62
     7
 10
-510.0000000000001
 20
417.4746920834068
 30
0.0
  0
VERTEX
  5
39F
  8
0
  6
CONTINUOUS
 62
     7
 10
-510.0975451610082
 20
417.4650843577757
 30
0.0
  0
VERTEX
  5
3A0
  8
0
  6
CONTINUOUS
 62
     7
 10
-510.1913417161826
 20
417.4366304003902
 30
0.0
  0
VERTEX
  5
3A1
  8
0
  6
CONTINUOUS
 62
     7
 10
-510.2777851165099
 20
417.3904236808755
 30
0.0
  0
VERTEX
  5
3A2
  8
0
  6
CONTINUOUS
 62
     7
 10
-510.3535533905934
 20
417.3282398975496
 30
0.0
  0
VERTEX
  5
3A3
  8
0
  6
CONTINUOUS
 62
     7
 10
-510.4157348061514
 20
417.2524687383325
 30
0.0
  0
VERTEX
  5
3A4
  8
0
  6
CONTINUOUS
 62
     7
 10
-510.4619397662557
 20
417.1660220463802
 30
0.0
  0
VERTEX
  5
3A5
  8
0
  6
CONTINUOUS
 62
     7
 10
-510.4903926402017
 20
417.0722219195843
 30
0.0
  0
VERTEX
  5
3A6
  8
0
  6
CONTINUOUS
 62
     7
 10
-510.5000000000001
 20
416.9746730442139
 30
0.0
  0
SEQEND
  5
65A
  8
0
  6
CONTINUOUS
 62
     7
  0
POLYLINE
  5
11A
  8
0
  6
CONTINUOUS
 62
     7
 66
     1
 10
0.0
 20
0.0
 30
0.0
  0
VERTEX
  5
3A7
  8
0
  6
CONTINUOUS
 62
     7
 10
-369.4999999999999
 20
416.9746730442139
 30
0.0
  0
VERTEX
  5
3A8
  8
0
  6
CONTINUOUS
 62
     7
 10
-369.5096073597983
 20
417.0722219195843
 30
0.0
  0
VERTEX
  5
3A9
  8
0
  6
CONTINUOUS
 62
     7
 10
-369.5380602337443
 20
417.1660220463801
 30
0.0
  0
VERTEX
  5
3AA
  8
0
  6
CONTINUOUS
 62
     7
 10
-369.5842651938486
 20
417.2524687383325
 30
0.0
  0
VERTEX
  5
3AB
  8
0
  6
CONTINUOUS
 62
     7
 10
-369.6464466094066
 20
417.3282398975496
 30
0.0
  0
VERTEX
  5
3AC
  8
0
  6
CONTINUOUS
 62
     7
 10
-369.7222148834901
 20
417.3904236808755
 30
0.0
  0
VERTEX
  5
3AD
  8
0
  6
CONTINUOUS
 62
     7
 10
-369.8086582838174
 20
417.4366304003902
 30
0.0
  0
VERTEX
  5
3AE
  8
0
  6
CONTINUOUS
 62
     7
 10
-369.9024548389918
 20
417.4650843577757
 30
0.0
  0
VERTEX
  5
3AF
  8
0
  6
CONTINUOUS
 62
     7
 10
-369.9999999999999
 20
417.4746920834068
 30
0.0
  0
SEQEND
  5
65B
  8
0
  6
CONTINUOUS
 62
     7
  0
CIRCLE
  5
11B
  8
0
  6
CONTINUOUS
 62
     7
 10
-364.0000000000001
 20
307.5
 30
0.0
 40
4.000000000000004
  0
CIRCLE
  5
11C
  8
0
  6
CONTINUOUS
 62
     7
 10
-364.0000000000001
 20
412.4999999999999
 30
0.0
 40
4.000000000000004
  0
POLYLINE
  5
11D
  8
0
  6
CONTINUOUS
 62
     7
 66
     1
 10
0.0
 20
0.0
 30
0.0
  0
VERTEX
  5
3B0
  8
0
  6
CONTINUOUS
 62
     7
 10
-522.0000000000001
 20
302.5253079165932
 30
0.0
  0
VERTEX
  5
3B1
  8
0
  6
CONTINUOUS
 62
     7
 10
-521.9024548389921
 20
302.5349156422243
 30
0.0
  0
VERTEX
  5
3B2
  8
0
  6
CONTINUOUS
 62
     7
 10
-521.8086582838175
 20
302.5633695996098
 30
0.0
  0
VERTEX
  5
3B3
  8
0
  6
CONTINUOUS
 62
     7
 10
-521.7222148834903
 20
302.6095763191245
 30
0.0
  0
VERTEX
  5
3B4
  8
0
  6
CONTINUOUS
 62
     7
 10
-521.6464466094069
 20
302.6717601024504
 30
0.0
  0
VERTEX
  5
3B5
  8
0
  6
CONTINUOUS
 62
     7
 10
-521.5842651938489
 20
302.7475312616675
 30
0.0
  0
VERTEX
  5
3B6
  8
0
  6
CONTINUOUS
 62
     7
 10
-521.5380602337444
 20
302.8339779536198
 30
0.0
  0
VERTEX
  5
3B7
  8
0
  6
CONTINUOUS
 62
     7
 10
-521.5096073597985
 20
302.9277780804157
 30
0.0
  0
VERTEX
  5
3B8
  8
0
  6
CONTINUOUS
 62
     7
 10
-521.5000000000001
 20
303.0253269557861
 30
0.0
  0
SEQEND
  5
65C
  8
0
  6
CONTINUOUS
 62
     7
  0
ARC
  5
11E
  8
0
  6
CONTINUOUS
 62
     7
 10
-360.4999999999999
 20
409.0
 30
0.0
 40
2.000000000000002
 50
269.9999999999996
 51
0.0
  0
ARC
  5
11F
  8
0
  6
CONTINUOUS
 62
     7
 10
-367.4999999999999
 20
409.0
 30
0.0
 40
2.000000000000002
 50
179.9999999999998
 51
270.0
  0
LINE
  5
120
  8
0
  6
CONTINUOUS
 62
     7
 10
-369.4999999999999
 20
416.9746730442139
 30
0.0
 11
-369.4999999999999
 21
409.0000000000001
 31
0.0
  0
LINE
  5
121
  8
0
  6
CONTINUOUS
 62
     7
 10
-358.4999999999999
 20
409.0
 30
0.0
 11
-358.4999999999999
 21
416.9746730442139
 31
0.0
  0
LINE
  5
122
  8
0
  6
CONTINUOUS
 62
     7
 10
-521.5000000000001
 20
310.9999999999999
 30
0.0
 11
-521.5000000000001
 21
303.0253269557861
 31
0.0
  0
CIRCLE
  5
123
  8
0
  6
CONTINUOUS
 62
     7
 10
-516.0
 20
307.5
 30
0.0
 40
4.000000000000004
  0
ARC
  5
124
  8
0
  6
CONTINUOUS
 62
     7
 10
-512.5
 20
310.9999999999999
 30
0.0
 40
2.000000000000002
 50
359.9999999999998
 51
90.0
  0
ARC
  5
125
  8
0
  6
CONTINUOUS
 62
     7
 10
-519.5000000000001
 20
310.9999999999999
 30
0.0
 40
2.000000000000002
 50
89.99999999999962
 51
180.0
  0
LINE
  5
126
  8
0
  6
CONTINUOUS
 62
     7
 10
-510.5000000000001
 20
303.0253269557861
 30
0.0
 11
-510.5000000000001
 21
310.9999999999999
 31
0.0
  0
CIRCLE
  5
127
  8
0
  6
CONTINUOUS
 62
     7
 10
-516.0
 20
412.4999999999999
 30
0.0
 40
4.000000000000004
  0
POLYLINE
  5
128
  8
0
  6
CONTINUOUS
 62
     7
 66
     1
 10
0.0
 20
0.0
 30
0.0
  0
VERTEX
  5
3B9
  8
0
  6
CONTINUOUS
 62
     7
 10
-521.5000000000001
 20
416.9746730442139
 30
0.0
  0
VERTEX
  5
3BA
  8
0
  6
CONTINUOUS
 62
     7
 10
-521.5096073597985
 20
417.0722219195843
 30
0.0
  0
VERTEX
  5
3BB
  8
0
  6
CONTINUOUS
 62
     7
 10
-521.5380602337444
 20
417.1660220463801
 30
0.0
  0
VERTEX
  5
3BC
  8
0
  6
CONTINUOUS
 62
     7
 10
-521.5842651938489
 20
417.2524687383325
 30
0.0
  0
VERTEX
  5
3BD
  8
0
  6
CONTINUOUS
 62
     7
 10
-521.6464466094068
 20
417.3282398975496
 30
0.0
  0
VERTEX
  5
3BE
  8
0
  6
CONTINUOUS
 62
     7
 10
-521.7222148834903
 20
417.3904236808755
 30
0.0
  0
VERTEX
  5
3BF
  8
0
  6
CONTINUOUS
 62
     7
 10
-521.8086582838175
 20
417.4366304003902
 30
0.0
  0
VERTEX
  5
3C0
  8
0
  6
CONTINUOUS
 62
     7
 10
-521.9024548389921
 20
417.4650843577757
 30
0.0
  0
VERTEX
  5
3C1
  8
0
  6
CONTINUOUS
 62
     7
 10
-522.0000000000001
 20
417.4746920834068
 30
0.0
  0
SEQEND
  5
65D
  8
0
  6
CONTINUOUS
 62
     7
  0
ARC
  5
129
  8
0
  6
CONTINUOUS
 62
     7
 10
-512.5
 20
409.0
 30
0.0
 40
2.000000000000002
 50
270.0
 51
0.0000000000002274
  0
LINE
  5
12A
  8
0
  6
CONTINUOUS
 62
     7
 10
-521.5000000000001
 20
409.0
 30
0.0
 11
-521.5000000000001
 21
416.9746730442139
 31
0.0
  0
ARC
  5
12B
  8
0
  6
CONTINUOUS
 62
     7
 10
-519.5000000000001
 20
409.0
 30
0.0
 40
2.000000000000002
 50
180.0
 51
270.0000000000004
  0
LINE
  5
12C
  8
0
  6
CONTINUOUS
 62
     7
 10
-510.5000000000001
 20
416.9746730442139
 30
0.0
 11
-510.5000000000001
 21
409.0000000000001
 31
0.0
  0
ARC
  5
12D
  8
0
  6
CONTINUOUS
 62
     7
 10
-367.4999999999999
 20
310.9999999999999
 30
0.0
 40
2.000000000000002
 50
90.0
 51
180.0000000000002
  0
ARC
  5
12E
  8
0
  6
CONTINUOUS
 62
     7
 10
-360.4999999999999
 20
310.9999999999999
 30
0.0
 40
2.000000000000002
 50
0.0
 51
90.00000000000043
  0
LINE
  5
12F
  8
0
  6
CONTINUOUS
 62
     7
 10
-358.4999999999999
 20
310.9999999999999
 30
0.0
 11
-358.4999999999999
 21
303.0253269557861
 31
0.0
  0
LINE
  5
130
  8
0
  6
CONTINUOUS
 62
     7
 10
-369.4999999999999
 20
303.0253269557861
 30
0.0
 11
-369.4999999999999
 21
310.9999999999999
 31
0.0
  0
LINE
  5
131
  8
0
  6
CONTINUOUS
 62
     7
 10
-418.85
 20
305.5
 30
0.0
 11
-418.7614007926609
 21
305.4920875739732
 31
0.0
  0
LINE
  5
132
  8
0
  6
CONTINUOUS
 62
     7
 10
-418.7614007926609
 20
305.4920875739733
 30
0.0
 11
-418.65
 21
305.4582575694956
 31
0.0
  0
LINE
  5
133
  8
0
  6
CONTINUOUS
 62
     7
 10
-418.65
 20
305.4582575694956
 30
0.0
 11
-418.65
 21
302.5296713504886
 31
0.0
  0
LINE
  5
134
  8
0
  6
CONTINUOUS
 62
     7
 10
-461.15
 20
414.4999999999999
 30
0.0
 11
-461.2385992073391
 21
414.5079124260267
 31
0.0
  0
LINE
  5
135
  8
0
  6
CONTINUOUS
 62
     7
 10
-461.2385992073391
 20
414.5079124260267
 30
0.0
 11
-461.35
 21
414.5417424305043
 31
0.0
  0
LINE
  5
136
  8
0
  6
CONTINUOUS
 62
     7
 10
-461.35
 20
414.5417424305044
 30
0.0
 11
-461.35
 21
417.4703286495114
 31
0.0
  0
LINE
  5
137
  8
0
  6
CONTINUOUS
 62
     7
 10
-415.15
 20
414.4999999999999
 30
0.0
 11
-415.2460559292791
 21
414.509313482506
 31
0.0
  0
LINE
  5
138
  8
0
  6
CONTINUOUS
 62
     7
 10
-415.2460559292791
 20
414.509313482506
 30
0.0
 11
-415.35
 21
414.5417424305043
 31
0.0
  0
LINE
  5
139
  8
0
  6
CONTINUOUS
 62
     7
 10
-415.35
 20
414.5417424305044
 30
0.0
 11
-415.35
 21
417.4703286495114
 31
0.0
  0
LINE
  5
13A
  8
0
  6
CONTINUOUS
 62
     7
 10
-464.85
 20
305.5
 30
0.0
 11
-464.7539440707208
 21
305.4906865174939
 31
0.0
  0
LINE
  5
13B
  8
0
  6
CONTINUOUS
 62
     7
 10
-464.7539440707209
 20
305.4906865174939
 30
0.0
 11
-464.65
 21
305.4582575694956
 31
0.0
  0
LINE
  5
13C
  8
0
  6
CONTINUOUS
 62
     7
 10
-464.65
 20
305.4582575694956
 30
0.0
 11
-464.65
 21
302.5296713504886
 31
0.0
  0
LINE
  5
13D
  8
0
  6
CONTINUOUS
 62
     7
 10
-415.35
 20
302.5253079165932
 30
0.0
 11
-415.35
 21
303.8
 31
0.0
  0
LINE
  5
13E
  8
0
  6
CONTINUOUS
 62
     7
 10
-461.35
 20
302.5253079165932
 30
0.0
 11
-461.35
 21
303.8
 31
0.0
  0
LINE
  5
13F
  8
0
  6
CONTINUOUS
 62
     7
 10
-459.35
 20
417.4746920834068
 30
0.0
 11
-459.35
 21
414.9999999999999
 31
0.0
  0
ARC
  5
140
  8
0
  6
CONTINUOUS
 62
     7
 10
-459.85
 20
414.9999999999999
 30
0.0
 40
0.5000000000000004
 50
270.0
 51
0.0
  0
LINE
  5
141
  8
0
  6
CONTINUOUS
 62
     7
 10
-464.65
 20
417.4746920834068
 30
0.0
 11
-464.65
 21
416.1999999999999
 31
0.0
  0
LINE
  5
142
  8
0
  6
CONTINUOUS
 62
     7
 10
-420.65
 20
302.5253079165932
 30
0.0
 11
-420.65
 21
305.0
 31
0.0
  0
ARC
  5
143
  8
0
  6
CONTINUOUS
 62
     7
 10
-420.15
 20
305.0
 30
0.0
 40
0.5000000000000004
 50
90.0
 51
180.0
  0
LINE
  5
144
  8
0
  6
CONTINUOUS
 62
     7
 10
-418.65
 20
417.4746920834068
 30
0.0
 11
-418.65
 21
416.1999999999999
 31
0.0
  0
ARC
  5
145
  8
0
  6
CONTINUOUS
 62
     7
 10
-466.15
 20
305.0
 30
0.0
 40
0.5000000000000004
 50
90.0
 51
180.0
  0
LINE
  5
146
  8
0
  6
CONTINUOUS
 62
     7
 10
-466.65
 20
302.5253079165932
 30
0.0
 11
-466.65
 21
305.0
 31
0.0
  0
ARC
  5
147
  8
0
  6
CONTINUOUS
 62
     7
 10
-413.85
 20
414.9999999999999
 30
0.0
 40
0.5000000000000004
 50
270.0
 51
0.0
  0
LINE
  5
148
  8
0
  6
CONTINUOUS
 62
     7
 10
-413.35
 20
417.4746920834068
 30
0.0
 11
-413.35
 21
414.9999999999999
 31
0.0
  0
ARC
  5
149
  8
0
  6
CONTINUOUS
 62
     7
 10
-461.15
 20
414.9999999999999
 30
0.0
 40
0.5000000000000029
 50
180.0
 51
246.4218215217981
  0
LINE
  5
14A
  8
0
  6
CONTINUOUS
 62
     9
 10
-363.6224486064669
 20
363.7599342076785
 30
0.0
 11
-363.7500000000001
 21
363.7615864516927
 31
0.0
  0
LINE
  5
14B
  8
0
  6
CONTINUOUS
 62
     9
 10
-516.3775513935332
 20
356.2400657923214
 30
0.0
 11
-516.25
 21
356.2384135483073
 31
0.0
  0
LINE
  5
14C
  8
0
  6
CONTINUOUS
 62
     7
 10
-515.273306033902
 20
364.0
 30
0.0
 11
-515.25
 21
363.517799660095
 31
0.0
  0
LINE
  5
14D
  8
0
  6
CONTINUOUS
 62
     7
 10
-364.7266939660979
 20
356.0
 30
0.0
 11
-364.75
 21
356.482200339905
 31
0.0
  0
LINE
  5
14E
  8
0
  6
CONTINUOUS
 62
     7
 10
-515.25
 20
356.4822003399051
 30
0.0
 11
-515.273306033902
 21
356.0000000000001
 31
0.0
  0
LINE
  5
14F
  8
0
  6
CONTINUOUS
 62
     7
 10
-364.75
 20
363.5177996600949
 30
0.0
 11
-364.7266939660979
 21
363.9999999999999
 31
0.0
  0
POLYLINE
  5
150
  8
0
  6
CONTINUOUS
 62
     7
 66
     1
 10
0.0
 20
0.0
 30
0.0
  0
VERTEX
  5
3C2
  8
0
  6
CONTINUOUS
 62
     7
 10
-526.7285753653879
 20
341.1999976901881
 30
0.0
  0
VERTEX
  5
3C3
  8
0
  6
CONTINUOUS
 62
     7
 10
-526.7529730122683
 20
341.1996627962092
 30
0.0
  0
VERTEX
  5
3C4
  8
0
  6
CONTINUOUS
 62
     7
 10
-526.7773125342203
 20
341.1988352944617
 30
0.0
  0
VERTEX
  5
3C5
  8
0
  6
CONTINUOUS
 62
     7
 10
-526.8015359447754
 20
341.1975171563856
 30
0.0
  0
VERTEX
  5
3C6
  8
0
  6
CONTINUOUS
 62
     7
 10
-526.8255855340889
 20
341.1957115223126
 30
0.0
  0
VERTEX
  5
3C7
  8
0
  6
CONTINUOUS
 62
     7
 10
-526.8494040064274
 20
341.1934226939845
 30
0.0
  0
VERTEX
  5
3C8
  8
0
  6
CONTINUOUS
 62
     7
 10
-526.8729346166709
 20
341.1906561243053
 30
0.0
  0
VERTEX
  5
3C9
  8
0
  6
CONTINUOUS
 62
     7
 10
-526.896121305502
 20
341.1874184043496
 30
0.0
  0
VERTEX
  5
3CA
  8
0
  6
CONTINUOUS
 62
     7
 10
-526.9189088329612
 20
341.1837172476602
 30
0.0
  0
VERTEX
  5
3CB
  8
0
  6
CONTINUOUS
 62
     7
 10
-526.9412429100511
 20
341.1795614718715
 30
0.0
  0
VERTEX
  5
3CC
  8
0
  6
CONTINUOUS
 62
     7
 10
-526.9630703280743
 20
341.1749609777023
 30
0.0
  0
VERTEX
  5
3CD
  8
0
  6
CONTINUOUS
 62
     7
 10
-526.9843390853978
 20
341.1699267253684
 30
0.0
  0
VERTEX
  5
3CE
  8
0
  6
CONTINUOUS
 62
     7
 10
-527.0049985113417
 20
341.1644707084707
 30
0.0
  0
VERTEX
  5
3CF
  8
0
  6
CONTINUOUS
 62
     7
 10
-527.0249993868966
 20
341.1586059254219
 30
0.0
  0
VERTEX
  5
3D0
  8
0
  6
CONTINUOUS
 62
     7
 10
-527.0442940619839
 20
341.152346348479
 30
0.0
  0
VERTEX
  5
3D1
  8
0
  6
CONTINUOUS
 62
     7
 10
-527.0628365689763
 20
341.1457068904562
 30
0.0
  0
VERTEX
  5
3D2
  8
0
  6
CONTINUOUS
 62
     7
 10
-527.080582732212
 20
341.1387033691956
 30
0.0
  0
VERTEX
  5
3D3
  8
0
  6
CONTINUOUS
 62
     7
 10
-527.0974902732373
 20
341.1313524698841
 30
0.0
  0
VERTEX
  5
3D4
  8
0
  6
CONTINUOUS
 62
     7
 10
-527.113518911533
 20
341.1236717053015
 30
0.0
  0
VERTEX
  5
3D5
  8
0
  6
CONTINUOUS
 62
     7
 10
-527.1286304604765
 20
341.1156793740986
 30
0.0
  0
VERTEX
  5
3D6
  8
0
  6
CONTINUOUS
 62
     7
 10
-527.1427889183191
 20
341.1073945172026
 30
0.0
  0
VERTEX
  5
3D7
  8
0
  6
CONTINUOUS
 62
     7
 10
-527.1559605539557
 20
341.0988368724534
 30
0.0
  0
VERTEX
  5
3D8
  8
0
  6
CONTINUOUS
 62
     7
 10
-527.1681139872862
 20
341.0900268275811
 30
0.0
  0
VERTEX
  5
3D9
  8
0
  6
CONTINUOUS
 62
     7
 10
-527.1792202639755
 20
341.0809853716335
 30
0.0
  0
VERTEX
  5
3DA
  8
0
  6
CONTINUOUS
 62
     7
 10
-527.1892529244335
 20
341.0717340449718
 30
0.0
  0
VERTEX
  5
3DB
  8
0
  6
CONTINUOUS
 62
     7
 10
-527.198188066854
 20
341.0622948879536
 30
0.0
  0
VERTEX
  5
3DC
  8
0
  6
CONTINUOUS
 62
     7
 10
-527.2060044041561
 20
341.0526903884233
 30
0.0
  0
VERTEX
  5
3DD
  8
0
  6
CONTINUOUS
 62
     7
 10
-527.2126833147015
 20
341.0429434281371
 30
0.0
  0
VERTEX
  5
3DE
  8
0
  6
CONTINUOUS
 62
     7
 10
-527.2182088866552
 20
341.0330772282498
 30
0.0
  0
VERTEX
  5
3DF
  8
0
  6
CONTINUOUS
 62
     7
 10
-527.2225679558971
 20
341.0231152939926
 30
0.0
  0
VERTEX
  5
3E0
  8
0
  6
CONTINUOUS
 62
     7
 10
-527.225750137382
 20
341.013081358674
 30
0.0
  0
VERTEX
  5
3E1
  8
0
  6
CONTINUOUS
 62
     7
 10
-527.2277478498816
 20
341.0029993271382
 30
0.0
  0
VERTEX
  5
3E2
  8
0
  6
CONTINUOUS
 62
     7
 10
-527.2285563340466
 20
340.9928932188134
 30
0.0
  0
SEQEND
  5
65E
  8
0
  6
CONTINUOUS
 62
     7
  0
POLYLINE
  5
151
  8
0
  6
CONTINUOUS
 62
     7
 66
     1
 10
0.0
 20
0.0
 30
0.0
  0
VERTEX
  5
3E3
  8
0
  6
CONTINUOUS
 62
     7
 10
-527.2285563340466
 20
379.0071067811865
 30
0.0
  0
VERTEX
  5
3E4
  8
0
  6
CONTINUOUS
 62
     7
 10
-527.2277478498816
 20
378.9970006728618
 30
0.0
  0
VERTEX
  5
3E5
  8
0
  6
CONTINUOUS
 62
     7
 10
-527.225750137382
 20
378.9869186413259
 30
0.0
  0
VERTEX
  5
3E6
  8
0
  6
CONTINUOUS
 62
     7
 10
-527.2225679558971
 20
378.9768847060074
 30
0.0
  0
VERTEX
  5
3E7
  8
0
  6
CONTINUOUS
 62
     7
 10
-527.2182088866552
 20
378.9669227717501
 30
0.0
  0
VERTEX
  5
3E8
  8
0
  6
CONTINUOUS
 62
     7
 10
-527.2126833147015
 20
378.9570565718628
 30
0.0
  0
VERTEX
  5
3E9
  8
0
  6
CONTINUOUS
 62
     7
 10
-527.2060044041561
 20
378.9473096115766
 30
0.0
  0
VERTEX
  5
3EA
  8
0
  6
CONTINUOUS
 62
     7
 10
-527.198188066854
 20
378.9377051120463
 30
0.0
  0
VERTEX
  5
3EB
  8
0
  6
CONTINUOUS
 62
     7
 10
-527.1892529244335
 20
378.9282659550282
 30
0.0
  0
VERTEX
  5
3EC
  8
0
  6
CONTINUOUS
 62
     7
 10
-527.1792202639755
 20
378.9190146283665
 30
0.0
  0
VERTEX
  5
3ED
  8
0
  6
CONTINUOUS
 62
     7
 10
-527.1681139872862
 20
378.9099731724188
 30
0.0
  0
VERTEX
  5
3EE
  8
0
  6
CONTINUOUS
 62
     7
 10
-527.1559605539557
 20
378.9011631275465
 30
0.0
  0
VERTEX
  5
3EF
  8
0
  6
CONTINUOUS
 62
     7
 10
-527.1427889183191
 20
378.8926054827974
 30
0.0
  0
VERTEX
  5
3F0
  8
0
  6
CONTINUOUS
 62
     7
 10
-527.1286304604765
 20
378.8843206259013
 30
0.0
  0
VERTEX
  5
3F1
  8
0
  6
CONTINUOUS
 62
     7
 10
-527.1135189115329
 20
378.8763282946985
 30
0.0
  0
VERTEX
  5
3F2
  8
0
  6
CONTINUOUS
 62
     7
 10
-527.0974902732373
 20
378.8686475301158
 30
0.0
  0
VERTEX
  5
3F3
  8
0
  6
CONTINUOUS
 62
     7
 10
-527.080582732212
 20
378.8612966308043
 30
0.0
  0
VERTEX
  5
3F4
  8
0
  6
CONTINUOUS
 62
     7
 10
-527.0628365689763
 20
378.8542931095438
 30
0.0
  0
VERTEX
  5
3F5
  8
0
  6
CONTINUOUS
 62
     7
 10
-527.0442940619839
 20
378.8476536515209
 30
0.0
  0
VERTEX
  5
3F6
  8
0
  6
CONTINUOUS
 62
     7
 10
-527.0249993868966
 20
378.8413940745781
 30
0.0
  0
VERTEX
  5
3F7
  8
0
  6
CONTINUOUS
 62
     7
 10
-527.0049985113417
 20
378.8355292915293
 30
0.0
  0
VERTEX
  5
3F8
  8
0
  6
CONTINUOUS
 62
     7
 10
-526.9843390853978
 20
378.8300732746315
 30
0.0
  0
VERTEX
  5
3F9
  8
0
  6
CONTINUOUS
 62
     7
 10
-526.9630703280743
 20
378.8250390222976
 30
0.0
  0
VERTEX
  5
3FA
  8
0
  6
CONTINUOUS
 62
     7
 10
-526.9412429100511
 20
378.8204385281285
 30
0.0
  0
VERTEX
  5
3FB
  8
0
  6
CONTINUOUS
 62
     7
 10
-526.9189088329612
 20
378.8162827523398
 30
0.0
  0
VERTEX
  5
3FC
  8
0
  6
CONTINUOUS
 62
     7
 10
-526.896121305502
 20
378.8125815956503
 30
0.0
  0
VERTEX
  5
3FD
  8
0
  6
CONTINUOUS
 62
     7
 10
-526.8729346166709
 20
378.8093438756946
 30
0.0
  0
VERTEX
  5
3FE
  8
0
  6
CONTINUOUS
 62
     7
 10
-526.8494040064274
 20
378.8065773060154
 30
0.0
  0
VERTEX
  5
3FF
  8
0
  6
CONTINUOUS
 62
     7
 10
-526.8255855340889
 20
378.8042884776874
 30
0.0
  0
VERTEX
  5
400
  8
0
  6
CONTINUOUS
 62
     7
 10
-526.8015359447754
 20
378.8024828436143
 30
0.0
  0
VERTEX
  5
401
  8
0
  6
CONTINUOUS
 62
     7
 10
-526.7773125342203
 20
378.8011647055383
 30
0.0
  0
VERTEX
  5
402
  8
0
  6
CONTINUOUS
 62
     7
 10
-526.7529730122683
 20
378.8003372037908
 30
0.0
  0
VERTEX
  5
403
  8
0
  6
CONTINUOUS
 62
     7
 10
-526.7285753653879
 20
378.8000023098119
 30
0.0
  0
SEQEND
  5
65F
  8
0
  6
CONTINUOUS
 62
     7
  0
POLYLINE
  5
152
  8
0
  6
CONTINUOUS
 62
     7
 66
     1
 10
0.0
 20
0.0
 30
0.0
  0
VERTEX
  5
404
  8
0
  6
CONTINUOUS
 62
     7
 10
-353.2714246346121
 20
378.8000023098119
 30
0.0
  0
VERTEX
  5
405
  8
0
  6
CONTINUOUS
 62
     7
 10
-353.2470269877317
 20
378.8003372037908
 30
0.0
  0
VERTEX
  5
406
  8
0
  6
CONTINUOUS
 62
     7
 10
-353.2226874657796
 20
378.8011647055383
 30
0.0
  0
VERTEX
  5
407
  8
0
  6
CONTINUOUS
 62
     7
 10
-353.1984640552246
 20
378.8024828436143
 30
0.0
  0
VERTEX
  5
408
  8
0
  6
CONTINUOUS
 62
     7
 10
-353.1744144659111
 20
378.8042884776874
 30
0.0
  0
VERTEX
  5
409
  8
0
  6
CONTINUOUS
 62
     7
 10
-353.1505959935726
 20
378.8065773060154
 30
0.0
  0
VERTEX
  5
40A
  8
0
  6
CONTINUOUS
 62
     7
 10
-353.127065383329
 20
378.8093438756947
 30
0.0
  0
VERTEX
  5
40B
  8
0
  6
CONTINUOUS
 62
     7
 10
-353.103878694498
 20
378.8125815956504
 30
0.0
  0
VERTEX
  5
40C
  8
0
  6
CONTINUOUS
 62
     7
 10
-353.0810911670388
 20
378.8162827523398
 30
0.0
  0
VERTEX
  5
40D
  8
0
  6
CONTINUOUS
 62
     7
 10
-353.0587570899489
 20
378.8204385281285
 30
0.0
  0
VERTEX
  5
40E
  8
0
  6
CONTINUOUS
 62
     7
 10
-353.0369296719257
 20
378.8250390222976
 30
0.0
  0
VERTEX
  5
40F
  8
0
  6
CONTINUOUS
 62
     7
 10
-353.0156609146022
 20
378.8300732746316
 30
0.0
  0
VERTEX
  5
410
  8
0
  6
CONTINUOUS
 62
     7
 10
-352.9950014886584
 20
378.8355292915293
 30
0.0
  0
VERTEX
  5
411
  8
0
  6
CONTINUOUS
 62
     7
 10
-352.9750006131034
 20
378.8413940745781
 30
0.0
  0
VERTEX
  5
412
  8
0
  6
CONTINUOUS
 62
     7
 10
-352.9557059380161
 20
378.8476536515209
 30
0.0
  0
VERTEX
  5
413
  8
0
  6
CONTINUOUS
 62
     7
 10
-352.9371634310236
 20
378.8542931095438
 30
0.0
  0
VERTEX
  5
414
  8
0
  6
CONTINUOUS
 62
     7
 10
-352.919417267788
 20
378.8612966308043
 30
0.0
  0
VERTEX
  5
415
  8
0
  6
CONTINUOUS
 62
     7
 10
-352.9025097267627
 20
378.8686475301158
 30
0.0
  0
VERTEX
  5
416
  8
0
  6
CONTINUOUS
 62
     7
 10
-352.886481088467
 20
378.8763282946985
 30
0.0
  0
VERTEX
  5
417
  8
0
  6
CONTINUOUS
 62
     7
 10
-352.8713695395235
 20
378.8843206259013
 30
0.0
  0
VERTEX
  5
418
  8
0
  6
CONTINUOUS
 62
     7
 10
-352.8572110816809
 20
378.8926054827974
 30
0.0
  0
VERTEX
  5
419
  8
0
  6
CONTINUOUS
 62
     7
 10
-352.8440394460443
 20
378.9011631275465
 30
0.0
  0
VERTEX
  5
41A
  8
0
  6
CONTINUOUS
 62
     7
 10
-352.8318860127138
 20
378.9099731724188
 30
0.0
  0
VERTEX
  5
41B
  8
0
  6
CONTINUOUS
 62
     7
 10
-352.8207797360246
 20
378.9190146283665
 30
0.0
  0
VERTEX
  5
41C
  8
0
  6
CONTINUOUS
 62
     7
 10
-352.8107470755665
 20
378.9282659550282
 30
0.0
  0
VERTEX
  5
41D
  8
0
  6
CONTINUOUS
 62
     7
 10
-352.8018119331462
 20
378.9377051120463
 30
0.0
  0
VERTEX
  5
41E
  8
0
  6
CONTINUOUS
 62
     7
 10
-352.7939955958437
 20
378.9473096115766
 30
0.0
  0
VERTEX
  5
41F
  8
0
  6
CONTINUOUS
 62
     7
 10
-352.7873166852985
 20
378.9570565718628
 30
0.0
  0
VERTEX
  5
420
  8
0
  6
CONTINUOUS
 62
     7
 10
-352.7817911133448
 20
378.9669227717501
 30
0.0
  0
VERTEX
  5
421
  8
0
  6
CONTINUOUS
 62
     7
 10
-352.7774320441029
 20
378.9768847060074
 30
0.0
  0
VERTEX
  5
422
  8
0
  6
CONTINUOUS
 62
     7
 10
-352.7742498626181
 20
378.9869186413259
 30
0.0
  0
VERTEX
  5
423
  8
0
  6
CONTINUOUS
 62
     7
 10
-352.7722521501184
 20
378.9970006728618
 30
0.0
  0
VERTEX
  5
424
  8
0
  6
CONTINUOUS
 62
     7
 10
-352.7714436659534
 20
379.0071067811865
 30
0.0
  0
SEQEND
  5
660
  8
0
  6
CONTINUOUS
 62
     7
  0
POLYLINE
  5
153
  8
0
  6
CONTINUOUS
 62
     7
 66
     1
 10
0.0
 20
0.0
 30
0.0
  0
VERTEX
  5
425
  8
0
  6
CONTINUOUS
 62
     7
 10
-352.7714436659534
 20
340.9928932188134
 30
0.0
  0
VERTEX
  5
426
  8
0
  6
CONTINUOUS
 62
     7
 10
-352.7722521501184
 20
341.0029993271382
 30
0.0
  0
VERTEX
  5
427
  8
0
  6
CONTINUOUS
 62
     7
 10
-352.7742498626181
 20
341.013081358674
 30
0.0
  0
VERTEX
  5
428
  8
0
  6
CONTINUOUS
 62
     7
 10
-352.7774320441029
 20
341.0231152939926
 30
0.0
  0
VERTEX
  5
429
  8
0
  6
CONTINUOUS
 62
     7
 10
-352.7817911133448
 20
341.0330772282498
 30
0.0
  0
VERTEX
  5
42A
  8
0
  6
CONTINUOUS
 62
     7
 10
-352.7873166852985
 20
341.0429434281371
 30
0.0
  0
VERTEX
  5
42B
  8
0
  6
CONTINUOUS
 62
     7
 10
-352.7939955958437
 20
341.0526903884233
 30
0.0
  0
VERTEX
  5
42C
  8
0
  6
CONTINUOUS
 62
     7
 10
-352.8018119331462
 20
341.0622948879536
 30
0.0
  0
VERTEX
  5
42D
  8
0
  6
CONTINUOUS
 62
     7
 10
-352.8107470755665
 20
341.0717340449718
 30
0.0
  0
VERTEX
  5
42E
  8
0
  6
CONTINUOUS
 62
     7
 10
-352.8207797360246
 20
341.0809853716335
 30
0.0
  0
VERTEX
  5
42F
  8
0
  6
CONTINUOUS
 62
     7
 10
-352.8318860127138
 20
341.0900268275811
 30
0.0
  0
VERTEX
  5
430
  8
0
  6
CONTINUOUS
 62
     7
 10
-352.8440394460443
 20
341.0988368724534
 30
0.0
  0
VERTEX
  5
431
  8
0
  6
CONTINUOUS
 62
     7
 10
-352.8572110816809
 20
341.1073945172026
 30
0.0
  0
VERTEX
  5
432
  8
0
  6
CONTINUOUS
 62
     7
 10
-352.8713695395235
 20
341.1156793740986
 30
0.0
  0
VERTEX
  5
433
  8
0
  6
CONTINUOUS
 62
     7
 10
-352.886481088467
 20
341.1236717053015
 30
0.0
  0
VERTEX
  5
434
  8
0
  6
CONTINUOUS
 62
     7
 10
-352.9025097267627
 20
341.1313524698841
 30
0.0
  0
VERTEX
  5
435
  8
0
  6
CONTINUOUS
 62
     7
 10
-352.919417267788
 20
341.1387033691956
 30
0.0
  0
VERTEX
  5
436
  8
0
  6
CONTINUOUS
 62
     7
 10
-352.9371634310236
 20
341.1457068904562
 30
0.0
  0
VERTEX
  5
437
  8
0
  6
CONTINUOUS
 62
     7
 10
-352.9557059380161
 20
341.152346348479
 30
0.0
  0
VERTEX
  5
438
  8
0
  6
CONTINUOUS
 62
     7
 10
-352.9750006131034
 20
341.1586059254219
 30
0.0
  0
VERTEX
  5
439
  8
0
  6
CONTINUOUS
 62
     7
 10
-352.9950014886584
 20
341.1644707084707
 30
0.0
  0
VERTEX
  5
43A
  8
0
  6
CONTINUOUS
 62
     7
 10
-353.0156609146022
 20
341.1699267253684
 30
0.0
  0
VERTEX
  5
43B
  8
0
  6
CONTINUOUS
 62
     7
 10
-353.0369296719257
 20
341.1749609777023
 30
0.0
  0
VERTEX
  5
43C
  8
0
  6
CONTINUOUS
 62
     7
 10
-353.0587570899489
 20
341.1795614718715
 30
0.0
  0
VERTEX
  5
43D
  8
0
  6
CONTINUOUS
 62
     7
 10
-353.0810911670388
 20
341.1837172476602
 30
0.0
  0
VERTEX
  5
43E
  8
0
  6
CONTINUOUS
 62
     7
 10
-353.103878694498
 20
341.1874184043496
 30
0.0
  0
VERTEX
  5
43F
  8
0
  6
CONTINUOUS
 62
     7
 10
-353.127065383329
 20
341.1906561243053
 30
0.0
  0
VERTEX
  5
440
  8
0
  6
CONTINUOUS
 62
     7
 10
-353.1505959935726
 20
341.1934226939845
 30
0.0
  0
VERTEX
  5
441
  8
0
  6
CONTINUOUS
 62
     7
 10
-353.1744144659111
 20
341.1957115223126
 30
0.0
  0
VERTEX
  5
442
  8
0
  6
CONTINUOUS
 62
     7
 10
-353.1984640552246
 20
341.1975171563856
 30
0.0
  0
VERTEX
  5
443
  8
0
  6
CONTINUOUS
 62
     7
 10
-353.2226874657796
 20
341.1988352944617
 30
0.0
  0
VERTEX
  5
444
  8
0
  6
CONTINUOUS
 62
     7
 10
-353.2470269877317
 20
341.1996627962092
 30
0.0
  0
VERTEX
  5
445
  8
0
  6
CONTINUOUS
 62
     7
 10
-353.2714246346121
 20
341.1999976901881
 30
0.0
  0
SEQEND
  5
661
  8
0
  6
CONTINUOUS
 62
     7
  0
ARC
  5
154
  8
0
  6
CONTINUOUS
 62
     7
 10
-359.75
 20
356.4822003399051
 30
0.0
 40
5.000000000000005
 50
185.534210245698
 51
213.0238675557966
  0
ARC
  5
155
  8
0
  6
CONTINUOUS
 62
     7
 10
-520.25
 20
363.5177996600949
 30
0.0
 40
5.000000000000006
 50
5.534210245698034
 51
33.0238675557967
  0
LINE
  5
156
  8
0
  6
CONTINUOUS
 62
     7
 10
-363.9422180815031
 20
366.242741413072
 30
0.0
 11
-363.5807781918497
 21
366.7988027817697
 31
0.0
  0
LINE
  5
157
  8
0
  6
CONTINUOUS
 62
     7
 10
-356.5000000000001
 20
344.9999999999999
 30
0.0
 11
-362.5000000000001
 21
344.9999999999999
 31
0.0
  0
LINE
  5
158
  8
0
  6
CONTINUOUS
 62
     7
 10
-516.4192218081503
 20
366.7988027817697
 30
0.0
 11
-516.0577819184967
 21
366.242741413072
 31
0.0
  0
LINE
  5
159
  8
0
  6
CONTINUOUS
 62
     7
 10
-523.5
 20
375.0
 30
0.0
 11
-517.5
 21
375.0
 31
0.0
  0
ARC
  5
15A
  8
0
  6
CONTINUOUS
 62
     7
 10
-516.0
 20
367.0712969570674
 30
0.0
 40
0.5000000000000004
 50
179.9999999999981
 51
213.023867555795
  0
LINE
  5
15B
  8
0
  6
CONTINUOUS
 62
     7
 10
-516.5
 20
374.0
 30
0.0
 11
-516.5
 21
367.0712969570674
 31
0.0
  0
LINE
  5
15C
  8
0
  6
CONTINUOUS
 62
     7
 10
-363.5807781918497
 20
353.2011972182303
 30
0.0
 11
-363.9422180815031
 21
353.7572585869279
 31
0.0
  0
LINE
  5
15D
  8
0
  6
CONTINUOUS
 62
     7
 10
-363.5000000000001
 20
345.9999999999999
 30
0.0
 11
-363.5000000000001
 21
352.9287030429326
 31
0.0
  0
ARC
  5
15E
  8
0
  6
CONTINUOUS
 62
     7
 10
-364.0
 20
352.9287030429326
 30
0.0
 40
0.5000000000000004
 50
359.9999999999981
 51
33.02386755579499
  0
LINE
  5
15F
  8
0
  6
CONTINUOUS
 62
     7
 10
-516.0577819184969
 20
353.7572585869279
 30
0.0
 11
-516.4192218081504
 21
353.2011972182303
 31
0.0
  0
ARC
  5
160
  8
0
  6
CONTINUOUS
 62
     7
 10
-516.0
 20
352.9287030429326
 30
0.0
 40
0.5000000000000058
 50
146.9761324442056
 51
180.0000000000026
  0
ARC
  5
161
  8
0
  6
CONTINUOUS
 62
     7
 10
-362.5000000000001
 20
345.9999999999999
 30
0.0
 40
1.000000000000001
 50
180.0
 51
270.0
  0
ARC
  5
162
  8
0
  6
CONTINUOUS
 62
     7
 10
-362.5000000000001
 20
374.0
 30
0.0
 40
1.000000000000001
 50
90.0
 51
180.0
  0
ARC
  5
163
  8
0
  6
CONTINUOUS
 62
     7
 10
-517.5
 20
345.9999999999999
 30
0.0
 40
1.000000000000001
 50
270.0
 51
0.0
  0
LINE
  5
164
  8
0
  6
CONTINUOUS
 62
     7
 10
-516.5
 20
352.9287030429326
 30
0.0
 11
-516.5
 21
345.9999999999999
 31
0.0
  0
ARC
  5
165
  8
0
  6
CONTINUOUS
 62
     7
 10
-364.0
 20
367.0712969570674
 30
0.0
 40
0.5000000000000017
 50
326.9761324442035
 51
0.0000000000002274
  0
LINE
  5
166
  8
0
  6
CONTINUOUS
 62
     7
 10
-363.5000000000001
 20
367.0712969570674
 30
0.0
 11
-363.5000000000001
 21
374.0
 31
0.0
  0
ARC
  5
167
  8
0
  6
CONTINUOUS
 62
     7
 10
-517.5
 20
374.0
 30
0.0
 40
1.000000000000001
 50
0.0
 51
90.0
  0
LINE
  5
168
  8
0
  6
CONTINUOUS
 62
     7
 10
-362.5000000000001
 20
375.0
 30
0.0
 11
-356.5000000000001
 21
375.0
 31
0.0
  0
LINE
  5
169
  8
0
  6
CONTINUOUS
 62
     7
 10
-517.5
 20
344.9999999999999
 30
0.0
 11
-523.5
 21
344.9999999999999
 31
0.0
  0
POLYLINE
  5
16A
  8
0
  6
CONTINUOUS
 62
     7
 66
     1
 10
0.0
 20
0.0
 30
0.0
  0
VERTEX
  5
446
  8
0
  6
CONTINUOUS
 62
     7
 10
-355.5000000000001
 20
378.8
 30
0.0
  0
VERTEX
  5
447
  8
0
  6
CONTINUOUS
 62
     7
 10
-355.6950903220162
 20
378.772826282949
 30
0.0
  0
VERTEX
  5
448
  8
0
  6
CONTINUOUS
 62
     7
 10
-355.8826834323651
 20
378.6923494025032
 30
0.0
  0
VERTEX
  5
449
  8
0
  6
CONTINUOUS
 62
     7
 10
-356.0555702330197
 20
378.5616620400462
 30
0.0
  0
VERTEX
  5
44A
  8
0
  6
CONTINUOUS
 62
     7
 10
-356.2071067811866
 20
378.3857864376268
 30
0.0
  0
VERTEX
  5
44B
  8
0
  6
CONTINUOUS
 62
     7
 10
-356.3314696123026
 20
378.1714813960139
 30
0.0
  0
VERTEX
  5
44C
  8
0
  6
CONTINUOUS
 62
     7
 10
-356.4238795325114
 20
377.926982537773
 30
0.0
  0
VERTEX
  5
44D
  8
0
  6
CONTINUOUS
 62
     7
 10
-356.4807852804033
 20
377.6616858169098
 30
0.0
  0
VERTEX
  5
44E
  8
0
  6
CONTINUOUS
 62
     7
 10
-356.5000000000001
 20
377.3857864376268
 30
0.0
  0
SEQEND
  5
662
  8
0
  6
CONTINUOUS
 62
     7
  0
POLYLINE
  5
16B
  8
0
  6
CONTINUOUS
 62
     7
 66
     1
 10
0.0
 20
0.0
 30
0.0
  0
VERTEX
  5
44F
  8
0
  6
CONTINUOUS
 62
     7
 10
-523.5
 20
377.3857864376268
 30
0.0
  0
VERTEX
  5
450
  8
0
  6
CONTINUOUS
 62
     7
 10
-523.5192147195968
 20
377.6616858169098
 30
0.0
  0
VERTEX
  5
451
  8
0
  6
CONTINUOUS
 62
     7
 10
-523.5761204674887
 20
377.926982537773
 30
0.0
  0
VERTEX
  5
452
  8
0
  6
CONTINUOUS
 62
     7
 10
-523.6685303876975
 20
378.1714813960139
 30
0.0
  0
VERTEX
  5
453
  8
0
  6
CONTINUOUS
 62
     7
 10
-523.7928932188134
 20
378.3857864376268
 30
0.0
  0
VERTEX
  5
454
  8
0
  6
CONTINUOUS
 62
     7
 10
-523.9444297669804
 20
378.5616620400462
 30
0.0
  0
VERTEX
  5
455
  8
0
  6
CONTINUOUS
 62
     7
 10
-524.1173165676349
 20
378.6923494025032
 30
0.0
  0
VERTEX
  5
456
  8
0
  6
CONTINUOUS
 62
     7
 10
-524.3049096779839
 20
378.772826282949
 30
0.0
  0
VERTEX
  5
457
  8
0
  6
CONTINUOUS
 62
     7
 10
-524.5
 20
378.8
 30
0.0
  0
SEQEND
  5
663
  8
0
  6
CONTINUOUS
 62
     7
  0
POLYLINE
  5
16C
  8
0
  6
CONTINUOUS
 62
     7
 66
     1
 10
0.0
 20
0.0
 30
0.0
  0
VERTEX
  5
458
  8
0
  6
CONTINUOUS
 62
     7
 10
-524.5
 20
341.1999999999999
 30
0.0
  0
VERTEX
  5
459
  8
0
  6
CONTINUOUS
 62
     7
 10
-524.3049096779839
 20
341.2271737170509
 30
0.0
  0
VERTEX
  5
45A
  8
0
  6
CONTINUOUS
 62
     7
 10
-524.1173165676349
 20
341.3076505974967
 30
0.0
  0
VERTEX
  5
45B
  8
0
  6
CONTINUOUS
 62
     7
 10
-523.9444297669804
 20
341.4383379599537
 30
0.0
  0
VERTEX
  5
45C
  8
0
  6
CONTINUOUS
 62
     7
 10
-523.7928932188134
 20
341.614213562373
 30
0.0
  0
VERTEX
  5
45D
  8
0
  6
CONTINUOUS
 62
     7
 10
-523.6685303876975
 20
341.828518603986
 30
0.0
  0
VERTEX
  5
45E
  8
0
  6
CONTINUOUS
 62
     7
 10
-523.5761204674887
 20
342.0730174622269
 30
0.0
  0
VERTEX
  5
45F
  8
0
  6
CONTINUOUS
 62
     7
 10
-523.5192147195968
 20
342.3383141830901
 30
0.0
  0
VERTEX
  5
460
  8
0
  6
CONTINUOUS
 62
     7
 10
-523.5
 20
342.6142135623731
 30
0.0
  0
SEQEND
  5
664
  8
0
  6
CONTINUOUS
 62
     7
  0
POLYLINE
  5
16D
  8
0
  6
CONTINUOUS
 62
     7
 66
     1
 10
0.0
 20
0.0
 30
0.0
  0
VERTEX
  5
461
  8
0
  6
CONTINUOUS
 62
     7
 10
-356.5000000000001
 20
342.6142135623732
 30
0.0
  0
VERTEX
  5
462
  8
0
  6
CONTINUOUS
 62
     7
 10
-356.4807852804033
 20
342.3383141830902
 30
0.0
  0
VERTEX
  5
463
  8
0
  6
CONTINUOUS
 62
     7
 10
-356.4238795325114
 20
342.0730174622269
 30
0.0
  0
VERTEX
  5
464
  8
0
  6
CONTINUOUS
 62
     7
 10
-356.3314696123026
 20
341.828518603986
 30
0.0
  0
VERTEX
  5
465
  8
0
  6
CONTINUOUS
 62
     7
 10
-356.2071067811866
 20
341.6142135623731
 30
0.0
  0
VERTEX
  5
466
  8
0
  6
CONTINUOUS
 62
     7
 10
-356.0555702330197
 20
341.4383379599537
 30
0.0
  0
VERTEX
  5
467
  8
0
  6
CONTINUOUS
 62
     7
 10
-355.8826834323651
 20
341.3076505974967
 30
0.0
  0
VERTEX
  5
468
  8
0
  6
CONTINUOUS
 62
     7
 10
-355.6950903220162
 20
341.227173717051
 30
0.0
  0
VERTEX
  5
469
  8
0
  6
CONTINUOUS
 62
     7
 10
-355.5000000000001
 20
341.2
 30
0.0
  0
SEQEND
  5
665
  8
0
  6
CONTINUOUS
 62
     7
  0
CIRCLE
  5
16E
  8
0
  6
CONTINUOUS
 62
     7
 10
-440.0
 20
360.0
 30
0.0
 40
13.5
  0
CIRCLE
  5
16F
  8
0
  6
CONTINUOUS
 62
     7
 10
-444.2501868581007
 20
352.6389532001742
 30
0.0
 40
1.499946976382318
  0
CIRCLE
  5
170
  8
0
  6
CONTINUOUS
 62
     7
 10
-444.2497600980449
 20
367.3612931898588
 30
0.0
 40
1.499946976382317
  0
CIRCLE
  5
171
  8
0
  6
CONTINUOUS
 62
     7
 10
-440.0
 20
360.0
 30
0.0
 40
5.749999999999999
  0
CIRCLE
  5
172
  8
0
  6
CONTINUOUS
 62
     7
 10
-435.750239901955
 20
352.6387068101411
 30
0.0
 40
1.499946976382318
  0
CIRCLE
  5
173
  8
0
  6
CONTINUOUS
 62
     7
 10
-448.4999469561456
 20
360.0002463900331
 30
0.0
 40
1.499946976382318
  0
CIRCLE
  5
174
  8
0
  6
CONTINUOUS
 62
     7
 10
-435.7498131418993
 20
367.3610467998257
 30
0.0
 40
1.499946976382318
  0
CIRCLE
  5
175
  8
0
  6
CONTINUOUS
 62
     7
 10
-431.5000530438544
 20
359.9997536099669
 30
0.0
 40
1.499946976382318
  0
ARC
  5
176
  8
0
  6
CONTINUOUS
 62
     7
 10
-362.0
 20
344.4999999999999
 30
0.0
 40
0.5000000000000004
 50
0.0
 51
90.0
  0
ARC
  5
177
  8
0
  6
CONTINUOUS
 62
     7
 10
-518.0
 20
375.5
 30
0.0
 40
0.5000000000000004
 50
180.0
 51
270.0
  0
ARC
  5
178
  8
0
  6
CONTINUOUS
 62
     7
 10
-362.0
 20
375.5
 30
0.0
 40
0.5000000000000004
 50
270.0
 51
0.0
  0
ARC
  5
179
  8
0
  6
CONTINUOUS
 62
     7
 10
-518.0
 20
344.4999999999999
 30
0.0
 40
0.5000000000000004
 50
90.0
 51
180.0
  0
ARC
  5
17A
  8
0
  6
CONTINUOUS
 62
     7
 10
-360.25
 20
406.165
 30
0.0
 40
2.500000000000003
 50
180.0000000000003
 51
234.3146652873478
  0
ARC
  5
17B
  8
0
  6
CONTINUOUS
 62
     7
 10
-362.0
 20
403.7283014137977
 30
0.0
 40
0.5000000000000004
 50
0.0
 51
54.31466528734835
  0
ARC
  5
17C
  8
0
  6
CONTINUOUS
 62
     7
 10
-360.25
 20
313.835
 30
0.0
 40
2.500000000000002
 50
125.6853347126522
 51
179.9999999999996
  0
ARC
  5
17D
  8
0
  6
CONTINUOUS
 62
     7
 10
-362.0
 20
316.2716985862023
 30
0.0
 40
0.4999999999999974
 50
305.6853347126516
 51
0.0
  0
ARC
  5
17E
  8
0
  6
CONTINUOUS
 62
     7
 10
-519.7499999999999
 20
406.165
 30
0.0
 40
2.500000000000002
 50
305.6853347126521
 51
359.9999999999997
  0
ARC
  5
17F
  8
0
  6
CONTINUOUS
 62
     7
 10
-518.0
 20
403.7283014137977
 30
0.0
 40
0.4999999999999974
 50
125.6853347126517
 51
180.0
  0
ARC
  5
180
  8
0
  6
CONTINUOUS
 62
     7
 10
-519.7499999999999
 20
313.835
 30
0.0
 40
2.500000000000003
 50
0.0000000000003411
 51
54.31466528734785
  0
ARC
  5
181
  8
0
  6
CONTINUOUS
 62
     7
 10
-518.0
 20
316.2716985862023
 30
0.0
 40
0.5000000000000004
 50
180.0
 51
234.3146652873483
  0
LINE
  5
182
  8
0
  6
CONTINUOUS
 62
     7
 10
-362.75
 20
406.165
 30
0.0
 11
-362.75
 21
406.9999999999999
 31
0.0
  0
LINE
  5
183
  8
0
  6
CONTINUOUS
 62
     7
 10
-517.25
 20
313.835
 30
0.0
 11
-517.25
 21
313.0000000000001
 31
0.0
  0
LINE
  5
184
  8
0
  6
CONTINUOUS
 62
     7
 10
-518.5
 20
403.7283014137977
 30
0.0
 11
-518.5
 21
375.4999999999999
 31
0.0
  0
LINE
  5
185
  8
0
  6
CONTINUOUS
 62
     7
 10
-362.75
 20
313.0000000000001
 30
0.0
 11
-362.75
 21
313.835
 31
0.0
  0
LINE
  5
186
  8
0
  6
CONTINUOUS
 62
     7
 10
-361.5000000000001
 20
316.2716985862023
 30
0.0
 11
-361.5000000000001
 21
344.5
 31
0.0
  0
LINE
  5
187
  8
0
  6
CONTINUOUS
 62
     7
 10
-517.25
 20
406.9999999999998
 30
0.0
 11
-517.25
 21
406.1649999999999
 31
0.0
  0
LINE
  5
188
  8
0
  6
CONTINUOUS
 62
     7
 10
-518.5
 20
344.4999999999999
 30
0.0
 11
-518.5
 21
316.2716985862022
 31
0.0
  0
LINE
  5
189
  8
0
  6
CONTINUOUS
 62
     7
 10
-361.5000000000001
 20
375.5
 30
0.0
 11
-361.5000000000001
 21
403.7283014137978
 31
0.0
  0
POLYLINE
  5
18A
  8
0
  6
CONTINUOUS
 62
     7
 66
     1
 10
0.0
 20
0.0
 30
0.0
  0
VERTEX
  5
46A
  8
0
  6
CONTINUOUS
 62
     7
 10
-506.5040577761908
 20
351.5
 30
0.0
  0
VERTEX
  5
46B
  8
0
  6
CONTINUOUS
 62
     7
 10
-506.405720982319
 20
351.5096073597984
 30
0.0
  0
VERTEX
  5
46C
  8
0
  6
CONTINUOUS
 62
     7
 10
-506.3111632162878
 20
351.5380602337444
 30
0.0
  0
VERTEX
  5
46D
  8
0
  6
CONTINUOUS
 62
     7
 10
-506.2240182800172
 20
351.5842651938488
 30
0.0
  0
VERTEX
  5
46E
  8
0
  6
CONTINUOUS
 62
     7
 10
-506.1476351045365
 20
351.6464466094067
 30
0.0
  0
VERTEX
  5
46F
  8
0
  6
CONTINUOUS
 62
     7
 10
-506.0849490524434
 20
351.7222148834902
 30
0.0
  0
VERTEX
  5
470
  8
0
  6
CONTINUOUS
 62
     7
 10
-506.038369113565
 20
351.8086582838175
 30
0.0
  0
VERTEX
  5
471
  8
0
  6
CONTINUOUS
 62
     7
 10
-506.0096853288301
 20
351.902454838992
 30
0.0
  0
VERTEX
  5
472
  8
0
  6
CONTINUOUS
 62
     7
 10
-506.0000000000001
 20
352.0
 30
0.0
  0
SEQEND
  5
666
  8
0
  6
CONTINUOUS
 62
     7
  0
POLYLINE
  5
18B
  8
0
  6
CONTINUOUS
 62
     7
 66
     1
 10
0.0
 20
0.0
 30
0.0
  0
VERTEX
  5
473
  8
0
  6
CONTINUOUS
 62
     7
 10
-365.5040577761908
 20
351.5
 30
0.0
  0
VERTEX
  5
474
  8
0
  6
CONTINUOUS
 62
     7
 10
-365.405720982319
 20
351.5096073597984
 30
0.0
  0
VERTEX
  5
475
  8
0
  6
CONTINUOUS
 62
     7
 10
-365.3111632162878
 20
351.5380602337444
 30
0.0
  0
VERTEX
  5
476
  8
0
  6
CONTINUOUS
 62
     7
 10
-365.2240182800172
 20
351.5842651938488
 30
0.0
  0
VERTEX
  5
477
  8
0
  6
CONTINUOUS
 62
     7
 10
-365.1476351045365
 20
351.6464466094067
 30
0.0
  0
VERTEX
  5
478
  8
0
  6
CONTINUOUS
 62
     7
 10
-365.0849490524434
 20
351.7222148834902
 30
0.0
  0
VERTEX
  5
479
  8
0
  6
CONTINUOUS
 62
     7
 10
-365.038369113565
 20
351.8086582838175
 30
0.0
  0
VERTEX
  5
47A
  8
0
  6
CONTINUOUS
 62
     7
 10
-365.0096853288301
 20
351.902454838992
 30
0.0
  0
VERTEX
  5
47B
  8
0
  6
CONTINUOUS
 62
     7
 10
-365.0000000000001
 20
352.0
 30
0.0
  0
SEQEND
  5
667
  8
0
  6
CONTINUOUS
 62
     7
  0
POLYLINE
  5
18C
  8
0
  6
CONTINUOUS
 62
     7
 66
     1
 10
0.0
 20
0.0
 30
0.0
  0
VERTEX
  5
47C
  8
0
  6
CONTINUOUS
 62
     7
 10
-374.0
 20
366.5
 30
0.0
  0
VERTEX
  5
47D
  8
0
  6
CONTINUOUS
 62
     7
 10
-373.9903146711699
 20
366.402454838992
 30
0.0
  0
VERTEX
  5
47E
  8
0
  6
CONTINUOUS
 62
     7
 10
-373.961630886435
 20
366.3086582838175
 30
0.0
  0
VERTEX
  5
47F
  8
0
  6
CONTINUOUS
 62
     7
 10
-373.9150509475567
 20
366.2222148834902
 30
0.0
  0
VERTEX
  5
480
  8
0
  6
CONTINUOUS
 62
     7
 10
-373.8523648954636
 20
366.1464466094067
 30
0.0
  0
VERTEX
  5
481
  8
0
  6
CONTINUOUS
 62
     7
 10
-373.7759817199829
 20
366.0842651938488
 30
0.0
  0
VERTEX
  5
482
  8
0
  6
CONTINUOUS
 62
     7
 10
-373.6888367837122
 20
366.0380602337444
 30
0.0
  0
VERTEX
  5
483
  8
0
  6
CONTINUOUS
 62
     7
 10
-373.5942790176811
 20
366.0096073597984
 30
0.0
  0
VERTEX
  5
484
  8
0
  6
CONTINUOUS
 62
     7
 10
-373.4959422238093
 20
366.0
 30
0.0
  0
SEQEND
  5
668
  8
0
  6
CONTINUOUS
 62
     7
  0
POLYLINE
  5
18D
  8
0
  6
CONTINUOUS
 62
     7
 66
     1
 10
0.0
 20
0.0
 30
0.0
  0
VERTEX
  5
485
  8
0
  6
CONTINUOUS
 62
     7
 10
-373.4959422238093
 20
354.0
 30
0.0
  0
VERTEX
  5
486
  8
0
  6
CONTINUOUS
 62
     7
 10
-373.5942790176811
 20
353.9903926402016
 30
0.0
  0
VERTEX
  5
487
  8
0
  6
CONTINUOUS
 62
     7
 10
-373.6888367837122
 20
353.9619397662556
 30
0.0
  0
VERTEX
  5
488
  8
0
  6
CONTINUOUS
 62
     7
 10
-373.7759817199829
 20
353.9157348061512
 30
0.0
  0
VERTEX
  5
489
  8
0
  6
CONTINUOUS
 62
     7
 10
-373.8523648954636
 20
353.8535533905933
 30
0.0
  0
VERTEX
  5
48A
  8
0
  6
CONTINUOUS
 62
     7
 10
-373.9150509475567
 20
353.7777851165098
 30
0.0
  0
VERTEX
  5
48B
  8
0
  6
CONTINUOUS
 62
     7
 10
-373.961630886435
 20
353.6913417161825
 30
0.0
  0
VERTEX
  5
48C
  8
0
  6
CONTINUOUS
 62
     7
 10
-373.9903146711699
 20
353.597545161008
 30
0.0
  0
VERTEX
  5
48D
  8
0
  6
CONTINUOUS
 62
     7
 10
-374.0
 20
353.5
 30
0.0
  0
SEQEND
  5
669
  8
0
  6
CONTINUOUS
 62
     7
  0
POLYLINE
  5
18E
  8
0
  6
CONTINUOUS
 62
     7
 66
     1
 10
0.0
 20
0.0
 30
0.0
  0
VERTEX
  5
48E
  8
0
  6
CONTINUOUS
 62
     7
 10
-514.4959422238093
 20
354.0
 30
0.0
  0
VERTEX
  5
48F
  8
0
  6
CONTINUOUS
 62
     7
 10
-514.5942790176811
 20
353.9903926402016
 30
0.0
  0
VERTEX
  5
490
  8
0
  6
CONTINUOUS
 62
     7
 10
-514.6888367837122
 20
353.9619397662556
 30
0.0
  0
VERTEX
  5
491
  8
0
  6
CONTINUOUS
 62
     7
 10
-514.7759817199828
 20
353.9157348061512
 30
0.0
  0
VERTEX
  5
492
  8
0
  6
CONTINUOUS
 62
     7
 10
-514.8523648954636
 20
353.8535533905933
 30
0.0
  0
VERTEX
  5
493
  8
0
  6
CONTINUOUS
 62
     7
 10
-514.9150509475567
 20
353.7777851165098
 30
0.0
  0
VERTEX
  5
494
  8
0
  6
CONTINUOUS
 62
     7
 10
-514.961630886435
 20
353.6913417161825
 30
0.0
  0
VERTEX
  5
495
  8
0
  6
CONTINUOUS
 62
     7
 10
-514.9903146711699
 20
353.597545161008
 30
0.0
  0
VERTEX
  5
496
  8
0
  6
CONTINUOUS
 62
     7
 10
-515.0
 20
353.5
 30
0.0
  0
SEQEND
  5
66A
  8
0
  6
CONTINUOUS
 62
     7
  0
POLYLINE
  5
18F
  8
0
  6
CONTINUOUS
 62
     7
 66
     1
 10
0.0
 20
0.0
 30
0.0
  0
VERTEX
  5
497
  8
0
  6
CONTINUOUS
 62
     7
 10
-506.0000000000001
 20
368.0
 30
0.0
  0
VERTEX
  5
498
  8
0
  6
CONTINUOUS
 62
     7
 10
-506.0096853288301
 20
368.097545161008
 30
0.0
  0
VERTEX
  5
499
  8
0
  6
CONTINUOUS
 62
     7
 10
-506.038369113565
 20
368.1913417161825
 30
0.0
  0
VERTEX
  5
49A
  8
0
  6
CONTINUOUS
 62
     7
 10
-506.0849490524434
 20
368.2777851165098
 30
0.0
  0
VERTEX
  5
49B
  8
0
  6
CONTINUOUS
 62
     7
 10
-506.1476351045365
 20
368.3535533905933
 30
0.0
  0
VERTEX
  5
49C
  8
0
  6
CONTINUOUS
 62
     7
 10
-506.2240182800172
 20
368.4157348061512
 30
0.0
  0
VERTEX
  5
49D
  8
0
  6
CONTINUOUS
 62
     7
 10
-506.3111632162878
 20
368.4619397662556
 30
0.0
  0
VERTEX
  5
49E
  8
0
  6
CONTINUOUS
 62
     7
 10
-506.405720982319
 20
368.4903926402016
 30
0.0
  0
VERTEX
  5
49F
  8
0
  6
CONTINUOUS
 62
     7
 10
-506.5040577761908
 20
368.5
 30
0.0
  0
SEQEND
  5
66B
  8
0
  6
CONTINUOUS
 62
     7
  0
POLYLINE
  5
190
  8
0
  6
CONTINUOUS
 62
     7
 66
     1
 10
0.0
 20
0.0
 30
0.0
  0
VERTEX
  5
4A0
  8
0
  6
CONTINUOUS
 62
     7
 10
-365.0000000000001
 20
353.5
 30
0.0
  0
VERTEX
  5
4A1
  8
0
  6
CONTINUOUS
 62
     7
 10
-365.0096853288301
 20
353.597545161008
 30
0.0
  0
VERTEX
  5
4A2
  8
0
  6
CONTINUOUS
 62
     7
 10
-365.038369113565
 20
353.6913417161825
 30
0.0
  0
VERTEX
  5
4A3
  8
0
  6
CONTINUOUS
 62
     7
 10
-365.0849490524434
 20
353.7777851165098
 30
0.0
  0
VERTEX
  5
4A4
  8
0
  6
CONTINUOUS
 62
     7
 10
-365.1476351045365
 20
353.8535533905933
 30
0.0
  0
VERTEX
  5
4A5
  8
0
  6
CONTINUOUS
 62
     7
 10
-365.2240182800172
 20
353.9157348061512
 30
0.0
  0
VERTEX
  5
4A6
  8
0
  6
CONTINUOUS
 62
     7
 10
-365.3111632162878
 20
353.9619397662556
 30
0.0
  0
VERTEX
  5
4A7
  8
0
  6
CONTINUOUS
 62
     7
 10
-365.405720982319
 20
353.9903926402016
 30
0.0
  0
VERTEX
  5
4A8
  8
0
  6
CONTINUOUS
 62
     7
 10
-365.5040577761908
 20
354.0
 30
0.0
  0
SEQEND
  5
66C
  8
0
  6
CONTINUOUS
 62
     7
  0
POLYLINE
  5
191
  8
0
  6
CONTINUOUS
 62
     7
 66
     1
 10
0.0
 20
0.0
 30
0.0
  0
VERTEX
  5
4A9
  8
0
  6
CONTINUOUS
 62
     7
 10
-506.5040577761907
 20
366.0
 30
0.0
  0
VERTEX
  5
4AA
  8
0
  6
CONTINUOUS
 62
     7
 10
-506.4057209823189
 20
366.0096073597984
 30
0.0
  0
VERTEX
  5
4AB
  8
0
  6
CONTINUOUS
 62
     7
 10
-506.3111632162877
 20
366.0380602337444
 30
0.0
  0
VERTEX
  5
4AC
  8
0
  6
CONTINUOUS
 62
     7
 10
-506.224018280017
 20
366.0842651938488
 30
0.0
  0
VERTEX
  5
4AD
  8
0
  6
CONTINUOUS
 62
     7
 10
-506.1476351045364
 20
366.1464466094067
 30
0.0
  0
VERTEX
  5
4AE
  8
0
  6
CONTINUOUS
 62
     7
 10
-506.0849490524433
 20
366.2222148834902
 30
0.0
  0
VERTEX
  5
4AF
  8
0
  6
CONTINUOUS
 62
     7
 10
-506.0383691135649
 20
366.3086582838175
 30
0.0
  0
VERTEX
  5
4B0
  8
0
  6
CONTINUOUS
 62
     7
 10
-506.00968532883
 20
366.402454838992
 30
0.0
  0
VERTEX
  5
4B1
  8
0
  6
CONTINUOUS
 62
     7
 10
-505.9999999999999
 20
366.5
 30
0.0
  0
SEQEND
  5
66D
  8
0
  6
CONTINUOUS
 62
     7
  0
POLYLINE
  5
192
  8
0
  6
CONTINUOUS
 62
     7
 66
     1
 10
0.0
 20
0.0
 30
0.0
  0
VERTEX
  5
4B2
  8
0
  6
CONTINUOUS
 62
     7
 10
-374.0
 20
352.0
 30
0.0
  0
VERTEX
  5
4B3
  8
0
  6
CONTINUOUS
 62
     7
 10
-373.9903146711699
 20
351.902454838992
 30
0.0
  0
VERTEX
  5
4B4
  8
0
  6
CONTINUOUS
 62
     7
 10
-373.961630886435
 20
351.8086582838175
 30
0.0
  0
VERTEX
  5
4B5
  8
0
  6
CONTINUOUS
 62
     7
 10
-373.9150509475567
 20
351.7222148834902
 30
0.0
  0
VERTEX
  5
4B6
  8
0
  6
CONTINUOUS
 62
     7
 10
-373.8523648954636
 20
351.6464466094067
 30
0.0
  0
VERTEX
  5
4B7
  8
0
  6
CONTINUOUS
 62
     7
 10
-373.7759817199829
 20
351.5842651938488
 30
0.0
  0
VERTEX
  5
4B8
  8
0
  6
CONTINUOUS
 62
     7
 10
-373.6888367837122
 20
351.5380602337444
 30
0.0
  0
VERTEX
  5
4B9
  8
0
  6
CONTINUOUS
 62
     7
 10
-373.5942790176811
 20
351.5096073597984
 30
0.0
  0
VERTEX
  5
4BA
  8
0
  6
CONTINUOUS
 62
     7
 10
-373.4959422238093
 20
351.5
 30
0.0
  0
SEQEND
  5
66E
  8
0
  6
CONTINUOUS
 62
     7
  0
POLYLINE
  5
193
  8
0
  6
CONTINUOUS
 62
     7
 66
     1
 10
0.0
 20
0.0
 30
0.0
  0
VERTEX
  5
4BB
  8
0
  6
CONTINUOUS
 62
     7
 10
-515.0
 20
366.5
 30
0.0
  0
VERTEX
  5
4BC
  8
0
  6
CONTINUOUS
 62
     7
 10
-514.9903146711699
 20
366.402454838992
 30
0.0
  0
VERTEX
  5
4BD
  8
0
  6
CONTINUOUS
 62
     7
 10
-514.961630886435
 20
366.3086582838175
 30
0.0
  0
VERTEX
  5
4BE
  8
0
  6
CONTINUOUS
 62
     7
 10
-514.9150509475567
 20
366.2222148834902
 30
0.0
  0
VERTEX
  5
4BF
  8
0
  6
CONTINUOUS
 62
     7
 10
-514.8523648954636
 20
366.1464466094067
 30
0.0
  0
VERTEX
  5
4C0
  8
0
  6
CONTINUOUS
 62
     7
 10
-514.7759817199828
 20
366.0842651938488
 30
0.0
  0
VERTEX
  5
4C1
  8
0
  6
CONTINUOUS
 62
     7
 10
-514.6888367837122
 20
366.0380602337444
 30
0.0
  0
VERTEX
  5
4C2
  8
0
  6
CONTINUOUS
 62
     7
 10
-514.5942790176811
 20
366.0096073597984
 30
0.0
  0
VERTEX
  5
4C3
  8
0
  6
CONTINUOUS
 62
     7
 10
-514.4959422238093
 20
366.0
 30
0.0
  0
SEQEND
  5
66F
  8
0
  6
CONTINUOUS
 62
     7
  0
POLYLINE
  5
194
  8
0
  6
CONTINUOUS
 62
     7
 66
     1
 10
0.0
 20
0.0
 30
0.0
  0
VERTEX
  5
4C4
  8
0
  6
CONTINUOUS
 62
     7
 10
-514.4959422238093
 20
368.5
 30
0.0
  0
VERTEX
  5
4C5
  8
0
  6
CONTINUOUS
 62
     7
 10
-514.5942790176811
 20
368.4903926402016
 30
0.0
  0
VERTEX
  5
4C6
  8
0
  6
CONTINUOUS
 62
     7
 10
-514.6888367837122
 20
368.4619397662556
 30
0.0
  0
VERTEX
  5
4C7
  8
0
  6
CONTINUOUS
 62
     7
 10
-514.7759817199828
 20
368.4157348061512
 30
0.0
  0
VERTEX
  5
4C8
  8
0
  6
CONTINUOUS
 62
     7
 10
-514.8523648954636
 20
368.3535533905933
 30
0.0
  0
VERTEX
  5
4C9
  8
0
  6
CONTINUOUS
 62
     7
 10
-514.9150509475567
 20
368.2777851165098
 30
0.0
  0
VERTEX
  5
4CA
  8
0
  6
CONTINUOUS
 62
     7
 10
-514.961630886435
 20
368.1913417161825
 30
0.0
  0
VERTEX
  5
4CB
  8
0
  6
CONTINUOUS
 62
     7
 10
-514.9903146711699
 20
368.097545161008
 30
0.0
  0
VERTEX
  5
4CC
  8
0
  6
CONTINUOUS
 62
     7
 10
-515.0
 20
368.0
 30
0.0
  0
SEQEND
  5
670
  8
0
  6
CONTINUOUS
 62
     7
  0
POLYLINE
  5
195
  8
0
  6
CONTINUOUS
 62
     7
 66
     1
 10
0.0
 20
0.0
 30
0.0
  0
VERTEX
  5
4CD
  8
0
  6
CONTINUOUS
 62
     7
 10
-365.0000000000001
 20
368.0
 30
0.0
  0
VERTEX
  5
4CE
  8
0
  6
CONTINUOUS
 62
     7
 10
-365.0096853288301
 20
368.097545161008
 30
0.0
  0
VERTEX
  5
4CF
  8
0
  6
CONTINUOUS
 62
     7
 10
-365.038369113565
 20
368.1913417161825
 30
0.0
  0
VERTEX
  5
4D0
  8
0
  6
CONTINUOUS
 62
     7
 10
-365.0849490524434
 20
368.2777851165098
 30
0.0
  0
VERTEX
  5
4D1
  8
0
  6
CONTINUOUS
 62
     7
 10
-365.1476351045365
 20
368.3535533905933
 30
0.0
  0
VERTEX
  5
4D2
  8
0
  6
CONTINUOUS
 62
     7
 10
-365.2240182800172
 20
368.4157348061512
 30
0.0
  0
VERTEX
  5
4D3
  8
0
  6
CONTINUOUS
 62
     7
 10
-365.3111632162878
 20
368.4619397662556
 30
0.0
  0
VERTEX
  5
4D4
  8
0
  6
CONTINUOUS
 62
     7
 10
-365.405720982319
 20
368.4903926402016
 30
0.0
  0
VERTEX
  5
4D5
  8
0
  6
CONTINUOUS
 62
     7
 10
-365.5040577761908
 20
368.5
 30
0.0
  0
SEQEND
  5
671
  8
0
  6
CONTINUOUS
 62
     7
  0
POLYLINE
  5
196
  8
0
  6
CONTINUOUS
 62
     7
 66
     1
 10
0.0
 20
0.0
 30
0.0
  0
VERTEX
  5
4D6
  8
0
  6
CONTINUOUS
 62
     7
 10
-515.0
 20
352.0
 30
0.0
  0
VERTEX
  5
4D7
  8
0
  6
CONTINUOUS
 62
     7
 10
-514.9903146711699
 20
351.902454838992
 30
0.0
  0
VERTEX
  5
4D8
  8
0
  6
CONTINUOUS
 62
     7
 10
-514.961630886435
 20
351.8086582838175
 30
0.0
  0
VERTEX
  5
4D9
  8
0
  6
CONTINUOUS
 62
     7
 10
-514.9150509475567
 20
351.7222148834902
 30
0.0
  0
VERTEX
  5
4DA
  8
0
  6
CONTINUOUS
 62
     7
 10
-514.8523648954636
 20
351.6464466094067
 30
0.0
  0
VERTEX
  5
4DB
  8
0
  6
CONTINUOUS
 62
     7
 10
-514.775981719983
 20
351.5842651938488
 30
0.0
  0
VERTEX
  5
4DC
  8
0
  6
CONTINUOUS
 62
     7
 10
-514.6888367837123
 20
351.5380602337444
 30
0.0
  0
VERTEX
  5
4DD
  8
0
  6
CONTINUOUS
 62
     7
 10
-514.5942790176811
 20
351.5096073597984
 30
0.0
  0
VERTEX
  5
4DE
  8
0
  6
CONTINUOUS
 62
     7
 10
-514.4959422238093
 20
351.5
 30
0.0
  0
SEQEND
  5
672
  8
0
  6
CONTINUOUS
 62
     7
  0
POLYLINE
  5
197
  8
0
  6
CONTINUOUS
 62
     7
 66
     1
 10
0.0
 20
0.0
 30
0.0
  0
VERTEX
  5
4DF
  8
0
  6
CONTINUOUS
 62
     7
 10
-373.4959422238093
 20
368.5
 30
0.0
  0
VERTEX
  5
4E0
  8
0
  6
CONTINUOUS
 62
     7
 10
-373.5942790176811
 20
368.4903926402016
 30
0.0
  0
VERTEX
  5
4E1
  8
0
  6
CONTINUOUS
 62
     7
 10
-373.6888367837122
 20
368.4619397662556
 30
0.0
  0
VERTEX
  5
4E2
  8
0
  6
CONTINUOUS
 62
     7
 10
-373.7759817199829
 20
368.4157348061512
 30
0.0
  0
VERTEX
  5
4E3
  8
0
  6
CONTINUOUS
 62
     7
 10
-373.8523648954636
 20
368.3535533905933
 30
0.0
  0
VERTEX
  5
4E4
  8
0
  6
CONTINUOUS
 62
     7
 10
-373.9150509475567
 20
368.2777851165098
 30
0.0
  0
VERTEX
  5
4E5
  8
0
  6
CONTINUOUS
 62
     7
 10
-373.961630886435
 20
368.1913417161825
 30
0.0
  0
VERTEX
  5
4E6
  8
0
  6
CONTINUOUS
 62
     7
 10
-373.9903146711699
 20
368.097545161008
 30
0.0
  0
VERTEX
  5
4E7
  8
0
  6
CONTINUOUS
 62
     7
 10
-374.0
 20
368.0
 30
0.0
  0
SEQEND
  5
673
  8
0
  6
CONTINUOUS
 62
     7
  0
POLYLINE
  5
198
  8
0
  6
CONTINUOUS
 62
     7
 66
     1
 10
0.0
 20
0.0
 30
0.0
  0
VERTEX
  5
4E8
  8
0
  6
CONTINUOUS
 62
     7
 10
-365.5040577761908
 20
366.0
 30
0.0
  0
VERTEX
  5
4E9
  8
0
  6
CONTINUOUS
 62
     7
 10
-365.405720982319
 20
366.0096073597984
 30
0.0
  0
VERTEX
  5
4EA
  8
0
  6
CONTINUOUS
 62
     7
 10
-365.3111632162878
 20
366.0380602337444
 30
0.0
  0
VERTEX
  5
4EB
  8
0
  6
CONTINUOUS
 62
     7
 10
-365.2240182800172
 20
366.0842651938488
 30
0.0
  0
VERTEX
  5
4EC
  8
0
  6
CONTINUOUS
 62
     7
 10
-365.1476351045365
 20
366.1464466094067
 30
0.0
  0
VERTEX
  5
4ED
  8
0
  6
CONTINUOUS
 62
     7
 10
-365.0849490524434
 20
366.2222148834902
 30
0.0
  0
VERTEX
  5
4EE
  8
0
  6
CONTINUOUS
 62
     7
 10
-365.038369113565
 20
366.3086582838175
 30
0.0
  0
VERTEX
  5
4EF
  8
0
  6
CONTINUOUS
 62
     7
 10
-365.0096853288301
 20
366.402454838992
 30
0.0
  0
VERTEX
  5
4F0
  8
0
  6
CONTINUOUS
 62
     7
 10
-365.0000000000001
 20
366.5
 30
0.0
  0
SEQEND
  5
674
  8
0
  6
CONTINUOUS
 62
     7
  0
POLYLINE
  5
199
  8
0
  6
CONTINUOUS
 62
     7
 66
     1
 10
0.0
 20
0.0
 30
0.0
  0
VERTEX
  5
4F1
  8
0
  6
CONTINUOUS
 62
     7
 10
-506.0000000000001
 20
353.5
 30
0.0
  0
VERTEX
  5
4F2
  8
0
  6
CONTINUOUS
 62
     7
 10
-506.0096853288301
 20
353.597545161008
 30
0.0
  0
VERTEX
  5
4F3
  8
0
  6
CONTINUOUS
 62
     7
 10
-506.038369113565
 20
353.6913417161825
 30
0.0
  0
VERTEX
  5
4F4
  8
0
  6
CONTINUOUS
 62
     7
 10
-506.0849490524434
 20
353.7777851165098
 30
0.0
  0
VERTEX
  5
4F5
  8
0
  6
CONTINUOUS
 62
     7
 10
-506.1476351045365
 20
353.8535533905933
 30
0.0
  0
VERTEX
  5
4F6
  8
0
  6
CONTINUOUS
 62
     7
 10
-506.2240182800172
 20
353.9157348061512
 30
0.0
  0
VERTEX
  5
4F7
  8
0
  6
CONTINUOUS
 62
     7
 10
-506.3111632162878
 20
353.9619397662556
 30
0.0
  0
VERTEX
  5
4F8
  8
0
  6
CONTINUOUS
 62
     7
 10
-506.405720982319
 20
353.9903926402016
 30
0.0
  0
VERTEX
  5
4F9
  8
0
  6
CONTINUOUS
 62
     7
 10
-506.5040577761908
 20
354.0
 30
0.0
  0
SEQEND
  5
675
  8
0
  6
CONTINUOUS
 62
     7
  0
LINE
  5
19A
  8
0
  6
CONTINUOUS
 62
     7
 10
-515.0
 20
352.0
 30
0.0
 11
-515.0
 21
353.5
 31
0.0
  0
LINE
  5
19B
  8
0
  6
CONTINUOUS
 62
     7
 10
-506.0
 20
353.5
 30
0.0
 11
-506.0
 21
352.0
 31
0.0
  0
LINE
  5
19C
  8
0
  6
CONTINUOUS
 62
     7
 10
-506.0
 20
368.0
 30
0.0
 11
-506.0
 21
366.5
 31
0.0
  0
LINE
  5
19D
  8
0
  6
CONTINUOUS
 62
     7
 10
-365.0
 20
368.0
 30
0.0
 11
-365.0
 21
366.5
 31
0.0
  0
LINE
  5
19E
  8
0
  6
CONTINUOUS
 62
     7
 10
-374.0
 20
352.0
 30
0.0
 11
-374.0
 21
353.5
 31
0.0
  0
LINE
  5
19F
  8
0
  6
CONTINUOUS
 62
     7
 10
-374.0
 20
366.5
 30
0.0
 11
-374.0
 21
368.0
 31
0.0
  0
LINE
  5
1A0
  8
0
  6
CONTINUOUS
 62
     7
 10
-515.0
 20
366.5
 30
0.0
 11
-515.0
 21
368.0
 31
0.0
  0
LINE
  5
1A1
  8
0
  6
CONTINUOUS
 62
     7
 10
-365.0
 20
353.5
 30
0.0
 11
-365.0
 21
352.0
 31
0.0
  0
ARC
  5
1A2
  8
0
  6
CONTINUOUS
 62
     7
 10
-367.35
 20
368.3
 30
0.0
 40
0.2000000000000005
 50
89.99999999999605
 51
138.590377890722
  0
ARC
  5
1A3
  8
0
  6
CONTINUOUS
 62
     7
 10
-508.35
 20
353.8
 30
0.0
 40
0.1999999999999997
 50
90.00000000000398
 51
138.5903778907339
  0
ARC
  5
1A4
  8
0
  6
CONTINUOUS
 62
     7
 10
-512.6500000000001
 20
351.7
 30
0.0
 40
0.2000000000000005
 50
269.999999999996
 51
318.590377890722
  0
ARC
  5
1A5
  8
0
  6
CONTINUOUS
 62
     7
 10
-371.65
 20
366.2
 30
0.0
 40
0.1999999999999997
 50
270.000000000004
 51
318.5903778907339
  0
ARC
  5
1A6
  8
0
  6
CONTINUOUS
 62
     7
 10
-512.6500000000001
 20
353.8
 30
0.0
 40
0.2000000000000001
 50
41.40962210927803
 51
90.00000000000398
  0
ARC
  5
1A7
  8
0
  6
CONTINUOUS
 62
     7
 10
-508.35
 20
351.7
 30
0.0
 40
0.2000000000000002
 50
221.409622109266
 51
269.999999999996
  0
ARC
  5
1A8
  8
0
  6
CONTINUOUS
 62
     7
 10
-371.65
 20
368.3
 30
0.0
 40
0.2000000000000002
 50
41.40962210926606
 51
89.999999999996
  0
ARC
  5
1A9
  8
0
  6
CONTINUOUS
 62
     7
 10
-367.35
 20
366.2
 30
0.0
 40
0.2000000000000001
 50
221.409622109278
 51
270.000000000004
  0
ARC
  5
1AA
  8
0
  6
CONTINUOUS
 62
     7
 10
-508.35
 20
366.2
 30
0.0
 40
0.1999999999999997
 50
221.409622109266
 51
269.999999999992
  0
ARC
  5
1AB
  8
0
  6
CONTINUOUS
 62
     7
 10
-508.35
 20
368.3
 30
0.0
 40
0.2000000000000005
 50
90.00000000001195
 51
138.5903778907339
  0
ARC
  5
1AC
  8
0
  6
CONTINUOUS
 62
     7
 10
-371.65
 20
351.7
 30
0.0
 40
0.2000000000000005
 50
270.0000000000119
 51
318.5903778907339
  0
ARC
  5
1AD
  8
0
  6
CONTINUOUS
 62
     7
 10
-371.65
 20
353.8
 30
0.0
 40
0.2000000000000002
 50
41.40962210926606
 51
89.999999999996
  0
ARC
  5
1AE
  8
0
  6
CONTINUOUS
 62
     7
 10
-367.35
 20
353.8
 30
0.0
 40
0.1999999999999997
 50
90.00000000000398
 51
138.590377890722
  0
ARC
  5
1AF
  8
0
  6
CONTINUOUS
 62
     7
 10
-367.35
 20
351.7
 30
0.0
 40
0.2000000000000001
 50
221.409622109278
 51
269.999999999996
  0
ARC
  5
1B0
  8
0
  6
CONTINUOUS
 62
     7
 10
-512.6500000000001
 20
366.2
 30
0.0
 40
0.2000000000000001
 50
270.000000000004
 51
318.590377890722
  0
ARC
  5
1B1
  8
0
  6
CONTINUOUS
 62
     7
 10
-512.6500000000001
 20
368.3
 30
0.0
 40
0.2000000000000001
 50
41.40962210927803
 51
89.999999999996
  0
POLYLINE
  5
1B2
  8
0
  6
CONTINUOUS
 62
     7
 66
     1
 10
0.0
 20
0.0
 30
0.0
  0
VERTEX
  5
4FA
  8
0
  6
CONTINUOUS
 62
     7
 10
-514.75
 20
361.0000000000001
 30
0.0
  0
VERTEX
  5
4FB
  8
0
  6
CONTINUOUS
 62
     7
 10
-514.7745338371636
 20
361.0002494691882
 30
0.0
  0
VERTEX
  5
4FC
  8
0
  6
CONTINUOUS
 62
     7
 10
-514.7990085701648
 20
361.0009972757596
 30
0.0
  0
VERTEX
  5
4FD
  8
0
  6
CONTINUOUS
 62
     7
 10
-514.8233652372276
 20
361.0022416181825
 30
0.0
  0
VERTEX
  5
4FE
  8
0
  6
CONTINUOUS
 62
     7
 10
-514.847545161008
 20
361.0039794987272
 30
0.0
  0
VERTEX
  5
4FF
  8
0
  6
CONTINUOUS
 62
     7
 10
-514.8714900899515
 20
361.0062067306872
 30
0.0
  0
VERTEX
  5
500
  8
0
  6
CONTINUOUS
 62
     7
 10
-514.8951423386272
 20
361.0089179484656
 30
0.0
  0
VERTEX
  5
501
  8
0
  6
CONTINUOUS
 62
     7
 10
-514.9184449266961
 20
361.0121066205013
 30
0.0
  0
VERTEX
  5
502
  8
0
  6
CONTINUOUS
 62
     7
 10
-514.9413417161826
 20
361.0157650650041
 30
0.0
  0
VERTEX
  5
503
  8
0
  6
CONTINUOUS
 62
     7
 10
-514.963777546715
 20
361.0198844684608
 30
0.0
  0
VERTEX
  5
504
  8
0
  6
CONTINUOUS
 62
     7
 10
-514.985698368413
 20
361.0244549068675
 30
0.0
  0
VERTEX
  5
505
  8
0
  6
CONTINUOUS
 62
     7
 10
-515.0070513720966
 20
361.0294653696379
 30
0.0
  0
VERTEX
  5
506
  8
0
  6
CONTINUOUS
 62
     7
 10
-515.0277851165098
 20
361.0349037861282
 30
0.0
  0
VERTEX
  5
507
  8
0
  6
CONTINUOUS
 62
     7
 10
-515.0478496522461
 20
361.0407570547169
 30
0.0
  0
VERTEX
  5
508
  8
0
  6
CONTINUOUS
 62
     7
 10
-515.0671966420817
 20
361.0470110743672
 30
0.0
  0
VERTEX
  5
509
  8
0
  6
CONTINUOUS
 62
     7
 10
-515.0857794774234
 20
361.0536507785978
 30
0.0
  0
VERTEX
  5
50A
  8
0
  6
CONTINUOUS
 62
     7
 10
-515.1035533905932
 20
361.0606601717799
 30
0.0
  0
VERTEX
  5
50B
  8
0
  6
CONTINUOUS
 62
     7
 10
-515.1204755626775
 20
361.0680223676713
 30
0.0
  0
VERTEX
  5
50C
  8
0
  6
CONTINUOUS
 62
     7
 10
-515.1365052266813
 20
361.0757196300971
 30
0.0
  0
VERTEX
  5
50D
  8
0
  6
CONTINUOUS
 62
     7
 10
-515.1516037657403
 20
361.0837334156782
 30
0.0
  0
VERTEX
  5
50E
  8
0
  6
CONTINUOUS
 62
     7
 10
-515.1657348061512
 20
361.0920444185029
 30
0.0
  0
VERTEX
  5
50F
  8
0
  6
CONTINUOUS
 62
     7
 10
-515.1788643050002
 20
361.1006326166376
 30
0.0
  0
VERTEX
  5
510
  8
0
  6
CONTINUOUS
 62
     7
 10
-515.1909606321742
 20
361.1094773203608
 30
0.0
  0
VERTEX
  5
511
  8
0
  6
CONTINUOUS
 62
     7
 10
-515.2019946465617
 20
361.1185572220064
 30
0.0
  0
VERTEX
  5
512
  8
0
  6
CONTINUOUS
 62
     7
 10
-515.2119397662556
 20
361.1278504472961
 30
0.0
  0
VERTEX
  5
513
  8
0
  6
CONTINUOUS
 62
     7
 10
-515.2207720325915
 20
361.1373346080362
 30
0.0
  0
VERTEX
  5
514
  8
0
  6
CONTINUOUS
 62
     7
 10
-515.2284701678661
 20
361.1469868560527
 30
0.0
  0
VERTEX
  5
515
  8
0
  6
CONTINUOUS
 62
     7
 10
-515.2350156265973
 20
361.1567839382348
 30
0.0
  0
VERTEX
  5
516
  8
0
  6
CONTINUOUS
 62
     7
 10
-515.2403926402015
 20
361.1667022525533
 30
0.0
  0
VERTEX
  5
517
  8
0
  6
CONTINUOUS
 62
     7
 10
-515.2445882549823
 20
361.1767179049202
 30
0.0
  0
VERTEX
  5
518
  8
0
  6
CONTINUOUS
 62
     7
 10
-515.247592363336
 20
361.1868067667519
 30
0.0
  0
VERTEX
  5
519
  8
0
  6
CONTINUOUS
 62
     7
 10
-515.2493977281025
 20
361.1969445330964
 30
0.0
  0
VERTEX
  5
51A
  8
0
  6
CONTINUOUS
 62
     7
 10
-515.25
 20
361.2071067811867
 30
0.0
  0
SEQEND
  5
676
  8
0
  6
CONTINUOUS
 62
     7
  0
POLYLINE
  5
1B3
  8
0
  6
CONTINUOUS
 62
     7
 66
     1
 10
0.0
 20
0.0
 30
0.0
  0
VERTEX
  5
51B
  8
0
  6
CONTINUOUS
 62
     7
 10
-515.25
 20
363.2071067811867
 30
0.0
  0
VERTEX
  5
51C
  8
0
  6
CONTINUOUS
 62
     7
 10
-515.2493977281025
 20
363.1969445330964
 30
0.0
  0
VERTEX
  5
51D
  8
0
  6
CONTINUOUS
 62
     7
 10
-515.247592363336
 20
363.1868067667519
 30
0.0
  0
VERTEX
  5
51E
  8
0
  6
CONTINUOUS
 62
     7
 10
-515.2445882549823
 20
363.1767179049202
 30
0.0
  0
VERTEX
  5
51F
  8
0
  6
CONTINUOUS
 62
     7
 10
-515.2403926402015
 20
363.1667022525533
 30
0.0
  0
VERTEX
  5
520
  8
0
  6
CONTINUOUS
 62
     7
 10
-515.2350156265973
 20
363.1567839382348
 30
0.0
  0
VERTEX
  5
521
  8
0
  6
CONTINUOUS
 62
     7
 10
-515.2284701678661
 20
363.1469868560527
 30
0.0
  0
VERTEX
  5
522
  8
0
  6
CONTINUOUS
 62
     7
 10
-515.2207720325915
 20
363.1373346080362
 30
0.0
  0
VERTEX
  5
523
  8
0
  6
CONTINUOUS
 62
     7
 10
-515.2119397662557
 20
363.1278504472961
 30
0.0
  0
VERTEX
  5
524
  8
0
  6
CONTINUOUS
 62
     7
 10
-515.2019946465617
 20
363.1185572220064
 30
0.0
  0
VERTEX
  5
525
  8
0
  6
CONTINUOUS
 62
     7
 10
-515.1909606321742
 20
363.1094773203608
 30
0.0
  0
VERTEX
  5
526
  8
0
  6
CONTINUOUS
 62
     7
 10
-515.1788643050002
 20
363.1006326166377
 30
0.0
  0
VERTEX
  5
527
  8
0
  6
CONTINUOUS
 62
     7
 10
-515.1657348061512
 20
363.0920444185029
 30
0.0
  0
VERTEX
  5
528
  8
0
  6
CONTINUOUS
 62
     7
 10
-515.1516037657403
 20
363.0837334156782
 30
0.0
  0
VERTEX
  5
529
  8
0
  6
CONTINUOUS
 62
     7
 10
-515.1365052266813
 20
363.0757196300971
 30
0.0
  0
VERTEX
  5
52A
  8
0
  6
CONTINUOUS
 62
     7
 10
-515.1204755626775
 20
363.0680223676713
 30
0.0
  0
VERTEX
  5
52B
  8
0
  6
CONTINUOUS
 62
     7
 10
-515.1035533905932
 20
363.0606601717799
 30
0.0
  0
VERTEX
  5
52C
  8
0
  6
CONTINUOUS
 62
     7
 10
-515.0857794774234
 20
363.0536507785978
 30
0.0
  0
VERTEX
  5
52D
  8
0
  6
CONTINUOUS
 62
     7
 10
-515.0671966420817
 20
363.0470110743672
 30
0.0
  0
VERTEX
  5
52E
  8
0
  6
CONTINUOUS
 62
     7
 10
-515.0478496522461
 20
363.0407570547169
 30
0.0
  0
VERTEX
  5
52F
  8
0
  6
CONTINUOUS
 62
     7
 10
-515.0277851165098
 20
363.0349037861283
 30
0.0
  0
VERTEX
  5
530
  8
0
  6
CONTINUOUS
 62
     7
 10
-515.0070513720966
 20
363.0294653696379
 30
0.0
  0
VERTEX
  5
531
  8
0
  6
CONTINUOUS
 62
     7
 10
-514.985698368413
 20
363.0244549068675
 30
0.0
  0
VERTEX
  5
532
  8
0
  6
CONTINUOUS
 62
     7
 10
-514.963777546715
 20
363.0198844684608
 30
0.0
  0
VERTEX
  5
533
  8
0
  6
CONTINUOUS
 62
     7
 10
-514.9413417161826
 20
363.0157650650041
 30
0.0
  0
VERTEX
  5
534
  8
0
  6
CONTINUOUS
 62
     7
 10
-514.9184449266961
 20
363.0121066205013
 30
0.0
  0
VERTEX
  5
535
  8
0
  6
CONTINUOUS
 62
     7
 10
-514.8951423386272
 20
363.0089179484656
 30
0.0
  0
VERTEX
  5
536
  8
0
  6
CONTINUOUS
 62
     7
 10
-514.8714900899515
 20
363.0062067306872
 30
0.0
  0
VERTEX
  5
537
  8
0
  6
CONTINUOUS
 62
     7
 10
-514.847545161008
 20
363.0039794987272
 30
0.0
  0
VERTEX
  5
538
  8
0
  6
CONTINUOUS
 62
     7
 10
-514.8233652372276
 20
363.0022416181825
 30
0.0
  0
VERTEX
  5
539
  8
0
  6
CONTINUOUS
 62
     7
 10
-514.7990085701648
 20
363.0009972757596
 30
0.0
  0
VERTEX
  5
53A
  8
0
  6
CONTINUOUS
 62
     7
 10
-514.7745338371636
 20
363.0002494691883
 30
0.0
  0
VERTEX
  5
53B
  8
0
  6
CONTINUOUS
 62
     7
 10
-514.75
 20
363.0000000000001
 30
0.0
  0
SEQEND
  5
677
  8
0
  6
CONTINUOUS
 62
     7
  0
POLYLINE
  5
1B4
  8
0
  6
CONTINUOUS
 62
     7
 66
     1
 10
0.0
 20
0.0
 30
0.0
  0
VERTEX
  5
53C
  8
0
  6
CONTINUOUS
 62
     7
 10
-365.2499999999999
 20
359.0
 30
0.0
  0
VERTEX
  5
53D
  8
0
  6
CONTINUOUS
 62
     7
 10
-365.2254661628363
 20
358.9997505308119
 30
0.0
  0
VERTEX
  5
53E
  8
0
  6
CONTINUOUS
 62
     7
 10
-365.2009914298352
 20
358.9990027242405
 30
0.0
  0
VERTEX
  5
53F
  8
0
  6
CONTINUOUS
 62
     7
 10
-365.1766347627723
 20
358.9977583818176
 30
0.0
  0
VERTEX
  5
540
  8
0
  6
CONTINUOUS
 62
     7
 10
-365.152454838992
 20
358.9960205012729
 30
0.0
  0
VERTEX
  5
541
  8
0
  6
CONTINUOUS
 62
     7
 10
-365.1285099100484
 20
358.9937932693129
 30
0.0
  0
VERTEX
  5
542
  8
0
  6
CONTINUOUS
 62
     7
 10
-365.1048576613728
 20
358.9910820515345
 30
0.0
  0
VERTEX
  5
543
  8
0
  6
CONTINUOUS
 62
     7
 10
-365.0815550733038
 20
358.9878933794988
 30
0.0
  0
VERTEX
  5
544
  8
0
  6
CONTINUOUS
 62
     7
 10
-365.0586582838175
 20
358.984234934996
 30
0.0
  0
VERTEX
  5
545
  8
0
  6
CONTINUOUS
 62
     7
 10
-365.0362224532849
 20
358.9801155315394
 30
0.0
  0
VERTEX
  5
546
  8
0
  6
CONTINUOUS
 62
     7
 10
-365.014301631587
 20
358.9755450931326
 30
0.0
  0
VERTEX
  5
547
  8
0
  6
CONTINUOUS
 62
     7
 10
-364.9929486279034
 20
358.9705346303622
 30
0.0
  0
VERTEX
  5
548
  8
0
  6
CONTINUOUS
 62
     7
 10
-364.9722148834902
 20
358.9650962138718
 30
0.0
  0
VERTEX
  5
549
  8
0
  6
CONTINUOUS
 62
     7
 10
-364.9521503477538
 20
358.9592429452832
 30
0.0
  0
VERTEX
  5
54A
  8
0
  6
CONTINUOUS
 62
     7
 10
-364.9328033579181
 20
358.952988925633
 30
0.0
  0
VERTEX
  5
54B
  8
0
  6
CONTINUOUS
 62
     7
 10
-364.9142205225765
 20
358.9463492214022
 30
0.0
  0
VERTEX
  5
54C
  8
0
  6
CONTINUOUS
 62
     7
 10
-364.8964466094067
 20
358.9393398282202
 30
0.0
  0
VERTEX
  5
54D
  8
0
  6
CONTINUOUS
 62
     7
 10
-364.8795244373225
 20
358.9319776323288
 30
0.0
  0
VERTEX
  5
54E
  8
0
  6
CONTINUOUS
 62
     7
 10
-364.8634947733186
 20
358.9242803699029
 30
0.0
  0
VERTEX
  5
54F
  8
0
  6
CONTINUOUS
 62
     7
 10
-364.8483962342597
 20
358.9162665843219
 30
0.0
  0
VERTEX
  5
550
  8
0
  6
CONTINUOUS
 62
     7
 10
-364.8342651938488
 20
358.9079555814972
 30
0.0
  0
VERTEX
  5
551
  8
0
  6
CONTINUOUS
 62
     7
 10
-364.8211356949998
 20
358.8993673833625
 30
0.0
  0
VERTEX
  5
552
  8
0
  6
CONTINUOUS
 62
     7
 10
-364.8090393678258
 20
358.8905226796393
 30
0.0
  0
VERTEX
  5
553
  8
0
  6
CONTINUOUS
 62
     7
 10
-364.7980053534383
 20
358.8814427779937
 30
0.0
  0
VERTEX
  5
554
  8
0
  6
CONTINUOUS
 62
     7
 10
-364.7880602337444
 20
358.8721495527039
 30
0.0
  0
VERTEX
  5
555
  8
0
  6
CONTINUOUS
 62
     7
 10
-364.7792279674085
 20
358.8626653919639
 30
0.0
  0
VERTEX
  5
556
  8
0
  6
CONTINUOUS
 62
     7
 10
-364.7715298321339
 20
358.8530131439474
 30
0.0
  0
VERTEX
  5
557
  8
0
  6
CONTINUOUS
 62
     7
 10
-364.7649843734027
 20
358.8432160617653
 30
0.0
  0
VERTEX
  5
558
  8
0
  6
CONTINUOUS
 62
     7
 10
-364.7596073597984
 20
358.8332977474469
 30
0.0
  0
VERTEX
  5
559
  8
0
  6
CONTINUOUS
 62
     7
 10
-364.7554117450176
 20
358.8232820950798
 30
0.0
  0
VERTEX
  5
55A
  8
0
  6
CONTINUOUS
 62
     7
 10
-364.7524076366639
 20
358.8131932332482
 30
0.0
  0
VERTEX
  5
55B
  8
0
  6
CONTINUOUS
 62
     7
 10
-364.7506022718974
 20
358.8030554669037
 30
0.0
  0
VERTEX
  5
55C
  8
0
  6
CONTINUOUS
 62
     7
 10
-364.75
 20
358.7928932188134
 30
0.0
  0
SEQEND
  5
678
  8
0
  6
CONTINUOUS
 62
     7
  0
POLYLINE
  5
1B5
  8
0
  6
CONTINUOUS
 62
     7
 66
     1
 10
0.0
 20
0.0
 30
0.0
  0
VERTEX
  5
55D
  8
0
  6
CONTINUOUS
 62
     7
 10
-364.75
 20
356.7928932188133
 30
0.0
  0
VERTEX
  5
55E
  8
0
  6
CONTINUOUS
 62
     7
 10
-364.7506022718974
 20
356.8030554669036
 30
0.0
  0
VERTEX
  5
55F
  8
0
  6
CONTINUOUS
 62
     7
 10
-364.7524076366639
 20
356.8131932332481
 30
0.0
  0
VERTEX
  5
560
  8
0
  6
CONTINUOUS
 62
     7
 10
-364.7554117450176
 20
356.8232820950798
 30
0.0
  0
VERTEX
  5
561
  8
0
  6
CONTINUOUS
 62
     7
 10
-364.7596073597984
 20
356.8332977474467
 30
0.0
  0
VERTEX
  5
562
  8
0
  6
CONTINUOUS
 62
     7
 10
-364.7649843734027
 20
356.8432160617652
 30
0.0
  0
VERTEX
  5
563
  8
0
  6
CONTINUOUS
 62
     7
 10
-364.7715298321339
 20
356.8530131439473
 30
0.0
  0
VERTEX
  5
564
  8
0
  6
CONTINUOUS
 62
     7
 10
-364.7792279674085
 20
356.8626653919638
 30
0.0
  0
VERTEX
  5
565
  8
0
  6
CONTINUOUS
 62
     7
 10
-364.7880602337444
 20
356.8721495527039
 30
0.0
  0
VERTEX
  5
566
  8
0
  6
CONTINUOUS
 62
     7
 10
-364.7980053534383
 20
356.8814427779936
 30
0.0
  0
VERTEX
  5
567
  8
0
  6
CONTINUOUS
 62
     7
 10
-364.8090393678258
 20
356.8905226796392
 30
0.0
  0
VERTEX
  5
568
  8
0
  6
CONTINUOUS
 62
     7
 10
-364.8211356949998
 20
356.8993673833623
 30
0.0
  0
VERTEX
  5
569
  8
0
  6
CONTINUOUS
 62
     7
 10
-364.8342651938488
 20
356.9079555814971
 30
0.0
  0
VERTEX
  5
56A
  8
0
  6
CONTINUOUS
 62
     7
 10
-364.8483962342597
 20
356.9162665843218
 30
0.0
  0
VERTEX
  5
56B
  8
0
  6
CONTINUOUS
 62
     7
 10
-364.8634947733186
 20
356.9242803699029
 30
0.0
  0
VERTEX
  5
56C
  8
0
  6
CONTINUOUS
 62
     7
 10
-364.8795244373225
 20
356.9319776323287
 30
0.0
  0
VERTEX
  5
56D
  8
0
  6
CONTINUOUS
 62
     7
 10
-364.8964466094067
 20
356.9393398282201
 30
0.0
  0
VERTEX
  5
56E
  8
0
  6
CONTINUOUS
 62
     7
 10
-364.9142205225765
 20
356.9463492214022
 30
0.0
  0
VERTEX
  5
56F
  8
0
  6
CONTINUOUS
 62
     7
 10
-364.9328033579182
 20
356.9529889256329
 30
0.0
  0
VERTEX
  5
570
  8
0
  6
CONTINUOUS
 62
     7
 10
-364.9521503477538
 20
356.9592429452831
 30
0.0
  0
VERTEX
  5
571
  8
0
  6
CONTINUOUS
 62
     7
 10
-364.9722148834902
 20
356.9650962138718
 30
0.0
  0
VERTEX
  5
572
  8
0
  6
CONTINUOUS
 62
     7
 10
-364.9929486279034
 20
356.9705346303621
 30
0.0
  0
VERTEX
  5
573
  8
0
  6
CONTINUOUS
 62
     7
 10
-365.014301631587
 20
356.9755450931325
 30
0.0
  0
VERTEX
  5
574
  8
0
  6
CONTINUOUS
 62
     7
 10
-365.0362224532849
 20
356.9801155315392
 30
0.0
  0
VERTEX
  5
575
  8
0
  6
CONTINUOUS
 62
     7
 10
-365.0586582838175
 20
356.9842349349959
 30
0.0
  0
VERTEX
  5
576
  8
0
  6
CONTINUOUS
 62
     7
 10
-365.0815550733039
 20
356.9878933794987
 30
0.0
  0
VERTEX
  5
577
  8
0
  6
CONTINUOUS
 62
     7
 10
-365.1048576613728
 20
356.9910820515344
 30
0.0
  0
VERTEX
  5
578
  8
0
  6
CONTINUOUS
 62
     7
 10
-365.1285099100484
 20
356.9937932693128
 30
0.0
  0
VERTEX
  5
579
  8
0
  6
CONTINUOUS
 62
     7
 10
-365.152454838992
 20
356.9960205012728
 30
0.0
  0
VERTEX
  5
57A
  8
0
  6
CONTINUOUS
 62
     7
 10
-365.1766347627723
 20
356.9977583818175
 30
0.0
  0
VERTEX
  5
57B
  8
0
  6
CONTINUOUS
 62
     7
 10
-365.2009914298353
 20
356.9990027242404
 30
0.0
  0
VERTEX
  5
57C
  8
0
  6
CONTINUOUS
 62
     7
 10
-365.2254661628363
 20
356.9997505308118
 30
0.0
  0
VERTEX
  5
57D
  8
0
  6
CONTINUOUS
 62
     7
 10
-365.25
 20
356.9999999999999
 30
0.0
  0
SEQEND
  5
679
  8
0
  6
CONTINUOUS
 62
     7
  0
POLYLINE
  5
1B6
  8
0
  6
CONTINUOUS
 62
     7
 66
     1
 10
0.0
 20
0.0
 30
0.0
  0
VERTEX
  5
57E
  8
0
  6
CONTINUOUS
 62
     7
 10
-365.2499999999999
 20
361.0000000000001
 30
0.0
  0
VERTEX
  5
57F
  8
0
  6
CONTINUOUS
 62
     7
 10
-365.2254661628363
 20
361.0002494691882
 30
0.0
  0
VERTEX
  5
580
  8
0
  6
CONTINUOUS
 62
     7
 10
-365.2009914298352
 20
361.0009972757596
 30
0.0
  0
VERTEX
  5
581
  8
0
  6
CONTINUOUS
 62
     7
 10
-365.1766347627723
 20
361.0022416181825
 30
0.0
  0
VERTEX
  5
582
  8
0
  6
CONTINUOUS
 62
     7
 10
-365.152454838992
 20
361.0039794987272
 30
0.0
  0
VERTEX
  5
583
  8
0
  6
CONTINUOUS
 62
     7
 10
-365.1285099100484
 20
361.0062067306872
 30
0.0
  0
VERTEX
  5
584
  8
0
  6
CONTINUOUS
 62
     7
 10
-365.1048576613728
 20
361.0089179484656
 30
0.0
  0
VERTEX
  5
585
  8
0
  6
CONTINUOUS
 62
     7
 10
-365.0815550733038
 20
361.0121066205013
 30
0.0
  0
VERTEX
  5
586
  8
0
  6
CONTINUOUS
 62
     7
 10
-365.0586582838175
 20
361.0157650650041
 30
0.0
  0
VERTEX
  5
587
  8
0
  6
CONTINUOUS
 62
     7
 10
-365.0362224532849
 20
361.0198844684608
 30
0.0
  0
VERTEX
  5
588
  8
0
  6
CONTINUOUS
 62
     7
 10
-365.014301631587
 20
361.0244549068675
 30
0.0
  0
VERTEX
  5
589
  8
0
  6
CONTINUOUS
 62
     7
 10
-364.9929486279034
 20
361.0294653696379
 30
0.0
  0
VERTEX
  5
58A
  8
0
  6
CONTINUOUS
 62
     7
 10
-364.9722148834902
 20
361.0349037861282
 30
0.0
  0
VERTEX
  5
58B
  8
0
  6
CONTINUOUS
 62
     7
 10
-364.9521503477538
 20
361.0407570547169
 30
0.0
  0
VERTEX
  5
58C
  8
0
  6
CONTINUOUS
 62
     7
 10
-364.9328033579181
 20
361.0470110743672
 30
0.0
  0
VERTEX
  5
58D
  8
0
  6
CONTINUOUS
 62
     7
 10
-364.9142205225765
 20
361.0536507785978
 30
0.0
  0
VERTEX
  5
58E
  8
0
  6
CONTINUOUS
 62
     7
 10
-364.8964466094067
 20
361.0606601717799
 30
0.0
  0
VERTEX
  5
58F
  8
0
  6
CONTINUOUS
 62
     7
 10
-364.8795244373225
 20
361.0680223676713
 30
0.0
  0
VERTEX
  5
590
  8
0
  6
CONTINUOUS
 62
     7
 10
-364.8634947733186
 20
361.0757196300971
 30
0.0
  0
VERTEX
  5
591
  8
0
  6
CONTINUOUS
 62
     7
 10
-364.8483962342597
 20
361.0837334156782
 30
0.0
  0
VERTEX
  5
592
  8
0
  6
CONTINUOUS
 62
     7
 10
-364.8342651938488
 20
361.0920444185029
 30
0.0
  0
VERTEX
  5
593
  8
0
  6
CONTINUOUS
 62
     7
 10
-364.8211356949998
 20
361.1006326166376
 30
0.0
  0
VERTEX
  5
594
  8
0
  6
CONTINUOUS
 62
     7
 10
-364.8090393678258
 20
361.1094773203608
 30
0.0
  0
VERTEX
  5
595
  8
0
  6
CONTINUOUS
 62
     7
 10
-364.7980053534383
 20
361.1185572220064
 30
0.0
  0
VERTEX
  5
596
  8
0
  6
CONTINUOUS
 62
     7
 10
-364.7880602337444
 20
361.1278504472961
 30
0.0
  0
VERTEX
  5
597
  8
0
  6
CONTINUOUS
 62
     7
 10
-364.7792279674085
 20
361.1373346080362
 30
0.0
  0
VERTEX
  5
598
  8
0
  6
CONTINUOUS
 62
     7
 10
-364.7715298321339
 20
361.1469868560527
 30
0.0
  0
VERTEX
  5
599
  8
0
  6
CONTINUOUS
 62
     7
 10
-364.7649843734027
 20
361.1567839382348
 30
0.0
  0
VERTEX
  5
59A
  8
0
  6
CONTINUOUS
 62
     7
 10
-364.7596073597984
 20
361.1667022525533
 30
0.0
  0
VERTEX
  5
59B
  8
0
  6
CONTINUOUS
 62
     7
 10
-364.7554117450176
 20
361.1767179049202
 30
0.0
  0
VERTEX
  5
59C
  8
0
  6
CONTINUOUS
 62
     7
 10
-364.7524076366639
 20
361.1868067667519
 30
0.0
  0
VERTEX
  5
59D
  8
0
  6
CONTINUOUS
 62
     7
 10
-364.7506022718974
 20
361.1969445330964
 30
0.0
  0
VERTEX
  5
59E
  8
0
  6
CONTINUOUS
 62
     7
 10
-364.75
 20
361.2071067811867
 30
0.0
  0
SEQEND
  5
67A
  8
0
  6
CONTINUOUS
 62
     7
  0
POLYLINE
  5
1B7
  8
0
  6
CONTINUOUS
 62
     7
 66
     1
 10
0.0
 20
0.0
 30
0.0
  0
VERTEX
  5
59F
  8
0
  6
CONTINUOUS
 62
     7
 10
-514.75
 20
359.0
 30
0.0
  0
VERTEX
  5
5A0
  8
0
  6
CONTINUOUS
 62
     7
 10
-514.7745338371636
 20
358.9997505308119
 30
0.0
  0
VERTEX
  5
5A1
  8
0
  6
CONTINUOUS
 62
     7
 10
-514.7990085701648
 20
358.9990027242405
 30
0.0
  0
VERTEX
  5
5A2
  8
0
  6
CONTINUOUS
 62
     7
 10
-514.8233652372276
 20
358.9977583818176
 30
0.0
  0
VERTEX
  5
5A3
  8
0
  6
CONTINUOUS
 62
     7
 10
-514.847545161008
 20
358.9960205012729
 30
0.0
  0
VERTEX
  5
5A4
  8
0
  6
CONTINUOUS
 62
     7
 10
-514.8714900899515
 20
358.9937932693129
 30
0.0
  0
VERTEX
  5
5A5
  8
0
  6
CONTINUOUS
 62
     7
 10
-514.8951423386272
 20
358.9910820515345
 30
0.0
  0
VERTEX
  5
5A6
  8
0
  6
CONTINUOUS
 62
     7
 10
-514.9184449266961
 20
358.9878933794988
 30
0.0
  0
VERTEX
  5
5A7
  8
0
  6
CONTINUOUS
 62
     7
 10
-514.9413417161826
 20
358.984234934996
 30
0.0
  0
VERTEX
  5
5A8
  8
0
  6
CONTINUOUS
 62
     7
 10
-514.963777546715
 20
358.9801155315394
 30
0.0
  0
VERTEX
  5
5A9
  8
0
  6
CONTINUOUS
 62
     7
 10
-514.985698368413
 20
358.9755450931326
 30
0.0
  0
VERTEX
  5
5AA
  8
0
  6
CONTINUOUS
 62
     7
 10
-515.0070513720966
 20
358.9705346303622
 30
0.0
  0
VERTEX
  5
5AB
  8
0
  6
CONTINUOUS
 62
     7
 10
-515.0277851165098
 20
358.9650962138718
 30
0.0
  0
VERTEX
  5
5AC
  8
0
  6
CONTINUOUS
 62
     7
 10
-515.0478496522461
 20
358.9592429452832
 30
0.0
  0
VERTEX
  5
5AD
  8
0
  6
CONTINUOUS
 62
     7
 10
-515.0671966420817
 20
358.952988925633
 30
0.0
  0
VERTEX
  5
5AE
  8
0
  6
CONTINUOUS
 62
     7
 10
-515.0857794774234
 20
358.9463492214022
 30
0.0
  0
VERTEX
  5
5AF
  8
0
  6
CONTINUOUS
 62
     7
 10
-515.1035533905932
 20
358.9393398282202
 30
0.0
  0
VERTEX
  5
5B0
  8
0
  6
CONTINUOUS
 62
     7
 10
-515.1204755626775
 20
358.9319776323288
 30
0.0
  0
VERTEX
  5
5B1
  8
0
  6
CONTINUOUS
 62
     7
 10
-515.1365052266813
 20
358.9242803699029
 30
0.0
  0
VERTEX
  5
5B2
  8
0
  6
CONTINUOUS
 62
     7
 10
-515.1516037657403
 20
358.9162665843219
 30
0.0
  0
VERTEX
  5
5B3
  8
0
  6
CONTINUOUS
 62
     7
 10
-515.1657348061512
 20
358.9079555814972
 30
0.0
  0
VERTEX
  5
5B4
  8
0
  6
CONTINUOUS
 62
     7
 10
-515.1788643050002
 20
358.8993673833625
 30
0.0
  0
VERTEX
  5
5B5
  8
0
  6
CONTINUOUS
 62
     7
 10
-515.1909606321742
 20
358.8905226796393
 30
0.0
  0
VERTEX
  5
5B6
  8
0
  6
CONTINUOUS
 62
     7
 10
-515.2019946465617
 20
358.8814427779937
 30
0.0
  0
VERTEX
  5
5B7
  8
0
  6
CONTINUOUS
 62
     7
 10
-515.2119397662556
 20
358.8721495527039
 30
0.0
  0
VERTEX
  5
5B8
  8
0
  6
CONTINUOUS
 62
     7
 10
-515.2207720325915
 20
358.8626653919639
 30
0.0
  0
VERTEX
  5
5B9
  8
0
  6
CONTINUOUS
 62
     7
 10
-515.2284701678661
 20
358.8530131439474
 30
0.0
  0
VERTEX
  5
5BA
  8
0
  6
CONTINUOUS
 62
     7
 10
-515.2350156265973
 20
358.8432160617653
 30
0.0
  0
VERTEX
  5
5BB
  8
0
  6
CONTINUOUS
 62
     7
 10
-515.2403926402015
 20
358.8332977474468
 30
0.0
  0
VERTEX
  5
5BC
  8
0
  6
CONTINUOUS
 62
     7
 10
-515.2445882549823
 20
358.8232820950798
 30
0.0
  0
VERTEX
  5
5BD
  8
0
  6
CONTINUOUS
 62
     7
 10
-515.247592363336
 20
358.8131932332482
 30
0.0
  0
VERTEX
  5
5BE
  8
0
  6
CONTINUOUS
 62
     7
 10
-515.2493977281025
 20
358.8030554669037
 30
0.0
  0
VERTEX
  5
5BF
  8
0
  6
CONTINUOUS
 62
     7
 10
-515.25
 20
358.7928932188134
 30
0.0
  0
SEQEND
  5
67B
  8
0
  6
CONTINUOUS
 62
     7
  0
POLYLINE
  5
1B8
  8
0
  6
CONTINUOUS
 62
     7
 66
     1
 10
0.0
 20
0.0
 30
0.0
  0
VERTEX
  5
5C0
  8
0
  6
CONTINUOUS
 62
     7
 10
-514.75
 20
356.9999999999999
 30
0.0
  0
VERTEX
  5
5C1
  8
0
  6
CONTINUOUS
 62
     7
 10
-514.7745338371636
 20
356.9997505308118
 30
0.0
  0
VERTEX
  5
5C2
  8
0
  6
CONTINUOUS
 62
     7
 10
-514.7990085701648
 20
356.9990027242404
 30
0.0
  0
VERTEX
  5
5C3
  8
0
  6
CONTINUOUS
 62
     7
 10
-514.8233652372276
 20
356.9977583818175
 30
0.0
  0
VERTEX
  5
5C4
  8
0
  6
CONTINUOUS
 62
     7
 10
-514.847545161008
 20
356.9960205012728
 30
0.0
  0
VERTEX
  5
5C5
  8
0
  6
CONTINUOUS
 62
     7
 10
-514.8714900899515
 20
356.9937932693128
 30
0.0
  0
VERTEX
  5
5C6
  8
0
  6
CONTINUOUS
 62
     7
 10
-514.8951423386272
 20
356.9910820515344
 30
0.0
  0
VERTEX
  5
5C7
  8
0
  6
CONTINUOUS
 62
     7
 10
-514.9184449266961
 20
356.9878933794987
 30
0.0
  0
VERTEX
  5
5C8
  8
0
  6
CONTINUOUS
 62
     7
 10
-514.9413417161826
 20
356.9842349349959
 30
0.0
  0
VERTEX
  5
5C9
  8
0
  6
CONTINUOUS
 62
     7
 10
-514.963777546715
 20
356.9801155315392
 30
0.0
  0
VERTEX
  5
5CA
  8
0
  6
CONTINUOUS
 62
     7
 10
-514.985698368413
 20
356.9755450931325
 30
0.0
  0
VERTEX
  5
5CB
  8
0
  6
CONTINUOUS
 62
     7
 10
-515.0070513720966
 20
356.9705346303621
 30
0.0
  0
VERTEX
  5
5CC
  8
0
  6
CONTINUOUS
 62
     7
 10
-515.0277851165098
 20
356.9650962138718
 30
0.0
  0
VERTEX
  5
5CD
  8
0
  6
CONTINUOUS
 62
     7
 10
-515.0478496522461
 20
356.9592429452831
 30
0.0
  0
VERTEX
  5
5CE
  8
0
  6
CONTINUOUS
 62
     7
 10
-515.0671966420817
 20
356.9529889256329
 30
0.0
  0
VERTEX
  5
5CF
  8
0
  6
CONTINUOUS
 62
     7
 10
-515.0857794774234
 20
356.9463492214022
 30
0.0
  0
VERTEX
  5
5D0
  8
0
  6
CONTINUOUS
 62
     7
 10
-515.1035533905932
 20
356.9393398282201
 30
0.0
  0
VERTEX
  5
5D1
  8
0
  6
CONTINUOUS
 62
     7
 10
-515.1204755626775
 20
356.9319776323287
 30
0.0
  0
VERTEX
  5
5D2
  8
0
  6
CONTINUOUS
 62
     7
 10
-515.1365052266813
 20
356.9242803699029
 30
0.0
  0
VERTEX
  5
5D3
  8
0
  6
CONTINUOUS
 62
     7
 10
-515.1516037657403
 20
356.9162665843218
 30
0.0
  0
VERTEX
  5
5D4
  8
0
  6
CONTINUOUS
 62
     7
 10
-515.1657348061512
 20
356.9079555814971
 30
0.0
  0
VERTEX
  5
5D5
  8
0
  6
CONTINUOUS
 62
     7
 10
-515.1788643050002
 20
356.8993673833623
 30
0.0
  0
VERTEX
  5
5D6
  8
0
  6
CONTINUOUS
 62
     7
 10
-515.1909606321742
 20
356.8905226796392
 30
0.0
  0
VERTEX
  5
5D7
  8
0
  6
CONTINUOUS
 62
     7
 10
-515.2019946465617
 20
356.8814427779936
 30
0.0
  0
VERTEX
  5
5D8
  8
0
  6
CONTINUOUS
 62
     7
 10
-515.2119397662556
 20
356.8721495527039
 30
0.0
  0
VERTEX
  5
5D9
  8
0
  6
CONTINUOUS
 62
     7
 10
-515.2207720325915
 20
356.8626653919638
 30
0.0
  0
VERTEX
  5
5DA
  8
0
  6
CONTINUOUS
 62
     7
 10
-515.2284701678661
 20
356.8530131439473
 30
0.0
  0
VERTEX
  5
5DB
  8
0
  6
CONTINUOUS
 62
     7
 10
-515.2350156265973
 20
356.8432160617652
 30
0.0
  0
VERTEX
  5
5DC
  8
0
  6
CONTINUOUS
 62
     7
 10
-515.2403926402015
 20
356.8332977474467
 30
0.0
  0
VERTEX
  5
5DD
  8
0
  6
CONTINUOUS
 62
     7
 10
-515.2445882549823
 20
356.8232820950798
 30
0.0
  0
VERTEX
  5
5DE
  8
0
  6
CONTINUOUS
 62
     7
 10
-515.247592363336
 20
356.8131932332481
 30
0.0
  0
VERTEX
  5
5DF
  8
0
  6
CONTINUOUS
 62
     7
 10
-515.2493977281025
 20
356.8030554669036
 30
0.0
  0
VERTEX
  5
5E0
  8
0
  6
CONTINUOUS
 62
     7
 10
-515.25
 20
356.7928932188133
 30
0.0
  0
SEQEND
  5
67C
  8
0
  6
CONTINUOUS
 62
     7
  0
POLYLINE
  5
1B9
  8
0
  6
CONTINUOUS
 62
     7
 66
     1
 10
0.0
 20
0.0
 30
0.0
  0
VERTEX
  5
5E1
  8
0
  6
CONTINUOUS
 62
     7
 10
-365.25
 20
363.0000000000001
 30
0.0
  0
VERTEX
  5
5E2
  8
0
  6
CONTINUOUS
 62
     7
 10
-365.2254661628363
 20
363.0002494691883
 30
0.0
  0
VERTEX
  5
5E3
  8
0
  6
CONTINUOUS
 62
     7
 10
-365.2009914298353
 20
363.0009972757596
 30
0.0
  0
VERTEX
  5
5E4
  8
0
  6
CONTINUOUS
 62
     7
 10
-365.1766347627723
 20
363.0022416181825
 30
0.0
  0
VERTEX
  5
5E5
  8
0
  6
CONTINUOUS
 62
     7
 10
-365.152454838992
 20
363.0039794987272
 30
0.0
  0
VERTEX
  5
5E6
  8
0
  6
CONTINUOUS
 62
     7
 10
-365.1285099100484
 20
363.0062067306872
 30
0.0
  0
VERTEX
  5
5E7
  8
0
  6
CONTINUOUS
 62
     7
 10
-365.1048576613728
 20
363.0089179484656
 30
0.0
  0
VERTEX
  5
5E8
  8
0
  6
CONTINUOUS
 62
     7
 10
-365.0815550733039
 20
363.0121066205013
 30
0.0
  0
VERTEX
  5
5E9
  8
0
  6
CONTINUOUS
 62
     7
 10
-365.0586582838175
 20
363.0157650650041
 30
0.0
  0
VERTEX
  5
5EA
  8
0
  6
CONTINUOUS
 62
     7
 10
-365.0362224532849
 20
363.0198844684608
 30
0.0
  0
VERTEX
  5
5EB
  8
0
  6
CONTINUOUS
 62
     7
 10
-365.014301631587
 20
363.0244549068675
 30
0.0
  0
VERTEX
  5
5EC
  8
0
  6
CONTINUOUS
 62
     7
 10
-364.9929486279034
 20
363.0294653696379
 30
0.0
  0
VERTEX
  5
5ED
  8
0
  6
CONTINUOUS
 62
     7
 10
-364.9722148834902
 20
363.0349037861283
 30
0.0
  0
VERTEX
  5
5EE
  8
0
  6
CONTINUOUS
 62
     7
 10
-364.9521503477538
 20
363.0407570547169
 30
0.0
  0
VERTEX
  5
5EF
  8
0
  6
CONTINUOUS
 62
     7
 10
-364.9328033579182
 20
363.0470110743672
 30
0.0
  0
VERTEX
  5
5F0
  8
0
  6
CONTINUOUS
 62
     7
 10
-364.9142205225765
 20
363.0536507785978
 30
0.0
  0
VERTEX
  5
5F1
  8
0
  6
CONTINUOUS
 62
     7
 10
-364.8964466094067
 20
363.0606601717799
 30
0.0
  0
VERTEX
  5
5F2
  8
0
  6
CONTINUOUS
 62
     7
 10
-364.8795244373225
 20
363.0680223676713
 30
0.0
  0
VERTEX
  5
5F3
  8
0
  6
CONTINUOUS
 62
     7
 10
-364.8634947733186
 20
363.0757196300971
 30
0.0
  0
VERTEX
  5
5F4
  8
0
  6
CONTINUOUS
 62
     7
 10
-364.8483962342597
 20
363.0837334156782
 30
0.0
  0
VERTEX
  5
5F5
  8
0
  6
CONTINUOUS
 62
     7
 10
-364.8342651938488
 20
363.0920444185029
 30
0.0
  0
VERTEX
  5
5F6
  8
0
  6
CONTINUOUS
 62
     7
 10
-364.8211356949998
 20
363.1006326166377
 30
0.0
  0
VERTEX
  5
5F7
  8
0
  6
CONTINUOUS
 62
     7
 10
-364.8090393678258
 20
363.1094773203608
 30
0.0
  0
VERTEX
  5
5F8
  8
0
  6
CONTINUOUS
 62
     7
 10
-364.7980053534383
 20
363.1185572220064
 30
0.0
  0
VERTEX
  5
5F9
  8
0
  6
CONTINUOUS
 62
     7
 10
-364.7880602337444
 20
363.1278504472961
 30
0.0
  0
VERTEX
  5
5FA
  8
0
  6
CONTINUOUS
 62
     7
 10
-364.7792279674085
 20
363.1373346080362
 30
0.0
  0
VERTEX
  5
5FB
  8
0
  6
CONTINUOUS
 62
     7
 10
-364.7715298321339
 20
363.1469868560527
 30
0.0
  0
VERTEX
  5
5FC
  8
0
  6
CONTINUOUS
 62
     7
 10
-364.7649843734027
 20
363.1567839382348
 30
0.0
  0
VERTEX
  5
5FD
  8
0
  6
CONTINUOUS
 62
     7
 10
-364.7596073597984
 20
363.1667022525533
 30
0.0
  0
VERTEX
  5
5FE
  8
0
  6
CONTINUOUS
 62
     7
 10
-364.7554117450176
 20
363.1767179049202
 30
0.0
  0
VERTEX
  5
5FF
  8
0
  6
CONTINUOUS
 62
     7
 10
-364.7524076366639
 20
363.1868067667519
 30
0.0
  0
VERTEX
  5
600
  8
0
  6
CONTINUOUS
 62
     7
 10
-364.7506022718974
 20
363.1969445330964
 30
0.0
  0
VERTEX
  5
601
  8
0
  6
CONTINUOUS
 62
     7
 10
-364.75
 20
363.2071067811867
 30
0.0
  0
SEQEND
  5
67D
  8
0
  6
CONTINUOUS
 62
     7
  0
ARC
  5
1BA
  8
0
  6
CONTINUOUS
 62
     7
 10
-421.0
 20
360.0
 30
0.0
 40
6.5
 50
209.2245980261437
 51
278.8498830984291
  0
LINE
  5
1BB
  8
0
  6
CONTINUOUS
 62
     7
 10
-426.7435113701453
 20
357.0374395915732
 30
0.0
 11
-426.6726315789473
 21
356.8264765686182
 31
0.0
  0
LINE
  5
1BC
  8
0
  6
CONTINUOUS
 62
     7
 10
-420.0
 20
353.5773837106674
 30
0.0
 11
-420.0
 21
305.5
 31
0.0
  0
LINE
  5
1BD
  8
0
  6
CONTINUOUS
 62
     7
 10
-437.0374395915732
 20
373.2564886298546
 30
0.0
 11
-436.8264765686182
 21
373.3273684210526
 31
0.0
  0
LINE
  5
1BE
  8
0
  6
CONTINUOUS
 62
     7
 10
-443.1735234313818
 20
373.3273684210526
 30
0.0
 11
-442.9625604084268
 21
373.2564886298546
 31
0.0
  0
ARC
  5
1BF
  8
0
  6
CONTINUOUS
 62
     7
 10
-440.0
 20
379.0
 30
0.0
 40
6.5
 50
299.2245980261437
 51
240.7754019738563
  0
ARC
  5
1C0
  8
0
  6
CONTINUOUS
 62
     7
 10
-472.5
 20
360.0
 30
0.0
 40
6.5
 50
207.4864262503813
 51
332.5135737496187
  0
ARC
  5
1C1
  8
0
  6
CONTINUOUS
 62
     7
 10
-407.4999999999999
 20
360.0
 30
0.0
 40
6.499999999999999
 50
207.4864262503813
 51
332.5135737496187
  0
LINE
  5
1C2
  8
0
  6
CONTINUOUS
 62
     7
 10
-442.9625604084267
 20
373.2564886298546
 30
0.0
 11
-442.8
 21
373.2064378240311
 31
0.0
  0
LINE
  5
1C3
  8
0
  6
CONTINUOUS
 62
     7
 10
-453.2064378240311
 20
362.8
 30
0.0
 11
-453.2564886298547
 21
362.9625604084268
 31
0.0
  0
LINE
  5
1C4
  8
0
  6
CONTINUOUS
 62
     7
 10
-465.9999999999999
 20
363.0
 30
0.0
 11
-466.7337187026645
 21
363.0
 31
0.0
  0
LINE
  5
1C5
  8
0
  6
CONTINUOUS
 62
     7
 10
-453.3273684210527
 20
356.8264765686182
 30
0.0
 11
-453.2564886298547
 21
357.0374395915732
 31
0.0
  0
ARC
  5
1C6
  8
0
  6
CONTINUOUS
 62
     7
 10
-459.0
 20
360.0
 30
0.0
 40
6.5
 50
261.150116901571
 51
330.7754019738563
  0
LINE
  5
1C7
  8
0
  6
CONTINUOUS
 62
     7
 10
-460.0
 20
303.8098418849576
 30
0.0
 11
-460.0
 21
353.5773837106674
 31
0.0
  0
POLYLINE
  5
1C8
  8
0
  6
CONTINUOUS
 62
     7
 66
     1
 10
0.0
 20
0.0
 30
0.0
  0
VERTEX
  5
602
  8
0
  6
CONTINUOUS
 62
     7
 10
-460.2867767836856
 20
303.1089049093956
 30
0.0
  0
VERTEX
  5
603
  8
0
  6
CONTINUOUS
 62
     7
 10
-460.2536037939039
 20
303.1443400415903
 30
0.0
  0
VERTEX
  5
604
  8
0
  6
CONTINUOUS
 62
     7
 10
-460.2221893851219
 20
303.1813431599128
 30
0.0
  0
VERTEX
  5
605
  8
0
  6
CONTINUOUS
 62
     7
 10
-460.1926075726976
 20
303.2198270814699
 30
0.0
  0
VERTEX
  5
606
  8
0
  6
CONTINUOUS
 62
     7
 10
-460.1649280542163
 20
303.2597011344537
 30
0.0
  0
VERTEX
  5
607
  8
0
  6
CONTINUOUS
 62
     7
 10
-460.1392160452766
 20
303.3008713717737
 30
0.0
  0
VERTEX
  5
608
  8
0
  6
CONTINUOUS
 62
     7
 10
-460.1155321258357
 20
303.343240792405
 30
0.0
  0
VERTEX
  5
609
  8
0
  6
CONTINUOUS
 62
     7
 10
-460.0939320974779
 20
303.3867095699316
 30
0.0
  0
VERTEX
  5
60A
  8
0
  6
CONTINUOUS
 62
     7
 10
-460.0744668519403
 20
303.4311752877474
 30
0.0
  0
VERTEX
  5
60B
  8
0
  6
CONTINUOUS
 62
     7
 10
-460.057182251207
 20
303.4765331803594
 30
0.0
  0
VERTEX
  5
60C
  8
0
  6
CONTINUOUS
 62
     7
 10
-460.0421190194539
 20
303.5226763802253
 30
0.0
  0
VERTEX
  5
60D
  8
0
  6
CONTINUOUS
 62
     7
 10
-460.0293126470989
 20
303.5694961695437
 30
0.0
  0
VERTEX
  5
60E
  8
0
  6
CONTINUOUS
 62
     7
 10
-460.0187933071825
 20
303.6168822364034
 30
0.0
  0
VERTEX
  5
60F
  8
0
  6
CONTINUOUS
 62
     7
 10
-460.0105857842779
 20
303.6647229346893
 30
0.0
  0
VERTEX
  5
610
  8
0
  6
CONTINUOUS
 62
     7
 10
-460.0047094160956
 20
303.7129055471309
 30
0.0
  0
VERTEX
  5
611
  8
0
  6
CONTINUOUS
 62
     7
 10
-460.0011780479223
 20
303.7613165508753
 30
0.0
  0
VERTEX
  5
612
  8
0
  6
CONTINUOUS
 62
     7
 10
-460.0
 20
303.8098418849576
 30
0.0
  0
SEQEND
  5
67E
  8
0
  6
CONTINUOUS
 62
     7
  0
ARC
  5
1C9
  8
0
  6
CONTINUOUS
 62
     7
 10
-472.5
 20
360.0
 30
0.0
 40
6.499999999999999
 50
27.48642625038133
 51
152.5135737496187
  0
LINE
  5
1CA
  8
0
  6
CONTINUOUS
 62
     7
 10
-466.7337187026646
 20
357.0
 30
0.0
 11
-465.9999999999999
 21
357.0
 31
0.0
  0
ARC
  5
1CB
  8
0
  6
CONTINUOUS
 62
     7
 10
-459.0
 20
360.0
 30
0.0
 40
6.5
 50
29.22459802614367
 51
98.84988309842912
  0
LINE
  5
1CC
  8
0
  6
CONTINUOUS
 62
     7
 10
-453.2564886298547
 20
362.9625604084267
 30
0.0
 11
-453.3273684210527
 21
363.1735234313817
 31
0.0
  0
LINE
  5
1CD
  8
0
  6
CONTINUOUS
 62
     7
 10
-426.6726315789473
 20
363.1735234313817
 30
0.0
 11
-426.7435113701453
 21
362.9625604084268
 31
0.0
  0
ARC
  5
1CE
  8
0
  6
CONTINUOUS
 62
     7
 10
-421.0
 20
360.0
 30
0.0
 40
6.5
 50
81.15011690157093
 51
150.7754019738563
  0
CIRCLE
  5
1CF
  8
0
  6
CONTINUOUS
 62
     7
 10
-440.0
 20
340.9999999999999
 30
0.0
 40
2.999999999999999
  0
LINE
  5
1D0
  8
0
  6
CONTINUOUS
 62
     7
 10
-426.7935621759689
 20
357.1999999999999
 30
0.0
 11
-426.7435113701453
 21
357.0374395915732
 31
0.0
  0
CIRCLE
  5
1D1
  8
0
  6
CONTINUOUS
 62
     7
 10
-407.4999999999999
 20
360.0
 30
0.0
 40
2.999999999999996
  0
LINE
  5
1D2
  8
0
  6
CONTINUOUS
 62
     7
 10
-442.8
 20
346.7935621759688
 30
0.0
 11
-442.9625604084268
 21
346.7435113701453
 31
0.0
  0
CIRCLE
  5
1D3
  8
0
  6
CONTINUOUS
 62
     7
 10
-440.0
 20
379.0
 30
0.0
 40
2.999999999999999
  0
LINE
  5
1D4
  8
0
  6
CONTINUOUS
 62
     7
 10
-420.0
 20
416.1901581150423
 30
0.0
 11
-420.0
 21
366.4226162893326
 31
0.0
  0
POLYLINE
  5
1D5
  8
0
  6
CONTINUOUS
 62
     7
 66
     1
 10
0.0
 20
0.0
 30
0.0
  0
VERTEX
  5
613
  8
0
  6
CONTINUOUS
 62
     7
 10
-419.7132232163144
 20
416.8910950906043
 30
0.0
  0
VERTEX
  5
614
  8
0
  6
CONTINUOUS
 62
     7
 10
-419.7463962060961
 20
416.8556599584097
 30
0.0
  0
VERTEX
  5
615
  8
0
  6
CONTINUOUS
 62
     7
 10
-419.777810614878
 20
416.8186568400871
 30
0.0
  0
VERTEX
  5
616
  8
0
  6
CONTINUOUS
 62
     7
 10
-419.8073924273024
 20
416.7801729185301
 30
0.0
  0
VERTEX
  5
617
  8
0
  6
CONTINUOUS
 62
     7
 10
-419.8350719457837
 20
416.7402988655463
 30
0.0
  0
VERTEX
  5
618
  8
0
  6
CONTINUOUS
 62
     7
 10
-419.8607839547234
 20
416.6991286282262
 30
0.0
  0
VERTEX
  5
619
  8
0
  6
CONTINUOUS
 62
     7
 10
-419.8844678741643
 20
416.6567592075949
 30
0.0
  0
VERTEX
  5
61A
  8
0
  6
CONTINUOUS
 62
     7
 10
-419.9060679025221
 20
416.6132904300683
 30
0.0
  0
VERTEX
  5
61B
  8
0
  6
CONTINUOUS
 62
     7
 10
-419.9255331480597
 20
416.5688247122525
 30
0.0
  0
VERTEX
  5
61C
  8
0
  6
CONTINUOUS
 62
     7
 10
-419.942817748793
 20
416.5234668196405
 30
0.0
  0
VERTEX
  5
61D
  8
0
  6
CONTINUOUS
 62
     7
 10
-419.957880980546
 20
416.4773236197746
 30
0.0
  0
VERTEX
  5
61E
  8
0
  6
CONTINUOUS
 62
     7
 10
-419.9706873529011
 20
416.4305038304562
 30
0.0
  0
VERTEX
  5
61F
  8
0
  6
CONTINUOUS
 62
     7
 10
-419.9812066928175
 20
416.3831177635965
 30
0.0
  0
VERTEX
  5
620
  8
0
  6
CONTINUOUS
 62
     7
 10
-419.9894142157221
 20
416.3352770653107
 30
0.0
  0
VERTEX
  5
621
  8
0
  6
CONTINUOUS
 62
     7
 10
-419.9952905839044
 20
416.287094452869
 30
0.0
  0
VERTEX
  5
622
  8
0
  6
CONTINUOUS
 62
     7
 10
-419.9988219520777
 20
416.2386834491247
 30
0.0
  0
VERTEX
  5
623
  8
0
  6
CONTINUOUS
 62
     7
 10
-420.0
 20
416.1901581150423
 30
0.0
  0
SEQEND
  5
67F
  8
0
  6
CONTINUOUS
 62
     7
  0
LINE
  5
1D6
  8
0
  6
CONTINUOUS
 62
     7
 10
-465.9999999999999
 20
357.0
 30
0.0
 11
-465.9999999999999
 21
305.5
 31
0.0
  0
LINE
  5
1D7
  8
0
  6
CONTINUOUS
 62
     7
 10
-413.2662812973354
 20
363.0
 30
0.0
 11
-414.0
 21
363.0
 31
0.0
  0
LINE
  5
1D8
  8
0
  6
CONTINUOUS
 62
     7
 10
-442.9625604084268
 20
346.7435113701454
 30
0.0
 11
-443.1735234313818
 21
346.6726315789474
 31
0.0
  0
LINE
  5
1D9
  8
0
  6
CONTINUOUS
 62
     7
 10
-436.8264765686182
 20
346.6726315789473
 30
0.0
 11
-437.0374395915732
 21
346.7435113701453
 31
0.0
  0
ARC
  5
1DA
  8
0
  6
CONTINUOUS
 62
     7
 10
-440.0
 20
340.9999999999999
 30
0.0
 40
6.5
 50
119.2245980261436
 51
60.77540197385634
  0
LINE
  5
1DB
  8
0
  6
CONTINUOUS
 62
     7
 10
-465.9999999999999
 20
416.1901581150423
 30
0.0
 11
-465.9999999999999
 21
363.0
 31
0.0
  0
POLYLINE
  5
1DC
  8
0
  6
CONTINUOUS
 62
     7
 66
     1
 10
0.0
 20
0.0
 30
0.0
  0
VERTEX
  5
624
  8
0
  6
CONTINUOUS
 62
     7
 10
-465.7132232163144
 20
416.8910950906044
 30
0.0
  0
VERTEX
  5
625
  8
0
  6
CONTINUOUS
 62
     7
 10
-465.7463962060961
 20
416.8556599584097
 30
0.0
  0
VERTEX
  5
626
  8
0
  6
CONTINUOUS
 62
     7
 10
-465.777810614878
 20
416.8186568400871
 30
0.0
  0
VERTEX
  5
627
  8
0
  6
CONTINUOUS
 62
     7
 10
-465.8073924273023
 20
416.7801729185301
 30
0.0
  0
VERTEX
  5
628
  8
0
  6
CONTINUOUS
 62
     7
 10
-465.8350719457837
 20
416.7402988655463
 30
0.0
  0
VERTEX
  5
629
  8
0
  6
CONTINUOUS
 62
     7
 10
-465.8607839547234
 20
416.6991286282262
 30
0.0
  0
VERTEX
  5
62A
  8
0
  6
CONTINUOUS
 62
     7
 10
-465.8844678741643
 20
416.6567592075949
 30
0.0
  0
VERTEX
  5
62B
  8
0
  6
CONTINUOUS
 62
     7
 10
-465.906067902522
 20
416.6132904300683
 30
0.0
  0
VERTEX
  5
62C
  8
0
  6
CONTINUOUS
 62
     7
 10
-465.9255331480596
 20
416.5688247122525
 30
0.0
  0
VERTEX
  5
62D
  8
0
  6
CONTINUOUS
 62
     7
 10
-465.9428177487929
 20
416.5234668196405
 30
0.0
  0
VERTEX
  5
62E
  8
0
  6
CONTINUOUS
 62
     7
 10
-465.957880980546
 20
416.4773236197746
 30
0.0
  0
VERTEX
  5
62F
  8
0
  6
CONTINUOUS
 62
     7
 10
-465.9706873529011
 20
416.4305038304562
 30
0.0
  0
VERTEX
  5
630
  8
0
  6
CONTINUOUS
 62
     7
 10
-465.9812066928175
 20
416.3831177635965
 30
0.0
  0
VERTEX
  5
631
  8
0
  6
CONTINUOUS
 62
     7
 10
-465.9894142157221
 20
416.3352770653107
 30
0.0
  0
VERTEX
  5
632
  8
0
  6
CONTINUOUS
 62
     7
 10
-465.9952905839044
 20
416.287094452869
 30
0.0
  0
VERTEX
  5
633
  8
0
  6
CONTINUOUS
 62
     7
 10
-465.9988219520777
 20
416.2386834491247
 30
0.0
  0
VERTEX
  5
634
  8
0
  6
CONTINUOUS
 62
     7
 10
-465.9999999999999
 20
416.1901581150423
 30
0.0
  0
SEQEND
  5
680
  8
0
  6
CONTINUOUS
 62
     7
  0
LINE
  5
1DD
  8
0
  6
CONTINUOUS
 62
     7
 10
-437.2
 20
373.2064378240311
 30
0.0
 11
-437.0374395915732
 21
373.2564886298546
 31
0.0
  0
ARC
  5
1DE
  8
0
  6
CONTINUOUS
 62
     7
 10
-407.4999999999999
 20
360.0
 30
0.0
 40
6.5
 50
27.48642625038133
 51
152.5135737496187
  0
LINE
  5
1DF
  8
0
  6
CONTINUOUS
 62
     7
 10
-460.0
 20
366.4226162893326
 30
0.0
 11
-460.0
 21
414.4999999999999
 31
0.0
  0
CIRCLE
  5
1E0
  8
0
  6
CONTINUOUS
 62
     7
 10
-472.5
 20
360.0
 30
0.0
 40
2.999999999999996
  0
LINE
  5
1E1
  8
0
  6
CONTINUOUS
 62
     7
 10
-437.0374395915732
 20
346.7435113701453
 30
0.0
 11
-437.2
 21
346.7935621759688
 31
0.0
  0
LINE
  5
1E2
  8
0
  6
CONTINUOUS
 62
     7
 10
-414.0
 20
357.0
 30
0.0
 11
-413.2662812973354
 21
357.0
 31
0.0
  0
LINE
  5
1E3
  8
0
  6
CONTINUOUS
 62
     7
 10
-414.0
 20
363.0
 30
0.0
 11
-414.0
 21
414.4999999999999
 31
0.0
  0
LINE
  5
1E4
  8
0
  6
CONTINUOUS
 62
     7
 10
-453.2564886298547
 20
357.0374395915732
 30
0.0
 11
-453.2064378240311
 21
357.1999999999999
 31
0.0
  0
LINE
  5
1E5
  8
0
  6
CONTINUOUS
 62
     7
 10
-426.7435113701453
 20
362.9625604084268
 30
0.0
 11
-426.7935621759689
 21
362.8
 31
0.0
  0
LINE
  5
1E6
  8
0
  6
CONTINUOUS
 62
     7
 10
-413.9999999999999
 20
303.8098418849577
 30
0.0
 11
-413.9999999999999
 21
357.0
 31
0.0
  0
POLYLINE
  5
1E7
  8
0
  6
CONTINUOUS
 62
     7
 66
     1
 10
0.0
 20
0.0
 30
0.0
  0
VERTEX
  5
635
  8
0
  6
CONTINUOUS
 62
     7
 10
-414.2867767836855
 20
303.1089049093956
 30
0.0
  0
VERTEX
  5
636
  8
0
  6
CONTINUOUS
 62
     7
 10
-414.2536037939038
 20
303.1443400415903
 30
0.0
  0
VERTEX
  5
637
  8
0
  6
CONTINUOUS
 62
     7
 10
-414.2221893851219
 20
303.1813431599128
 30
0.0
  0
VERTEX
  5
638
  8
0
  6
CONTINUOUS
 62
     7
 10
-414.1926075726976
 20
303.2198270814699
 30
0.0
  0
VERTEX
  5
639
  8
0
  6
CONTINUOUS
 62
     7
 10
-414.1649280542163
 20
303.2597011344537
 30
0.0
  0
VERTEX
  5
63A
  8
0
  6
CONTINUOUS
 62
     7
 10
-414.1392160452766
 20
303.3008713717737
 30
0.0
  0
VERTEX
  5
63B
  8
0
  6
CONTINUOUS
 62
     7
 10
-414.1155321258357
 20
303.343240792405
 30
0.0
  0
VERTEX
  5
63C
  8
0
  6
CONTINUOUS
 62
     7
 10
-414.0939320974779
 20
303.3867095699316
 30
0.0
  0
VERTEX
  5
63D
  8
0
  6
CONTINUOUS
 62
     7
 10
-414.0744668519403
 20
303.4311752877474
 30
0.0
  0
VERTEX
  5
63E
  8
0
  6
CONTINUOUS
 62
     7
 10
-414.057182251207
 20
303.4765331803594
 30
0.0
  0
VERTEX
  5
63F
  8
0
  6
CONTINUOUS
 62
     7
 10
-414.042119019454
 20
303.5226763802253
 30
0.0
  0
VERTEX
  5
640
  8
0
  6
CONTINUOUS
 62
     7
 10
-414.0293126470989
 20
303.5694961695437
 30
0.0
  0
VERTEX
  5
641
  8
0
  6
CONTINUOUS
 62
     7
 10
-414.0187933071825
 20
303.6168822364034
 30
0.0
  0
VERTEX
  5
642
  8
0
  6
CONTINUOUS
 62
     7
 10
-414.0105857842779
 20
303.6647229346893
 30
0.0
  0
VERTEX
  5
643
  8
0
  6
CONTINUOUS
 62
     7
 10
-414.0047094160956
 20
303.7129055471309
 30
0.0
  0
VERTEX
  5
644
  8
0
  6
CONTINUOUS
 62
     7
 10
-414.0011780479223
 20
303.7613165508753
 30
0.0
  0
VERTEX
  5
645
  8
0
  6
CONTINUOUS
 62
     7
 10
-413.9999999999999
 20
303.8098418849577
 30
0.0
  0
SEQEND
  5
681
  8
0
  6
CONTINUOUS
 62
     7
  0
LINE
  5
1E8
  8
0
  6
CONTINUOUS
 62
     7
 10
-418.1499999999845
 20
303.2787436346069
 30
0.0
 11
-416.1499999999849
 21
303.2787436346077
 31
0.0
  0
LINE
  5
1E9
  8
0
  6
CONTINUOUS
 62
     7
 10
-464.1499999999845
 20
303.2787436346097
 30
0.0
 11
-462.149999999985
 21
303.2787436346104
 31
0.0
  0
LINE
  5
1EA
  8
0
  6
CONTINUOUS
 62
     7
 10
-373.0
 20
342.9999999999999
 30
0.0
 11
-372.8704114154677
 21
341.5187957009556
 31
0.0
  0
LINE
  5
1EB
  8
0
  6
CONTINUOUS
 62
     7
 10
-366.1295885845323
 20
341.5187957009556
 30
0.0
 11
-366.0
 21
343.0
 31
0.0
  0
ARC
  5
1EC
  8
0
  6
CONTINUOUS
 62
     7
 10
-371.5753583079485
 20
341.6320981665276
 30
0.0
 40
1.300000000000007
 50
185.0000000000001
 51
246.4776124730939
  0
ARC
  5
1ED
  8
0
  6
CONTINUOUS
 62
     7
 10
-367.4246416920515
 20
341.6320981665276
 30
0.0
 40
1.3
 50
293.5223875269061
 51
354.9999999999999
  0
ARC
  5
1EE
  8
0
  6
CONTINUOUS
 62
     7
 10
-369.5
 20
346.4
 30
0.0
 40
6.5
 50
289.7831703726616
 51
293.5223875269062
  0
ARC
  5
1EF
  8
0
  6
CONTINUOUS
 62
     7
 10
-369.5
 20
346.4
 30
0.0
 40
6.500000000000001
 50
246.4776124730938
 51
250.2168296273384
  0
LINE
  5
1F0
  8
0
  6
CONTINUOUS
 62
     7
 10
-367.5
 20
356.65
 30
0.0
 11
-367.85
 21
357.0
 31
0.0
  0
LINE
  5
1F1
  8
0
  6
CONTINUOUS
 62
     7
 10
-371.15
 20
357.0
 30
0.0
 11
-371.5
 21
356.65
 31
0.0
  0
LINE
  5
1F2
  8
0
  6
CONTINUOUS
 62
     7
 10
-371.5
 20
356.65
 30
0.0
 11
-371.5
 21
353.4641428428542
 31
0.0
  0
LINE
  5
1F3
  8
0
  6
CONTINUOUS
 62
     7
 10
-371.5
 20
352.0358571571457
 30
0.0
 11
-371.5
 21
342.9999999999999
 31
0.0
  0
LINE
  5
1F4
  8
0
  6
CONTINUOUS
 62
     7
 10
-367.5
 20
342.9999999999999
 30
0.0
 11
-367.5
 21
352.0358571571457
 31
0.0
  0
LINE
  5
1F5
  8
0
  6
CONTINUOUS
 62
     7
 10
-367.5
 20
353.4641428428542
 30
0.0
 11
-367.5
 21
356.65
 31
0.0
  0
LINE
  5
1F6
  8
0
  6
CONTINUOUS
 62
     7
 10
-514.0
 20
342.9999999999999
 30
0.0
 11
-513.8704114154677
 21
341.5187957009556
 31
0.0
  0
LINE
  5
1F7
  8
0
  6
CONTINUOUS
 62
     7
 10
-507.1295885845323
 20
341.5187957009556
 30
0.0
 11
-507.0
 21
343.0
 31
0.0
  0
ARC
  5
1F8
  8
0
  6
CONTINUOUS
 62
     7
 10
-508.4246416920515
 20
341.6320981665276
 30
0.0
 40
1.3
 50
293.5223875269061
 51
354.9999999999999
  0
ARC
  5
1F9
  8
0
  6
CONTINUOUS
 62
     7
 10
-512.5753583079485
 20
341.6320981665276
 30
0.0
 40
1.300000000000007
 50
185.0000000000001
 51
246.4776124730939
  0
ARC
  5
1FA
  8
0
  6
CONTINUOUS
 62
     7
 10
-510.4999999999999
 20
346.4
 30
0.0
 40
6.5
 50
289.7831703726616
 51
293.5223875269062
  0
ARC
  5
1FB
  8
0
  6
CONTINUOUS
 62
     7
 10
-510.4999999999999
 20
346.4
 30
0.0
 40
6.500000000000001
 50
246.4776124730938
 51
250.2168296273384
  0
LINE
  5
1FC
  8
0
  6
CONTINUOUS
 62
     7
 10
-512.5
 20
356.65
 30
0.0
 11
-512.5
 21
353.4641428428542
 31
0.0
  0
LINE
  5
1FD
  8
0
  6
CONTINUOUS
 62
     7
 10
-512.5
 20
352.0358571571457
 30
0.0
 11
-512.5
 21
342.9999999999999
 31
0.0
  0
LINE
  5
1FE
  8
0
  6
CONTINUOUS
 62
     7
 10
-508.4999999999999
 20
342.9999999999999
 30
0.0
 11
-508.4999999999999
 21
352.0358571571457
 31
0.0
  0
LINE
  5
1FF
  8
0
  6
CONTINUOUS
 62
     7
 10
-508.4999999999999
 20
353.4641428428542
 30
0.0
 11
-508.4999999999999
 21
356.65
 31
0.0
  0
LINE
  5
200
  8
0
  6
CONTINUOUS
 62
     7
 10
-508.4999999999999
 20
356.65
 30
0.0
 11
-508.8499999999999
 21
357.0
 31
0.0
  0
LINE
  5
201
  8
0
  6
CONTINUOUS
 62
     7
 10
-512.15
 20
357.0
 30
0.0
 11
-512.5
 21
356.65
 31
0.0
  0
LINE
  5
202
  8
0
  6
CONTINUOUS
 62
     7
 10
-366.0
 20
377.0
 30
0.0
 11
-366.1295885845323
 21
378.4812042990444
 31
0.0
  0
LINE
  5
203
  8
0
  6
CONTINUOUS
 62
     7
 10
-372.8704114154677
 20
378.4812042990443
 30
0.0
 11
-373.0
 21
376.9999999999999
 31
0.0
  0
ARC
  5
204
  8
0
  6
CONTINUOUS
 62
     7
 10
-371.5753583079485
 20
378.3679018334723
 30
0.0
 40
1.3
 50
113.5223875269061
 51
174.9999999999999
  0
ARC
  5
205
  8
0
  6
CONTINUOUS
 62
     7
 10
-367.4246416920515
 20
378.3679018334723
 30
0.0
 40
1.300000000000007
 50
5.000000000000063
 51
66.4776124730939
  0
ARC
  5
206
  8
0
  6
CONTINUOUS
 62
     7
 10
-369.5
 20
373.6
 30
0.0
 40
6.500000000000001
 50
66.47761247309377
 51
70.21682962733843
  0
ARC
  5
207
  8
0
  6
CONTINUOUS
 62
     7
 10
-369.5
 20
373.6
 30
0.0
 40
6.5
 50
109.7831703726615
 51
113.5223875269062
  0
LINE
  5
208
  8
0
  6
CONTINUOUS
 62
     7
 10
-371.5
 20
363.35
 30
0.0
 11
-371.15
 21
363.0
 31
0.0
  0
LINE
  5
209
  8
0
  6
CONTINUOUS
 62
     7
 10
-367.85
 20
363.0
 30
0.0
 11
-367.5
 21
363.35
 31
0.0
  0
LINE
  5
20A
  8
0
  6
CONTINUOUS
 62
     7
 10
-367.5
 20
363.35
 30
0.0
 11
-367.5
 21
366.5358571571457
 31
0.0
  0
LINE
  5
20B
  8
0
  6
CONTINUOUS
 62
     7
 10
-367.5
 20
367.9641428428543
 30
0.0
 11
-367.5
 21
377.0
 31
0.0
  0
LINE
  5
20C
  8
0
  6
CONTINUOUS
 62
     7
 10
-371.5
 20
377.0
 30
0.0
 11
-371.5
 21
367.9641428428543
 31
0.0
  0
LINE
  5
20D
  8
0
  6
CONTINUOUS
 62
     7
 10
-371.5
 20
366.5358571571457
 30
0.0
 11
-371.5
 21
363.35
 31
0.0
  0
LINE
  5
20E
  8
0
  6
CONTINUOUS
 62
     7
 10
-507.0
 20
377.0
 30
0.0
 11
-507.1295885845323
 21
378.4812042990444
 31
0.0
  0
LINE
  5
20F
  8
0
  6
CONTINUOUS
 62
     7
 10
-513.8704114154677
 20
378.4812042990443
 30
0.0
 11
-514.0
 21
376.9999999999999
 31
0.0
  0
ARC
  5
210
  8
0
  6
CONTINUOUS
 62
     7
 10
-508.4246416920515
 20
378.3679018334723
 30
0.0
 40
1.300000000000007
 50
5.000000000000063
 51
66.4776124730939
  0
ARC
  5
211
  8
0
  6
CONTINUOUS
 62
     7
 10
-512.5753583079485
 20
378.3679018334723
 30
0.0
 40
1.3
 50
113.5223875269061
 51
174.9999999999999
  0
ARC
  5
212
  8
0
  6
CONTINUOUS
 62
     7
 10
-510.4999999999999
 20
373.6
 30
0.0
 40
6.500000000000001
 50
66.47761247309377
 51
70.21682962733843
  0
ARC
  5
213
  8
0
  6
CONTINUOUS
 62
     7
 10
-510.4999999999999
 20
373.6
 30
0.0
 40
6.5
 50
109.7831703726615
 51
113.5223875269062
  0
LINE
  5
214
  8
0
  6
CONTINUOUS
 62
     7
 10
-512.5
 20
363.35
 30
0.0
 11
-512.15
 21
363.0
 31
0.0
  0
LINE
  5
215
  8
0
  6
CONTINUOUS
 62
     7
 10
-508.85
 20
363.0
 30
0.0
 11
-508.5000000000001
 21
363.35
 31
0.0
  0
LINE
  5
216
  8
0
  6
CONTINUOUS
 62
     7
 10
-508.4999999999999
 20
363.35
 30
0.0
 11
-508.4999999999999
 21
366.5358571571457
 31
0.0
  0
LINE
  5
217
  8
0
  6
CONTINUOUS
 62
     7
 10
-508.4999999999999
 20
367.9641428428543
 30
0.0
 11
-508.4999999999999
 21
377.0
 31
0.0
  0
LINE
  5
218
  8
0
  6
CONTINUOUS
 62
     7
 10
-512.5
 20
377.0
 30
0.0
 11
-512.5
 21
367.9641428428543
 31
0.0
  0
LINE
  5
219
  8
0
  6
CONTINUOUS
 62
     7
 10
-512.5
 20
366.5358571571457
 30
0.0
 11
-512.5
 21
363.35
 31
0.0
  0
ENDBLK
  8
0
  0
ENDSEC
  0
SECTION
  2
ENTITIES
  0
INSERT
  5
83
  8
0
  6
CONTINUOUS
 62
     7
  2
D_FRAME_VIEW_3529
 10
0.0
 20
0.0
 30
0.0
  0
INSERT
  5
B3
  8
0
  6
CONTINUOUS
 62
     7
  2
D_FRAME_VIEW_3894
 10
0.0
 20
0.0
 30
0.0
  0
INSERT
  5
21A
  8
0
  6
CONTINUOUS
 62
     7
  2
D_FRAME_VIEW_1323
 10
0.0
 20
0.0
 30
0.0
  0
TEXT
  5
21B
  8
0
  6
CONTINUOUS
 62
     7
 10
-335.6197511566838
 20
176.6568400650244
 30
0.0
 40
6.0
  1
CSW-3SN-O
  0
LINE
  5
21C
  8
0
  6
CONTINUOUS
 62
     7
 10
-260.375
 20
364.0
 30
0.0
 11
-268.075
 21
364.0
 31
0.0
  0
LINE
  5
21D
  8
0
  6
CONTINUOUS
 62
     7
 10
-300.375
 20
421.0
 30
0.0
 11
-262.625
 21
421.0
 31
0.0
  0
LINE
  5
21E
  8
0
  6
CONTINUOUS
 62
     7
 10
-355.8190511081477
 20
214.075
 30
0.0
 11
-355.0000000000001
 21
214.075
 31
0.0
  0
LINE
  5
21F
  8
0
  6
CONTINUOUS
 62
     7
 10
-519.5
 20
216.2749999999999
 30
0.0
 11
-520.3190511081477
 21
216.2749999999999
 31
0.0
  0
LINE
  5
220
  8
0
  6
CONTINUOUS
 62
     7
 10
-260.375
 20
418.0
 30
0.0
 11
-260.375
 21
302.0
 31
0.0
  0
LINE
  5
221
  8
0
  6
CONTINUOUS
 62
     7
 10
-297.8749999999999
 20
299.0
 30
0.0
 11
-298.0493114854954
 21
297.0076106038165
 31
0.0
  0
LINE
  5
222
  8
0
  6
CONTINUOUS
 62
     7
 10
-524.1809488918523
 20
216.2749999999999
 30
0.0
 11
-525.0
 21
216.2749999999999
 31
0.0
  0
LINE
  5
223
  8
0
  6
CONTINUOUS
 62
     7
 10
-298.0493114854954
 20
422.9923893961835
 30
0.0
 11
-297.8749999999999
 21
421.0
 31
0.0
  0
LINE
  5
224
  8
0
  6
CONTINUOUS
 62
     7
 10
-520.3190511081477
 20
214.075
 30
0.0
 11
-519.5
 21
214.0749999999992
 31
0.0
  0
LINE
  5
225
  8
0
  6
CONTINUOUS
 62
     7
 10
-359.6809488918523
 20
216.2749999999999
 30
0.0
 11
-360.5000000000001
 21
216.2749999999999
 31
0.0
  0
LINE
  5
226
  8
0
  6
CONTINUOUS
 62
     7
 10
-300.375
 20
299.0
 30
0.0
 11
-300.375
 21
421.0
 31
0.0
  0
LINE
  5
227
  8
0
  6
CONTINUOUS
 62
     7
 10
-355.0
 20
216.2749999999999
 30
0.0
 11
-355.8190511081477
 21
216.2749999999999
 31
0.0
  0
LINE
  5
228
  8
0
  6
CONTINUOUS
 62
     7
 10
-531.0
 20
250.375
 30
0.0
 11
-348.9999999999999
 21
250.375
 31
0.0
  0
LINE
  5
229
  8
0
  6
CONTINUOUS
 62
     7
 10
-525.0
 20
214.075
 30
0.0
 11
-524.1809488918523
 21
214.075
 31
0.0
  0
LINE
  5
22A
  8
0
  6
CONTINUOUS
 62
     7
 10
-360.5000000000001
 20
214.0749999999992
 30
0.0
 11
-359.6809488918523
 21
214.075
 31
0.0
  0
LINE
  5
22B
  8
0
  6
CONTINUOUS
 62
     7
 10
-300.3750000000001
 20
299.0
 30
0.0
 11
-262.625
 21
299.0
 31
0.0
  0
LINE
  5
22C
  8
0
  6
CONTINUOUS
 62
     7
 10
-268.075
 20
356.0
 30
0.0
 11
-260.375
 21
356.0
 31
0.0
  0
LINE
  5
22D
  8
0
  6
CONTINUOUS
 62
     7
 10
-365.25
 20
363.0
 30
0.0
 11
-401.7337187026646
 21
363.0
 31
0.0
  0
LINE
  5
22E
  8
0
  6
CONTINUOUS
 62
     7
 10
-365.5040577761908
 20
351.5
 30
0.0
 11
-367.35
 21
351.5
 31
0.0
  0
LINE
  5
22F
  8
0
  6
CONTINUOUS
 62
     7
 10
-478.2662812973354
 20
363.0
 30
0.0
 11
-514.7499999999999
 21
363.0
 31
0.0
  0
LINE
  5
230
  8
0
  6
CONTINUOUS
 62
     7
 10
-514.4959422238093
 20
354.0
 30
0.0
 11
-512.6500000000001
 21
354.0
 31
0.0
  0
LINE
  5
231
  8
0
  6
CONTINUOUS
 62
     7
 10
-371.65
 20
366.0
 30
0.0
 11
-373.4959422238093
 21
366.0
 31
0.0
  0
LINE
  5
232
  8
0
  6
CONTINUOUS
 62
     7
 10
-526.7285753725145
 20
378.8
 30
0.0
 11
-524.5
 21
378.8
 31
0.0
  0
LINE
  5
233
  8
0
  6
CONTINUOUS
 62
     7
 10
-512.65
 20
366.0
 30
0.0
 11
-514.4959422238093
 21
366.0
 31
0.0
  0
LINE
  5
234
  8
0
  6
CONTINUOUS
 62
     7
 10
-523.5
 20
344.9999999999999
 30
0.0
 11
-523.5
 21
342.6142135623731
 31
0.0
  0
LINE
  5
235
  8
0
  6
CONTINUOUS
 62
     7
 10
-506.5040577761908
 20
351.5
 30
0.0
 11
-508.35
 21
351.5
 31
0.0
  0
LINE
  5
236
  8
0
  6
CONTINUOUS
 62
     7
 10
-524.5
 20
341.2
 30
0.0
 11
-526.7285753725145
 21
341.2
 31
0.0
  0
LINE
  5
237
  8
0
  6
CONTINUOUS
 62
     7
 10
-523.5
 20
377.3857864376268
 30
0.0
 11
-523.5
 21
375.0
 31
0.0
  0
LINE
  5
238
  8
0
  6
CONTINUOUS
 62
     7
 10
-401.7337187026646
 20
357.0
 30
0.0
 11
-365.25
 21
357.0
 31
0.0
  0
LINE
  5
239
  8
0
  6
CONTINUOUS
 62
     7
 10
-367.35
 20
354.0
 30
0.0
 11
-365.5040577761908
 21
354.0
 31
0.0
  0
LINE
  5
23A
  8
0
  6
CONTINUOUS
 62
     7
 10
-356.5000000000001
 20
375.0
 30
0.0
 11
-356.5000000000001
 21
377.3857864376268
 31
0.0
  0
LINE
  5
23B
  8
0
  6
CONTINUOUS
 62
     7
 10
-364.75
 20
356.4822003399051
 30
0.0
 11
-364.75
 21
363.517799660095
 31
0.0
  0
LINE
  5
23C
  8
0
  6
CONTINUOUS
 62
     7
 10
-514.75
 20
357.0
 30
0.0
 11
-478.2662812973354
 21
357.0
 31
0.0
  0
LINE
  5
23D
  8
0
  6
CONTINUOUS
 62
     7
 10
-514.4959422238093
 20
368.5
 30
0.0
 11
-512.6500000000001
 21
368.5
 31
0.0
  0
LINE
  5
23E
  8
0
  6
CONTINUOUS
 62
     7
 10
-365.5040577761908
 20
366.0
 30
0.0
 11
-367.35
 21
366.0
 31
0.0
  0
LINE
  5
23F
  8
0
  6
CONTINUOUS
 62
     7
 10
-515.25
 20
363.5177996600949
 30
0.0
 11
-515.25
 21
356.482200339905
 31
0.0
  0
LINE
  5
240
  8
0
  6
CONTINUOUS
 62
     7
 10
-373.4959422238093
 20
368.5
 30
0.0
 11
-371.65
 21
368.5
 31
0.0
  0
LINE
  5
241
  8
0
  6
CONTINUOUS
 62
     7
 10
-508.35
 20
354.0
 30
0.0
 11
-506.5040577761907
 21
354.0
 31
0.0
  0
LINE
  5
242
  8
0
  6
CONTINUOUS
 62
     7
 10
-371.65
 20
351.5
 30
0.0
 11
-373.4959422238093
 21
351.5
 31
0.0
  0
LINE
  5
243
  8
0
  6
CONTINUOUS
 62
     7
 10
-373.4959422238093
 20
354.0
 30
0.0
 11
-371.65
 21
354.0
 31
0.0
  0
LINE
  5
244
  8
0
  6
CONTINUOUS
 62
     7
 10
-356.5000000000001
 20
342.6142135623732
 30
0.0
 11
-356.5000000000001
 21
344.9999999999999
 31
0.0
  0
LINE
  5
245
  8
0
  6
CONTINUOUS
 62
     7
 10
-512.6500000000001
 20
351.5
 30
0.0
 11
-514.4959422238094
 21
351.5
 31
0.0
  0
LINE
  5
246
  8
0
  6
CONTINUOUS
 62
     7
 10
-506.5040577761907
 20
366.0
 30
0.0
 11
-508.3500000000001
 21
366.0
 31
0.0
  0
LINE
  5
247
  8
0
  6
CONTINUOUS
 62
     7
 10
-353.2714246274855
 20
341.2
 30
0.0
 11
-355.5000000000001
 21
341.2
 31
0.0
  0
LINE
  5
248
  8
0
  6
CONTINUOUS
 62
     7
 10
-367.35
 20
368.5
 30
0.0
 11
-365.5040577761908
 21
368.5
 31
0.0
  0
LINE
  5
249
  8
0
  6
CONTINUOUS
 62
     7
 10
-508.3500000000001
 20
368.5
 30
0.0
 11
-506.5040577761907
 21
368.5
 31
0.0
  0
LINE
  5
24A
  8
0
  6
CONTINUOUS
 62
     7
 10
-355.5000000000001
 20
378.8
 30
0.0
 11
-353.2714246274855
 21
378.8
 31
0.0
  0
LINE
  5
24B
  8
0
  6
CONTINUOUS
 62
     7
 10
-367.4999999999999
 20
312.9999999999999
 30
0.0
 11
-360.4999999999999
 21
312.9999999999999
 31
0.0
  0
LINE
  5
24C
  8
0
  6
CONTINUOUS
 62
     7
 10
-415.65
 20
303.995
 30
0.0
 11
-413.3889352562972
 21
302.5253079165932
 31
0.0
  0
LINE
  5
24D
  8
0
  6
CONTINUOUS
 62
     7
 10
-510.0
 20
380.0031242374328
 30
0.0
 11
-510.0
 21
378.4
 31
0.0
  0
LINE
  5
24E
  8
0
  6
CONTINUOUS
 62
     7
 10
-420.15
 20
305.5
 30
0.0
 11
-418.85
 21
305.5
 31
0.0
  0
LINE
  5
24F
  8
0
  6
CONTINUOUS
 62
     7
 10
-367.4999999999999
 20
407.0
 30
0.0
 11
-360.4999999999999
 21
407.0
 31
0.0
  0
LINE
  5
250
  8
0
  6
CONTINUOUS
 62
     7
 10
-512.5
 20
312.9999999999999
 30
0.0
 11
-519.5000000000001
 21
312.9999999999999
 31
0.0
  0
LINE
  5
251
  8
0
  6
CONTINUOUS
 62
     7
 10
-415.65
 20
302.7033360195247
 30
0.0
 11
-415.65
 21
417.2661199432077
 31
0.0
  0
LINE
  5
252
  8
0
  6
CONTINUOUS
 62
     7
 10
-369.0
 20
378.4
 30
0.0
 11
-369.0
 21
380.0031242374328
 31
0.0
  0
LINE
  5
253
  8
0
  6
CONTINUOUS
 62
     7
 10
-511.0
 20
378.4
 30
0.0
 11
-511.0
 21
380.0031242374328
 31
0.0
  0
LINE
  5
254
  8
0
  6
CONTINUOUS
 62
     7
 10
-511.0
 20
341.6
 30
0.0
 11
-511.0
 21
339.9968757625671
 31
0.0
  0
LINE
  5
255
  8
0
  6
CONTINUOUS
 62
     7
 10
-370.0
 20
339.9968757625671
 30
0.0
 11
-370.0
 21
341.6
 31
0.0
  0
LINE
  5
256
  8
0
  6
CONTINUOUS
 62
     7
 10
-413.85
 20
414.4999999999999
 30
0.0
 11
-415.15
 21
414.4999999999999
 31
0.0
  0
LINE
  5
257
  8
0
  6
CONTINUOUS
 62
     7
 10
-370.0
 20
380.0031242374328
 30
0.0
 11
-370.0
 21
378.4
 31
0.0
  0
LINE
  5
258
  8
0
  6
CONTINUOUS
 62
     7
 10
-369.0
 20
341.6
 30
0.0
 11
-369.0
 21
339.9968757625671
 31
0.0
  0
LINE
  5
259
  8
0
  6
CONTINUOUS
 62
     7
 10
-462.1499999999858
 20
305.5790482906978
 30
0.0
 11
-462.149999999985
 21
303.2787436346109
 31
0.0
  0
LINE
  5
25A
  8
0
  6
CONTINUOUS
 62
     7
 10
-464.1499999999854
 20
305.5790482906971
 30
0.0
 11
-464.1499999999845
 21
303.2787436346102
 31
0.0
  0
LINE
  5
25B
  8
0
  6
CONTINUOUS
 62
     7
 10
-418.4500000000227
 20
416.0700000000148
 30
0.0
 11
-420.6110647437028
 21
417.4746920834068
 31
0.0
  0
LINE
  5
25C
  8
0
  6
CONTINUOUS
 62
     7
 10
-459.85
 20
414.4999999999999
 30
0.0
 11
-461.15
 21
414.4999999999999
 31
0.0
  0
LINE
  5
25D
  8
0
  6
CONTINUOUS
 62
     7
 10
-510.0
 20
339.9968757625671
 30
0.0
 11
-510.0
 21
341.6
 31
0.0
  0
LINE
  5
25E
  8
0
  6
CONTINUOUS
 62
     7
 10
-466.15
 20
305.5
 30
0.0
 11
-464.85
 21
305.5
 31
0.0
  0
LINE
  5
25F
  8
0
  6
CONTINUOUS
 62
     7
 10
-461.65
 20
303.995
 30
0.0
 11
-459.3889352562972
 21
302.5253079165932
 31
0.0
  0
LINE
  5
260
  8
0
  6
CONTINUOUS
 62
     7
 10
-512.5
 20
407.0
 30
0.0
 11
-519.5000000000001
 21
407.0
 31
0.0
  0
LINE
  5
261
  8
0
  6
CONTINUOUS
 62
     7
 10
-464.4500000000228
 20
416.0700000000148
 30
0.0
 11
-466.6110647437028
 21
417.4746920834068
 31
0.0
  0
LINE
  5
262
  8
0
  6
CONTINUOUS
 62
     7
 10
-461.65
 20
302.7033360195247
 30
0.0
 11
-461.65
 21
417.2661199432077
 31
0.0
  0
LINE
  5
263
  8
0
  6
CONTINUOUS
 62
     7
 10
-416.1499999999858
 20
305.579048290695
 30
0.0
 11
-416.1499999999849
 21
303.2787436346081
 31
0.0
  0
LINE
  5
264
  8
0
  6
CONTINUOUS
 62
     7
 10
-418.1499999999853
 20
305.5790482906943
 30
0.0
 11
-418.1499999999845
 21
303.2787436346075
 31
0.0
  0
ARC
  5
265
  8
0
  6
CONTINUOUS
 62
     7
 10
-522.25
 20
215.175
 30
0.0
 40
5.549999999999999
 50
239.8672781689898
 51
300.1327218310103
  0
ARC
  5
266
  8
0
  6
CONTINUOUS
 62
     7
 10
-520.25
 20
356.4822003399051
 30
0.0
 40
4.999999999999997
 50
326.9761324442033
 51
354.4657897543023
  0
ARC
  5
267
  8
0
  6
CONTINUOUS
 62
     7
 10
-359.75
 20
363.5177996600949
 30
0.0
 40
5.000000000000004
 50
146.9761324442035
 51
174.4657897543024
  0
ARC
  5
268
  8
0
  6
CONTINUOUS
 62
     7
 10
-459.0
 20
360.0
 30
0.0
 40
3.0
 50
207.9528865888772
 51
152.0471134111642
  0
LINE
  5
269
  8
0
  6
CONTINUOUS
 62
     7
 10
-464.6499999999854
 20
305.5790482906969
 30
0.0
 11
-464.6500000000253
 21
415.3784389785189
 31
0.0
  0
LINE
  5
26A
  8
0
  6
CONTINUOUS
 62
     7
 10
-418.6499999999854
 20
305.5790482906942
 30
0.0
 11
-418.6500000000253
 21
415.3784389785162
 31
0.0
  0
ARC
  5
26B
  8
0
  6
CONTINUOUS
 62
     7
 10
-421.0
 20
360.0
 30
0.0
 40
3.0
 50
44.20418388397137
 51
315.795816116069
  0
ARC
  5
26C
  8
0
  6
CONTINUOUS
 62
     7
 10
-357.75
 20
215.175
 30
0.0
 40
5.549999999999999
 50
239.8672781689898
 51
300.1327218310103
  0
ENDSEC
  0
EOF
