  0
SECTION
  2
HEADER
  9
$ACADVER
  1
AC1006
  9
$DWGCODEPAGE
  3
ansi_932
  9
$INSBASE
 10
0.0
 20
0.0
 30
0.0
  9
$EXTMIN
 10
-342.0
 20
142.3409090909091
  9
$EXTMAX
 10
-62.62499999999997
 20
377.9923893961835
  9
$LIMMIN
 10
0.0
 20
0.0
  9
$LIMMAX
 10
12.0
 20
9.0
  9
$ORTHOMODE
 70
     0
  9
$REGENMODE
 70
     1
  9
$FILLMODE
 70
     1
  9
$QTEXTMODE
 70
     0
  9
$MIRRTEXT
 70
     1
  9
$DRAGMODE
 70
     2
  9
$LTSCALE
 40
1.0
  9
$OSMODE
 70
    37
  9
$ATTMODE
 70
     1
  9
$TEXTSIZE
 40
0.2
  9
$TRACEWID
 40
0.05
  9
$TEXTSTYLE
  7
STANDARD
  9
$CLAYER
  8
0
  9
$CELTYPE
  6
BYLAYER
  9
$CECOLOR
 62
   256
  9
$DIMSCALE
 40
1.0
  9
$DIMASZ
 40
3.0
  9
$DIMEXO
 40
0.0625
  9
$DIMDLI
 40
0.38
  9
$DIMRND
 40
0.0
  9
$DIMDLE
 40
0.0
  9
$DIMEXE
 40
1.5
  9
$DIMTP
 40
0.0
  9
$DIMTM
 40
0.0
  9
$DIMTXT
 40
3.0
  9
$DIMCEN
 40
0.09
  9
$DIMTSZ
 40
0.0
  9
$DIMTOL
 70
     0
  9
$DIMLIM
 70
     0
  9
$DIMTIH
 70
     1
  9
$DIMTOH
 70
     1
  9
$DIMSE1
 70
     0
  9
$DIMSE2
 70
     0
  9
$DIMTAD
 70
     1
  9
$DIMZIN
 70
     0
  9
$DIMBLK
  1

  9
$DIMASO
 70
     1
  9
$DIMSHO
 70
     1
  9
$DIMPOST
  1

  9
$DIMAPOST
  1

  9
$DIMALT
 70
     0
  9
$DIMALTD
 70
     2
  9
$DIMALTF
 40
25.4
  9
$DIMLFAC
 40
1.0
  9
$DIMTOFL
 70
     0
  9
$DIMTVP
 40
0.0
  9
$DIMTIX
 70
     0
  9
$DIMSOXD
 70
     0
  9
$DIMSAH
 70
     0
  9
$DIMBLK1
  1

  9
$DIMBLK2
  1

  9
$LUNITS
 70
     2
  9
$LUPREC
 70
     4
  9
$SKETCHINC
 40
0.1
  9
$FILLETRAD
 40
0.5
  9
$AUNITS
 70
     0
  9
$AUPREC
 70
     0
  9
$MENU
  1
.
  9
$ELEVATION
 40
0.0
  9
$THICKNESS
 40
0.0
  9
$LIMCHECK
 70
     0
  9
$CHAMFERA
 40
0.0
  9
$CHAMFERB
 40
0.0
  9
$SKPOLY
 70
     0
  9
$TDCREATE
 40
2459065.630028912
  9
$TDUPDATE
 40
2459065.630029271
  9
$TDINDWG
 40
0.0000000116
  9
$TDUSRTIMER
 40
0.0000000116
  9
$USRTIMER
 70
     1
  9
$ANGBASE
 50
0.0
  9
$ANGDIR
 70
     0
  9
$PDMODE
 70
     0
  9
$PDSIZE
 40
0.0
  9
$PLINEWID
 40
0.0
  9
$COORDS
 70
     1
  9
$SPLFRAME
 70
     0
  9
$SPLINETYPE
 70
     6
  9
$SPLINESEGS
 70
     8
  9
$ATTDIA
 70
     0
  9
$ATTREQ
 70
     1
  9
$HANDLING
 70
     1
  9
$HANDSEED
  5
5B1
  9
$SURFTAB1
 70
     6
  9
$SURFTAB2
 70
     6
  9
$SURFTYPE
 70
     6
  9
$SURFU
 70
     6
  9
$SURFV
 70
     6
  9
$UCSNAME
  2

  9
$UCSORG
 10
0.0
 20
0.0
 30
0.0
  9
$UCSXDIR
 10
1.0
 20
0.0
 30
0.0
  9
$UCSYDIR
 10
0.0
 20
1.0
 30
0.0
  9
$USERI1
 70
     0
  9
$USERI2
 70
     0
  9
$USERI3
 70
     0
  9
$USERI4
 70
     0
  9
$USERI5
 70
     0
  9
$USERR1
 40
0.0
  9
$USERR2
 40
0.0
  9
$USERR3
 40
0.0
  9
$USERR4
 40
0.0
  9
$USERR5
 40
0.0
  9
$WORLDVIEW
 70
     1
  0
ENDSEC
  0
SECTION
  2
TABLES
  0
TABLE
  2
VPORT
 70
     1
  0
VPORT
  2
*ACTIVE
 70
     0
 10
0.0
 20
0.0
 11
1.0
 21
1.0
 12
-202.3125
 22
260.1666492435463
 13
0.0
 23
0.0
 14
0.5
 24
0.5
 15
0.5
 25
0.5
 16
0.0
 26
0.0
 36
1.0
 17
0.0
 27
0.0
 37
0.0
 40
235.6514803052744
 41
1.6
 42
50.0
 43
0.0
 44
0.0
 50
0.0
 51
0.0
 71
     0
 72
   100
 73
     1
 74
     3
 75
     0
 76
     0
 77
     0
 78
     0
  0
ENDTAB
  0
TABLE
  2
LTYPE
 70
     1
  0
LTYPE
  2
CONTINUOUS
 70
     0
  3
Solid line
 72
    65
 73
     0
 40
0.0
  0
ENDTAB
  0
TABLE
  2
LAYER
 70
     1
  0
LAYER
  2
0
 70
     0
 62
     7
  6
CONTINUOUS
  0
ENDTAB
  0
TABLE
  2
STYLE
 70
     2
  0
STYLE
  2
STANDARD
 70
     0
 40
0.0
 41
1.0
 50
0.0
 71
     0
 42
0.2
  3
txt
  4

  0
STYLE
  2
ＭＳ_ゴシック
 70
     0
 40
0.0
 41
1.0
 50
0.0
 71
     0
 42
0.2
  3
ＭＳ ゴシック.shx
  4

  0
ENDTAB
  0
TABLE
  2
VIEW
 70
     0
  0
ENDTAB
  0
TABLE
  2
UCS
 70
     0
  0
ENDTAB
  0
ENDSEC
  0
SECTION
  2
BLOCKS
  0
BLOCK
  8
0
  2
D_FRAME_VIEW_2838
 70
     0
 10
0.0
 20
0.0
 30
0.0
  0
LINE
  5
70
  8
0
  6
CONTINUOUS
 62
     7
 10
-108.275
 20
263.0
 30
0.0
 11
-108.275
 21
262.0
 31
0.0
  0
LINE
  5
71
  8
0
  6
CONTINUOUS
 62
     7
 10
-109.5913714733492
 20
264.7
 30
0.0
 11
-109.5913714733492
 21
264.6424285285629
 31
0.0
  0
LINE
  5
72
  8
0
  6
CONTINUOUS
 62
     7
 10
-109.8781242374329
 20
263.5
 30
0.0
 11
-109.8781242374329
 21
263.0
 31
0.0
  0
ARC
  5
73
  8
0
  6
CONTINUOUS
 62
     7
 10
-103.475
 20
262.5
 30
0.0
 40
6.480740698407864
 50
160.6957803932083
 51
171.1236049190266
  0
LINE
  5
74
  8
0
  6
CONTINUOUS
 62
     7
 10
-109.5913714733492
 20
260.3575714714372
 30
0.0
 11
-109.5913714733492
 21
260.3
 31
0.0
  0
ARC
  5
75
  8
0
  6
CONTINUOUS
 62
     7
 10
-103.475
 20
262.5
 30
0.0
 40
6.480740698407859
 50
188.8763950809733
 51
199.3042196067916
  0
LINE
  5
76
  8
0
  6
CONTINUOUS
 62
     7
 10
-109.8781242374329
 20
262.0
 30
0.0
 11
-109.8781242374329
 21
261.5
 31
0.0
  0
LINE
  5
77
  8
0
  6
CONTINUOUS
 62
     7
 10
-108.275
 20
367.0
 30
0.0
 11
-108.275
 21
368.0
 31
0.0
  0
LINE
  5
78
  8
0
  6
CONTINUOUS
 62
     7
 10
-109.8781242374329
 20
368.0
 30
0.0
 11
-109.8781242374329
 21
368.5
 31
0.0
  0
ARC
  5
79
  8
0
  6
CONTINUOUS
 62
     7
 10
-103.475
 20
367.5
 30
0.0
 40
6.480740698407859
 50
160.6957803932083
 51
171.1236049190267
  0
LINE
  5
7A
  8
0
  6
CONTINUOUS
 62
     7
 10
-109.5913714733492
 20
369.6424285285628
 30
0.0
 11
-109.5913714733492
 21
369.7
 31
0.0
  0
LINE
  5
7B
  8
0
  6
CONTINUOUS
 62
     7
 10
-109.5913714733492
 20
365.3
 30
0.0
 11
-109.5913714733492
 21
365.3575714714371
 31
0.0
  0
LINE
  5
7C
  8
0
  6
CONTINUOUS
 62
     7
 10
-109.8781242374329
 20
366.5
 30
0.0
 11
-109.8781242374329
 21
367.0
 31
0.0
  0
ARC
  5
7D
  8
0
  6
CONTINUOUS
 62
     7
 10
-103.475
 20
367.5
 30
0.0
 40
6.480740698407864
 50
188.8763950809734
 51
199.3042196067916
  0
LINE
  5
7E
  8
0
  6
CONTINUOUS
 62
     7
 10
-106.875
 20
314.5
 30
0.0
 11
-103.375
 21
314.5
 31
0.0
  0
LINE
  5
7F
  8
0
  6
CONTINUOUS
 62
     7
 10
-106.875
 20
315.5
 30
0.0
 11
-103.375
 21
315.5
 31
0.0
  0
LINE
  5
80
  8
0
  6
CONTINUOUS
 62
     7
 10
-103.375
 20
253.5
 30
0.0
 11
-106.875
 21
253.5
 31
0.0
  0
LINE
  5
81
  8
0
  6
CONTINUOUS
 62
     7
 10
-103.375
 20
376.5
 30
0.0
 11
-106.875
 21
376.5
 31
0.0
  0
LINE
  5
82
  8
0
  6
CONTINUOUS
 62
     7
 10
-106.875
 20
315.0
 30
0.0
 11
-107.175
 21
315.0
 31
0.0
  0
LINE
  5
83
  8
0
  6
CONTINUOUS
 62
     7
 10
-106.875
 20
316.0
 30
0.0
 11
-107.175
 21
316.0
 31
0.0
  0
LINE
  5
84
  8
0
  6
CONTINUOUS
 62
     7
 10
-106.875
 20
314.0
 30
0.0
 11
-107.175
 21
314.0
 31
0.0
  0
ARC
  5
85
  8
0
  6
CONTINUOUS
 62
     7
 10
-107.875
 20
365.0
 30
0.0
 40
1.000000000000007
 50
270.0
 51
289.6271216908335
  0
ARC
  5
86
  8
0
  6
CONTINUOUS
 62
     7
 10
-107.875
 20
265.0
 30
0.0
 40
1.000000000000012
 50
70.37287830916557
 51
90.00000000000001
  0
LINE
  5
87
  8
0
  6
CONTINUOUS
 62
     7
 10
-107.875
 20
364.0
 30
0.0
 11
-117.375
 21
364.0
 31
0.0
  0
LINE
  5
88
  8
0
  6
CONTINUOUS
 62
     7
 10
-107.875
 20
266.0
 30
0.0
 11
-117.375
 21
266.0
 31
0.0
  0
LINE
  5
89
  8
0
  6
CONTINUOUS
 62
     7
 10
-106.875
 20
254.5
 30
0.0
 11
-107.175
 21
254.5
 31
0.0
  0
LINE
  5
8A
  8
0
  6
CONTINUOUS
 62
     7
 10
-107.175
 20
256.5
 30
0.0
 11
-107.175
 21
254.5
 31
0.0
  0
LINE
  5
8B
  8
0
  6
CONTINUOUS
 62
     7
 10
-106.875
 20
256.5
 30
0.0
 11
-107.175
 21
256.5
 31
0.0
  0
LINE
  5
8C
  8
0
  6
CONTINUOUS
 62
     7
 10
-107.175
 20
373.5
 30
0.0
 11
-107.175
 21
375.5
 31
0.0
  0
LINE
  5
8D
  8
0
  6
CONTINUOUS
 62
     7
 10
-106.875
 20
375.5
 30
0.0
 11
-107.175
 21
375.5
 31
0.0
  0
LINE
  5
8E
  8
0
  6
CONTINUOUS
 62
     7
 10
-106.875
 20
373.5
 30
0.0
 11
-107.175
 21
373.5
 31
0.0
  0
ARC
  5
8F
  8
0
  6
CONTINUOUS
 62
     7
 10
-66.42120587161519
 20
257.0299400163726
 30
0.0
 40
3.046074251989222
 50
294.1494835593498
 51
359.4368278454679
  0
ARC
  5
90
  8
0
  6
CONTINUOUS
 62
     7
 10
-66.37499999999997
 20
257.0
 30
0.0
 40
3.0
 50
270.0
 51
293.5781784782008
  0
ARC
  5
91
  8
0
  6
CONTINUOUS
 62
     7
 10
-66.37499999999999
 20
373.0
 30
0.0
 40
3.000000000000003
 50
66.42182152179925
 51
90.0
  0
ARC
  5
92
  8
0
  6
CONTINUOUS
 62
     7
 10
-66.4232390510401
 20
372.9687291613889
 30
0.0
 40
3.048120695750924
 50
0.5878108786443477
 51
65.8258777165309
  0
CIRCLE
  5
93
  8
0
  6
CONTINUOUS
 62
     7
 10
-85.475
 20
352.5
 30
0.0
 40
10.90000000000002
  0
CIRCLE
  5
94
  8
0
  6
CONTINUOUS
 62
     7
 10
-85.475
 20
277.5
 30
0.0
 40
10.89999999999996
  0
LINE
  5
95
  8
0
  6
CONTINUOUS
 62
     7
 10
-71.57499999999999
 20
318.5
 30
0.0
 11
-71.57499999999999
 21
311.5
 31
0.0
  0
ARC
  5
96
  8
0
  6
CONTINUOUS
 62
     7
 10
-71.07499999999999
 20
318.5
 30
0.0
 40
0.5000000000000004
 50
90.0
 51
179.9999999999995
  0
ARC
  5
97
  8
0
  6
CONTINUOUS
 62
     7
 10
-71.07499999999999
 20
311.5
 30
0.0
 40
0.5000000000000004
 50
180.0000000000004
 51
270.0
  0
LINE
  5
98
  8
0
  6
CONTINUOUS
 62
     7
 10
-63.37499999999999
 20
296.8945316793559
 30
0.0
 11
-63.30898678631812
 21
297.014513895694
 31
0.0
  0
ARC
  5
99
  8
0
  6
CONTINUOUS
 62
     7
 10
-65.8405922854443
 20
298.0002544911311
 30
0.0
 40
2.716746385789183
 50
338.7253699790859
 51
21.21342524198201
  0
LINE
  5
9A
  8
0
  6
CONTINUOUS
 62
     7
 10
-63.30793523827223
 20
298.9832902006088
 30
0.0
 11
-63.37499999999999
 21
299.1054683206441
 31
0.0
  0
LINE
  5
9B
  8
0
  6
CONTINUOUS
 62
     7
 10
-63.37527876414041
 20
373.0
 30
0.0
 11
-63.37499999999997
 21
373.0
 31
0.0
  0
LINE
  5
9C
  8
0
  6
CONTINUOUS
 62
     7
 10
-63.37527876414015
 20
257.0
 30
0.0
 11
-63.37499999999999
 21
257.0
 31
0.0
  0
LINE
  5
9D
  8
0
  6
CONTINUOUS
 62
     7
 10
-62.62499999999999
 20
300.0
 30
0.0
 11
-63.37499999999999
 21
300.0
 31
0.0
  0
LINE
  5
9E
  8
0
  6
CONTINUOUS
 62
     7
 10
-62.62499999999999
 20
330.0
 30
0.0
 11
-63.37499999999999
 21
330.0
 31
0.0
  0
ARC
  5
9F
  8
0
  6
CONTINUOUS
 62
     7
 10
-100.875
 20
254.0
 30
0.0
 40
2.000000000000023
 50
180.0
 51
264.9999999999998
  0
ARC
  5
A0
  8
0
  6
CONTINUOUS
 62
     7
 10
-100.875
 20
376.0
 30
0.0
 40
2.000000000000002
 50
95.00000000000018
 51
180.0
  0
LINE
  5
A1
  8
0
  6
CONTINUOUS
 62
     7
 10
-106.875
 20
266.0
 30
0.0
 11
-108.3562042990444
 21
265.8704114154678
 31
0.0
  0
LINE
  5
A2
  8
0
  6
CONTINUOUS
 62
     7
 10
-108.3562042990444
 20
259.1295885845323
 30
0.0
 11
-106.875
 21
259.0
 31
0.0
  0
ARC
  5
A3
  8
0
  6
CONTINUOUS
 62
     7
 10
-108.2429018334724
 20
260.4246416920515
 30
0.0
 40
1.299999999999997
 50
203.5223875269062
 51
264.9999999999999
  0
ARC
  5
A4
  8
0
  6
CONTINUOUS
 62
     7
 10
-108.2429018334724
 20
264.5753583079485
 30
0.0
 40
1.299999999999993
 50
95.00000000000014
 51
156.4776124730939
  0
ARC
  5
A5
  8
0
  6
CONTINUOUS
 62
     7
 10
-103.475
 20
262.5
 30
0.0
 40
6.500000000000021
 50
156.4776124730938
 51
160.2168296273383
  0
ARC
  5
A6
  8
0
  6
CONTINUOUS
 62
     7
 10
-103.475
 20
262.5
 30
0.0
 40
6.499999999999985
 50
199.7831703726617
 51
203.5223875269062
  0
LINE
  5
A7
  8
0
  6
CONTINUOUS
 62
     7
 10
-106.875
 20
371.0
 30
0.0
 11
-108.3562042990444
 21
370.8704114154677
 31
0.0
  0
LINE
  5
A8
  8
0
  6
CONTINUOUS
 62
     7
 10
-108.3562042990444
 20
364.1295885845322
 30
0.0
 11
-106.875
 21
364.0
 31
0.0
  0
ARC
  5
A9
  8
0
  6
CONTINUOUS
 62
     7
 10
-108.2429018334724
 20
369.5753583079485
 30
0.0
 40
1.299999999999993
 50
95.00000000000014
 51
156.4776124730939
  0
ARC
  5
AA
  8
0
  6
CONTINUOUS
 62
     7
 10
-108.2429018334724
 20
365.4246416920515
 30
0.0
 40
1.299999999999997
 50
203.5223875269062
 51
264.9999999999999
  0
ARC
  5
AB
  8
0
  6
CONTINUOUS
 62
     7
 10
-103.475
 20
367.5
 30
0.0
 40
6.499999999999999
 50
156.4776124730937
 51
160.2168296273385
  0
ARC
  5
AC
  8
0
  6
CONTINUOUS
 62
     7
 10
-103.475
 20
367.5
 30
0.0
 40
6.500000000000004
 50
199.7831703726617
 51
203.5223875269064
  0
ARC
  5
AD
  8
0
  6
CONTINUOUS
 62
     7
 10
-65.62499999999997
 20
373.0
 30
0.0
 40
2.999999999999989
 50
0.0
 51
90.0
  0
ARC
  5
AE
  8
0
  6
CONTINUOUS
 62
     7
 10
-65.62499999999997
 20
257.0
 30
0.0
 40
3.000000000000003
 50
270.0
 51
0.0
  0
LINE
  5
AF
  8
0
  6
CONTINUOUS
 62
     7
 10
-62.62499999999999
 20
257.0
 30
0.0
 11
-62.62499999999999
 21
300.0
 31
0.0
  0
LINE
  5
B0
  8
0
  6
CONTINUOUS
 62
     7
 10
-62.62499999999999
 20
330.0
 30
0.0
 11
-62.62499999999999
 21
373.0
 31
0.0
  0
ENDBLK
  8
0
  0
BLOCK
  8
0
  2
D_FRAME_VIEW_3288
 70
     0
 10
0.0
 20
0.0
 30
0.0
  0
LINE
  5
B5
  8
0
  6
CONTINUOUS
 62
     7
 10
-170.6224841289363
 20
218.275
 30
0.0
 11
-170.6596985975384
 21
218.275
 31
0.0
  0
LINE
  5
B6
  8
0
  6
CONTINUOUS
 62
     7
 10
-177.3403014024617
 20
218.275
 30
0.0
 11
-177.3775158710638
 21
218.275
 31
0.0
  0
LINE
  5
B7
  8
0
  6
CONTINUOUS
 62
     7
 10
-177.3331176261146
 20
218.3562042990444
 30
0.0
 11
-177.3403014024617
 21
218.275
 31
0.0
  0
LINE
  5
B8
  8
0
  6
CONTINUOUS
 62
     7
 10
-170.6596985975384
 20
218.275
 30
0.0
 11
-170.6668823738855
 21
218.3562042990444
 31
0.0
  0
ARC
  5
B9
  8
0
  6
CONTINUOUS
 62
     7
 10
-176.0401012533655
 20
218.238990851272
 30
0.0
 40
1.298318270893472
 50
112.9119507901853
 51
174.8202280498808
  0
ARC
  5
BA
  8
0
  6
CONTINUOUS
 62
     7
 10
-171.9594151335204
 20
218.2393439466384
 30
0.0
 40
1.297804791443553
 50
5.166174632895247
 51
67.1016465270384
  0
LINE
  5
BB
  8
0
  6
CONTINUOUS
 62
     7
 10
-173.5
 20
219.5913714733492
 30
0.0
 11
-174.5
 21
219.5913714733492
 31
0.0
  0
LINE
  5
BC
  8
0
  6
CONTINUOUS
 62
     7
 10
-173.5
 20
219.8781242374328
 30
0.0
 11
-173.5
 21
219.5913714733492
 31
0.0
  0
LINE
  5
BD
  8
0
  6
CONTINUOUS
 62
     7
 10
-173.0
 20
219.8781242374328
 30
0.0
 11
-173.5
 21
219.8781242374328
 31
0.0
  0
ARC
  5
BE
  8
0
  6
CONTINUOUS
 62
     7
 10
-174.0
 20
213.475
 30
0.0
 40
6.480740698407865
 50
66.87190898975547
 51
81.12360491902666
  0
ARC
  5
BF
  8
0
  6
CONTINUOUS
 62
     7
 10
-174.0
 20
213.475
 30
0.0
 40
6.480740698407873
 50
98.87639508097337
 51
113.1280910102446
  0
LINE
  5
C0
  8
0
  6
CONTINUOUS
 62
     7
 10
-174.5
 20
219.8781242374328
 30
0.0
 11
-175.0
 21
219.8781242374328
 31
0.0
  0
LINE
  5
C1
  8
0
  6
CONTINUOUS
 62
     7
 10
-174.5
 20
219.5913714733492
 30
0.0
 11
-174.5
 21
219.8781242374328
 31
0.0
  0
LINE
  5
C2
  8
0
  6
CONTINUOUS
 62
     7
 10
-329.3775158710637
 20
218.275
 30
0.0
 11
-329.3403014024616
 21
218.275
 31
0.0
  0
LINE
  5
C3
  8
0
  6
CONTINUOUS
 62
     7
 10
-329.3403014024616
 20
218.275
 30
0.0
 11
-329.3331176261145
 21
218.3562042990444
 31
0.0
  0
LINE
  5
C4
  8
0
  6
CONTINUOUS
 62
     7
 10
-322.6668823738854
 20
218.3562042990444
 30
0.0
 11
-322.6596985975383
 21
218.275
 31
0.0
  0
LINE
  5
C5
  8
0
  6
CONTINUOUS
 62
     7
 10
-322.6596985975383
 20
218.275
 30
0.0
 11
-322.6224841289362
 21
218.275
 31
0.0
  0
ARC
  5
C6
  8
0
  6
CONTINUOUS
 62
     7
 10
-328.0405848664793
 20
218.2393439466381
 30
0.0
 40
1.297804791443877
 50
112.8983534729713
 51
174.8338253670961
  0
ARC
  5
C7
  8
0
  6
CONTINUOUS
 62
     7
 10
-323.9598987466344
 20
218.2389908512721
 30
0.0
 40
1.298318270893373
 50
5.179771950115878
 51
67.08804920981561
  0
LINE
  5
C8
  8
0
  6
CONTINUOUS
 62
     7
 10
-325.4999999999999
 20
219.8781242374328
 30
0.0
 11
-324.9999999999999
 21
219.8781242374328
 31
0.0
  0
ARC
  5
C9
  8
0
  6
CONTINUOUS
 62
     7
 10
-325.9999999999999
 20
213.475
 30
0.0
 40
6.480740698407873
 50
66.87190898975547
 51
81.12360491902666
  0
ARC
  5
CA
  8
0
  6
CONTINUOUS
 62
     7
 10
-325.9999999999999
 20
213.475
 30
0.0
 40
6.480740698407875
 50
98.87639508097334
 51
113.1280910102445
  0
LINE
  5
CB
  8
0
  6
CONTINUOUS
 62
     7
 10
-326.9999999999999
 20
219.8781242374328
 30
0.0
 11
-326.4999999999999
 21
219.8781242374328
 31
0.0
  0
LINE
  5
CC
  8
0
  6
CONTINUOUS
 62
     7
 10
-326.4999999999999
 20
219.8781242374328
 30
0.0
 11
-326.4999999999999
 21
219.5913714733492
 31
0.0
  0
LINE
  5
CD
  8
0
  6
CONTINUOUS
 62
     7
 10
-326.4999999999999
 20
219.5913714733492
 30
0.0
 11
-325.4999999999999
 21
219.5913714733492
 31
0.0
  0
LINE
  5
CE
  8
0
  6
CONTINUOUS
 62
     7
 10
-325.4999999999999
 20
219.5913714733492
 30
0.0
 11
-325.4999999999999
 21
219.8781242374328
 31
0.0
  0
LINE
  5
CF
  8
0
  6
CONTINUOUS
 62
     7
 10
-250.5
 20
216.875
 30
0.0
 11
-250.5
 21
213.375
 31
0.0
  0
LINE
  5
D0
  8
0
  6
CONTINUOUS
 62
     7
 10
-341.9999999999999
 20
216.875
 30
0.0
 11
-341.9999999999999
 21
213.375
 31
0.0
  0
LINE
  5
D1
  8
0
  6
CONTINUOUS
 62
     7
 10
-158.0
 20
216.875
 30
0.0
 11
-158.0
 21
213.375
 31
0.0
  0
LINE
  5
D2
  8
0
  6
CONTINUOUS
 62
     7
 10
-249.5
 20
216.875
 30
0.0
 11
-249.5
 21
213.375
 31
0.0
  0
LINE
  5
D3
  8
0
  6
CONTINUOUS
 62
     7
 10
-250.0
 20
216.8749999999999
 30
0.0
 11
-250.0
 21
217.175
 31
0.0
  0
LINE
  5
D4
  8
0
  6
CONTINUOUS
 62
     7
 10
-249.0
 20
216.8749999999999
 30
0.0
 11
-249.0
 21
217.175
 31
0.0
  0
LINE
  5
D5
  8
0
  6
CONTINUOUS
 62
     7
 10
-251.0
 20
216.8749999999999
 30
0.0
 11
-251.0
 21
217.175
 31
0.0
  0
ARC
  5
D6
  8
0
  6
CONTINUOUS
 62
     7
 10
-323.5
 20
217.875
 30
0.0
 40
1.000000000000001
 50
340.3728783091677
 51
0.0
  0
ARC
  5
D7
  8
0
  6
CONTINUOUS
 62
     7
 10
-176.5
 20
217.875
 30
0.0
 40
1.000000000000012
 50
180.0
 51
199.6271216908323
  0
LINE
  5
D8
  8
0
  6
CONTINUOUS
 62
     7
 10
-177.5
 20
227.375
 30
0.0
 11
-177.5
 21
217.875
 31
0.0
  0
LINE
  5
D9
  8
0
  6
CONTINUOUS
 62
     7
 10
-322.5
 20
227.375
 30
0.0
 11
-322.5
 21
217.875
 31
0.0
  0
LINE
  5
DA
  8
0
  6
CONTINUOUS
 62
     7
 10
-161.0
 20
216.875
 30
0.0
 11
-161.0
 21
217.175
 31
0.0
  0
LINE
  5
DB
  8
0
  6
CONTINUOUS
 62
     7
 10
-159.0
 20
216.875
 30
0.0
 11
-159.0
 21
217.175
 31
0.0
  0
LINE
  5
DC
  8
0
  6
CONTINUOUS
 62
     7
 10
-159.0
 20
217.175
 30
0.0
 11
-161.0
 21
217.175
 31
0.0
  0
LINE
  5
DD
  8
0
  6
CONTINUOUS
 62
     7
 10
-340.9999999999999
 20
216.875
 30
0.0
 11
-340.9999999999999
 21
217.175
 31
0.0
  0
LINE
  5
DE
  8
0
  6
CONTINUOUS
 62
     7
 10
-340.9999999999999
 20
217.175
 30
0.0
 11
-338.9999999999999
 21
217.175
 31
0.0
  0
LINE
  5
DF
  8
0
  6
CONTINUOUS
 62
     7
 10
-338.9999999999999
 20
216.875
 30
0.0
 11
-338.9999999999999
 21
217.175
 31
0.0
  0
LINE
  5
E0
  8
0
  6
CONTINUOUS
 62
     7
 10
-329.5
 20
210.875
 30
0.0
 11
-322.5
 21
210.875
 31
0.0
  0
POLYLINE
  5
E1
  8
0
  6
CONTINUOUS
 62
     7
 66
     1
 10
0.0
 20
0.0
 30
0.0
  0
VERTEX
  5
26B
  8
0
  6
CONTINUOUS
 62
     7
 10
-329.3
 20
211.0493114854953
 30
0.0
  0
VERTEX
  5
26C
  8
0
  6
CONTINUOUS
 62
     7
 10
-329.3390180644031
 20
211.0489765508637
 30
0.0
  0
VERTEX
  5
26D
  8
0
  6
CONTINUOUS
 62
     7
 10
-329.3765366864729
 20
211.0479846183188
 30
0.0
  0
VERTEX
  5
26E
  8
0
  6
CONTINUOUS
 62
     7
 10
-329.4111140466039
 20
211.0463738072722
 30
0.0
  0
VERTEX
  5
26F
  8
0
  6
CONTINUOUS
 62
     7
 10
-329.4414213562372
 20
211.044206020289
 30
0.0
  0
VERTEX
  5
270
  8
0
  6
CONTINUOUS
 62
     7
 10
-329.4662939224605
 20
211.0415645642072
 30
0.0
  0
VERTEX
  5
271
  8
0
  6
CONTINUOUS
 62
     7
 10
-329.4847759065022
 20
211.0385509487028
 30
0.0
  0
VERTEX
  5
272
  8
0
  6
CONTINUOUS
 62
     7
 10
-329.4961570560806
 20
211.0352809853294
 30
0.0
  0
VERTEX
  5
273
  8
0
  6
CONTINUOUS
 62
     7
 10
-329.4999999999999
 20
211.0318803369458
 30
0.0
  0
SEQEND
  5
591
  8
0
  6
CONTINUOUS
 62
     7
  0
LINE
  5
E2
  8
0
  6
CONTINUOUS
 62
     7
 10
-329.3
 20
211.0493114854953
 30
0.0
 11
-322.7
 21
211.0493114854953
 31
0.0
  0
POLYLINE
  5
E3
  8
0
  6
CONTINUOUS
 62
     7
 66
     1
 10
0.0
 20
0.0
 30
0.0
  0
VERTEX
  5
274
  8
0
  6
CONTINUOUS
 62
     7
 10
-322.5
 20
211.0318803369458
 30
0.0
  0
VERTEX
  5
275
  8
0
  6
CONTINUOUS
 62
     7
 10
-322.5038429439194
 20
211.0352809853294
 30
0.0
  0
VERTEX
  5
276
  8
0
  6
CONTINUOUS
 62
     7
 10
-322.5152240934977
 20
211.0385509487027
 30
0.0
  0
VERTEX
  5
277
  8
0
  6
CONTINUOUS
 62
     7
 10
-322.5337060775395
 20
211.0415645642072
 30
0.0
  0
VERTEX
  5
278
  8
0
  6
CONTINUOUS
 62
     7
 10
-322.5585786437627
 20
211.044206020289
 30
0.0
  0
VERTEX
  5
279
  8
0
  6
CONTINUOUS
 62
     7
 10
-322.5888859533961
 20
211.0463738072722
 30
0.0
  0
VERTEX
  5
27A
  8
0
  6
CONTINUOUS
 62
     7
 10
-322.6234633135269
 20
211.0479846183188
 30
0.0
  0
VERTEX
  5
27B
  8
0
  6
CONTINUOUS
 62
     7
 10
-322.6609819355967
 20
211.0489765508637
 30
0.0
  0
VERTEX
  5
27C
  8
0
  6
CONTINUOUS
 62
     7
 10
-322.7
 20
211.0493114854953
 30
0.0
  0
SEQEND
  5
592
  8
0
  6
CONTINUOUS
 62
     7
  0
LINE
  5
E4
  8
0
  6
CONTINUOUS
 62
     9
 10
-322.7
 20
211.0493114854953
 30
0.0
 11
-322.7
 21
212.875
 31
0.0
  0
ARC
  5
E5
  8
0
  6
CONTINUOUS
 62
     7
 10
-322.7
 20
212.675
 30
0.0
 40
0.2000000000000057
 50
0.0
 51
90.0
  0
ARC
  5
E6
  8
0
  6
CONTINUOUS
 62
     7
 10
-329.3
 20
212.675
 30
0.0
 40
0.2000000000000335
 50
90.0
 51
180.0
  0
LINE
  5
E7
  8
0
  6
CONTINUOUS
 62
     9
 10
-329.3
 20
212.875
 30
0.0
 11
-329.3
 21
211.0493114854953
 31
0.0
  0
POLYLINE
  5
E8
  8
0
  6
CONTINUOUS
 62
     7
 66
     1
 10
0.0
 20
0.0
 30
0.0
  0
VERTEX
  5
27D
  8
0
  6
CONTINUOUS
 62
     7
 10
-177.3
 20
211.0493114854953
 30
0.0
  0
VERTEX
  5
27E
  8
0
  6
CONTINUOUS
 62
     7
 10
-177.3390180644032
 20
211.0489765508637
 30
0.0
  0
VERTEX
  5
27F
  8
0
  6
CONTINUOUS
 62
     7
 10
-177.376536686473
 20
211.0479846183188
 30
0.0
  0
VERTEX
  5
280
  8
0
  6
CONTINUOUS
 62
     7
 10
-177.411114046604
 20
211.0463738072722
 30
0.0
  0
VERTEX
  5
281
  8
0
  6
CONTINUOUS
 62
     7
 10
-177.4414213562374
 20
211.044206020289
 30
0.0
  0
VERTEX
  5
282
  8
0
  6
CONTINUOUS
 62
     7
 10
-177.4662939224606
 20
211.0415645642072
 30
0.0
  0
VERTEX
  5
283
  8
0
  6
CONTINUOUS
 62
     7
 10
-177.4847759065023
 20
211.0385509487028
 30
0.0
  0
VERTEX
  5
284
  8
0
  6
CONTINUOUS
 62
     7
 10
-177.4961570560807
 20
211.0352809853294
 30
0.0
  0
VERTEX
  5
285
  8
0
  6
CONTINUOUS
 62
     7
 10
-177.5000000000001
 20
211.0318803369458
 30
0.0
  0
SEQEND
  5
593
  8
0
  6
CONTINUOUS
 62
     7
  0
LINE
  5
E9
  8
0
  6
CONTINUOUS
 62
     7
 10
-170.7
 20
211.0493114854953
 30
0.0
 11
-177.3
 21
211.0493114854953
 31
0.0
  0
POLYLINE
  5
EA
  8
0
  6
CONTINUOUS
 62
     7
 66
     1
 10
0.0
 20
0.0
 30
0.0
  0
VERTEX
  5
286
  8
0
  6
CONTINUOUS
 62
     7
 10
-170.5
 20
211.0318803369458
 30
0.0
  0
VERTEX
  5
287
  8
0
  6
CONTINUOUS
 62
     7
 10
-170.5038429439194
 20
211.0352809853294
 30
0.0
  0
VERTEX
  5
288
  8
0
  6
CONTINUOUS
 62
     7
 10
-170.5152240934977
 20
211.0385509487027
 30
0.0
  0
VERTEX
  5
289
  8
0
  6
CONTINUOUS
 62
     7
 10
-170.5337060775395
 20
211.0415645642072
 30
0.0
  0
VERTEX
  5
28A
  8
0
  6
CONTINUOUS
 62
     7
 10
-170.5585786437627
 20
211.044206020289
 30
0.0
  0
VERTEX
  5
28B
  8
0
  6
CONTINUOUS
 62
     7
 10
-170.5888859533961
 20
211.0463738072722
 30
0.0
  0
VERTEX
  5
28C
  8
0
  6
CONTINUOUS
 62
     7
 10
-170.623463313527
 20
211.0479846183188
 30
0.0
  0
VERTEX
  5
28D
  8
0
  6
CONTINUOUS
 62
     7
 10
-170.6609819355968
 20
211.0489765508637
 30
0.0
  0
VERTEX
  5
28E
  8
0
  6
CONTINUOUS
 62
     7
 10
-170.7
 20
211.0493114854953
 30
0.0
  0
SEQEND
  5
594
  8
0
  6
CONTINUOUS
 62
     7
  0
LINE
  5
EB
  8
0
  6
CONTINUOUS
 62
     7
 10
-177.5
 20
211.0318803369458
 30
0.0
 11
-177.5
 21
212.675
 31
0.0
  0
ARC
  5
EC
  8
0
  6
CONTINUOUS
 62
     7
 10
-177.3
 20
212.675
 30
0.0
 40
0.199999999999978
 50
90.0
 51
180.0
  0
ARC
  5
ED
  8
0
  6
CONTINUOUS
 62
     7
 10
-170.7
 20
212.675
 30
0.0
 40
0.2000000000000057
 50
0.0
 51
90.0
  0
LINE
  5
EE
  8
0
  6
CONTINUOUS
 62
     7
 10
-170.5
 20
212.675
 30
0.0
 11
-170.5
 21
211.0318803369458
 31
0.0
  0
LINE
  5
EF
  8
0
  6
CONTINUOUS
 62
     7
 10
-329.3
 20
212.875
 30
0.0
 11
-322.7
 21
212.875
 31
0.0
  0
LINE
  5
F0
  8
0
  6
CONTINUOUS
 62
     7
 10
-170.7
 20
212.875
 30
0.0
 11
-177.3
 21
212.875
 31
0.0
  0
CIRCLE
  5
F1
  8
0
  6
CONTINUOUS
 62
     7
 10
-303.0
 20
192.875
 30
0.0
 40
13.55000000000001
  0
ARC
  5
F2
  8
0
  6
CONTINUOUS
 62
     7
 10
-332.25
 20
178.175
 30
0.0
 40
2.250000000000008
 50
209.2675775975312
 51
330.7324224024687
  0
ARC
  5
F3
  8
0
  6
CONTINUOUS
 62
     7
 10
-329.5
 20
177.575
 30
0.0
 40
0.5000000000000004
 50
270.0000000000015
 51
0.0000000000005116
  0
LINE
  5
F4
  8
0
  6
CONTINUOUS
 62
     7
 10
-328.9999999999999
 20
178.7749999999999
 30
0.0
 11
-329.0
 21
177.575
 31
0.0
  0
ARC
  5
F5
  8
0
  6
CONTINUOUS
 62
     7
 10
-329.5
 20
178.7749999999999
 30
0.0
 40
0.5000000000000004
 50
0.0000000000002842
 51
90.0
  0
ARC
  5
F6
  8
0
  6
CONTINUOUS
 62
     7
 10
-332.25
 20
178.175
 30
0.0
 40
2.249999999999995
 50
29.26757759753139
 51
150.7324224024687
  0
ARC
  5
F7
  8
0
  6
CONTINUOUS
 62
     7
 10
-167.75
 20
178.175
 30
0.0
 40
2.249999999999995
 50
29.26757759753136
 51
150.7324224024686
  0
ARC
  5
F8
  8
0
  6
CONTINUOUS
 62
     7
 10
-170.5
 20
178.7749999999999
 30
0.0
 40
0.5000000000000004
 50
90.0
 51
179.9999999999997
  0
LINE
  5
F9
  8
0
  6
CONTINUOUS
 62
     7
 10
-171.0
 20
178.7749999999999
 30
0.0
 11
-171.0
 21
177.575
 31
0.0
  0
ARC
  5
FA
  8
0
  6
CONTINUOUS
 62
     7
 10
-170.5
 20
177.575
 30
0.0
 40
0.5000000000000004
 50
179.9999999999995
 51
269.9999999999984
  0
ARC
  5
FB
  8
0
  6
CONTINUOUS
 62
     7
 10
-167.75
 20
178.175
 30
0.0
 40
2.250000000000008
 50
209.2675775975313
 51
330.7324224024687
  0
CIRCLE
  5
FC
  8
0
  6
CONTINUOUS
 62
     7
 10
-250.0
 20
192.875
 30
0.0
 40
13.54999999999998
  0
CIRCLE
  5
FD
  8
0
  6
CONTINUOUS
 62
     7
 10
-197.0
 20
192.875
 30
0.0
 40
13.55000000000001
  0
ARC
  5
FE
  8
0
  6
CONTINUOUS
 62
     7
 10
-162.0
 20
176.375
 30
0.0
 40
3.000000000000003
 50
270.0
 51
0.0000000000000568
  0
LINE
  5
FF
  8
0
  6
CONTINUOUS
 62
     7
 10
-162.0
 20
173.375
 30
0.0
 11
-164.963873656849
 21
173.375
 31
0.0
  0
ARC
  5
100
  8
0
  6
CONTINUOUS
 62
     7
 10
-167.75
 20
178.175
 30
0.0
 40
5.550000000000014
 50
300.1327218310103
 51
300.1384540306357
  0
POLYLINE
  5
101
  8
0
  6
CONTINUOUS
 62
     7
 66
     1
 10
0.0
 20
0.0
 30
0.0
  0
VERTEX
  5
28F
  8
0
  6
CONTINUOUS
 62
     7
 10
-334.9999999999999
 20
179.2749999999999
 30
0.0
  0
VERTEX
  5
290
  8
0
  6
CONTINUOUS
 62
     7
 10
-335.0208544899471
 20
179.274563208398
 30
0.0
  0
VERTEX
  5
291
  8
0
  6
CONTINUOUS
 62
     7
 10
-335.0416855958354
 20
179.2732562621069
 30
0.0
  0
VERTEX
  5
292
  8
0
  6
CONTINUOUS
 62
     7
 10
-335.0624393428992
 20
179.2710843038988
 30
0.0
  0
VERTEX
  5
293
  8
0
  6
CONTINUOUS
 62
     7
 10
-335.083061756373
 20
179.2680524765461
 30
0.0
  0
VERTEX
  5
294
  8
0
  6
CONTINUOUS
 62
     7
 10
-335.1041286537994
 20
179.2640351298499
 30
0.0
  0
VERTEX
  5
295
  8
0
  6
CONTINUOUS
 62
     7
 10
-335.1250185755064
 20
179.2591146947086
 30
0.0
  0
VERTEX
  5
296
  8
0
  6
CONTINUOUS
 62
     7
 10
-335.1456749669952
 20
179.2533063223728
 30
0.0
  0
VERTEX
  5
297
  8
0
  6
CONTINUOUS
 62
     7
 10
-335.1660412737667
 20
179.2466251640931
 30
0.0
  0
VERTEX
  5
298
  8
0
  6
CONTINUOUS
 62
     7
 10
-335.18553401254
 20
179.239301075874
 30
0.0
  0
VERTEX
  5
299
  8
0
  6
CONTINUOUS
 62
     7
 10
-335.2047192259408
 20
179.231165671049
 30
0.0
  0
VERTEX
  5
29A
  8
0
  6
CONTINUOUS
 62
     7
 10
-335.2235483456782
 20
179.2222409817171
 30
0.0
  0
VERTEX
  5
29B
  8
0
  6
CONTINUOUS
 62
     7
 10
-335.2419728034614
 20
179.2125490399773
 30
0.0
  0
VERTEX
  5
29C
  8
0
  6
CONTINUOUS
 62
     7
 10
-335.2604892570084
 20
179.2017827490409
 30
0.0
  0
VERTEX
  5
29D
  8
0
  6
CONTINUOUS
 62
     7
 10
-335.2785443620689
 20
179.1902225668013
 30
0.0
  0
VERTEX
  5
29E
  8
0
  6
CONTINUOUS
 62
     7
 10
-335.296089893658
 20
179.1779006614317
 30
0.0
  0
VERTEX
  5
29F
  8
0
  6
CONTINUOUS
 62
     7
 10
-335.313077626791
 20
179.1648492011058
 30
0.0
  0
VERTEX
  5
2A0
  8
0
  6
CONTINUOUS
 62
     7
 10
-335.3290777352705
 20
179.1514388119571
 30
0.0
  0
VERTEX
  5
2A1
  8
0
  6
CONTINUOUS
 62
     7
 10
-335.3445198921039
 20
179.1373576730791
 30
0.0
  0
VERTEX
  5
2A2
  8
0
  6
CONTINUOUS
 62
     7
 10
-335.3593647144074
 20
179.122642542992
 30
0.0
  0
VERTEX
  5
2A3
  8
0
  6
CONTINUOUS
 62
     7
 10
-335.3735728192972
 20
179.1073301802159
 30
0.0
  0
VERTEX
  5
2A4
  8
0
  6
CONTINUOUS
 62
     7
 10
-335.3875162109697
 20
179.0909577200909
 30
0.0
  0
VERTEX
  5
2A5
  8
0
  6
CONTINUOUS
 62
     7
 10
-335.4007585373449
 20
179.0739802784655
 30
0.0
  0
VERTEX
  5
2A6
  8
0
  6
CONTINUOUS
 62
     7
 10
-335.4132636435523
 20
179.0564449443811
 30
0.0
  0
VERTEX
  5
2A7
  8
0
  6
CONTINUOUS
 62
     7
 10
-335.4249953747214
 20
179.0383988068792
 30
0.0
  0
VERTEX
  5
2A8
  8
0
  6
CONTINUOUS
 62
     7
 10
-335.4355983834264
 20
179.0204635078423
 30
0.0
  0
VERTEX
  5
2A9
  8
0
  6
CONTINUOUS
 62
     7
 10
-335.4454566381214
 20
179.0020800186393
 30
0.0
  0
VERTEX
  5
2AA
  8
0
  6
CONTINUOUS
 62
     7
 10
-335.4545446316806
 20
178.9832965775016
 30
0.0
  0
VERTEX
  5
2AB
  8
0
  6
CONTINUOUS
 62
     7
 10
-335.4628368569779
 20
178.9641614226601
 30
0.0
  0
VERTEX
  5
2AC
  8
0
  6
CONTINUOUS
 62
     7
 10
-335.4705321847968
 20
178.944107912829
 30
0.0
  0
VERTEX
  5
2AD
  8
0
  6
CONTINUOUS
 62
     7
 10
-335.4773674218727
 20
178.9237172798749
 30
0.0
  0
VERTEX
  5
2AE
  8
0
  6
CONTINUOUS
 62
     7
 10
-335.4833239056636
 20
178.9030469692178
 30
0.0
  0
VERTEX
  5
2AF
  8
0
  6
CONTINUOUS
 62
     7
 10
-335.4883829736275
 20
178.8821544262772
 30
0.0
  0
VERTEX
  5
2B0
  8
0
  6
CONTINUOUS
 62
     7
 10
-335.4925465837739
 20
178.8609897289085
 30
0.0
  0
VERTEX
  5
2B1
  8
0
  6
CONTINUOUS
 62
     7
 10
-335.4957970362398
 20
178.8396306899317
 30
0.0
  0
VERTEX
  5
2B2
  8
0
  6
CONTINUOUS
 62
     7
 10
-335.4981273862696
 20
178.8181385570116
 30
0.0
  0
VERTEX
  5
2B3
  8
0
  6
CONTINUOUS
 62
     7
 10
-335.4995306891082
 20
178.7965745778127
 30
0.0
  0
VERTEX
  5
2B4
  8
0
  6
CONTINUOUS
 62
     7
 10
-335.5
 20
178.775
 30
0.0
  0
SEQEND
  5
595
  8
0
  6
CONTINUOUS
 62
     7
  0
LINE
  5
102
  8
0
  6
CONTINUOUS
 62
     7
 10
-335.5
 20
178.775
 30
0.0
 11
-335.5
 21
177.575
 31
0.0
  0
POLYLINE
  5
103
  8
0
  6
CONTINUOUS
 62
     7
 66
     1
 10
0.0
 20
0.0
 30
0.0
  0
VERTEX
  5
2B5
  8
0
  6
CONTINUOUS
 62
     7
 10
-335.5
 20
177.575
 30
0.0
  0
VERTEX
  5
2B6
  8
0
  6
CONTINUOUS
 62
     7
 10
-335.4995734407267
 20
177.5543923067167
 30
0.0
  0
VERTEX
  5
2B7
  8
0
  6
CONTINUOUS
 62
     7
 10
-335.498296850908
 20
177.5338026200761
 30
0.0
  0
VERTEX
  5
2B8
  8
0
  6
CONTINUOUS
 62
     7
 10
-335.4961748625456
 20
177.5132844814928
 30
0.0
  0
VERTEX
  5
2B9
  8
0
  6
CONTINUOUS
 62
     7
 10
-335.493212107641
 20
177.4928914323815
 30
0.0
  0
VERTEX
  5
2BA
  8
0
  6
CONTINUOUS
 62
     7
 10
-335.4892851386189
 20
177.4720525791261
 30
0.0
  0
VERTEX
  5
2BB
  8
0
  6
CONTINUOUS
 62
     7
 10
-335.484474720953
 20
177.4513840732124
 30
0.0
  0
VERTEX
  5
2BC
  8
0
  6
CONTINUOUS
 62
     7
 10
-335.478795823298
 20
177.4309421049787
 30
0.0
  0
VERTEX
  5
2BD
  8
0
  6
CONTINUOUS
 62
     7
 10
-335.4722634143087
 20
177.410782864763
 30
0.0
  0
VERTEX
  5
2BE
  8
0
  6
CONTINUOUS
 62
     7
 10
-335.4651031063271
 20
177.391485796445
 30
0.0
  0
VERTEX
  5
2BF
  8
0
  6
CONTINUOUS
 62
     7
 10
-335.4571502642885
 20
177.372488957035
 30
0.0
  0
VERTEX
  5
2C0
  8
0
  6
CONTINUOUS
 62
     7
 10
-335.4484269070163
 20
177.353840169735
 30
0.0
  0
VERTEX
  5
2C1
  8
0
  6
CONTINUOUS
 62
     7
 10
-335.4389550533335
 20
177.335587257747
 30
0.0
  0
VERTEX
  5
2C2
  8
0
  6
CONTINUOUS
 62
     7
 10
-335.4284374847998
 20
177.3172413227471
 30
0.0
  0
VERTEX
  5
2C3
  8
0
  6
CONTINUOUS
 62
     7
 10
-335.4171471669814
 20
177.2993461161127
 30
0.0
  0
VERTEX
  5
2C4
  8
0
  6
CONTINUOUS
 62
     7
 10
-335.4051159288374
 20
177.2819483029099
 30
0.0
  0
VERTEX
  5
2C5
  8
0
  6
CONTINUOUS
 62
     7
 10
-335.3923755993274
 20
177.2650945482047
 30
0.0
  0
VERTEX
  5
2C6
  8
0
  6
CONTINUOUS
 62
     7
 10
-335.3792299493225
 20
177.2491426033374
 30
0.0
  0
VERTEX
  5
2C7
  8
0
  6
CONTINUOUS
 62
     7
 10
-335.3654280363372
 20
177.233738371125
 30
0.0
  0
VERTEX
  5
2C8
  8
0
  6
CONTINUOUS
 62
     7
 10
-335.3510059874692
 20
177.2189196812161
 30
0.0
  0
VERTEX
  5
2C9
  8
0
  6
CONTINUOUS
 62
     7
 10
-335.3359999298165
 20
177.2047243632597
 30
0.0
  0
VERTEX
  5
2CA
  8
0
  6
CONTINUOUS
 62
     7
 10
-335.3199686236513
 20
177.1907887195569
 30
0.0
  0
VERTEX
  5
2CB
  8
0
  6
CONTINUOUS
 62
     7
 10
-335.3033474122145
 20
177.1775365478973
 30
0.0
  0
VERTEX
  5
2CC
  8
0
  6
CONTINUOUS
 62
     7
 10
-335.2861814058222
 20
177.1650019137791
 30
0.0
  0
VERTEX
  5
2CD
  8
0
  6
CONTINUOUS
 62
     7
 10
-335.2685157147903
 20
177.1532188827002
 30
0.0
  0
VERTEX
  5
2CE
  8
0
  6
CONTINUOUS
 62
     7
 10
-335.2507121133967
 20
177.1424011156935
 30
0.0
  0
VERTEX
  5
2CF
  8
0
  6
CONTINUOUS
 62
     7
 10
-335.2324575925967
 20
177.1323256859986
 30
0.0
  0
VERTEX
  5
2D0
  8
0
  6
CONTINUOUS
 62
     7
 10
-335.2137993592992
 20
177.1230174864092
 30
0.0
  0
VERTEX
  5
2D1
  8
0
  6
CONTINUOUS
 62
     7
 10
-335.194784620413
 20
177.1145014097191
 30
0.0
  0
VERTEX
  5
2D2
  8
0
  6
CONTINUOUS
 62
     7
 10
-335.1748632700305
 20
177.10657607064
 30
0.0
  0
VERTEX
  5
2D3
  8
0
  6
CONTINUOUS
 62
     7
 10
-335.1545992405376
 20
177.0995047123151
 30
0.0
  0
VERTEX
  5
2D4
  8
0
  6
CONTINUOUS
 62
     7
 10
-335.1340479875004
 20
177.0933058247587
 30
0.0
  0
VERTEX
  5
2D5
  8
0
  6
CONTINUOUS
 62
     7
 10
-335.1132649664854
 20
177.0879978979849
 30
0.0
  0
VERTEX
  5
2D6
  8
0
  6
CONTINUOUS
 62
     7
 10
-335.0909310574793
 20
177.0833423644463
 30
0.0
  0
VERTEX
  5
2D7
  8
0
  6
CONTINUOUS
 62
     7
 10
-335.0683671050638
 20
177.0797059167275
 30
0.0
  0
VERTEX
  5
2D8
  8
0
  6
CONTINUOUS
 62
     7
 10
-335.0456436105028
 20
177.0770974459795
 30
0.0
  0
VERTEX
  5
2D9
  8
0
  6
CONTINUOUS
 62
     7
 10
-335.0228310750602
 20
177.0755258433533
 30
0.0
  0
VERTEX
  5
2DA
  8
0
  6
CONTINUOUS
 62
     7
 10
-334.9999999999999
 20
177.075
 30
0.0
  0
SEQEND
  5
596
  8
0
  6
CONTINUOUS
 62
     7
  0
LINE
  5
104
  8
0
  6
CONTINUOUS
 62
     7
 10
-340.9999999999999
 20
176.375
 30
0.0
 11
-340.9999999999999
 21
213.375
 31
0.0
  0
POLYLINE
  5
105
  8
0
  6
CONTINUOUS
 62
     7
 66
     1
 10
0.0
 20
0.0
 30
0.0
  0
VERTEX
  5
2DB
  8
0
  6
CONTINUOUS
 62
     7
 10
-165.0
 20
177.075
 30
0.0
  0
VERTEX
  5
2DC
  8
0
  6
CONTINUOUS
 62
     7
 10
-164.9791455100529
 20
177.075436791602
 30
0.0
  0
VERTEX
  5
2DD
  8
0
  6
CONTINUOUS
 62
     7
 10
-164.9583144041646
 20
177.0767437378931
 30
0.0
  0
VERTEX
  5
2DE
  8
0
  6
CONTINUOUS
 62
     7
 10
-164.9375606571008
 20
177.0789156961011
 30
0.0
  0
VERTEX
  5
2DF
  8
0
  6
CONTINUOUS
 62
     7
 10
-164.916938243627
 20
177.0819475234539
 30
0.0
  0
VERTEX
  5
2E0
  8
0
  6
CONTINUOUS
 62
     7
 10
-164.8958713462006
 20
177.08596487015
 30
0.0
  0
VERTEX
  5
2E1
  8
0
  6
CONTINUOUS
 62
     7
 10
-164.8749814244936
 20
177.0908853052913
 30
0.0
  0
VERTEX
  5
2E2
  8
0
  6
CONTINUOUS
 62
     7
 10
-164.8543250330048
 20
177.0966936776271
 30
0.0
  0
VERTEX
  5
2E3
  8
0
  6
CONTINUOUS
 62
     7
 10
-164.8339587262332
 20
177.1033748359068
 30
0.0
  0
VERTEX
  5
2E4
  8
0
  6
CONTINUOUS
 62
     7
 10
-164.81446598746
 20
177.110698924126
 30
0.0
  0
VERTEX
  5
2E5
  8
0
  6
CONTINUOUS
 62
     7
 10
-164.7952807740592
 20
177.118834328951
 30
0.0
  0
VERTEX
  5
2E6
  8
0
  6
CONTINUOUS
 62
     7
 10
-164.7764516543218
 20
177.1277590182828
 30
0.0
  0
VERTEX
  5
2E7
  8
0
  6
CONTINUOUS
 62
     7
 10
-164.7580271965387
 20
177.1374509600226
 30
0.0
  0
VERTEX
  5
2E8
  8
0
  6
CONTINUOUS
 62
     7
 10
-164.7395107429915
 20
177.148217250959
 30
0.0
  0
VERTEX
  5
2E9
  8
0
  6
CONTINUOUS
 62
     7
 10
-164.7214556379311
 20
177.1597774331987
 30
0.0
  0
VERTEX
  5
2EA
  8
0
  6
CONTINUOUS
 62
     7
 10
-164.703910106342
 20
177.1720993385682
 30
0.0
  0
VERTEX
  5
2EB
  8
0
  6
CONTINUOUS
 62
     7
 10
-164.686922373209
 20
177.1851507988941
 30
0.0
  0
VERTEX
  5
2EC
  8
0
  6
CONTINUOUS
 62
     7
 10
-164.6709222647295
 20
177.1985611880428
 30
0.0
  0
VERTEX
  5
2ED
  8
0
  6
CONTINUOUS
 62
     7
 10
-164.6554801078961
 20
177.2126423269208
 30
0.0
  0
VERTEX
  5
2EE
  8
0
  6
CONTINUOUS
 62
     7
 10
-164.6406352855926
 20
177.227357457008
 30
0.0
  0
VERTEX
  5
2EF
  8
0
  6
CONTINUOUS
 62
     7
 10
-164.6264271807028
 20
177.2426698197841
 30
0.0
  0
VERTEX
  5
2F0
  8
0
  6
CONTINUOUS
 62
     7
 10
-164.6124837890303
 20
177.259042279909
 30
0.0
  0
VERTEX
  5
2F1
  8
0
  6
CONTINUOUS
 62
     7
 10
-164.5992414626551
 20
177.2760197215345
 30
0.0
  0
VERTEX
  5
2F2
  8
0
  6
CONTINUOUS
 62
     7
 10
-164.5867363564477
 20
177.2935550556189
 30
0.0
  0
VERTEX
  5
2F3
  8
0
  6
CONTINUOUS
 62
     7
 10
-164.5750046252786
 20
177.3116011931207
 30
0.0
  0
VERTEX
  5
2F4
  8
0
  6
CONTINUOUS
 62
     7
 10
-164.5644016165736
 20
177.3295364921576
 30
0.0
  0
VERTEX
  5
2F5
  8
0
  6
CONTINUOUS
 62
     7
 10
-164.5545433618786
 20
177.3479199813606
 30
0.0
  0
VERTEX
  5
2F6
  8
0
  6
CONTINUOUS
 62
     7
 10
-164.5454553683195
 20
177.3667034224983
 30
0.0
  0
VERTEX
  5
2F7
  8
0
  6
CONTINUOUS
 62
     7
 10
-164.5371631430221
 20
177.3858385773398
 30
0.0
  0
VERTEX
  5
2F8
  8
0
  6
CONTINUOUS
 62
     7
 10
-164.5294678152032
 20
177.405892087171
 30
0.0
  0
VERTEX
  5
2F9
  8
0
  6
CONTINUOUS
 62
     7
 10
-164.5226325781273
 20
177.426282720125
 30
0.0
  0
VERTEX
  5
2FA
  8
0
  6
CONTINUOUS
 62
     7
 10
-164.5166760943364
 20
177.4469530307822
 30
0.0
  0
VERTEX
  5
2FB
  8
0
  6
CONTINUOUS
 62
     7
 10
-164.5116170263725
 20
177.4678455737228
 30
0.0
  0
VERTEX
  5
2FC
  8
0
  6
CONTINUOUS
 62
     7
 10
-164.507453416226
 20
177.4890102710914
 30
0.0
  0
VERTEX
  5
2FD
  8
0
  6
CONTINUOUS
 62
     7
 10
-164.5042029637602
 20
177.5103693100682
 30
0.0
  0
VERTEX
  5
2FE
  8
0
  6
CONTINUOUS
 62
     7
 10
-164.5018726137303
 20
177.5318614429884
 30
0.0
  0
VERTEX
  5
2FF
  8
0
  6
CONTINUOUS
 62
     7
 10
-164.5004693108918
 20
177.5534254221872
 30
0.0
  0
VERTEX
  5
300
  8
0
  6
CONTINUOUS
 62
     7
 10
-164.5
 20
177.575
 30
0.0
  0
SEQEND
  5
597
  8
0
  6
CONTINUOUS
 62
     7
  0
LINE
  5
106
  8
0
  6
CONTINUOUS
 62
     7
 10
-164.5
 20
177.575
 30
0.0
 11
-164.5
 21
178.775
 31
0.0
  0
POLYLINE
  5
107
  8
0
  6
CONTINUOUS
 62
     7
 66
     1
 10
0.0
 20
0.0
 30
0.0
  0
VERTEX
  5
301
  8
0
  6
CONTINUOUS
 62
     7
 10
-164.5
 20
178.775
 30
0.0
  0
VERTEX
  5
302
  8
0
  6
CONTINUOUS
 62
     7
 10
-164.5004265592733
 20
178.7956076932832
 30
0.0
  0
VERTEX
  5
303
  8
0
  6
CONTINUOUS
 62
     7
 10
-164.501703149092
 20
178.8161973799238
 30
0.0
  0
VERTEX
  5
304
  8
0
  6
CONTINUOUS
 62
     7
 10
-164.5038251374544
 20
178.8367155185071
 30
0.0
  0
VERTEX
  5
305
  8
0
  6
CONTINUOUS
 62
     7
 10
-164.506787892359
 20
178.8571085676185
 30
0.0
  0
VERTEX
  5
306
  8
0
  6
CONTINUOUS
 62
     7
 10
-164.5107148613811
 20
178.8779474208738
 30
0.0
  0
VERTEX
  5
307
  8
0
  6
CONTINUOUS
 62
     7
 10
-164.515525279047
 20
178.8986159267875
 30
0.0
  0
VERTEX
  5
308
  8
0
  6
CONTINUOUS
 62
     7
 10
-164.521204176702
 20
178.9190578950212
 30
0.0
  0
VERTEX
  5
309
  8
0
  6
CONTINUOUS
 62
     7
 10
-164.5277365856913
 20
178.9392171352369
 30
0.0
  0
VERTEX
  5
30A
  8
0
  6
CONTINUOUS
 62
     7
 10
-164.5348968936729
 20
178.9585142035549
 30
0.0
  0
VERTEX
  5
30B
  8
0
  6
CONTINUOUS
 62
     7
 10
-164.5428497357114
 20
178.9775110429649
 30
0.0
  0
VERTEX
  5
30C
  8
0
  6
CONTINUOUS
 62
     7
 10
-164.5515730929837
 20
178.996159830265
 30
0.0
  0
VERTEX
  5
30D
  8
0
  6
CONTINUOUS
 62
     7
 10
-164.5610449466664
 20
179.0144127422529
 30
0.0
  0
VERTEX
  5
30E
  8
0
  6
CONTINUOUS
 62
     7
 10
-164.5715625152002
 20
179.0327586772528
 30
0.0
  0
VERTEX
  5
30F
  8
0
  6
CONTINUOUS
 62
     7
 10
-164.5828528330186
 20
179.0506538838872
 30
0.0
  0
VERTEX
  5
310
  8
0
  6
CONTINUOUS
 62
     7
 10
-164.5948840711626
 20
179.0680516970901
 30
0.0
  0
VERTEX
  5
311
  8
0
  6
CONTINUOUS
 62
     7
 10
-164.6076244006725
 20
179.0849054517952
 30
0.0
  0
VERTEX
  5
312
  8
0
  6
CONTINUOUS
 62
     7
 10
-164.6207700506775
 20
179.1008573966625
 30
0.0
  0
VERTEX
  5
313
  8
0
  6
CONTINUOUS
 62
     7
 10
-164.6345719636628
 20
179.116261628875
 30
0.0
  0
VERTEX
  5
314
  8
0
  6
CONTINUOUS
 62
     7
 10
-164.6489940125308
 20
179.1310803187838
 30
0.0
  0
VERTEX
  5
315
  8
0
  6
CONTINUOUS
 62
     7
 10
-164.6640000701835
 20
179.1452756367403
 30
0.0
  0
VERTEX
  5
316
  8
0
  6
CONTINUOUS
 62
     7
 10
-164.6800313763487
 20
179.1592112804431
 30
0.0
  0
VERTEX
  5
317
  8
0
  6
CONTINUOUS
 62
     7
 10
-164.6966525877855
 20
179.1724634521026
 30
0.0
  0
VERTEX
  5
318
  8
0
  6
CONTINUOUS
 62
     7
 10
-164.7138185941778
 20
179.1849980862209
 30
0.0
  0
VERTEX
  5
319
  8
0
  6
CONTINUOUS
 62
     7
 10
-164.7314842852097
 20
179.1967811172997
 30
0.0
  0
VERTEX
  5
31A
  8
0
  6
CONTINUOUS
 62
     7
 10
-164.7492878866032
 20
179.2075988843065
 30
0.0
  0
VERTEX
  5
31B
  8
0
  6
CONTINUOUS
 62
     7
 10
-164.7675424074033
 20
179.2176743140014
 30
0.0
  0
VERTEX
  5
31C
  8
0
  6
CONTINUOUS
 62
     7
 10
-164.7862006407009
 20
179.2269825135908
 30
0.0
  0
VERTEX
  5
31D
  8
0
  6
CONTINUOUS
 62
     7
 10
-164.805215379587
 20
179.2354985902809
 30
0.0
  0
VERTEX
  5
31E
  8
0
  6
CONTINUOUS
 62
     7
 10
-164.8251367299694
 20
179.2434239293599
 30
0.0
  0
VERTEX
  5
31F
  8
0
  6
CONTINUOUS
 62
     7
 10
-164.8454007594624
 20
179.2504952876848
 30
0.0
  0
VERTEX
  5
320
  8
0
  6
CONTINUOUS
 62
     7
 10
-164.8659520124996
 20
179.2566941752413
 30
0.0
  0
VERTEX
  5
321
  8
0
  6
CONTINUOUS
 62
     7
 10
-164.8867350335146
 20
179.262002102015
 30
0.0
  0
VERTEX
  5
322
  8
0
  6
CONTINUOUS
 62
     7
 10
-164.9090689425207
 20
179.2666576355536
 30
0.0
  0
VERTEX
  5
323
  8
0
  6
CONTINUOUS
 62
     7
 10
-164.9316328949362
 20
179.2702940832724
 30
0.0
  0
VERTEX
  5
324
  8
0
  6
CONTINUOUS
 62
     7
 10
-164.9543563894972
 20
179.2729025540204
 30
0.0
  0
VERTEX
  5
325
  8
0
  6
CONTINUOUS
 62
     7
 10
-164.9771689249398
 20
179.2744741566466
 30
0.0
  0
VERTEX
  5
326
  8
0
  6
CONTINUOUS
 62
     7
 10
-165.0
 20
179.2749999999999
 30
0.0
  0
SEQEND
  5
598
  8
0
  6
CONTINUOUS
 62
     7
  0
LINE
  5
108
  8
0
  6
CONTINUOUS
 62
     7
 10
-159.0
 20
213.375
 30
0.0
 11
-159.0
 21
176.375
 31
0.0
  0
ARC
  5
109
  8
0
  6
CONTINUOUS
 62
     7
 10
-332.25
 20
178.175
 30
0.0
 40
5.550000000000011
 50
239.8615459693588
 51
239.8672781689898
  0
LINE
  5
10A
  8
0
  6
CONTINUOUS
 62
     7
 10
-335.036126343151
 20
173.375
 30
0.0
 11
-337.9999999999999
 21
173.375
 31
0.0
  0
ARC
  5
10B
  8
0
  6
CONTINUOUS
 62
     7
 10
-337.9999999999999
 20
176.375
 30
0.0
 40
3.000000000000003
 50
180.0
 51
270.0
  0
LINE
  5
10C
  8
0
  6
CONTINUOUS
 62
     7
 10
-170.536126343151
 20
173.375
 30
0.0
 11
-329.463873656849
 21
173.375
 31
0.0
  0
LINE
  5
10D
  8
0
  6
CONTINUOUS
 62
     7
 10
-170.5
 20
216.875
 30
0.0
 11
-170.6224841289363
 21
218.275
 31
0.0
  0
LINE
  5
10E
  8
0
  6
CONTINUOUS
 62
     7
 10
-177.3775158710638
 20
218.275
 30
0.0
 11
-177.5000000000001
 21
216.875
 31
0.0
  0
LINE
  5
10F
  8
0
  6
CONTINUOUS
 62
     7
 10
-322.4999999999999
 20
216.875
 30
0.0
 11
-322.6224841289362
 21
218.275
 31
0.0
  0
LINE
  5
110
  8
0
  6
CONTINUOUS
 62
     7
 10
-329.3775158710637
 20
218.275
 30
0.0
 11
-329.4999999999999
 21
216.875
 31
0.0
  0
ENDBLK
  8
0
  0
BLOCK
  8
0
  2
D_FRAME_VIEW_1323
 70
     0
 10
0.0
 20
0.0
 30
0.0
  0
CIRCLE
  5
152
  8
0
  6
CONTINUOUS
 62
    25
 10
-250.0
 20
315.0
 30
0.0
 40
4.762499999999999
  0
ARC
  5
153
  8
0
  6
CONTINUOUS
 62
     7
 10
-174.0
 20
262.5
 30
0.0
 40
2.2
 50
256.8634412130551
 51
283.1365587869449
  0
LINE
  5
154
  8
0
  6
CONTINUOUS
 62
     7
 10
-173.5
 20
261.5
 30
0.0
 11
-173.5
 21
260.3575714714372
 31
0.0
  0
POLYLINE
  5
155
  8
0
  6
CONTINUOUS
 62
     7
 66
     1
 10
0.0
 20
0.0
 30
0.0
  0
VERTEX
  5
329
  8
0
  6
CONTINUOUS
 62
     7
 10
-173.0
 20
262.0
 30
0.0
  0
VERTEX
  5
32A
  8
0
  6
CONTINUOUS
 62
     7
 10
-173.0236304093513
 20
261.9994294863434
 30
0.0
  0
VERTEX
  5
32B
  8
0
  6
CONTINUOUS
 62
     7
 10
-173.0473015994426
 20
261.9977245852567
 30
0.0
  0
VERTEX
  5
32C
  8
0
  6
CONTINUOUS
 62
     7
 10
-173.0709327395336
 20
261.9948952565648
 30
0.0
  0
VERTEX
  5
32D
  8
0
  6
CONTINUOUS
 62
     7
 10
-173.0944429988839
 20
261.9909514600926
 30
0.0
  0
VERTEX
  5
32E
  8
0
  6
CONTINUOUS
 62
     7
 10
-173.1177515467533
 20
261.9859031556648
 30
0.0
  0
VERTEX
  5
32F
  8
0
  6
CONTINUOUS
 62
     7
 10
-173.1407775524014
 20
261.9797603031063
 30
0.0
  0
VERTEX
  5
330
  8
0
  6
CONTINUOUS
 62
     7
 10
-173.1634401850879
 20
261.9725328622418
 30
0.0
  0
VERTEX
  5
331
  8
0
  6
CONTINUOUS
 62
     7
 10
-173.1857608065524
 20
261.9641984790399
 30
0.0
  0
VERTEX
  5
332
  8
0
  6
CONTINUOUS
 62
     7
 10
-173.2077379239912
 20
261.9547632682937
 30
0.0
  0
VERTEX
  5
333
  8
0
  6
CONTINUOUS
 62
     7
 10
-173.2292959046284
 20
261.944266237756
 30
0.0
  0
VERTEX
  5
334
  8
0
  6
CONTINUOUS
 62
     7
 10
-173.2503591156879
 20
261.9327463951797
 30
0.0
  0
VERTEX
  5
335
  8
0
  6
CONTINUOUS
 62
     7
 10
-173.2708519243939
 20
261.9202427483174
 30
0.0
  0
VERTEX
  5
336
  8
0
  6
CONTINUOUS
 62
     7
 10
-173.2906986979704
 20
261.9067943049221
 30
0.0
  0
VERTEX
  5
337
  8
0
  6
CONTINUOUS
 62
     7
 10
-173.3098238036414
 20
261.8924400727464
 30
0.0
  0
VERTEX
  5
338
  8
0
  6
CONTINUOUS
 62
     7
 10
-173.3279971213242
 20
261.8773666579926
 30
0.0
  0
VERTEX
  5
339
  8
0
  6
CONTINUOUS
 62
     7
 10
-173.3454845602017
 20
261.8613947835431
 30
0.0
  0
VERTEX
  5
33A
  8
0
  6
CONTINUOUS
 62
     7
 10
-173.3622307106045
 20
261.8445860746072
 30
0.0
  0
VERTEX
  5
33B
  8
0
  6
CONTINUOUS
 62
     7
 10
-173.3781801628629
 20
261.827002156394
 30
0.0
  0
VERTEX
  5
33C
  8
0
  6
CONTINUOUS
 62
     7
 10
-173.3932775073074
 20
261.8087046541127
 30
0.0
  0
VERTEX
  5
33D
  8
0
  6
CONTINUOUS
 62
     7
 10
-173.4074673342685
 20
261.7897551929723
 30
0.0
  0
VERTEX
  5
33E
  8
0
  6
CONTINUOUS
 62
     7
 10
-173.4206942340766
 20
261.7702153981822
 30
0.0
  0
VERTEX
  5
33F
  8
0
  6
CONTINUOUS
 62
     7
 10
-173.4328891764396
 20
261.7501907556967
 30
0.0
  0
VERTEX
  5
340
  8
0
  6
CONTINUOUS
 62
     7
 10
-173.4441481296456
 20
261.7295653985155
 30
0.0
  0
VERTEX
  5
341
  8
0
  6
CONTINUOUS
 62
     7
 10
-173.4544418917419
 20
261.7084134456813
 30
0.0
  0
VERTEX
  5
342
  8
0
  6
CONTINUOUS
 62
     7
 10
-173.4637412607759
 20
261.6868090162367
 30
0.0
  0
VERTEX
  5
343
  8
0
  6
CONTINUOUS
 62
     7
 10
-173.4720170347952
 20
261.6648262292244
 30
0.0
  0
VERTEX
  5
344
  8
0
  6
CONTINUOUS
 62
     7
 10
-173.4792400118472
 20
261.642539203687
 30
0.0
  0
VERTEX
  5
345
  8
0
  6
CONTINUOUS
 62
     7
 10
-173.4853809899793
 20
261.6200220586672
 30
0.0
  0
VERTEX
  5
346
  8
0
  6
CONTINUOUS
 62
     7
 10
-173.490626506835
 20
261.5963328621568
 30
0.0
  0
VERTEX
  5
347
  8
0
  6
CONTINUOUS
 62
     7
 10
-173.4947176637969
 20
261.5724001452332
 30
0.0
  0
VERTEX
  5
348
  8
0
  6
CONTINUOUS
 62
     7
 10
-173.4976479633329
 20
261.5483098206981
 30
0.0
  0
VERTEX
  5
349
  8
0
  6
CONTINUOUS
 62
     7
 10
-173.4994109079113
 20
261.5241478013531
 30
0.0
  0
VERTEX
  5
34A
  8
0
  6
CONTINUOUS
 62
     7
 10
-173.5
 20
261.5
 30
0.0
  0
SEQEND
  5
599
  8
0
  6
CONTINUOUS
 62
     7
  0
POLYLINE
  5
156
  8
0
  6
CONTINUOUS
 62
     7
 66
     1
 10
0.0
 20
0.0
 30
0.0
  0
VERTEX
  5
34B
  8
0
  6
CONTINUOUS
 62
     7
 10
-174.5
 20
261.5
 30
0.0
  0
VERTEX
  5
34C
  8
0
  6
CONTINUOUS
 62
     7
 10
-174.5005705136567
 20
261.5236304093513
 30
0.0
  0
VERTEX
  5
34D
  8
0
  6
CONTINUOUS
 62
     7
 10
-174.5022754147433
 20
261.5473015994426
 30
0.0
  0
VERTEX
  5
34E
  8
0
  6
CONTINUOUS
 62
     7
 10
-174.5051047434352
 20
261.5709327395335
 30
0.0
  0
VERTEX
  5
34F
  8
0
  6
CONTINUOUS
 62
     7
 10
-174.5090485399075
 20
261.5944429988839
 30
0.0
  0
VERTEX
  5
350
  8
0
  6
CONTINUOUS
 62
     7
 10
-174.5140968443353
 20
261.6177515467533
 30
0.0
  0
VERTEX
  5
351
  8
0
  6
CONTINUOUS
 62
     7
 10
-174.5202396968938
 20
261.6407775524014
 30
0.0
  0
VERTEX
  5
352
  8
0
  6
CONTINUOUS
 62
     7
 10
-174.5274671377582
 20
261.6634401850879
 30
0.0
  0
VERTEX
  5
353
  8
0
  6
CONTINUOUS
 62
     7
 10
-174.5358015209601
 20
261.6857608065524
 30
0.0
  0
VERTEX
  5
354
  8
0
  6
CONTINUOUS
 62
     7
 10
-174.5452367317064
 20
261.7077379239912
 30
0.0
  0
VERTEX
  5
355
  8
0
  6
CONTINUOUS
 62
     7
 10
-174.555733762244
 20
261.7292959046283
 30
0.0
  0
VERTEX
  5
356
  8
0
  6
CONTINUOUS
 62
     7
 10
-174.5672536048204
 20
261.750359115688
 30
0.0
  0
VERTEX
  5
357
  8
0
  6
CONTINUOUS
 62
     7
 10
-174.5797572516826
 20
261.7708519243939
 30
0.0
  0
VERTEX
  5
358
  8
0
  6
CONTINUOUS
 62
     7
 10
-174.593205695078
 20
261.7906986979704
 30
0.0
  0
VERTEX
  5
359
  8
0
  6
CONTINUOUS
 62
     7
 10
-174.6075599272536
 20
261.8098238036415
 30
0.0
  0
VERTEX
  5
35A
  8
0
  6
CONTINUOUS
 62
     7
 10
-174.6226333420075
 20
261.8279971213241
 30
0.0
  0
VERTEX
  5
35B
  8
0
  6
CONTINUOUS
 62
     7
 10
-174.638605216457
 20
261.8454845602017
 30
0.0
  0
VERTEX
  5
35C
  8
0
  6
CONTINUOUS
 62
     7
 10
-174.6554139253929
 20
261.8622307106044
 30
0.0
  0
VERTEX
  5
35D
  8
0
  6
CONTINUOUS
 62
     7
 10
-174.6729978436061
 20
261.8781801628629
 30
0.0
  0
VERTEX
  5
35E
  8
0
  6
CONTINUOUS
 62
     7
 10
-174.6912953458875
 20
261.8932775073074
 30
0.0
  0
VERTEX
  5
35F
  8
0
  6
CONTINUOUS
 62
     7
 10
-174.7102448070277
 20
261.9074673342685
 30
0.0
  0
VERTEX
  5
360
  8
0
  6
CONTINUOUS
 62
     7
 10
-174.7297846018179
 20
261.9206942340766
 30
0.0
  0
VERTEX
  5
361
  8
0
  6
CONTINUOUS
 62
     7
 10
-174.7498092443033
 20
261.9328891764396
 30
0.0
  0
VERTEX
  5
362
  8
0
  6
CONTINUOUS
 62
     7
 10
-174.7704346014845
 20
261.9441481296456
 30
0.0
  0
VERTEX
  5
363
  8
0
  6
CONTINUOUS
 62
     7
 10
-174.7915865543187
 20
261.9544418917419
 30
0.0
  0
VERTEX
  5
364
  8
0
  6
CONTINUOUS
 62
     7
 10
-174.8131909837633
 20
261.9637412607759
 30
0.0
  0
VERTEX
  5
365
  8
0
  6
CONTINUOUS
 62
     7
 10
-174.8351737707756
 20
261.9720170347952
 30
0.0
  0
VERTEX
  5
366
  8
0
  6
CONTINUOUS
 62
     7
 10
-174.8574607963131
 20
261.9792400118472
 30
0.0
  0
VERTEX
  5
367
  8
0
  6
CONTINUOUS
 62
     7
 10
-174.8799779413329
 20
261.9853809899794
 30
0.0
  0
VERTEX
  5
368
  8
0
  6
CONTINUOUS
 62
     7
 10
-174.9036671378433
 20
261.990626506835
 30
0.0
  0
VERTEX
  5
369
  8
0
  6
CONTINUOUS
 62
     7
 10
-174.9275998547669
 20
261.9947176637968
 30
0.0
  0
VERTEX
  5
36A
  8
0
  6
CONTINUOUS
 62
     7
 10
-174.951690179302
 20
261.9976479633329
 30
0.0
  0
VERTEX
  5
36B
  8
0
  6
CONTINUOUS
 62
     7
 10
-174.9758521986469
 20
261.9994109079112
 30
0.0
  0
VERTEX
  5
36C
  8
0
  6
CONTINUOUS
 62
     7
 10
-175.0
 20
262.0
 30
0.0
  0
SEQEND
  5
59A
  8
0
  6
CONTINUOUS
 62
     7
  0
LINE
  5
157
  8
0
  6
CONTINUOUS
 62
     7
 10
-174.5
 20
260.3575714714372
 30
0.0
 11
-174.5
 21
261.5
 31
0.0
  0
ARC
  5
158
  8
0
  6
CONTINUOUS
 62
     7
 10
-174.0
 20
262.5
 30
0.0
 40
2.2
 50
76.86344121305513
 51
103.1365587869449
  0
LINE
  5
159
  8
0
  6
CONTINUOUS
 62
     7
 10
-174.5
 20
263.5
 30
0.0
 11
-174.5
 21
264.6424285285628
 31
0.0
  0
LINE
  5
15A
  8
0
  6
CONTINUOUS
 62
     7
 10
-173.5
 20
264.6424285285629
 30
0.0
 11
-173.5
 21
263.5000000000001
 31
0.0
  0
POLYLINE
  5
15B
  8
0
  6
CONTINUOUS
 62
     7
 66
     1
 10
0.0
 20
0.0
 30
0.0
  0
VERTEX
  5
36D
  8
0
  6
CONTINUOUS
 62
     7
 10
-173.5
 20
263.5
 30
0.0
  0
VERTEX
  5
36E
  8
0
  6
CONTINUOUS
 62
     7
 10
-173.4994294863434
 20
263.4763695906488
 30
0.0
  0
VERTEX
  5
36F
  8
0
  6
CONTINUOUS
 62
     7
 10
-173.4977245852567
 20
263.4526984005575
 30
0.0
  0
VERTEX
  5
370
  8
0
  6
CONTINUOUS
 62
     7
 10
-173.4948952565649
 20
263.4290672604665
 30
0.0
  0
VERTEX
  5
371
  8
0
  6
CONTINUOUS
 62
     7
 10
-173.4909514600926
 20
263.4055570011162
 30
0.0
  0
VERTEX
  5
372
  8
0
  6
CONTINUOUS
 62
     7
 10
-173.4859031556648
 20
263.3822484532468
 30
0.0
  0
VERTEX
  5
373
  8
0
  6
CONTINUOUS
 62
     7
 10
-173.4797603031062
 20
263.3592224475987
 30
0.0
  0
VERTEX
  5
374
  8
0
  6
CONTINUOUS
 62
     7
 10
-173.4725328622418
 20
263.3365598149121
 30
0.0
  0
VERTEX
  5
375
  8
0
  6
CONTINUOUS
 62
     7
 10
-173.4641984790399
 20
263.3142391934476
 30
0.0
  0
VERTEX
  5
376
  8
0
  6
CONTINUOUS
 62
     7
 10
-173.4547632682937
 20
263.2922620760089
 30
0.0
  0
VERTEX
  5
377
  8
0
  6
CONTINUOUS
 62
     7
 10
-173.444266237756
 20
263.2707040953717
 30
0.0
  0
VERTEX
  5
378
  8
0
  6
CONTINUOUS
 62
     7
 10
-173.4327463951797
 20
263.2496408843121
 30
0.0
  0
VERTEX
  5
379
  8
0
  6
CONTINUOUS
 62
     7
 10
-173.4202427483175
 20
263.2291480756061
 30
0.0
  0
VERTEX
  5
37A
  8
0
  6
CONTINUOUS
 62
     7
 10
-173.4067943049221
 20
263.2093013020297
 30
0.0
  0
VERTEX
  5
37B
  8
0
  6
CONTINUOUS
 62
     7
 10
-173.3924400727464
 20
263.1901761963587
 30
0.0
  0
VERTEX
  5
37C
  8
0
  6
CONTINUOUS
 62
     7
 10
-173.3773666579926
 20
263.1720028786759
 30
0.0
  0
VERTEX
  5
37D
  8
0
  6
CONTINUOUS
 62
     7
 10
-173.3613947835431
 20
263.1545154397984
 30
0.0
  0
VERTEX
  5
37E
  8
0
  6
CONTINUOUS
 62
     7
 10
-173.3445860746072
 20
263.1377692893956
 30
0.0
  0
VERTEX
  5
37F
  8
0
  6
CONTINUOUS
 62
     7
 10
-173.327002156394
 20
263.1218198371372
 30
0.0
  0
VERTEX
  5
380
  8
0
  6
CONTINUOUS
 62
     7
 10
-173.3087046541126
 20
263.1067224926927
 30
0.0
  0
VERTEX
  5
381
  8
0
  6
CONTINUOUS
 62
     7
 10
-173.2897551929723
 20
263.0925326657315
 30
0.0
  0
VERTEX
  5
382
  8
0
  6
CONTINUOUS
 62
     7
 10
-173.2702153981822
 20
263.0793057659235
 30
0.0
  0
VERTEX
  5
383
  8
0
  6
CONTINUOUS
 62
     7
 10
-173.2501907556967
 20
263.0671108235604
 30
0.0
  0
VERTEX
  5
384
  8
0
  6
CONTINUOUS
 62
     7
 10
-173.2295653985155
 20
263.0558518703545
 30
0.0
  0
VERTEX
  5
385
  8
0
  6
CONTINUOUS
 62
     7
 10
-173.2084134456813
 20
263.0455581082583
 30
0.0
  0
VERTEX
  5
386
  8
0
  6
CONTINUOUS
 62
     7
 10
-173.1868090162368
 20
263.0362587392241
 30
0.0
  0
VERTEX
  5
387
  8
0
  6
CONTINUOUS
 62
     7
 10
-173.1648262292244
 20
263.0279829652048
 30
0.0
  0
VERTEX
  5
388
  8
0
  6
CONTINUOUS
 62
     7
 10
-173.142539203687
 20
263.0207599881529
 30
0.0
  0
VERTEX
  5
389
  8
0
  6
CONTINUOUS
 62
     7
 10
-173.1200220586672
 20
263.0146190100207
 30
0.0
  0
VERTEX
  5
38A
  8
0
  6
CONTINUOUS
 62
     7
 10
-173.0963328621568
 20
263.009373493165
 30
0.0
  0
VERTEX
  5
38B
  8
0
  6
CONTINUOUS
 62
     7
 10
-173.0724001452332
 20
263.0052823362032
 30
0.0
  0
VERTEX
  5
38C
  8
0
  6
CONTINUOUS
 62
     7
 10
-173.0483098206981
 20
263.0023520366672
 30
0.0
  0
VERTEX
  5
38D
  8
0
  6
CONTINUOUS
 62
     7
 10
-173.0241478013532
 20
263.0005890920888
 30
0.0
  0
VERTEX
  5
38E
  8
0
  6
CONTINUOUS
 62
     7
 10
-173.0
 20
263.0
 30
0.0
  0
SEQEND
  5
59B
  8
0
  6
CONTINUOUS
 62
     7
  0
POLYLINE
  5
15C
  8
0
  6
CONTINUOUS
 62
     7
 66
     1
 10
0.0
 20
0.0
 30
0.0
  0
VERTEX
  5
38F
  8
0
  6
CONTINUOUS
 62
     7
 10
-175.0
 20
263.0
 30
0.0
  0
VERTEX
  5
390
  8
0
  6
CONTINUOUS
 62
     7
 10
-174.9763695906488
 20
263.0005705136567
 30
0.0
  0
VERTEX
  5
391
  8
0
  6
CONTINUOUS
 62
     7
 10
-174.9526984005575
 20
263.0022754147433
 30
0.0
  0
VERTEX
  5
392
  8
0
  6
CONTINUOUS
 62
     7
 10
-174.9290672604665
 20
263.0051047434352
 30
0.0
  0
VERTEX
  5
393
  8
0
  6
CONTINUOUS
 62
     7
 10
-174.9055570011162
 20
263.0090485399075
 30
0.0
  0
VERTEX
  5
394
  8
0
  6
CONTINUOUS
 62
     7
 10
-174.8822484532468
 20
263.0140968443353
 30
0.0
  0
VERTEX
  5
395
  8
0
  6
CONTINUOUS
 62
     7
 10
-174.8592224475987
 20
263.0202396968938
 30
0.0
  0
VERTEX
  5
396
  8
0
  6
CONTINUOUS
 62
     7
 10
-174.8365598149121
 20
263.0274671377582
 30
0.0
  0
VERTEX
  5
397
  8
0
  6
CONTINUOUS
 62
     7
 10
-174.8142391934477
 20
263.0358015209601
 30
0.0
  0
VERTEX
  5
398
  8
0
  6
CONTINUOUS
 62
     7
 10
-174.7922620760088
 20
263.0452367317063
 30
0.0
  0
VERTEX
  5
399
  8
0
  6
CONTINUOUS
 62
     7
 10
-174.7707040953717
 20
263.055733762244
 30
0.0
  0
VERTEX
  5
39A
  8
0
  6
CONTINUOUS
 62
     7
 10
-174.7496408843122
 20
263.0672536048203
 30
0.0
  0
VERTEX
  5
39B
  8
0
  6
CONTINUOUS
 62
     7
 10
-174.7291480756062
 20
263.0797572516826
 30
0.0
  0
VERTEX
  5
39C
  8
0
  6
CONTINUOUS
 62
     7
 10
-174.7093013020297
 20
263.093205695078
 30
0.0
  0
VERTEX
  5
39D
  8
0
  6
CONTINUOUS
 62
     7
 10
-174.6901761963587
 20
263.1075599272536
 30
0.0
  0
VERTEX
  5
39E
  8
0
  6
CONTINUOUS
 62
     7
 10
-174.6720028786759
 20
263.1226333420075
 30
0.0
  0
VERTEX
  5
39F
  8
0
  6
CONTINUOUS
 62
     7
 10
-174.6545154397984
 20
263.1386052164569
 30
0.0
  0
VERTEX
  5
3A0
  8
0
  6
CONTINUOUS
 62
     7
 10
-174.6377692893956
 20
263.1554139253928
 30
0.0
  0
VERTEX
  5
3A1
  8
0
  6
CONTINUOUS
 62
     7
 10
-174.6218198371372
 20
263.1729978436061
 30
0.0
  0
VERTEX
  5
3A2
  8
0
  6
CONTINUOUS
 62
     7
 10
-174.6067224926927
 20
263.1912953458874
 30
0.0
  0
VERTEX
  5
3A3
  8
0
  6
CONTINUOUS
 62
     7
 10
-174.5925326657316
 20
263.2102448070278
 30
0.0
  0
VERTEX
  5
3A4
  8
0
  6
CONTINUOUS
 62
     7
 10
-174.5793057659235
 20
263.2297846018178
 30
0.0
  0
VERTEX
  5
3A5
  8
0
  6
CONTINUOUS
 62
     7
 10
-174.5671108235605
 20
263.2498092443034
 30
0.0
  0
VERTEX
  5
3A6
  8
0
  6
CONTINUOUS
 62
     7
 10
-174.5558518703545
 20
263.2704346014845
 30
0.0
  0
VERTEX
  5
3A7
  8
0
  6
CONTINUOUS
 62
     7
 10
-174.5455581082582
 20
263.2915865543187
 30
0.0
  0
VERTEX
  5
3A8
  8
0
  6
CONTINUOUS
 62
     7
 10
-174.5362587392242
 20
263.3131909837633
 30
0.0
  0
VERTEX
  5
3A9
  8
0
  6
CONTINUOUS
 62
     7
 10
-174.5279829652049
 20
263.3351737707756
 30
0.0
  0
VERTEX
  5
3AA
  8
0
  6
CONTINUOUS
 62
     7
 10
-174.5207599881529
 20
263.357460796313
 30
0.0
  0
VERTEX
  5
3AB
  8
0
  6
CONTINUOUS
 62
     7
 10
-174.5146190100207
 20
263.3799779413329
 30
0.0
  0
VERTEX
  5
3AC
  8
0
  6
CONTINUOUS
 62
     7
 10
-174.509373493165
 20
263.4036671378433
 30
0.0
  0
VERTEX
  5
3AD
  8
0
  6
CONTINUOUS
 62
     7
 10
-174.5052823362032
 20
263.4275998547669
 30
0.0
  0
VERTEX
  5
3AE
  8
0
  6
CONTINUOUS
 62
     7
 10
-174.5023520366672
 20
263.451690179302
 30
0.0
  0
VERTEX
  5
3AF
  8
0
  6
CONTINUOUS
 62
     7
 10
-174.5005890920888
 20
263.4758521986469
 30
0.0
  0
VERTEX
  5
3B0
  8
0
  6
CONTINUOUS
 62
     7
 10
-174.5
 20
263.5
 30
0.0
  0
SEQEND
  5
59C
  8
0
  6
CONTINUOUS
 62
     7
  0
ARC
  5
15D
  8
0
  6
CONTINUOUS
 62
     7
 10
-174.0
 20
262.5
 30
0.0
 40
3.3775158710637
 50
171.4867690477392
 51
188.5132309522607
  0
ARC
  5
15E
  8
0
  6
CONTINUOUS
 62
     7
 10
-174.0
 20
262.5
 30
0.0
 40
3.3775158710637
 50
351.4867690477392
 51
8.513230952260699
  0
POLYLINE
  5
15F
  8
0
  6
CONTINUOUS
 62
     7
 66
     1
 10
0.0
 20
0.0
 30
0.0
  0
VERTEX
  5
3B1
  8
0
  6
CONTINUOUS
 62
     7
 10
-326.9999999999999
 20
262.0
 30
0.0
  0
VERTEX
  5
3B2
  8
0
  6
CONTINUOUS
 62
     7
 10
-326.9763695906487
 20
261.9994294863434
 30
0.0
  0
VERTEX
  5
3B3
  8
0
  6
CONTINUOUS
 62
     7
 10
-326.9526984005574
 20
261.9977245852567
 30
0.0
  0
VERTEX
  5
3B4
  8
0
  6
CONTINUOUS
 62
     7
 10
-326.9290672604664
 20
261.9948952565648
 30
0.0
  0
VERTEX
  5
3B5
  8
0
  6
CONTINUOUS
 62
     7
 10
-326.9055570011161
 20
261.9909514600926
 30
0.0
  0
VERTEX
  5
3B6
  8
0
  6
CONTINUOUS
 62
     7
 10
-326.8822484532467
 20
261.9859031556648
 30
0.0
  0
VERTEX
  5
3B7
  8
0
  6
CONTINUOUS
 62
     7
 10
-326.8592224475985
 20
261.9797603031063
 30
0.0
  0
VERTEX
  5
3B8
  8
0
  6
CONTINUOUS
 62
     7
 10
-326.8365598149121
 20
261.9725328622418
 30
0.0
  0
VERTEX
  5
3B9
  8
0
  6
CONTINUOUS
 62
     7
 10
-326.8142391934476
 20
261.9641984790399
 30
0.0
  0
VERTEX
  5
3BA
  8
0
  6
CONTINUOUS
 62
     7
 10
-326.7922620760087
 20
261.9547632682937
 30
0.0
  0
VERTEX
  5
3BB
  8
0
  6
CONTINUOUS
 62
     7
 10
-326.7707040953716
 20
261.9442662377561
 30
0.0
  0
VERTEX
  5
3BC
  8
0
  6
CONTINUOUS
 62
     7
 10
-326.749640884312
 20
261.9327463951797
 30
0.0
  0
VERTEX
  5
3BD
  8
0
  6
CONTINUOUS
 62
     7
 10
-326.729148075606
 20
261.9202427483174
 30
0.0
  0
VERTEX
  5
3BE
  8
0
  6
CONTINUOUS
 62
     7
 10
-326.7093013020296
 20
261.9067943049221
 30
0.0
  0
VERTEX
  5
3BF
  8
0
  6
CONTINUOUS
 62
     7
 10
-326.6901761963586
 20
261.8924400727464
 30
0.0
  0
VERTEX
  5
3C0
  8
0
  6
CONTINUOUS
 62
     7
 10
-326.6720028786759
 20
261.8773666579925
 30
0.0
  0
VERTEX
  5
3C1
  8
0
  6
CONTINUOUS
 62
     7
 10
-326.6545154397983
 20
261.8613947835431
 30
0.0
  0
VERTEX
  5
3C2
  8
0
  6
CONTINUOUS
 62
     7
 10
-326.6377692893956
 20
261.8445860746072
 30
0.0
  0
VERTEX
  5
3C3
  8
0
  6
CONTINUOUS
 62
     7
 10
-326.6218198371371
 20
261.827002156394
 30
0.0
  0
VERTEX
  5
3C4
  8
0
  6
CONTINUOUS
 62
     7
 10
-326.6067224926926
 20
261.8087046541127
 30
0.0
  0
VERTEX
  5
3C5
  8
0
  6
CONTINUOUS
 62
     7
 10
-326.5925326657315
 20
261.7897551929723
 30
0.0
  0
VERTEX
  5
3C6
  8
0
  6
CONTINUOUS
 62
     7
 10
-326.5793057659234
 20
261.7702153981822
 30
0.0
  0
VERTEX
  5
3C7
  8
0
  6
CONTINUOUS
 62
     7
 10
-326.5671108235604
 20
261.7501907556967
 30
0.0
  0
VERTEX
  5
3C8
  8
0
  6
CONTINUOUS
 62
     7
 10
-326.5558518703544
 20
261.7295653985155
 30
0.0
  0
VERTEX
  5
3C9
  8
0
  6
CONTINUOUS
 62
     7
 10
-326.5455581082581
 20
261.7084134456813
 30
0.0
  0
VERTEX
  5
3CA
  8
0
  6
CONTINUOUS
 62
     7
 10
-326.5362587392241
 20
261.6868090162367
 30
0.0
  0
VERTEX
  5
3CB
  8
0
  6
CONTINUOUS
 62
     7
 10
-326.5279829652048
 20
261.6648262292244
 30
0.0
  0
VERTEX
  5
3CC
  8
0
  6
CONTINUOUS
 62
     7
 10
-326.5207599881527
 20
261.642539203687
 30
0.0
  0
VERTEX
  5
3CD
  8
0
  6
CONTINUOUS
 62
     7
 10
-326.5146190100206
 20
261.6200220586672
 30
0.0
  0
VERTEX
  5
3CE
  8
0
  6
CONTINUOUS
 62
     7
 10
-326.509373493165
 20
261.5963328621568
 30
0.0
  0
VERTEX
  5
3CF
  8
0
  6
CONTINUOUS
 62
     7
 10
-326.5052823362031
 20
261.5724001452332
 30
0.0
  0
VERTEX
  5
3D0
  8
0
  6
CONTINUOUS
 62
     7
 10
-326.5023520366671
 20
261.5483098206981
 30
0.0
  0
VERTEX
  5
3D1
  8
0
  6
CONTINUOUS
 62
     7
 10
-326.5005890920887
 20
261.5241478013531
 30
0.0
  0
VERTEX
  5
3D2
  8
0
  6
CONTINUOUS
 62
     7
 10
-326.4999999999999
 20
261.5
 30
0.0
  0
SEQEND
  5
59D
  8
0
  6
CONTINUOUS
 62
     7
  0
LINE
  5
160
  8
0
  6
CONTINUOUS
 62
     7
 10
-326.4999999999999
 20
261.5
 30
0.0
 11
-326.4999999999999
 21
260.3575714714372
 31
0.0
  0
ARC
  5
161
  8
0
  6
CONTINUOUS
 62
     7
 10
-325.9999999999999
 20
262.5
 30
0.0
 40
2.2
 50
256.8634412130551
 51
283.1365587869449
  0
LINE
  5
162
  8
0
  6
CONTINUOUS
 62
     7
 10
-325.4999999999999
 20
260.3575714714372
 30
0.0
 11
-325.4999999999999
 21
261.5
 31
0.0
  0
POLYLINE
  5
163
  8
0
  6
CONTINUOUS
 62
     7
 66
     1
 10
0.0
 20
0.0
 30
0.0
  0
VERTEX
  5
3D3
  8
0
  6
CONTINUOUS
 62
     7
 10
-325.4999999999999
 20
261.5
 30
0.0
  0
VERTEX
  5
3D4
  8
0
  6
CONTINUOUS
 62
     7
 10
-325.4994294863433
 20
261.5236304093513
 30
0.0
  0
VERTEX
  5
3D5
  8
0
  6
CONTINUOUS
 62
     7
 10
-325.4977245852566
 20
261.5473015994426
 30
0.0
  0
VERTEX
  5
3D6
  8
0
  6
CONTINUOUS
 62
     7
 10
-325.4948952565647
 20
261.5709327395335
 30
0.0
  0
VERTEX
  5
3D7
  8
0
  6
CONTINUOUS
 62
     7
 10
-325.4909514600925
 20
261.5944429988838
 30
0.0
  0
VERTEX
  5
3D8
  8
0
  6
CONTINUOUS
 62
     7
 10
-325.4859031556647
 20
261.6177515467533
 30
0.0
  0
VERTEX
  5
3D9
  8
0
  6
CONTINUOUS
 62
     7
 10
-325.4797603031062
 20
261.6407775524014
 30
0.0
  0
VERTEX
  5
3DA
  8
0
  6
CONTINUOUS
 62
     7
 10
-325.4725328622417
 20
261.6634401850879
 30
0.0
  0
VERTEX
  5
3DB
  8
0
  6
CONTINUOUS
 62
     7
 10
-325.4641984790399
 20
261.6857608065524
 30
0.0
  0
VERTEX
  5
3DC
  8
0
  6
CONTINUOUS
 62
     7
 10
-325.4547632682936
 20
261.7077379239912
 30
0.0
  0
VERTEX
  5
3DD
  8
0
  6
CONTINUOUS
 62
     7
 10
-325.444266237756
 20
261.7292959046284
 30
0.0
  0
VERTEX
  5
3DE
  8
0
  6
CONTINUOUS
 62
     7
 10
-325.4327463951796
 20
261.7503591156879
 30
0.0
  0
VERTEX
  5
3DF
  8
0
  6
CONTINUOUS
 62
     7
 10
-325.4202427483174
 20
261.7708519243939
 30
0.0
  0
VERTEX
  5
3E0
  8
0
  6
CONTINUOUS
 62
     7
 10
-325.406794304922
 20
261.7906986979704
 30
0.0
  0
VERTEX
  5
3E1
  8
0
  6
CONTINUOUS
 62
     7
 10
-325.3924400727464
 20
261.8098238036415
 30
0.0
  0
VERTEX
  5
3E2
  8
0
  6
CONTINUOUS
 62
     7
 10
-325.3773666579925
 20
261.8279971213241
 30
0.0
  0
VERTEX
  5
3E3
  8
0
  6
CONTINUOUS
 62
     7
 10
-325.361394783543
 20
261.8454845602017
 30
0.0
  0
VERTEX
  5
3E4
  8
0
  6
CONTINUOUS
 62
     7
 10
-325.3445860746072
 20
261.8622307106044
 30
0.0
  0
VERTEX
  5
3E5
  8
0
  6
CONTINUOUS
 62
     7
 10
-325.3270021563939
 20
261.8781801628629
 30
0.0
  0
VERTEX
  5
3E6
  8
0
  6
CONTINUOUS
 62
     7
 10
-325.3087046541125
 20
261.8932775073074
 30
0.0
  0
VERTEX
  5
3E7
  8
0
  6
CONTINUOUS
 62
     7
 10
-325.2897551929722
 20
261.9074673342685
 30
0.0
  0
VERTEX
  5
3E8
  8
0
  6
CONTINUOUS
 62
     7
 10
-325.2702153981821
 20
261.9206942340766
 30
0.0
  0
VERTEX
  5
3E9
  8
0
  6
CONTINUOUS
 62
     7
 10
-325.2501907556967
 20
261.9328891764396
 30
0.0
  0
VERTEX
  5
3EA
  8
0
  6
CONTINUOUS
 62
     7
 10
-325.2295653985154
 20
261.9441481296456
 30
0.0
  0
VERTEX
  5
3EB
  8
0
  6
CONTINUOUS
 62
     7
 10
-325.2084134456812
 20
261.9544418917419
 30
0.0
  0
VERTEX
  5
3EC
  8
0
  6
CONTINUOUS
 62
     7
 10
-325.1868090162366
 20
261.9637412607759
 30
0.0
  0
VERTEX
  5
3ED
  8
0
  6
CONTINUOUS
 62
     7
 10
-325.1648262292244
 20
261.9720170347952
 30
0.0
  0
VERTEX
  5
3EE
  8
0
  6
CONTINUOUS
 62
     7
 10
-325.142539203687
 20
261.9792400118472
 30
0.0
  0
VERTEX
  5
3EF
  8
0
  6
CONTINUOUS
 62
     7
 10
-325.1200220586671
 20
261.9853809899794
 30
0.0
  0
VERTEX
  5
3F0
  8
0
  6
CONTINUOUS
 62
     7
 10
-325.0963328621567
 20
261.990626506835
 30
0.0
  0
VERTEX
  5
3F1
  8
0
  6
CONTINUOUS
 62
     7
 10
-325.0724001452331
 20
261.9947176637968
 30
0.0
  0
VERTEX
  5
3F2
  8
0
  6
CONTINUOUS
 62
     7
 10
-325.048309820698
 20
261.9976479633329
 30
0.0
  0
VERTEX
  5
3F3
  8
0
  6
CONTINUOUS
 62
     7
 10
-325.0241478013531
 20
261.9994109079112
 30
0.0
  0
VERTEX
  5
3F4
  8
0
  6
CONTINUOUS
 62
     7
 10
-324.9999999999999
 20
262.0
 30
0.0
  0
SEQEND
  5
59E
  8
0
  6
CONTINUOUS
 62
     7
  0
POLYLINE
  5
164
  8
0
  6
CONTINUOUS
 62
     7
 66
     1
 10
0.0
 20
0.0
 30
0.0
  0
VERTEX
  5
3F5
  8
0
  6
CONTINUOUS
 62
     7
 10
-324.9999999999999
 20
263.0
 30
0.0
  0
VERTEX
  5
3F6
  8
0
  6
CONTINUOUS
 62
     7
 10
-325.0236304093512
 20
263.0005705136567
 30
0.0
  0
VERTEX
  5
3F7
  8
0
  6
CONTINUOUS
 62
     7
 10
-325.0473015994425
 20
263.0022754147433
 30
0.0
  0
VERTEX
  5
3F8
  8
0
  6
CONTINUOUS
 62
     7
 10
-325.0709327395335
 20
263.0051047434353
 30
0.0
  0
VERTEX
  5
3F9
  8
0
  6
CONTINUOUS
 62
     7
 10
-325.0944429988838
 20
263.0090485399075
 30
0.0
  0
VERTEX
  5
3FA
  8
0
  6
CONTINUOUS
 62
     7
 10
-325.1177515467532
 20
263.0140968443353
 30
0.0
  0
VERTEX
  5
3FB
  8
0
  6
CONTINUOUS
 62
     7
 10
-325.1407775524013
 20
263.0202396968938
 30
0.0
  0
VERTEX
  5
3FC
  8
0
  6
CONTINUOUS
 62
     7
 10
-325.1634401850878
 20
263.0274671377582
 30
0.0
  0
VERTEX
  5
3FD
  8
0
  6
CONTINUOUS
 62
     7
 10
-325.1857608065524
 20
263.0358015209601
 30
0.0
  0
VERTEX
  5
3FE
  8
0
  6
CONTINUOUS
 62
     7
 10
-325.2077379239911
 20
263.0452367317063
 30
0.0
  0
VERTEX
  5
3FF
  8
0
  6
CONTINUOUS
 62
     7
 10
-325.2292959046283
 20
263.055733762244
 30
0.0
  0
VERTEX
  5
400
  8
0
  6
CONTINUOUS
 62
     7
 10
-325.2503591156878
 20
263.0672536048203
 30
0.0
  0
VERTEX
  5
401
  8
0
  6
CONTINUOUS
 62
     7
 10
-325.2708519243939
 20
263.0797572516826
 30
0.0
  0
VERTEX
  5
402
  8
0
  6
CONTINUOUS
 62
     7
 10
-325.2906986979704
 20
263.093205695078
 30
0.0
  0
VERTEX
  5
403
  8
0
  6
CONTINUOUS
 62
     7
 10
-325.3098238036413
 20
263.1075599272536
 30
0.0
  0
VERTEX
  5
404
  8
0
  6
CONTINUOUS
 62
     7
 10
-325.3279971213241
 20
263.1226333420075
 30
0.0
  0
VERTEX
  5
405
  8
0
  6
CONTINUOUS
 62
     7
 10
-325.3454845602016
 20
263.1386052164569
 30
0.0
  0
VERTEX
  5
406
  8
0
  6
CONTINUOUS
 62
     7
 10
-325.3622307106043
 20
263.1554139253928
 30
0.0
  0
VERTEX
  5
407
  8
0
  6
CONTINUOUS
 62
     7
 10
-325.3781801628628
 20
263.1729978436061
 30
0.0
  0
VERTEX
  5
408
  8
0
  6
CONTINUOUS
 62
     7
 10
-325.3932775073073
 20
263.1912953458874
 30
0.0
  0
VERTEX
  5
409
  8
0
  6
CONTINUOUS
 62
     7
 10
-325.4074673342684
 20
263.2102448070278
 30
0.0
  0
VERTEX
  5
40A
  8
0
  6
CONTINUOUS
 62
     7
 10
-325.4206942340765
 20
263.2297846018178
 30
0.0
  0
VERTEX
  5
40B
  8
0
  6
CONTINUOUS
 62
     7
 10
-325.4328891764396
 20
263.2498092443034
 30
0.0
  0
VERTEX
  5
40C
  8
0
  6
CONTINUOUS
 62
     7
 10
-325.4441481296455
 20
263.2704346014845
 30
0.0
  0
VERTEX
  5
40D
  8
0
  6
CONTINUOUS
 62
     7
 10
-325.4544418917418
 20
263.2915865543187
 30
0.0
  0
VERTEX
  5
40E
  8
0
  6
CONTINUOUS
 62
     7
 10
-325.4637412607758
 20
263.3131909837633
 30
0.0
  0
VERTEX
  5
40F
  8
0
  6
CONTINUOUS
 62
     7
 10
-325.4720170347951
 20
263.3351737707756
 30
0.0
  0
VERTEX
  5
410
  8
0
  6
CONTINUOUS
 62
     7
 10
-325.4792400118471
 20
263.357460796313
 30
0.0
  0
VERTEX
  5
411
  8
0
  6
CONTINUOUS
 62
     7
 10
-325.4853809899793
 20
263.3799779413329
 30
0.0
  0
VERTEX
  5
412
  8
0
  6
CONTINUOUS
 62
     7
 10
-325.490626506835
 20
263.4036671378432
 30
0.0
  0
VERTEX
  5
413
  8
0
  6
CONTINUOUS
 62
     7
 10
-325.4947176637968
 20
263.4275998547669
 30
0.0
  0
VERTEX
  5
414
  8
0
  6
CONTINUOUS
 62
     7
 10
-325.4976479633328
 20
263.451690179302
 30
0.0
  0
VERTEX
  5
415
  8
0
  6
CONTINUOUS
 62
     7
 10
-325.4994109079112
 20
263.4758521986469
 30
0.0
  0
VERTEX
  5
416
  8
0
  6
CONTINUOUS
 62
     7
 10
-325.4999999999999
 20
263.5
 30
0.0
  0
SEQEND
  5
59F
  8
0
  6
CONTINUOUS
 62
     7
  0
LINE
  5
165
  8
0
  6
CONTINUOUS
 62
     7
 10
-325.4999999999999
 20
263.5
 30
0.0
 11
-325.4999999999999
 21
264.6424285285628
 31
0.0
  0
ARC
  5
166
  8
0
  6
CONTINUOUS
 62
     7
 10
-325.9999999999999
 20
262.5
 30
0.0
 40
2.2
 50
76.86344121305514
 51
103.1365587869449
  0
LINE
  5
167
  8
0
  6
CONTINUOUS
 62
     7
 10
-326.4999999999999
 20
264.6424285285629
 30
0.0
 11
-326.4999999999999
 21
263.5000000000001
 31
0.0
  0
POLYLINE
  5
168
  8
0
  6
CONTINUOUS
 62
     7
 66
     1
 10
0.0
 20
0.0
 30
0.0
  0
VERTEX
  5
417
  8
0
  6
CONTINUOUS
 62
     7
 10
-326.4999999999999
 20
263.5
 30
0.0
  0
VERTEX
  5
418
  8
0
  6
CONTINUOUS
 62
     7
 10
-326.5005705136566
 20
263.4763695906488
 30
0.0
  0
VERTEX
  5
419
  8
0
  6
CONTINUOUS
 62
     7
 10
-326.5022754147432
 20
263.4526984005575
 30
0.0
  0
VERTEX
  5
41A
  8
0
  6
CONTINUOUS
 62
     7
 10
-326.5051047434351
 20
263.4290672604665
 30
0.0
  0
VERTEX
  5
41B
  8
0
  6
CONTINUOUS
 62
     7
 10
-326.5090485399074
 20
263.4055570011162
 30
0.0
  0
VERTEX
  5
41C
  8
0
  6
CONTINUOUS
 62
     7
 10
-326.5140968443352
 20
263.3822484532468
 30
0.0
  0
VERTEX
  5
41D
  8
0
  6
CONTINUOUS
 62
     7
 10
-326.5202396968937
 20
263.3592224475987
 30
0.0
  0
VERTEX
  5
41E
  8
0
  6
CONTINUOUS
 62
     7
 10
-326.5274671377582
 20
263.3365598149121
 30
0.0
  0
VERTEX
  5
41F
  8
0
  6
CONTINUOUS
 62
     7
 10
-326.53580152096
 20
263.3142391934476
 30
0.0
  0
VERTEX
  5
420
  8
0
  6
CONTINUOUS
 62
     7
 10
-326.5452367317063
 20
263.2922620760089
 30
0.0
  0
VERTEX
  5
421
  8
0
  6
CONTINUOUS
 62
     7
 10
-326.555733762244
 20
263.2707040953717
 30
0.0
  0
VERTEX
  5
422
  8
0
  6
CONTINUOUS
 62
     7
 10
-326.5672536048203
 20
263.2496408843121
 30
0.0
  0
VERTEX
  5
423
  8
0
  6
CONTINUOUS
 62
     7
 10
-326.5797572516825
 20
263.2291480756061
 30
0.0
  0
VERTEX
  5
424
  8
0
  6
CONTINUOUS
 62
     7
 10
-326.5932056950779
 20
263.2093013020297
 30
0.0
  0
VERTEX
  5
425
  8
0
  6
CONTINUOUS
 62
     7
 10
-326.6075599272535
 20
263.1901761963587
 30
0.0
  0
VERTEX
  5
426
  8
0
  6
CONTINUOUS
 62
     7
 10
-326.6226333420074
 20
263.1720028786759
 30
0.0
  0
VERTEX
  5
427
  8
0
  6
CONTINUOUS
 62
     7
 10
-326.6386052164568
 20
263.1545154397984
 30
0.0
  0
VERTEX
  5
428
  8
0
  6
CONTINUOUS
 62
     7
 10
-326.6554139253927
 20
263.1377692893956
 30
0.0
  0
VERTEX
  5
429
  8
0
  6
CONTINUOUS
 62
     7
 10
-326.672997843606
 20
263.1218198371372
 30
0.0
  0
VERTEX
  5
42A
  8
0
  6
CONTINUOUS
 62
     7
 10
-326.6912953458873
 20
263.1067224926927
 30
0.0
  0
VERTEX
  5
42B
  8
0
  6
CONTINUOUS
 62
     7
 10
-326.7102448070277
 20
263.0925326657315
 30
0.0
  0
VERTEX
  5
42C
  8
0
  6
CONTINUOUS
 62
     7
 10
-326.7297846018178
 20
263.0793057659235
 30
0.0
  0
VERTEX
  5
42D
  8
0
  6
CONTINUOUS
 62
     7
 10
-326.7498092443033
 20
263.0671108235604
 30
0.0
  0
VERTEX
  5
42E
  8
0
  6
CONTINUOUS
 62
     7
 10
-326.7704346014845
 20
263.0558518703545
 30
0.0
  0
VERTEX
  5
42F
  8
0
  6
CONTINUOUS
 62
     7
 10
-326.7915865543186
 20
263.0455581082583
 30
0.0
  0
VERTEX
  5
430
  8
0
  6
CONTINUOUS
 62
     7
 10
-326.8131909837633
 20
263.0362587392241
 30
0.0
  0
VERTEX
  5
431
  8
0
  6
CONTINUOUS
 62
     7
 10
-326.8351737707756
 20
263.0279829652048
 30
0.0
  0
VERTEX
  5
432
  8
0
  6
CONTINUOUS
 62
     7
 10
-326.8574607963129
 20
263.0207599881529
 30
0.0
  0
VERTEX
  5
433
  8
0
  6
CONTINUOUS
 62
     7
 10
-326.8799779413328
 20
263.0146190100207
 30
0.0
  0
VERTEX
  5
434
  8
0
  6
CONTINUOUS
 62
     7
 10
-326.9036671378432
 20
263.009373493165
 30
0.0
  0
VERTEX
  5
435
  8
0
  6
CONTINUOUS
 62
     7
 10
-326.9275998547668
 20
263.0052823362032
 30
0.0
  0
VERTEX
  5
436
  8
0
  6
CONTINUOUS
 62
     7
 10
-326.9516901793019
 20
263.0023520366672
 30
0.0
  0
VERTEX
  5
437
  8
0
  6
CONTINUOUS
 62
     7
 10
-326.9758521986468
 20
263.0005890920888
 30
0.0
  0
VERTEX
  5
438
  8
0
  6
CONTINUOUS
 62
     7
 10
-326.9999999999999
 20
263.0
 30
0.0
  0
SEQEND
  5
5A0
  8
0
  6
CONTINUOUS
 62
     7
  0
ARC
  5
169
  8
0
  6
CONTINUOUS
 62
     7
 10
-325.9999999999999
 20
262.5
 30
0.0
 40
3.3775158710637
 50
351.4867690477394
 51
8.513230952260756
  0
ARC
  5
16A
  8
0
  6
CONTINUOUS
 62
     7
 10
-325.9999999999999
 20
262.5
 30
0.0
 40
3.3775158710637
 50
171.4867690477393
 51
188.5132309522607
  0
POLYLINE
  5
16B
  8
0
  6
CONTINUOUS
 62
     7
 66
     1
 10
0.0
 20
0.0
 30
0.0
  0
VERTEX
  5
439
  8
0
  6
CONTINUOUS
 62
     7
 10
-173.5
 20
366.5
 30
0.0
  0
VERTEX
  5
43A
  8
0
  6
CONTINUOUS
 62
     7
 10
-173.4994294863434
 20
366.5236304093512
 30
0.0
  0
VERTEX
  5
43B
  8
0
  6
CONTINUOUS
 62
     7
 10
-173.4977245852567
 20
366.5473015994425
 30
0.0
  0
VERTEX
  5
43C
  8
0
  6
CONTINUOUS
 62
     7
 10
-173.4948952565649
 20
366.5709327395334
 30
0.0
  0
VERTEX
  5
43D
  8
0
  6
CONTINUOUS
 62
     7
 10
-173.4909514600926
 20
366.5944429988838
 30
0.0
  0
VERTEX
  5
43E
  8
0
  6
CONTINUOUS
 62
     7
 10
-173.4859031556648
 20
366.6177515467532
 30
0.0
  0
VERTEX
  5
43F
  8
0
  6
CONTINUOUS
 62
     7
 10
-173.4797603031062
 20
366.6407775524013
 30
0.0
  0
VERTEX
  5
440
  8
0
  6
CONTINUOUS
 62
     7
 10
-173.4725328622418
 20
366.6634401850879
 30
0.0
  0
VERTEX
  5
441
  8
0
  6
CONTINUOUS
 62
     7
 10
-173.4641984790399
 20
366.6857608065524
 30
0.0
  0
VERTEX
  5
442
  8
0
  6
CONTINUOUS
 62
     7
 10
-173.4547632682937
 20
366.7077379239911
 30
0.0
  0
VERTEX
  5
443
  8
0
  6
CONTINUOUS
 62
     7
 10
-173.444266237756
 20
366.7292959046283
 30
0.0
  0
VERTEX
  5
444
  8
0
  6
CONTINUOUS
 62
     7
 10
-173.4327463951797
 20
366.7503591156878
 30
0.0
  0
VERTEX
  5
445
  8
0
  6
CONTINUOUS
 62
     7
 10
-173.4202427483174
 20
366.7708519243939
 30
0.0
  0
VERTEX
  5
446
  8
0
  6
CONTINUOUS
 62
     7
 10
-173.4067943049221
 20
366.7906986979703
 30
0.0
  0
VERTEX
  5
447
  8
0
  6
CONTINUOUS
 62
     7
 10
-173.3924400727464
 20
366.8098238036413
 30
0.0
  0
VERTEX
  5
448
  8
0
  6
CONTINUOUS
 62
     7
 10
-173.3773666579926
 20
366.8279971213241
 30
0.0
  0
VERTEX
  5
449
  8
0
  6
CONTINUOUS
 62
     7
 10
-173.3613947835431
 20
366.8454845602016
 30
0.0
  0
VERTEX
  5
44A
  8
0
  6
CONTINUOUS
 62
     7
 10
-173.3445860746072
 20
366.8622307106044
 30
0.0
  0
VERTEX
  5
44B
  8
0
  6
CONTINUOUS
 62
     7
 10
-173.327002156394
 20
366.8781801628627
 30
0.0
  0
VERTEX
  5
44C
  8
0
  6
CONTINUOUS
 62
     7
 10
-173.3087046541126
 20
366.8932775073073
 30
0.0
  0
VERTEX
  5
44D
  8
0
  6
CONTINUOUS
 62
     7
 10
-173.2897551929723
 20
366.9074673342684
 30
0.0
  0
VERTEX
  5
44E
  8
0
  6
CONTINUOUS
 62
     7
 10
-173.2702153981822
 20
366.9206942340765
 30
0.0
  0
VERTEX
  5
44F
  8
0
  6
CONTINUOUS
 62
     7
 10
-173.2501907556967
 20
366.9328891764396
 30
0.0
  0
VERTEX
  5
450
  8
0
  6
CONTINUOUS
 62
     7
 10
-173.2295653985155
 20
366.9441481296455
 30
0.0
  0
VERTEX
  5
451
  8
0
  6
CONTINUOUS
 62
     7
 10
-173.2084134456813
 20
366.9544418917417
 30
0.0
  0
VERTEX
  5
452
  8
0
  6
CONTINUOUS
 62
     7
 10
-173.1868090162367
 20
366.9637412607759
 30
0.0
  0
VERTEX
  5
453
  8
0
  6
CONTINUOUS
 62
     7
 10
-173.1648262292244
 20
366.9720170347952
 30
0.0
  0
VERTEX
  5
454
  8
0
  6
CONTINUOUS
 62
     7
 10
-173.142539203687
 20
366.9792400118471
 30
0.0
  0
VERTEX
  5
455
  8
0
  6
CONTINUOUS
 62
     7
 10
-173.1200220586672
 20
366.9853809899793
 30
0.0
  0
VERTEX
  5
456
  8
0
  6
CONTINUOUS
 62
     7
 10
-173.0963328621567
 20
366.990626506835
 30
0.0
  0
VERTEX
  5
457
  8
0
  6
CONTINUOUS
 62
     7
 10
-173.0724001452332
 20
366.9947176637967
 30
0.0
  0
VERTEX
  5
458
  8
0
  6
CONTINUOUS
 62
     7
 10
-173.0483098206981
 20
366.9976479633328
 30
0.0
  0
VERTEX
  5
459
  8
0
  6
CONTINUOUS
 62
     7
 10
-173.0241478013532
 20
366.9994109079112
 30
0.0
  0
VERTEX
  5
45A
  8
0
  6
CONTINUOUS
 62
     7
 10
-173.0
 20
367.0
 30
0.0
  0
SEQEND
  5
5A1
  8
0
  6
CONTINUOUS
 62
     7
  0
POLYLINE
  5
16C
  8
0
  6
CONTINUOUS
 62
     7
 66
     1
 10
0.0
 20
0.0
 30
0.0
  0
VERTEX
  5
45B
  8
0
  6
CONTINUOUS
 62
     7
 10
-175.0
 20
367.0
 30
0.0
  0
VERTEX
  5
45C
  8
0
  6
CONTINUOUS
 62
     7
 10
-174.9763695906488
 20
366.9994294863433
 30
0.0
  0
VERTEX
  5
45D
  8
0
  6
CONTINUOUS
 62
     7
 10
-174.9526984005575
 20
366.9977245852567
 30
0.0
  0
VERTEX
  5
45E
  8
0
  6
CONTINUOUS
 62
     7
 10
-174.9290672604666
 20
366.9948952565647
 30
0.0
  0
VERTEX
  5
45F
  8
0
  6
CONTINUOUS
 62
     7
 10
-174.9055570011162
 20
366.9909514600925
 30
0.0
  0
VERTEX
  5
460
  8
0
  6
CONTINUOUS
 62
     7
 10
-174.8822484532468
 20
366.9859031556647
 30
0.0
  0
VERTEX
  5
461
  8
0
  6
CONTINUOUS
 62
     7
 10
-174.8592224475987
 20
366.9797603031062
 30
0.0
  0
VERTEX
  5
462
  8
0
  6
CONTINUOUS
 62
     7
 10
-174.8365598149121
 20
366.9725328622418
 30
0.0
  0
VERTEX
  5
463
  8
0
  6
CONTINUOUS
 62
     7
 10
-174.8142391934476
 20
366.9641984790399
 30
0.0
  0
VERTEX
  5
464
  8
0
  6
CONTINUOUS
 62
     7
 10
-174.7922620760088
 20
366.9547632682937
 30
0.0
  0
VERTEX
  5
465
  8
0
  6
CONTINUOUS
 62
     7
 10
-174.7707040953717
 20
366.944266237756
 30
0.0
  0
VERTEX
  5
466
  8
0
  6
CONTINUOUS
 62
     7
 10
-174.7496408843122
 20
366.9327463951797
 30
0.0
  0
VERTEX
  5
467
  8
0
  6
CONTINUOUS
 62
     7
 10
-174.7291480756062
 20
366.9202427483174
 30
0.0
  0
VERTEX
  5
468
  8
0
  6
CONTINUOUS
 62
     7
 10
-174.7093013020297
 20
366.906794304922
 30
0.0
  0
VERTEX
  5
469
  8
0
  6
CONTINUOUS
 62
     7
 10
-174.6901761963587
 20
366.8924400727464
 30
0.0
  0
VERTEX
  5
46A
  8
0
  6
CONTINUOUS
 62
     7
 10
-174.6720028786759
 20
366.8773666579925
 30
0.0
  0
VERTEX
  5
46B
  8
0
  6
CONTINUOUS
 62
     7
 10
-174.6545154397984
 20
366.8613947835431
 30
0.0
  0
VERTEX
  5
46C
  8
0
  6
CONTINUOUS
 62
     7
 10
-174.6377692893957
 20
366.8445860746071
 30
0.0
  0
VERTEX
  5
46D
  8
0
  6
CONTINUOUS
 62
     7
 10
-174.6218198371372
 20
366.8270021563939
 30
0.0
  0
VERTEX
  5
46E
  8
0
  6
CONTINUOUS
 62
     7
 10
-174.6067224926927
 20
366.8087046541126
 30
0.0
  0
VERTEX
  5
46F
  8
0
  6
CONTINUOUS
 62
     7
 10
-174.5925326657316
 20
366.7897551929722
 30
0.0
  0
VERTEX
  5
470
  8
0
  6
CONTINUOUS
 62
     7
 10
-174.5793057659235
 20
366.7702153981821
 30
0.0
  0
VERTEX
  5
471
  8
0
  6
CONTINUOUS
 62
     7
 10
-174.5671108235604
 20
366.7501907556966
 30
0.0
  0
VERTEX
  5
472
  8
0
  6
CONTINUOUS
 62
     7
 10
-174.5558518703545
 20
366.7295653985155
 30
0.0
  0
VERTEX
  5
473
  8
0
  6
CONTINUOUS
 62
     7
 10
-174.5455581082583
 20
366.7084134456813
 30
0.0
  0
VERTEX
  5
474
  8
0
  6
CONTINUOUS
 62
     7
 10
-174.5362587392242
 20
366.6868090162367
 30
0.0
  0
VERTEX
  5
475
  8
0
  6
CONTINUOUS
 62
     7
 10
-174.5279829652049
 20
366.6648262292243
 30
0.0
  0
VERTEX
  5
476
  8
0
  6
CONTINUOUS
 62
     7
 10
-174.5207599881529
 20
366.642539203687
 30
0.0
  0
VERTEX
  5
477
  8
0
  6
CONTINUOUS
 62
     7
 10
-174.5146190100207
 20
366.6200220586671
 30
0.0
  0
VERTEX
  5
478
  8
0
  6
CONTINUOUS
 62
     7
 10
-174.509373493165
 20
366.5963328621568
 30
0.0
  0
VERTEX
  5
479
  8
0
  6
CONTINUOUS
 62
     7
 10
-174.5052823362032
 20
366.5724001452331
 30
0.0
  0
VERTEX
  5
47A
  8
0
  6
CONTINUOUS
 62
     7
 10
-174.5023520366672
 20
366.548309820698
 30
0.0
  0
VERTEX
  5
47B
  8
0
  6
CONTINUOUS
 62
     7
 10
-174.5005890920888
 20
366.5241478013531
 30
0.0
  0
VERTEX
  5
47C
  8
0
  6
CONTINUOUS
 62
     7
 10
-174.5
 20
366.5
 30
0.0
  0
SEQEND
  5
5A2
  8
0
  6
CONTINUOUS
 62
     7
  0
LINE
  5
16D
  8
0
  6
CONTINUOUS
 62
     7
 10
-174.5
 20
366.5
 30
0.0
 11
-174.5
 21
365.3575714714372
 31
0.0
  0
ARC
  5
16E
  8
0
  6
CONTINUOUS
 62
     7
 10
-174.0
 20
367.5
 30
0.0
 40
2.2
 50
256.8634412130551
 51
283.1365587869449
  0
LINE
  5
16F
  8
0
  6
CONTINUOUS
 62
     7
 10
-173.5
 20
365.3575714714371
 30
0.0
 11
-173.5
 21
366.4999999999999
 31
0.0
  0
POLYLINE
  5
170
  8
0
  6
CONTINUOUS
 62
     7
 66
     1
 10
0.0
 20
0.0
 30
0.0
  0
VERTEX
  5
47D
  8
0
  6
CONTINUOUS
 62
     7
 10
-173.0
 20
368.0
 30
0.0
  0
VERTEX
  5
47E
  8
0
  6
CONTINUOUS
 62
     7
 10
-173.0236304093513
 20
368.0005705136566
 30
0.0
  0
VERTEX
  5
47F
  8
0
  6
CONTINUOUS
 62
     7
 10
-173.0473015994426
 20
368.0022754147433
 30
0.0
  0
VERTEX
  5
480
  8
0
  6
CONTINUOUS
 62
     7
 10
-173.0709327395336
 20
368.0051047434351
 30
0.0
  0
VERTEX
  5
481
  8
0
  6
CONTINUOUS
 62
     7
 10
-173.0944429988839
 20
368.0090485399074
 30
0.0
  0
VERTEX
  5
482
  8
0
  6
CONTINUOUS
 62
     7
 10
-173.1177515467533
 20
368.0140968443352
 30
0.0
  0
VERTEX
  5
483
  8
0
  6
CONTINUOUS
 62
     7
 10
-173.1407775524014
 20
368.0202396968937
 30
0.0
  0
VERTEX
  5
484
  8
0
  6
CONTINUOUS
 62
     7
 10
-173.1634401850879
 20
368.0274671377582
 30
0.0
  0
VERTEX
  5
485
  8
0
  6
CONTINUOUS
 62
     7
 10
-173.1857608065524
 20
368.0358015209601
 30
0.0
  0
VERTEX
  5
486
  8
0
  6
CONTINUOUS
 62
     7
 10
-173.2077379239912
 20
368.0452367317063
 30
0.0
  0
VERTEX
  5
487
  8
0
  6
CONTINUOUS
 62
     7
 10
-173.2292959046284
 20
368.0557337622439
 30
0.0
  0
VERTEX
  5
488
  8
0
  6
CONTINUOUS
 62
     7
 10
-173.2503591156879
 20
368.0672536048203
 30
0.0
  0
VERTEX
  5
489
  8
0
  6
CONTINUOUS
 62
     7
 10
-173.2708519243939
 20
368.0797572516826
 30
0.0
  0
VERTEX
  5
48A
  8
0
  6
CONTINUOUS
 62
     7
 10
-173.2906986979704
 20
368.0932056950779
 30
0.0
  0
VERTEX
  5
48B
  8
0
  6
CONTINUOUS
 62
     7
 10
-173.3098238036414
 20
368.1075599272536
 30
0.0
  0
VERTEX
  5
48C
  8
0
  6
CONTINUOUS
 62
     7
 10
-173.3279971213241
 20
368.1226333420075
 30
0.0
  0
VERTEX
  5
48D
  8
0
  6
CONTINUOUS
 62
     7
 10
-173.3454845602017
 20
368.1386052164568
 30
0.0
  0
VERTEX
  5
48E
  8
0
  6
CONTINUOUS
 62
     7
 10
-173.3622307106045
 20
368.1554139253928
 30
0.0
  0
VERTEX
  5
48F
  8
0
  6
CONTINUOUS
 62
     7
 10
-173.3781801628629
 20
368.172997843606
 30
0.0
  0
VERTEX
  5
490
  8
0
  6
CONTINUOUS
 62
     7
 10
-173.3932775073074
 20
368.1912953458873
 30
0.0
  0
VERTEX
  5
491
  8
0
  6
CONTINUOUS
 62
     7
 10
-173.4074673342685
 20
368.2102448070277
 30
0.0
  0
VERTEX
  5
492
  8
0
  6
CONTINUOUS
 62
     7
 10
-173.4206942340766
 20
368.2297846018178
 30
0.0
  0
VERTEX
  5
493
  8
0
  6
CONTINUOUS
 62
     7
 10
-173.4328891764396
 20
368.2498092443033
 30
0.0
  0
VERTEX
  5
494
  8
0
  6
CONTINUOUS
 62
     7
 10
-173.4441481296456
 20
368.2704346014845
 30
0.0
  0
VERTEX
  5
495
  8
0
  6
CONTINUOUS
 62
     7
 10
-173.4544418917419
 20
368.2915865543187
 30
0.0
  0
VERTEX
  5
496
  8
0
  6
CONTINUOUS
 62
     7
 10
-173.4637412607759
 20
368.3131909837633
 30
0.0
  0
VERTEX
  5
497
  8
0
  6
CONTINUOUS
 62
     7
 10
-173.4720170347952
 20
368.3351737707756
 30
0.0
  0
VERTEX
  5
498
  8
0
  6
CONTINUOUS
 62
     7
 10
-173.4792400118472
 20
368.357460796313
 30
0.0
  0
VERTEX
  5
499
  8
0
  6
CONTINUOUS
 62
     7
 10
-173.4853809899793
 20
368.3799779413328
 30
0.0
  0
VERTEX
  5
49A
  8
0
  6
CONTINUOUS
 62
     7
 10
-173.490626506835
 20
368.4036671378432
 30
0.0
  0
VERTEX
  5
49B
  8
0
  6
CONTINUOUS
 62
     7
 10
-173.4947176637969
 20
368.4275998547668
 30
0.0
  0
VERTEX
  5
49C
  8
0
  6
CONTINUOUS
 62
     7
 10
-173.4976479633329
 20
368.4516901793019
 30
0.0
  0
VERTEX
  5
49D
  8
0
  6
CONTINUOUS
 62
     7
 10
-173.4994109079113
 20
368.4758521986469
 30
0.0
  0
VERTEX
  5
49E
  8
0
  6
CONTINUOUS
 62
     7
 10
-173.5
 20
368.5
 30
0.0
  0
SEQEND
  5
5A3
  8
0
  6
CONTINUOUS
 62
     7
  0
LINE
  5
171
  8
0
  6
CONTINUOUS
 62
     7
 10
-173.5
 20
368.5
 30
0.0
 11
-173.5
 21
369.6424285285628
 31
0.0
  0
ARC
  5
172
  8
0
  6
CONTINUOUS
 62
     7
 10
-174.0
 20
367.5
 30
0.0
 40
2.2
 50
76.86344121305514
 51
103.1365587869449
  0
LINE
  5
173
  8
0
  6
CONTINUOUS
 62
     7
 10
-174.5
 20
369.6424285285628
 30
0.0
 11
-174.5
 21
368.5
 31
0.0
  0
POLYLINE
  5
174
  8
0
  6
CONTINUOUS
 62
     7
 66
     1
 10
0.0
 20
0.0
 30
0.0
  0
VERTEX
  5
49F
  8
0
  6
CONTINUOUS
 62
     7
 10
-174.5
 20
368.5
 30
0.0
  0
VERTEX
  5
4A0
  8
0
  6
CONTINUOUS
 62
     7
 10
-174.5005705136567
 20
368.4763695906487
 30
0.0
  0
VERTEX
  5
4A1
  8
0
  6
CONTINUOUS
 62
     7
 10
-174.5022754147434
 20
368.4526984005574
 30
0.0
  0
VERTEX
  5
4A2
  8
0
  6
CONTINUOUS
 62
     7
 10
-174.5051047434352
 20
368.4290672604665
 30
0.0
  0
VERTEX
  5
4A3
  8
0
  6
CONTINUOUS
 62
     7
 10
-174.5090485399075
 20
368.4055570011162
 30
0.0
  0
VERTEX
  5
4A4
  8
0
  6
CONTINUOUS
 62
     7
 10
-174.5140968443353
 20
368.3822484532467
 30
0.0
  0
VERTEX
  5
4A5
  8
0
  6
CONTINUOUS
 62
     7
 10
-174.5202396968938
 20
368.3592224475986
 30
0.0
  0
VERTEX
  5
4A6
  8
0
  6
CONTINUOUS
 62
     7
 10
-174.5274671377582
 20
368.3365598149121
 30
0.0
  0
VERTEX
  5
4A7
  8
0
  6
CONTINUOUS
 62
     7
 10
-174.5358015209601
 20
368.3142391934476
 30
0.0
  0
VERTEX
  5
4A8
  8
0
  6
CONTINUOUS
 62
     7
 10
-174.5452367317064
 20
368.2922620760088
 30
0.0
  0
VERTEX
  5
4A9
  8
0
  6
CONTINUOUS
 62
     7
 10
-174.555733762244
 20
368.2707040953716
 30
0.0
  0
VERTEX
  5
4AA
  8
0
  6
CONTINUOUS
 62
     7
 10
-174.5672536048204
 20
368.2496408843121
 30
0.0
  0
VERTEX
  5
4AB
  8
0
  6
CONTINUOUS
 62
     7
 10
-174.5797572516826
 20
368.2291480756061
 30
0.0
  0
VERTEX
  5
4AC
  8
0
  6
CONTINUOUS
 62
     7
 10
-174.593205695078
 20
368.2093013020296
 30
0.0
  0
VERTEX
  5
4AD
  8
0
  6
CONTINUOUS
 62
     7
 10
-174.6075599272536
 20
368.1901761963585
 30
0.0
  0
VERTEX
  5
4AE
  8
0
  6
CONTINUOUS
 62
     7
 10
-174.6226333420075
 20
368.1720028786759
 30
0.0
  0
VERTEX
  5
4AF
  8
0
  6
CONTINUOUS
 62
     7
 10
-174.638605216457
 20
368.1545154397983
 30
0.0
  0
VERTEX
  5
4B0
  8
0
  6
CONTINUOUS
 62
     7
 10
-174.6554139253929
 20
368.1377692893956
 30
0.0
  0
VERTEX
  5
4B1
  8
0
  6
CONTINUOUS
 62
     7
 10
-174.6729978436061
 20
368.1218198371371
 30
0.0
  0
VERTEX
  5
4B2
  8
0
  6
CONTINUOUS
 62
     7
 10
-174.6912953458875
 20
368.1067224926926
 30
0.0
  0
VERTEX
  5
4B3
  8
0
  6
CONTINUOUS
 62
     7
 10
-174.7102448070277
 20
368.0925326657315
 30
0.0
  0
VERTEX
  5
4B4
  8
0
  6
CONTINUOUS
 62
     7
 10
-174.7297846018179
 20
368.0793057659234
 30
0.0
  0
VERTEX
  5
4B5
  8
0
  6
CONTINUOUS
 62
     7
 10
-174.7498092443033
 20
368.0671108235604
 30
0.0
  0
VERTEX
  5
4B6
  8
0
  6
CONTINUOUS
 62
     7
 10
-174.7704346014846
 20
368.0558518703544
 30
0.0
  0
VERTEX
  5
4B7
  8
0
  6
CONTINUOUS
 62
     7
 10
-174.7915865543187
 20
368.0455581082581
 30
0.0
  0
VERTEX
  5
4B8
  8
0
  6
CONTINUOUS
 62
     7
 10
-174.8131909837633
 20
368.0362587392241
 30
0.0
  0
VERTEX
  5
4B9
  8
0
  6
CONTINUOUS
 62
     7
 10
-174.8351737707756
 20
368.0279829652048
 30
0.0
  0
VERTEX
  5
4BA
  8
0
  6
CONTINUOUS
 62
     7
 10
-174.8574607963131
 20
368.0207599881528
 30
0.0
  0
VERTEX
  5
4BB
  8
0
  6
CONTINUOUS
 62
     7
 10
-174.8799779413329
 20
368.0146190100206
 30
0.0
  0
VERTEX
  5
4BC
  8
0
  6
CONTINUOUS
 62
     7
 10
-174.9036671378433
 20
368.009373493165
 30
0.0
  0
VERTEX
  5
4BD
  8
0
  6
CONTINUOUS
 62
     7
 10
-174.9275998547669
 20
368.0052823362032
 30
0.0
  0
VERTEX
  5
4BE
  8
0
  6
CONTINUOUS
 62
     7
 10
-174.951690179302
 20
368.0023520366671
 30
0.0
  0
VERTEX
  5
4BF
  8
0
  6
CONTINUOUS
 62
     7
 10
-174.9758521986469
 20
368.0005890920888
 30
0.0
  0
VERTEX
  5
4C0
  8
0
  6
CONTINUOUS
 62
     7
 10
-175.0
 20
368.0
 30
0.0
  0
SEQEND
  5
5A4
  8
0
  6
CONTINUOUS
 62
     7
  0
ARC
  5
175
  8
0
  6
CONTINUOUS
 62
     7
 10
-174.0
 20
367.5
 30
0.0
 40
3.3775158710637
 50
171.4867690477393
 51
188.5132309522607
  0
ARC
  5
176
  8
0
  6
CONTINUOUS
 62
     7
 10
-174.0
 20
367.5
 30
0.0
 40
3.3775158710637
 50
351.4867690477394
 51
8.513230952260756
  0
ARC
  5
177
  8
0
  6
CONTINUOUS
 62
     7
 10
-325.9999999999999
 20
367.5
 30
0.0
 40
2.2
 50
256.8634412130551
 51
283.1365587869449
  0
LINE
  5
178
  8
0
  6
CONTINUOUS
 62
     7
 10
-325.4999999999999
 20
366.5
 30
0.0
 11
-325.4999999999999
 21
365.3575714714372
 31
0.0
  0
LINE
  5
179
  8
0
  6
CONTINUOUS
 62
     7
 10
-326.4999999999999
 20
365.3575714714371
 30
0.0
 11
-326.4999999999999
 21
366.4999999999999
 31
0.0
  0
POLYLINE
  5
17A
  8
0
  6
CONTINUOUS
 62
     7
 66
     1
 10
0.0
 20
0.0
 30
0.0
  0
VERTEX
  5
4C1
  8
0
  6
CONTINUOUS
 62
     7
 10
-326.4999999999999
 20
366.5
 30
0.0
  0
VERTEX
  5
4C2
  8
0
  6
CONTINUOUS
 62
     7
 10
-326.5005705136566
 20
366.5236304093512
 30
0.0
  0
VERTEX
  5
4C3
  8
0
  6
CONTINUOUS
 62
     7
 10
-326.5022754147432
 20
366.5473015994425
 30
0.0
  0
VERTEX
  5
4C4
  8
0
  6
CONTINUOUS
 62
     7
 10
-326.5051047434351
 20
366.5709327395334
 30
0.0
  0
VERTEX
  5
4C5
  8
0
  6
CONTINUOUS
 62
     7
 10
-326.5090485399074
 20
366.5944429988838
 30
0.0
  0
VERTEX
  5
4C6
  8
0
  6
CONTINUOUS
 62
     7
 10
-326.5140968443352
 20
366.6177515467532
 30
0.0
  0
VERTEX
  5
4C7
  8
0
  6
CONTINUOUS
 62
     7
 10
-326.5202396968937
 20
366.6407775524013
 30
0.0
  0
VERTEX
  5
4C8
  8
0
  6
CONTINUOUS
 62
     7
 10
-326.5274671377582
 20
366.6634401850879
 30
0.0
  0
VERTEX
  5
4C9
  8
0
  6
CONTINUOUS
 62
     7
 10
-326.53580152096
 20
366.6857608065524
 30
0.0
  0
VERTEX
  5
4CA
  8
0
  6
CONTINUOUS
 62
     7
 10
-326.5452367317063
 20
366.7077379239911
 30
0.0
  0
VERTEX
  5
4CB
  8
0
  6
CONTINUOUS
 62
     7
 10
-326.555733762244
 20
366.7292959046283
 30
0.0
  0
VERTEX
  5
4CC
  8
0
  6
CONTINUOUS
 62
     7
 10
-326.5672536048203
 20
366.7503591156878
 30
0.0
  0
VERTEX
  5
4CD
  8
0
  6
CONTINUOUS
 62
     7
 10
-326.5797572516825
 20
366.7708519243939
 30
0.0
  0
VERTEX
  5
4CE
  8
0
  6
CONTINUOUS
 62
     7
 10
-326.5932056950779
 20
366.7906986979703
 30
0.0
  0
VERTEX
  5
4CF
  8
0
  6
CONTINUOUS
 62
     7
 10
-326.6075599272535
 20
366.8098238036413
 30
0.0
  0
VERTEX
  5
4D0
  8
0
  6
CONTINUOUS
 62
     7
 10
-326.6226333420074
 20
366.8279971213241
 30
0.0
  0
VERTEX
  5
4D1
  8
0
  6
CONTINUOUS
 62
     7
 10
-326.6386052164569
 20
366.8454845602016
 30
0.0
  0
VERTEX
  5
4D2
  8
0
  6
CONTINUOUS
 62
     7
 10
-326.6554139253927
 20
366.8622307106044
 30
0.0
  0
VERTEX
  5
4D3
  8
0
  6
CONTINUOUS
 62
     7
 10
-326.672997843606
 20
366.8781801628627
 30
0.0
  0
VERTEX
  5
4D4
  8
0
  6
CONTINUOUS
 62
     7
 10
-326.6912953458873
 20
366.8932775073073
 30
0.0
  0
VERTEX
  5
4D5
  8
0
  6
CONTINUOUS
 62
     7
 10
-326.7102448070277
 20
366.9074673342684
 30
0.0
  0
VERTEX
  5
4D6
  8
0
  6
CONTINUOUS
 62
     7
 10
-326.7297846018178
 20
366.9206942340765
 30
0.0
  0
VERTEX
  5
4D7
  8
0
  6
CONTINUOUS
 62
     7
 10
-326.7498092443033
 20
366.9328891764396
 30
0.0
  0
VERTEX
  5
4D8
  8
0
  6
CONTINUOUS
 62
     7
 10
-326.7704346014845
 20
366.9441481296455
 30
0.0
  0
VERTEX
  5
4D9
  8
0
  6
CONTINUOUS
 62
     7
 10
-326.7915865543187
 20
366.9544418917417
 30
0.0
  0
VERTEX
  5
4DA
  8
0
  6
CONTINUOUS
 62
     7
 10
-326.8131909837633
 20
366.9637412607759
 30
0.0
  0
VERTEX
  5
4DB
  8
0
  6
CONTINUOUS
 62
     7
 10
-326.8351737707756
 20
366.9720170347952
 30
0.0
  0
VERTEX
  5
4DC
  8
0
  6
CONTINUOUS
 62
     7
 10
-326.8574607963129
 20
366.9792400118471
 30
0.0
  0
VERTEX
  5
4DD
  8
0
  6
CONTINUOUS
 62
     7
 10
-326.8799779413328
 20
366.9853809899793
 30
0.0
  0
VERTEX
  5
4DE
  8
0
  6
CONTINUOUS
 62
     7
 10
-326.9036671378432
 20
366.990626506835
 30
0.0
  0
VERTEX
  5
4DF
  8
0
  6
CONTINUOUS
 62
     7
 10
-326.9275998547668
 20
366.9947176637967
 30
0.0
  0
VERTEX
  5
4E0
  8
0
  6
CONTINUOUS
 62
     7
 10
-326.9516901793019
 20
366.9976479633328
 30
0.0
  0
VERTEX
  5
4E1
  8
0
  6
CONTINUOUS
 62
     7
 10
-326.9758521986468
 20
366.9994109079112
 30
0.0
  0
VERTEX
  5
4E2
  8
0
  6
CONTINUOUS
 62
     7
 10
-326.9999999999999
 20
367.0
 30
0.0
  0
SEQEND
  5
5A5
  8
0
  6
CONTINUOUS
 62
     7
  0
POLYLINE
  5
17B
  8
0
  6
CONTINUOUS
 62
     7
 66
     1
 10
0.0
 20
0.0
 30
0.0
  0
VERTEX
  5
4E3
  8
0
  6
CONTINUOUS
 62
     7
 10
-324.9999999999999
 20
367.0
 30
0.0
  0
VERTEX
  5
4E4
  8
0
  6
CONTINUOUS
 62
     7
 10
-325.0236304093512
 20
366.9994294863433
 30
0.0
  0
VERTEX
  5
4E5
  8
0
  6
CONTINUOUS
 62
     7
 10
-325.0473015994425
 20
366.9977245852567
 30
0.0
  0
VERTEX
  5
4E6
  8
0
  6
CONTINUOUS
 62
     7
 10
-325.0709327395335
 20
366.9948952565648
 30
0.0
  0
VERTEX
  5
4E7
  8
0
  6
CONTINUOUS
 62
     7
 10
-325.0944429988838
 20
366.9909514600925
 30
0.0
  0
VERTEX
  5
4E8
  8
0
  6
CONTINUOUS
 62
     7
 10
-325.1177515467532
 20
366.9859031556647
 30
0.0
  0
VERTEX
  5
4E9
  8
0
  6
CONTINUOUS
 62
     7
 10
-325.1407775524013
 20
366.9797603031062
 30
0.0
  0
VERTEX
  5
4EA
  8
0
  6
CONTINUOUS
 62
     7
 10
-325.1634401850878
 20
366.9725328622418
 30
0.0
  0
VERTEX
  5
4EB
  8
0
  6
CONTINUOUS
 62
     7
 10
-325.1857608065524
 20
366.9641984790398
 30
0.0
  0
VERTEX
  5
4EC
  8
0
  6
CONTINUOUS
 62
     7
 10
-325.2077379239911
 20
366.9547632682937
 30
0.0
  0
VERTEX
  5
4ED
  8
0
  6
CONTINUOUS
 62
     7
 10
-325.2292959046283
 20
366.944266237756
 30
0.0
  0
VERTEX
  5
4EE
  8
0
  6
CONTINUOUS
 62
     7
 10
-325.2503591156878
 20
366.9327463951797
 30
0.0
  0
VERTEX
  5
4EF
  8
0
  6
CONTINUOUS
 62
     7
 10
-325.2708519243939
 20
366.9202427483174
 30
0.0
  0
VERTEX
  5
4F0
  8
0
  6
CONTINUOUS
 62
     7
 10
-325.2906986979704
 20
366.906794304922
 30
0.0
  0
VERTEX
  5
4F1
  8
0
  6
CONTINUOUS
 62
     7
 10
-325.3098238036413
 20
366.8924400727464
 30
0.0
  0
VERTEX
  5
4F2
  8
0
  6
CONTINUOUS
 62
     7
 10
-325.3279971213241
 20
366.8773666579925
 30
0.0
  0
VERTEX
  5
4F3
  8
0
  6
CONTINUOUS
 62
     7
 10
-325.3454845602016
 20
366.8613947835431
 30
0.0
  0
VERTEX
  5
4F4
  8
0
  6
CONTINUOUS
 62
     7
 10
-325.3622307106043
 20
366.8445860746071
 30
0.0
  0
VERTEX
  5
4F5
  8
0
  6
CONTINUOUS
 62
     7
 10
-325.3781801628628
 20
366.8270021563939
 30
0.0
  0
VERTEX
  5
4F6
  8
0
  6
CONTINUOUS
 62
     7
 10
-325.3932775073073
 20
366.8087046541126
 30
0.0
  0
VERTEX
  5
4F7
  8
0
  6
CONTINUOUS
 62
     7
 10
-325.4074673342684
 20
366.7897551929722
 30
0.0
  0
VERTEX
  5
4F8
  8
0
  6
CONTINUOUS
 62
     7
 10
-325.4206942340765
 20
366.7702153981821
 30
0.0
  0
VERTEX
  5
4F9
  8
0
  6
CONTINUOUS
 62
     7
 10
-325.4328891764395
 20
366.7501907556966
 30
0.0
  0
VERTEX
  5
4FA
  8
0
  6
CONTINUOUS
 62
     7
 10
-325.4441481296455
 20
366.7295653985155
 30
0.0
  0
VERTEX
  5
4FB
  8
0
  6
CONTINUOUS
 62
     7
 10
-325.4544418917418
 20
366.7084134456813
 30
0.0
  0
VERTEX
  5
4FC
  8
0
  6
CONTINUOUS
 62
     7
 10
-325.4637412607758
 20
366.6868090162367
 30
0.0
  0
VERTEX
  5
4FD
  8
0
  6
CONTINUOUS
 62
     7
 10
-325.4720170347951
 20
366.6648262292243
 30
0.0
  0
VERTEX
  5
4FE
  8
0
  6
CONTINUOUS
 62
     7
 10
-325.4792400118471
 20
366.642539203687
 30
0.0
  0
VERTEX
  5
4FF
  8
0
  6
CONTINUOUS
 62
     7
 10
-325.4853809899793
 20
366.6200220586671
 30
0.0
  0
VERTEX
  5
500
  8
0
  6
CONTINUOUS
 62
     7
 10
-325.490626506835
 20
366.5963328621567
 30
0.0
  0
VERTEX
  5
501
  8
0
  6
CONTINUOUS
 62
     7
 10
-325.4947176637968
 20
366.5724001452331
 30
0.0
  0
VERTEX
  5
502
  8
0
  6
CONTINUOUS
 62
     7
 10
-325.4976479633328
 20
366.548309820698
 30
0.0
  0
VERTEX
  5
503
  8
0
  6
CONTINUOUS
 62
     7
 10
-325.4994109079112
 20
366.5241478013531
 30
0.0
  0
VERTEX
  5
504
  8
0
  6
CONTINUOUS
 62
     7
 10
-325.4999999999999
 20
366.5
 30
0.0
  0
SEQEND
  5
5A6
  8
0
  6
CONTINUOUS
 62
     7
  0
ARC
  5
17C
  8
0
  6
CONTINUOUS
 62
     7
 10
-325.9999999999999
 20
367.5
 30
0.0
 40
2.2
 50
76.86344121305513
 51
103.1365587869449
  0
LINE
  5
17D
  8
0
  6
CONTINUOUS
 62
     7
 10
-326.4999999999999
 20
368.5
 30
0.0
 11
-326.4999999999999
 21
369.6424285285628
 31
0.0
  0
POLYLINE
  5
17E
  8
0
  6
CONTINUOUS
 62
     7
 66
     1
 10
0.0
 20
0.0
 30
0.0
  0
VERTEX
  5
505
  8
0
  6
CONTINUOUS
 62
     7
 10
-326.9999999999999
 20
368.0
 30
0.0
  0
VERTEX
  5
506
  8
0
  6
CONTINUOUS
 62
     7
 10
-326.9763695906487
 20
368.0005705136566
 30
0.0
  0
VERTEX
  5
507
  8
0
  6
CONTINUOUS
 62
     7
 10
-326.9526984005574
 20
368.0022754147433
 30
0.0
  0
VERTEX
  5
508
  8
0
  6
CONTINUOUS
 62
     7
 10
-326.9290672604664
 20
368.0051047434351
 30
0.0
  0
VERTEX
  5
509
  8
0
  6
CONTINUOUS
 62
     7
 10
-326.9055570011161
 20
368.0090485399074
 30
0.0
  0
VERTEX
  5
50A
  8
0
  6
CONTINUOUS
 62
     7
 10
-326.8822484532467
 20
368.0140968443352
 30
0.0
  0
VERTEX
  5
50B
  8
0
  6
CONTINUOUS
 62
     7
 10
-326.8592224475985
 20
368.0202396968937
 30
0.0
  0
VERTEX
  5
50C
  8
0
  6
CONTINUOUS
 62
     7
 10
-326.8365598149121
 20
368.0274671377582
 30
0.0
  0
VERTEX
  5
50D
  8
0
  6
CONTINUOUS
 62
     7
 10
-326.8142391934475
 20
368.0358015209601
 30
0.0
  0
VERTEX
  5
50E
  8
0
  6
CONTINUOUS
 62
     7
 10
-326.7922620760087
 20
368.0452367317063
 30
0.0
  0
VERTEX
  5
50F
  8
0
  6
CONTINUOUS
 62
     7
 10
-326.7707040953716
 20
368.055733762244
 30
0.0
  0
VERTEX
  5
510
  8
0
  6
CONTINUOUS
 62
     7
 10
-326.749640884312
 20
368.0672536048203
 30
0.0
  0
VERTEX
  5
511
  8
0
  6
CONTINUOUS
 62
     7
 10
-326.729148075606
 20
368.0797572516826
 30
0.0
  0
VERTEX
  5
512
  8
0
  6
CONTINUOUS
 62
     7
 10
-326.7093013020296
 20
368.0932056950779
 30
0.0
  0
VERTEX
  5
513
  8
0
  6
CONTINUOUS
 62
     7
 10
-326.6901761963586
 20
368.1075599272536
 30
0.0
  0
VERTEX
  5
514
  8
0
  6
CONTINUOUS
 62
     7
 10
-326.6720028786758
 20
368.1226333420074
 30
0.0
  0
VERTEX
  5
515
  8
0
  6
CONTINUOUS
 62
     7
 10
-326.6545154397983
 20
368.1386052164568
 30
0.0
  0
VERTEX
  5
516
  8
0
  6
CONTINUOUS
 62
     7
 10
-326.6377692893956
 20
368.1554139253928
 30
0.0
  0
VERTEX
  5
517
  8
0
  6
CONTINUOUS
 62
     7
 10
-326.6218198371371
 20
368.172997843606
 30
0.0
  0
VERTEX
  5
518
  8
0
  6
CONTINUOUS
 62
     7
 10
-326.6067224926926
 20
368.1912953458873
 30
0.0
  0
VERTEX
  5
519
  8
0
  6
CONTINUOUS
 62
     7
 10
-326.5925326657315
 20
368.2102448070277
 30
0.0
  0
VERTEX
  5
51A
  8
0
  6
CONTINUOUS
 62
     7
 10
-326.5793057659234
 20
368.2297846018178
 30
0.0
  0
VERTEX
  5
51B
  8
0
  6
CONTINUOUS
 62
     7
 10
-326.5671108235604
 20
368.2498092443033
 30
0.0
  0
VERTEX
  5
51C
  8
0
  6
CONTINUOUS
 62
     7
 10
-326.5558518703544
 20
368.2704346014845
 30
0.0
  0
VERTEX
  5
51D
  8
0
  6
CONTINUOUS
 62
     7
 10
-326.5455581082581
 20
368.2915865543187
 30
0.0
  0
VERTEX
  5
51E
  8
0
  6
CONTINUOUS
 62
     7
 10
-326.5362587392241
 20
368.3131909837633
 30
0.0
  0
VERTEX
  5
51F
  8
0
  6
CONTINUOUS
 62
     7
 10
-326.5279829652048
 20
368.3351737707756
 30
0.0
  0
VERTEX
  5
520
  8
0
  6
CONTINUOUS
 62
     7
 10
-326.5207599881527
 20
368.357460796313
 30
0.0
  0
VERTEX
  5
521
  8
0
  6
CONTINUOUS
 62
     7
 10
-326.5146190100206
 20
368.3799779413328
 30
0.0
  0
VERTEX
  5
522
  8
0
  6
CONTINUOUS
 62
     7
 10
-326.509373493165
 20
368.4036671378432
 30
0.0
  0
VERTEX
  5
523
  8
0
  6
CONTINUOUS
 62
     7
 10
-326.5052823362031
 20
368.4275998547668
 30
0.0
  0
VERTEX
  5
524
  8
0
  6
CONTINUOUS
 62
     7
 10
-326.5023520366671
 20
368.4516901793019
 30
0.0
  0
VERTEX
  5
525
  8
0
  6
CONTINUOUS
 62
     7
 10
-326.5005890920887
 20
368.4758521986469
 30
0.0
  0
VERTEX
  5
526
  8
0
  6
CONTINUOUS
 62
     7
 10
-326.4999999999999
 20
368.5
 30
0.0
  0
SEQEND
  5
5A7
  8
0
  6
CONTINUOUS
 62
     7
  0
POLYLINE
  5
17F
  8
0
  6
CONTINUOUS
 62
     7
 66
     1
 10
0.0
 20
0.0
 30
0.0
  0
VERTEX
  5
527
  8
0
  6
CONTINUOUS
 62
     7
 10
-325.4999999999999
 20
368.5
 30
0.0
  0
VERTEX
  5
528
  8
0
  6
CONTINUOUS
 62
     7
 10
-325.4994294863433
 20
368.4763695906487
 30
0.0
  0
VERTEX
  5
529
  8
0
  6
CONTINUOUS
 62
     7
 10
-325.4977245852567
 20
368.4526984005574
 30
0.0
  0
VERTEX
  5
52A
  8
0
  6
CONTINUOUS
 62
     7
 10
-325.4948952565647
 20
368.4290672604665
 30
0.0
  0
VERTEX
  5
52B
  8
0
  6
CONTINUOUS
 62
     7
 10
-325.4909514600925
 20
368.4055570011161
 30
0.0
  0
VERTEX
  5
52C
  8
0
  6
CONTINUOUS
 62
     7
 10
-325.4859031556647
 20
368.3822484532467
 30
0.0
  0
VERTEX
  5
52D
  8
0
  6
CONTINUOUS
 62
     7
 10
-325.4797603031062
 20
368.3592224475986
 30
0.0
  0
VERTEX
  5
52E
  8
0
  6
CONTINUOUS
 62
     7
 10
-325.4725328622417
 20
368.3365598149121
 30
0.0
  0
VERTEX
  5
52F
  8
0
  6
CONTINUOUS
 62
     7
 10
-325.4641984790399
 20
368.3142391934476
 30
0.0
  0
VERTEX
  5
530
  8
0
  6
CONTINUOUS
 62
     7
 10
-325.4547632682936
 20
368.2922620760088
 30
0.0
  0
VERTEX
  5
531
  8
0
  6
CONTINUOUS
 62
     7
 10
-325.444266237756
 20
368.2707040953716
 30
0.0
  0
VERTEX
  5
532
  8
0
  6
CONTINUOUS
 62
     7
 10
-325.4327463951796
 20
368.249640884312
 30
0.0
  0
VERTEX
  5
533
  8
0
  6
CONTINUOUS
 62
     7
 10
-325.4202427483174
 20
368.2291480756061
 30
0.0
  0
VERTEX
  5
534
  8
0
  6
CONTINUOUS
 62
     7
 10
-325.406794304922
 20
368.2093013020296
 30
0.0
  0
VERTEX
  5
535
  8
0
  6
CONTINUOUS
 62
     7
 10
-325.3924400727464
 20
368.1901761963585
 30
0.0
  0
VERTEX
  5
536
  8
0
  6
CONTINUOUS
 62
     7
 10
-325.3773666579925
 20
368.1720028786759
 30
0.0
  0
VERTEX
  5
537
  8
0
  6
CONTINUOUS
 62
     7
 10
-325.361394783543
 20
368.1545154397983
 30
0.0
  0
VERTEX
  5
538
  8
0
  6
CONTINUOUS
 62
     7
 10
-325.3445860746072
 20
368.1377692893956
 30
0.0
  0
VERTEX
  5
539
  8
0
  6
CONTINUOUS
 62
     7
 10
-325.3270021563939
 20
368.1218198371371
 30
0.0
  0
VERTEX
  5
53A
  8
0
  6
CONTINUOUS
 62
     7
 10
-325.3087046541125
 20
368.1067224926926
 30
0.0
  0
VERTEX
  5
53B
  8
0
  6
CONTINUOUS
 62
     7
 10
-325.2897551929723
 20
368.0925326657315
 30
0.0
  0
VERTEX
  5
53C
  8
0
  6
CONTINUOUS
 62
     7
 10
-325.2702153981821
 20
368.0793057659234
 30
0.0
  0
VERTEX
  5
53D
  8
0
  6
CONTINUOUS
 62
     7
 10
-325.2501907556966
 20
368.0671108235604
 30
0.0
  0
VERTEX
  5
53E
  8
0
  6
CONTINUOUS
 62
     7
 10
-325.2295653985154
 20
368.0558518703544
 30
0.0
  0
VERTEX
  5
53F
  8
0
  6
CONTINUOUS
 62
     7
 10
-325.2084134456812
 20
368.0455581082581
 30
0.0
  0
VERTEX
  5
540
  8
0
  6
CONTINUOUS
 62
     7
 10
-325.1868090162366
 20
368.0362587392241
 30
0.0
  0
VERTEX
  5
541
  8
0
  6
CONTINUOUS
 62
     7
 10
-325.1648262292244
 20
368.0279829652048
 30
0.0
  0
VERTEX
  5
542
  8
0
  6
CONTINUOUS
 62
     7
 10
-325.142539203687
 20
368.0207599881528
 30
0.0
  0
VERTEX
  5
543
  8
0
  6
CONTINUOUS
 62
     7
 10
-325.1200220586671
 20
368.0146190100206
 30
0.0
  0
VERTEX
  5
544
  8
0
  6
CONTINUOUS
 62
     7
 10
-325.0963328621567
 20
368.009373493165
 30
0.0
  0
VERTEX
  5
545
  8
0
  6
CONTINUOUS
 62
     7
 10
-325.0724001452331
 20
368.0052823362032
 30
0.0
  0
VERTEX
  5
546
  8
0
  6
CONTINUOUS
 62
     7
 10
-325.048309820698
 20
368.0023520366671
 30
0.0
  0
VERTEX
  5
547
  8
0
  6
CONTINUOUS
 62
     7
 10
-325.0241478013531
 20
368.0005890920888
 30
0.0
  0
VERTEX
  5
548
  8
0
  6
CONTINUOUS
 62
     7
 10
-324.9999999999999
 20
368.0
 30
0.0
  0
SEQEND
  5
5A8
  8
0
  6
CONTINUOUS
 62
     7
  0
LINE
  5
180
  8
0
  6
CONTINUOUS
 62
     7
 10
-325.4999999999999
 20
369.6424285285628
 30
0.0
 11
-325.4999999999999
 21
368.5
 31
0.0
  0
ARC
  5
181
  8
0
  6
CONTINUOUS
 62
     7
 10
-325.9999999999999
 20
367.5
 30
0.0
 40
3.3775158710637
 50
351.4867690477392
 51
8.513230952260699
  0
ARC
  5
182
  8
0
  6
CONTINUOUS
 62
     7
 10
-325.9999999999999
 20
367.5
 30
0.0
 40
3.3775158710637
 50
171.4867690477392
 51
188.5132309522607
  0
CIRCLE
  5
183
  8
0
  6
CONTINUOUS
 62
     7
 10
-296.0
 20
273.25
 30
0.0
 40
1.649999999999999
  0
CIRCLE
  5
184
  8
0
  6
CONTINUOUS
 62
     7
 10
-250.0
 20
273.25
 30
0.0
 40
1.65
  0
CIRCLE
  5
185
  8
0
  6
CONTINUOUS
 62
     7
 10
-204.0
 20
273.25
 30
0.0
 40
1.649999999999999
  0
CIRCLE
  5
186
  8
0
  6
CONTINUOUS
 62
     7
 10
-204.0
 20
356.75
 30
0.0
 40
1.649999999999999
  0
CIRCLE
  5
187
  8
0
  6
CONTINUOUS
 62
     7
 10
-250.0
 20
356.75
 30
0.0
 40
1.65
  0
CIRCLE
  5
188
  8
0
  6
CONTINUOUS
 62
     7
 10
-296.0
 20
356.75
 30
0.0
 40
1.649999999999999
  0
CIRCLE
  5
189
  8
0
  6
CONTINUOUS
 62
     7
 10
-204.0
 20
356.75
 30
0.0
 40
2.099999999999998
  0
CIRCLE
  5
18A
  8
0
  6
CONTINUOUS
 62
     7
 10
-204.0
 20
356.75
 30
0.0
 40
3.999999999999996
  0
CIRCLE
  5
18B
  8
0
  6
CONTINUOUS
 62
     7
 10
-296.0
 20
356.75
 30
0.0
 40
2.099999999999998
  0
CIRCLE
  5
18C
  8
0
  6
CONTINUOUS
 62
     7
 10
-296.0
 20
356.75
 30
0.0
 40
3.999999999999996
  0
CIRCLE
  5
18D
  8
0
  6
CONTINUOUS
 62
     7
 10
-250.0
 20
356.75
 30
0.0
 40
4.000000000000004
  0
CIRCLE
  5
18E
  8
0
  6
CONTINUOUS
 62
     7
 10
-250.0
 20
356.75
 30
0.0
 40
2.1
  0
CIRCLE
  5
18F
  8
0
  6
CONTINUOUS
 62
     7
 10
-204.0
 20
273.25
 30
0.0
 40
3.999999999999996
  0
CIRCLE
  5
190
  8
0
  6
CONTINUOUS
 62
     7
 10
-250.0
 20
273.25
 30
0.0
 40
4.000000000000004
  0
CIRCLE
  5
191
  8
0
  6
CONTINUOUS
 62
     7
 10
-296.0
 20
273.25
 30
0.0
 40
3.999999999999996
  0
ARC
  5
192
  8
0
  6
CONTINUOUS
 62
     7
 10
-250.0
 20
356.75
 30
0.0
 40
5.500000000000003
 50
180.0
 51
252.6585571972407
  0
LINE
  5
193
  8
0
  6
CONTINUOUS
 62
     7
 10
-255.5
 20
356.75
 30
0.0
 11
-255.5
 21
359.5
 31
0.0
  0
LINE
  5
194
  8
0
  6
CONTINUOUS
 62
     7
 10
-257.0
 20
361.0
 30
0.0
 11
-289.0000000000001
 21
361.0
 31
0.0
  0
ARC
  5
195
  8
0
  6
CONTINUOUS
 62
     7
 10
-289.0
 20
359.5
 30
0.0
 40
1.500000000000001
 50
90.0
 51
180.0
  0
LINE
  5
196
  8
0
  6
CONTINUOUS
 62
     7
 10
-290.5
 20
359.5
 30
0.0
 11
-290.5
 21
356.75
 31
0.0
  0
ARC
  5
197
  8
0
  6
CONTINUOUS
 62
     7
 10
-296.0
 20
356.75
 30
0.0
 40
5.499999999999998
 50
287.3414428027593
 51
0.0
  0
LINE
  5
198
  8
0
  6
CONTINUOUS
 62
     7
 10
-294.3606403689245
 20
351.5
 30
0.0
 11
-297.6393596310755
 21
351.5
 31
0.0
  0
ARC
  5
199
  8
0
  6
CONTINUOUS
 62
     7
 10
-296.0
 20
356.75
 30
0.0
 40
5.5
 50
180.0
 51
252.6585571972406
  0
LINE
  5
19A
  8
0
  6
CONTINUOUS
 62
     7
 10
-301.5
 20
356.75
 30
0.0
 11
-301.5
 21
359.5
 31
0.0
  0
LINE
  5
19B
  8
0
  6
CONTINUOUS
 62
     7
 10
-303.0
 20
361.0
 30
0.0
 11
-317.5
 21
361.0
 31
0.0
  0
ARC
  5
19C
  8
0
  6
CONTINUOUS
 62
     7
 10
-317.5
 20
359.5
 30
0.0
 40
1.500000000000001
 50
90.0
 51
180.0
  0
LINE
  5
19D
  8
0
  6
CONTINUOUS
 62
     7
 10
-319.0
 20
359.5
 30
0.0
 11
-319.0
 21
352.0
 31
0.0
  0
ARC
  5
19E
  8
0
  6
CONTINUOUS
 62
     7
 10
-319.5
 20
352.0
 30
0.0
 40
0.5000000000000004
 50
270.0
 51
0.0
  0
LINE
  5
19F
  8
0
  6
CONTINUOUS
 62
     7
 10
-319.5
 20
351.5
 30
0.0
 11
-319.5
 21
278.5
 31
0.0
  0
ARC
  5
1A0
  8
0
  6
CONTINUOUS
 62
     7
 10
-319.5
 20
278.0
 30
0.0
 40
0.5000000000000004
 50
0.0
 51
90.0
  0
LINE
  5
1A1
  8
0
  6
CONTINUOUS
 62
     7
 10
-319.0
 20
270.5
 30
0.0
 11
-319.0
 21
278.0
 31
0.0
  0
ARC
  5
1A2
  8
0
  6
CONTINUOUS
 62
     7
 10
-317.5
 20
270.5
 30
0.0
 40
1.500000000000001
 50
180.0
 51
270.0
  0
LINE
  5
1A3
  8
0
  6
CONTINUOUS
 62
     7
 10
-303.0
 20
269.0
 30
0.0
 11
-317.5
 21
269.0
 31
0.0
  0
LINE
  5
1A4
  8
0
  6
CONTINUOUS
 62
     7
 10
-301.5
 20
273.25
 30
0.0
 11
-301.5
 21
270.5
 31
0.0
  0
ARC
  5
1A5
  8
0
  6
CONTINUOUS
 62
     7
 10
-296.0
 20
273.25
 30
0.0
 40
5.5
 50
107.3414428027594
 51
180.0
  0
LINE
  5
1A6
  8
0
  6
CONTINUOUS
 62
     7
 10
-294.3606403689245
 20
278.4999999999999
 30
0.0
 11
-297.6393596310755
 21
278.4999999999999
 31
0.0
  0
ARC
  5
1A7
  8
0
  6
CONTINUOUS
 62
     7
 10
-296.0
 20
273.25
 30
0.0
 40
5.499999999999998
 50
0.0
 51
72.65855719724063
  0
LINE
  5
1A8
  8
0
  6
CONTINUOUS
 62
     7
 10
-290.5
 20
270.5
 30
0.0
 11
-290.5
 21
273.25
 31
0.0
  0
LINE
  5
1A9
  8
0
  6
CONTINUOUS
 62
     7
 10
-257.0
 20
269.0
 30
0.0
 11
-289.0000000000001
 21
269.0
 31
0.0
  0
LINE
  5
1AA
  8
0
  6
CONTINUOUS
 62
     7
 10
-255.5
 20
273.25
 30
0.0
 11
-255.5
 21
270.5
 31
0.0
  0
ARC
  5
1AB
  8
0
  6
CONTINUOUS
 62
     7
 10
-250.0
 20
273.25
 30
0.0
 40
5.500000000000003
 50
107.3414428027592
 51
180.0
  0
LINE
  5
1AC
  8
0
  6
CONTINUOUS
 62
     7
 10
-248.3606403689245
 20
278.5
 30
0.0
 11
-251.6393596310754
 21
278.5
 31
0.0
  0
ARC
  5
1AD
  8
0
  6
CONTINUOUS
 62
     7
 10
-243.0
 20
270.5
 30
0.0
 40
1.500000000000001
 50
180.0
 51
270.0
  0
ARC
  5
1AE
  8
0
  6
CONTINUOUS
 62
     7
 10
-211.0
 20
270.5
 30
0.0
 40
1.500000000000001
 50
270.0
 51
0.0
  0
ARC
  5
1AF
  8
0
  6
CONTINUOUS
 62
     7
 10
-197.0
 20
270.5
 30
0.0
 40
1.500000000000001
 50
180.0
 51
270.0
  0
LINE
  5
1B0
  8
0
  6
CONTINUOUS
 62
     7
 10
-180.5
 20
351.5
 30
0.0
 11
-180.5
 21
278.5
 31
0.0
  0
ARC
  5
1B1
  8
0
  6
CONTINUOUS
 62
     7
 10
-180.5
 20
352.0
 30
0.0
 40
0.5000000000000004
 50
180.0
 51
270.0
  0
LINE
  5
1B2
  8
0
  6
CONTINUOUS
 62
     7
 10
-181.0
 20
359.5
 30
0.0
 11
-181.0
 21
352.0
 31
0.0
  0
ARC
  5
1B3
  8
0
  6
CONTINUOUS
 62
     7
 10
-182.5
 20
359.5
 30
0.0
 40
1.500000000000001
 50
0.0
 51
90.0
  0
ARC
  5
1B4
  8
0
  6
CONTINUOUS
 62
     7
 10
-197.0
 20
359.5
 30
0.0
 40
1.500000000000001
 50
90.0
 51
180.0
  0
LINE
  5
1B5
  8
0
  6
CONTINUOUS
 62
     7
 10
-198.5
 20
356.75
 30
0.0
 11
-198.5
 21
359.5
 31
0.0
  0
ARC
  5
1B6
  8
0
  6
CONTINUOUS
 62
     7
 10
-204.0
 20
356.75
 30
0.0
 40
5.5
 50
287.3414428027593
 51
0.0
  0
LINE
  5
1B7
  8
0
  6
CONTINUOUS
 62
     7
 10
-205.6393596310755
 20
351.5
 30
0.0
 11
-202.3606403689245
 21
351.5
 31
0.0
  0
ARC
  5
1B8
  8
0
  6
CONTINUOUS
 62
     7
 10
-204.0
 20
356.75
 30
0.0
 40
5.499999999999998
 50
180.0
 51
252.6585571972406
  0
LINE
  5
1B9
  8
0
  6
CONTINUOUS
 62
     7
 10
-209.5
 20
359.5
 30
0.0
 11
-209.5
 21
356.75
 31
0.0
  0
ARC
  5
1BA
  8
0
  6
CONTINUOUS
 62
     7
 10
-211.0
 20
359.5
 30
0.0
 40
1.500000000000001
 50
0.0
 51
90.0
  0
LINE
  5
1BB
  8
0
  6
CONTINUOUS
 62
     7
 10
-243.0
 20
361.0
 30
0.0
 11
-211.0
 21
361.0
 31
0.0
  0
ARC
  5
1BC
  8
0
  6
CONTINUOUS
 62
     7
 10
-243.0
 20
359.5
 30
0.0
 40
1.500000000000001
 50
90.0
 51
180.0
  0
LINE
  5
1BD
  8
0
  6
CONTINUOUS
 62
     7
 10
-244.5
 20
356.75
 30
0.0
 11
-244.5
 21
359.5
 31
0.0
  0
LINE
  5
1BE
  8
0
  6
CONTINUOUS
 62
     7
 10
-248.3606403689245
 20
351.5
 30
0.0
 11
-251.6393596310754
 21
351.5
 31
0.0
  0
LINE
  5
1BF
  8
0
  6
CONTINUOUS
 62
     7
 10
-318.0
 20
364.0
 30
0.0
 11
-182.0
 21
364.0
 31
0.0
  0
LINE
  5
1C0
  8
0
  6
CONTINUOUS
 62
     7
 10
-177.5
 20
270.5
 30
0.0
 11
-177.5
 21
359.5000000000001
 31
0.0
  0
ARC
  5
1C1
  8
0
  6
CONTINUOUS
 62
     7
 10
-182.0
 20
270.5
 30
0.0
 40
4.500000000000004
 50
270.0
 51
0.0
  0
LINE
  5
1C2
  8
0
  6
CONTINUOUS
 62
     7
 10
-318.0
 20
266.0
 30
0.0
 11
-182.0
 21
266.0
 31
0.0
  0
LINE
  5
1C3
  8
0
  6
CONTINUOUS
 62
     7
 10
-322.5
 20
270.5
 30
0.0
 11
-322.5
 21
359.5000000000001
 31
0.0
  0
ARC
  5
1C4
  8
0
  6
CONTINUOUS
 62
     7
 10
-257.0
 20
359.5
 30
0.0
 40
1.500000000000001
 50
0.0
 51
90.0
  0
ARC
  5
1C5
  8
0
  6
CONTINUOUS
 62
     7
 10
-303.0
 20
359.5
 30
0.0
 40
1.500000000000001
 50
0.0
 51
90.0
  0
ARC
  5
1C6
  8
0
  6
CONTINUOUS
 62
     7
 10
-204.0
 20
273.25
 30
0.0
 40
5.5
 50
0.0
 51
72.65855719724061
  0
LINE
  5
1C7
  8
0
  6
CONTINUOUS
 62
     7
 10
-205.6393596310755
 20
278.4999999999999
 30
0.0
 11
-202.3606403689245
 21
278.4999999999999
 31
0.0
  0
ARC
  5
1C8
  8
0
  6
CONTINUOUS
 62
     7
 10
-204.0
 20
273.25
 30
0.0
 40
5.499999999999998
 50
107.3414428027594
 51
180.0
  0
LINE
  5
1C9
  8
0
  6
CONTINUOUS
 62
     7
 10
-209.5
 20
270.5
 30
0.0
 11
-209.5
 21
273.25
 31
0.0
  0
LINE
  5
1CA
  8
0
  6
CONTINUOUS
 62
     7
 10
-244.5
 20
273.25
 30
0.0
 11
-244.5
 21
270.5
 31
0.0
  0
ARC
  5
1CB
  8
0
  6
CONTINUOUS
 62
     7
 10
-250.0
 20
273.25
 30
0.0
 40
5.500000000000003
 50
0.0
 51
72.65855719724078
  0
ARC
  5
1CC
  8
0
  6
CONTINUOUS
 62
     7
 10
-182.0
 20
359.5
 30
0.0
 40
4.500000000000004
 50
0.0
 51
90.0
  0
ARC
  5
1CD
  8
0
  6
CONTINUOUS
 62
     7
 10
-180.5
 20
278.0
 30
0.0
 40
0.5000000000000004
 50
90.0
 51
180.0
  0
LINE
  5
1CE
  8
0
  6
CONTINUOUS
 62
     7
 10
-181.0
 20
270.5
 30
0.0
 11
-181.0
 21
278.0
 31
0.0
  0
ARC
  5
1CF
  8
0
  6
CONTINUOUS
 62
     7
 10
-182.5
 20
270.5
 30
0.0
 40
1.500000000000001
 50
270.0
 51
0.0
  0
LINE
  5
1D0
  8
0
  6
CONTINUOUS
 62
     7
 10
-197.0
 20
269.0
 30
0.0
 11
-182.5
 21
269.0
 31
0.0
  0
ARC
  5
1D1
  8
0
  6
CONTINUOUS
 62
     7
 10
-250.0
 20
356.75
 30
0.0
 40
5.500000000000003
 50
287.3414428027592
 51
0.0
  0
LINE
  5
1D2
  8
0
  6
CONTINUOUS
 62
     7
 10
-243.0
 20
269.0
 30
0.0
 11
-211.0
 21
269.0
 31
0.0
  0
ARC
  5
1D3
  8
0
  6
CONTINUOUS
 62
     7
 10
-318.0
 20
270.5
 30
0.0
 40
4.500000000000004
 50
180.0
 51
270.0
  0
ARC
  5
1D4
  8
0
  6
CONTINUOUS
 62
     7
 10
-257.0
 20
270.5
 30
0.0
 40
1.500000000000001
 50
270.0
 51
0.0
  0
ARC
  5
1D5
  8
0
  6
CONTINUOUS
 62
     7
 10
-289.0
 20
270.5
 30
0.0
 40
1.500000000000001
 50
180.0
 51
270.0
  0
ARC
  5
1D6
  8
0
  6
CONTINUOUS
 62
     7
 10
-303.0
 20
270.5
 30
0.0
 40
1.500000000000001
 50
270.0
 51
0.0
  0
LINE
  5
1D7
  8
0
  6
CONTINUOUS
 62
     7
 10
-197.0
 20
361.0
 30
0.0
 11
-182.5
 21
361.0
 31
0.0
  0
ARC
  5
1D8
  8
0
  6
CONTINUOUS
 62
     7
 10
-318.0
 20
359.5
 30
0.0
 40
4.500000000000004
 50
90.0
 51
180.0
  0
LINE
  5
1D9
  8
0
  6
CONTINUOUS
 62
     7
 10
-198.5
 20
273.25
 30
0.0
 11
-198.5
 21
270.5
 31
0.0
  0
CIRCLE
  5
1DA
  8
0
  6
CONTINUOUS
 62
     7
 10
-204.0
 20
273.25
 30
0.0
 40
2.099999999999998
  0
CIRCLE
  5
1DB
  8
0
  6
CONTINUOUS
 62
     7
 10
-250.0
 20
273.25
 30
0.0
 40
2.1
  0
CIRCLE
  5
1DC
  8
0
  6
CONTINUOUS
 62
     7
 10
-296.0
 20
273.25
 30
0.0
 40
2.099999999999998
  0
LINE
  5
1DD
  8
0
  6
CONTINUOUS
 62
     7
 10
-249.0
 20
256.5
 30
0.0
 11
-251.0
 21
256.5
 31
0.0
  0
LINE
  5
1DE
  8
0
  6
CONTINUOUS
 62
     7
 10
-249.0
 20
256.5
 30
0.0
 11
-250.0
 21
254.5
 31
0.0
  0
LINE
  5
1DF
  8
0
  6
CONTINUOUS
 62
     7
 10
-251.0
 20
256.5
 30
0.0
 11
-250.0
 21
254.5
 31
0.0
  0
LINE
  5
1E0
  8
0
  6
CONTINUOUS
 62
     7
 10
-249.0
 20
373.5
 30
0.0
 11
-251.0
 21
373.5
 31
0.0
  0
LINE
  5
1E1
  8
0
  6
CONTINUOUS
 62
     7
 10
-251.0
 20
373.5
 30
0.0
 11
-250.0
 21
375.5
 31
0.0
  0
LINE
  5
1E2
  8
0
  6
CONTINUOUS
 62
     7
 10
-249.0
 20
373.5
 30
0.0
 11
-250.0
 21
375.5
 31
0.0
  0
LINE
  5
1E3
  8
0
  6
CONTINUOUS
 62
     7
 10
-159.0
 20
315.0
 30
0.0
 11
-161.0
 21
314.0
 31
0.0
  0
LINE
  5
1E4
  8
0
  6
CONTINUOUS
 62
     7
 10
-159.0
 20
315.0
 30
0.0
 11
-161.0
 21
316.0
 31
0.0
  0
LINE
  5
1E5
  8
0
  6
CONTINUOUS
 62
     7
 10
-161.0
 20
316.0
 30
0.0
 11
-161.0
 21
314.0
 31
0.0
  0
LINE
  5
1E6
  8
0
  6
CONTINUOUS
 62
     7
 10
-338.9999999999999
 20
316.0
 30
0.0
 11
-338.9999999999999
 21
314.0
 31
0.0
  0
LINE
  5
1E7
  8
0
  6
CONTINUOUS
 62
     7
 10
-340.9999999999999
 20
315.0
 30
0.0
 11
-338.9999999999999
 21
316.0
 31
0.0
  0
LINE
  5
1E8
  8
0
  6
CONTINUOUS
 62
     7
 10
-340.9999999999999
 20
315.0
 30
0.0
 11
-338.9999999999999
 21
314.0
 31
0.0
  0
ARC
  5
1E9
  8
0
  6
CONTINUOUS
 62
     7
 10
-328.7375437010667
 20
265.8805849323378
 30
0.0
 40
2.399999999999995
 50
38.99999999999873
 51
219.0000000000014
  0
LINE
  5
1EA
  8
0
  6
CONTINUOUS
 62
     7
 10
-321.3973059914364
 20
260.6297840061818
 30
0.0
 11
-322.5316258892566
 21
262.0305524226011
 31
0.0
  0
LINE
  5
1EB
  8
0
  6
CONTINUOUS
 62
     7
 10
-325.7380734957498
 20
265.9901854544381
 30
0.0
 11
-326.87239339357
 21
267.3909538708573
 31
0.0
  0
ARC
  5
1EC
  8
0
  6
CONTINUOUS
 62
     7
 10
-171.2624562989333
 20
364.1194150676622
 30
0.0
 40
2.399999999999995
 50
218.9999999999987
 51
39.00000000000136
  0
LINE
  5
1ED
  8
0
  6
CONTINUOUS
 62
     7
 10
-169.3973059914365
 20
365.6297840061819
 30
0.0
 11
-170.5316258892567
 21
367.0305524226011
 31
0.0
  0
LINE
  5
1EE
  8
0
  6
CONTINUOUS
 62
     7
 10
-173.7380734957498
 20
370.9901854544381
 30
0.0
 11
-174.8723933935701
 21
372.3909538708575
 31
0.0
  0
ARC
  5
1EF
  8
0
  6
CONTINUOUS
 62
     7
 10
-176.7375437010668
 20
370.8805849323378
 30
0.0
 40
2.399999999999999
 50
39.00000000000137
 51
218.9999999999989
  0
LINE
  5
1F0
  8
0
  6
CONTINUOUS
 62
     7
 10
-330.6026940085634
 20
365.6297840061819
 30
0.0
 11
-329.4683741107432
 21
367.0305524226011
 31
0.0
  0
LINE
  5
1F1
  8
0
  6
CONTINUOUS
 62
     7
 10
-326.2619265042502
 20
370.9901854544381
 30
0.0
 11
-325.1276066064299
 21
372.3909538708575
 31
0.0
  0
ARC
  5
1F2
  8
0
  6
CONTINUOUS
 62
     7
 10
-328.7375437010667
 20
364.1194150676622
 30
0.0
 40
2.399999999999995
 50
140.9999999999986
 51
321.0000000000013
  0
LINE
  5
1F3
  8
0
  6
CONTINUOUS
 62
     7
 10
-321.3973059914364
 20
369.3702159938182
 30
0.0
 11
-322.5316258892566
 21
367.9694475773989
 31
0.0
  0
LINE
  5
1F4
  8
0
  6
CONTINUOUS
 62
     7
 10
-325.7380734957498
 20
364.0098145455619
 30
0.0
 11
-326.87239339357
 21
362.6090461291426
 31
0.0
  0
LINE
  5
1F5
  8
0
  6
CONTINUOUS
 62
     7
 10
-341.9999999999999
 20
315.5
 30
0.0
 11
-341.4999999999999
 21
315.5
 31
0.0
  0
LINE
  5
1F6
  8
0
  6
CONTINUOUS
 62
     7
 10
-341.9999999999999
 20
315.5
 30
0.0
 11
-341.9999999999999
 21
375.0
 31
0.0
  0
ARC
  5
1F7
  8
0
  6
CONTINUOUS
 62
     7
 10
-340.5
 20
375.0
 30
0.0
 40
1.500000000000001
 50
90.0
 51
180.0
  0
LINE
  5
1F8
  8
0
  6
CONTINUOUS
 62
     7
 10
-340.5
 20
376.5
 30
0.0
 11
-250.5000000000001
 21
376.5
 31
0.0
  0
LINE
  5
1F9
  8
0
  6
CONTINUOUS
 62
     7
 10
-250.5
 20
376.0
 30
0.0
 11
-250.5
 21
376.5
 31
0.0
  0
LINE
  5
1FA
  8
0
  6
CONTINUOUS
 62
     7
 10
-249.5
 20
376.0
 30
0.0
 11
-249.5
 21
376.5
 31
0.0
  0
LINE
  5
1FB
  8
0
  6
CONTINUOUS
 62
     7
 10
-158.0
 20
315.5
 30
0.0
 11
-158.0
 21
375.0
 31
0.0
  0
LINE
  5
1FC
  8
0
  6
CONTINUOUS
 62
     7
 10
-158.0
 20
314.5
 30
0.0
 11
-158.5
 21
314.5
 31
0.0
  0
ARC
  5
1FD
  8
0
  6
CONTINUOUS
 62
     7
 10
-159.5
 20
255.0
 30
0.0
 40
1.500000000000001
 50
270.0
 51
0.0
  0
LINE
  5
1FE
  8
0
  6
CONTINUOUS
 62
     7
 10
-159.5
 20
253.5
 30
0.0
 11
-249.5
 21
253.5
 31
0.0
  0
LINE
  5
1FF
  8
0
  6
CONTINUOUS
 62
     7
 10
-249.5
 20
254.0
 30
0.0
 11
-249.5
 21
253.5
 31
0.0
  0
LINE
  5
200
  8
0
  6
CONTINUOUS
 62
     7
 10
-250.5
 20
254.0
 30
0.0
 11
-250.5
 21
253.5
 31
0.0
  0
LINE
  5
201
  8
0
  6
CONTINUOUS
 62
     7
 10
-340.5
 20
253.5
 30
0.0
 11
-250.5000000000001
 21
253.5
 31
0.0
  0
ARC
  5
202
  8
0
  6
CONTINUOUS
 62
     7
 10
-340.5
 20
255.0
 30
0.0
 40
1.500000000000001
 50
180.0
 51
270.0
  0
LINE
  5
203
  8
0
  6
CONTINUOUS
 62
     7
 10
-341.9999999999999
 20
314.5
 30
0.0
 11
-341.4999999999999
 21
314.5
 31
0.0
  0
LINE
  5
204
  8
0
  6
CONTINUOUS
 62
     7
 10
-158.0
 20
314.5
 30
0.0
 11
-158.0
 21
255.0
 31
0.0
  0
LINE
  5
205
  8
0
  6
CONTINUOUS
 62
     7
 10
-330.6026940085634
 20
264.3702159938181
 30
0.0
 11
-329.4683741107432
 21
262.9694475773989
 31
0.0
  0
LINE
  5
206
  8
0
  6
CONTINUOUS
 62
     7
 10
-326.2619265042502
 20
259.0098145455619
 30
0.0
 11
-325.1276066064299
 21
257.6090461291425
 31
0.0
  0
LINE
  5
207
  8
0
  6
CONTINUOUS
 62
     7
 10
-159.5
 20
376.5
 30
0.0
 11
-249.5
 21
376.5
 31
0.0
  0
ARC
  5
208
  8
0
  6
CONTINUOUS
 62
     7
 10
-323.2624562989331
 20
259.1194150676621
 30
0.0
 40
2.399999999999999
 50
219.0000000000014
 51
38.99999999999887
  0
LINE
  5
209
  8
0
  6
CONTINUOUS
 62
     7
 10
-169.3973059914365
 20
264.3702159938181
 30
0.0
 11
-170.5316258892567
 21
262.9694475773989
 31
0.0
  0
LINE
  5
20A
  8
0
  6
CONTINUOUS
 62
     7
 10
-173.7380734957498
 20
259.0098145455619
 30
0.0
 11
-174.8723933935701
 21
257.6090461291425
 31
0.0
  0
ARC
  5
20B
  8
0
  6
CONTINUOUS
 62
     7
 10
-159.5
 20
375.0
 30
0.0
 40
1.500000000000001
 50
0.0
 51
90.0
  0
LINE
  5
20C
  8
0
  6
CONTINUOUS
 62
     7
 10
-341.9999999999999
 20
314.5
 30
0.0
 11
-341.9999999999999
 21
255.0
 31
0.0
  0
ARC
  5
20D
  8
0
  6
CONTINUOUS
 62
     7
 10
-171.2624562989333
 20
265.8805849323378
 30
0.0
 40
2.399999999999995
 50
320.9999999999986
 51
141.0000000000013
  0
LINE
  5
20E
  8
0
  6
CONTINUOUS
 62
     7
 10
-158.0
 20
315.5
 30
0.0
 11
-158.5
 21
315.5
 31
0.0
  0
LINE
  5
20F
  8
0
  6
CONTINUOUS
 62
     7
 10
-178.6026940085636
 20
260.6297840061818
 30
0.0
 11
-177.4683741107433
 21
262.0305524226011
 31
0.0
  0
LINE
  5
210
  8
0
  6
CONTINUOUS
 62
     7
 10
-174.2619265042502
 20
265.9901854544381
 30
0.0
 11
-173.12760660643
 21
267.3909538708573
 31
0.0
  0
LINE
  5
211
  8
0
  6
CONTINUOUS
 62
     7
 10
-178.6026940085636
 20
369.3702159938182
 30
0.0
 11
-177.4683741107433
 21
367.9694475773989
 31
0.0
  0
LINE
  5
212
  8
0
  6
CONTINUOUS
 62
     7
 10
-174.2619265042502
 20
364.0098145455619
 30
0.0
 11
-173.12760660643
 21
362.6090461291426
 31
0.0
  0
ARC
  5
213
  8
0
  6
CONTINUOUS
 62
     7
 10
-323.2624562989331
 20
370.8805849323378
 30
0.0
 40
2.399999999999999
 50
321.0000000000011
 51
140.9999999999986
  0
ARC
  5
214
  8
0
  6
CONTINUOUS
 62
     7
 10
-176.7375437010668
 20
259.1194150676621
 30
0.0
 40
2.399999999999999
 50
141.0000000000011
 51
320.9999999999986
  0
CIRCLE
  5
215
  8
0
  6
CONTINUOUS
 62
     7
 10
-250.0
 20
315.0
 30
0.0
 40
4.762499999999999
  0
LINE
  5
216
  8
0
  6
CONTINUOUS
 62
     7
 10
-250.5
 20
254.0
 30
0.0
 11
-249.5
 21
254.0
 31
0.0
  0
LINE
  5
217
  8
0
  6
CONTINUOUS
 62
     7
 10
-249.5
 20
376.0
 30
0.0
 11
-250.5
 21
376.0
 31
0.0
  0
LINE
  5
218
  8
0
  6
CONTINUOUS
 62
     7
 10
-177.5
 20
376.5
 30
0.0
 11
-177.5
 21
377.7931504565651
 31
0.0
  0
POLYLINE
  5
219
  8
0
  6
CONTINUOUS
 62
     7
 66
     1
 10
0.0
 20
0.0
 30
0.0
  0
VERTEX
  5
549
  8
0
  6
CONTINUOUS
 62
     7
 10
-177.2999999999999
 20
377.9923893961835
 30
0.0
  0
VERTEX
  5
54A
  8
0
  6
CONTINUOUS
 62
     7
 10
-177.3390180644031
 20
377.988561075826
 30
0.0
  0
VERTEX
  5
54B
  8
0
  6
CONTINUOUS
 62
     7
 10
-177.3765366864729
 20
377.9772232349578
 30
0.0
  0
VERTEX
  5
54C
  8
0
  6
CONTINUOUS
 62
     7
 10
-177.4111140466038
 20
377.9588115804452
 30
0.0
  0
VERTEX
  5
54D
  8
0
  6
CONTINUOUS
 62
     7
 10
-177.4414213562373
 20
377.9340336618457
 30
0.0
  0
VERTEX
  5
54E
  8
0
  6
CONTINUOUS
 62
     7
 10
-177.4662939224605
 20
377.9038416806755
 30
0.0
  0
VERTEX
  5
54F
  8
0
  6
CONTINUOUS
 62
     7
 10
-177.4847759065023
 20
377.8693958978391
 30
0.0
  0
VERTEX
  5
550
  8
0
  6
CONTINUOUS
 62
     7
 10
-177.4961570560806
 20
377.8320200454534
 30
0.0
  0
VERTEX
  5
551
  8
0
  6
CONTINUOUS
 62
     7
 10
-177.5
 20
377.7931504565651
 30
0.0
  0
SEQEND
  5
5A9
  8
0
  6
CONTINUOUS
 62
     7
  0
LINE
  5
21A
  8
0
  6
CONTINUOUS
 62
     7
 10
-177.5
 20
252.2068495434349
 30
0.0
 11
-177.5
 21
253.5
 31
0.0
  0
POLYLINE
  5
21B
  8
0
  6
CONTINUOUS
 62
     7
 66
     1
 10
0.0
 20
0.0
 30
0.0
  0
VERTEX
  5
552
  8
0
  6
CONTINUOUS
 62
     7
 10
-177.5
 20
252.2068495434349
 30
0.0
  0
VERTEX
  5
553
  8
0
  6
CONTINUOUS
 62
     7
 10
-177.4961570560807
 20
252.1679799545466
 30
0.0
  0
VERTEX
  5
554
  8
0
  6
CONTINUOUS
 62
     7
 10
-177.4847759065023
 20
252.1306041021609
 30
0.0
  0
VERTEX
  5
555
  8
0
  6
CONTINUOUS
 62
     7
 10
-177.4662939224605
 20
252.0961583193245
 30
0.0
  0
VERTEX
  5
556
  8
0
  6
CONTINUOUS
 62
     7
 10
-177.4414213562373
 20
252.0659663381543
 30
0.0
  0
VERTEX
  5
557
  8
0
  6
CONTINUOUS
 62
     7
 10
-177.4111140466039
 20
252.0411884195548
 30
0.0
  0
VERTEX
  5
558
  8
0
  6
CONTINUOUS
 62
     7
 10
-177.376536686473
 20
252.0227767650422
 30
0.0
  0
VERTEX
  5
559
  8
0
  6
CONTINUOUS
 62
     7
 10
-177.3390180644032
 20
252.011438924174
 30
0.0
  0
VERTEX
  5
55A
  8
0
  6
CONTINUOUS
 62
     7
 10
-177.3
 20
252.0076106038165
 30
0.0
  0
SEQEND
  5
5AA
  8
0
  6
CONTINUOUS
 62
     7
  0
LINE
  5
21C
  8
0
  6
CONTINUOUS
 62
     7
 10
-329.5
 20
376.5
 30
0.0
 11
-329.5
 21
377.7931504565651
 31
0.0
  0
POLYLINE
  5
21D
  8
0
  6
CONTINUOUS
 62
     7
 66
     1
 10
0.0
 20
0.0
 30
0.0
  0
VERTEX
  5
55B
  8
0
  6
CONTINUOUS
 62
     7
 10
-329.2999999999998
 20
377.9923893961835
 30
0.0
  0
VERTEX
  5
55C
  8
0
  6
CONTINUOUS
 62
     7
 10
-329.339018064403
 20
377.988561075826
 30
0.0
  0
VERTEX
  5
55D
  8
0
  6
CONTINUOUS
 62
     7
 10
-329.3765366864729
 20
377.9772232349578
 30
0.0
  0
VERTEX
  5
55E
  8
0
  6
CONTINUOUS
 62
     7
 10
-329.4111140466038
 20
377.9588115804452
 30
0.0
  0
VERTEX
  5
55F
  8
0
  6
CONTINUOUS
 62
     7
 10
-329.4414213562372
 20
377.9340336618457
 30
0.0
  0
VERTEX
  5
560
  8
0
  6
CONTINUOUS
 62
     7
 10
-329.4662939224604
 20
377.9038416806755
 30
0.0
  0
VERTEX
  5
561
  8
0
  6
CONTINUOUS
 62
     7
 10
-329.4847759065022
 20
377.8693958978391
 30
0.0
  0
VERTEX
  5
562
  8
0
  6
CONTINUOUS
 62
     7
 10
-329.4961570560806
 20
377.8320200454534
 30
0.0
  0
VERTEX
  5
563
  8
0
  6
CONTINUOUS
 62
     7
 10
-329.4999999999999
 20
377.7931504565651
 30
0.0
  0
SEQEND
  5
5AB
  8
0
  6
CONTINUOUS
 62
     7
  0
LINE
  5
21E
  8
0
  6
CONTINUOUS
 62
     7
 10
-170.7
 20
252.0076106038165
 30
0.0
 11
-177.3
 21
252.0076106038165
 31
0.0
  0
LINE
  5
21F
  8
0
  6
CONTINUOUS
 62
     7
 10
-170.5
 20
377.7931504565651
 30
0.0
 11
-170.5
 21
376.5
 31
0.0
  0
POLYLINE
  5
220
  8
0
  6
CONTINUOUS
 62
     7
 66
     1
 10
0.0
 20
0.0
 30
0.0
  0
VERTEX
  5
564
  8
0
  6
CONTINUOUS
 62
     7
 10
-170.5
 20
377.7931504565651
 30
0.0
  0
VERTEX
  5
565
  8
0
  6
CONTINUOUS
 62
     7
 10
-170.5038429439194
 20
377.8320200454534
 30
0.0
  0
VERTEX
  5
566
  8
0
  6
CONTINUOUS
 62
     7
 10
-170.5152240934977
 20
377.8693958978391
 30
0.0
  0
VERTEX
  5
567
  8
0
  6
CONTINUOUS
 62
     7
 10
-170.5337060775395
 20
377.9038416806754
 30
0.0
  0
VERTEX
  5
568
  8
0
  6
CONTINUOUS
 62
     7
 10
-170.5585786437627
 20
377.9340336618457
 30
0.0
  0
VERTEX
  5
569
  8
0
  6
CONTINUOUS
 62
     7
 10
-170.5888859533961
 20
377.9588115804452
 30
0.0
  0
VERTEX
  5
56A
  8
0
  6
CONTINUOUS
 62
     7
 10
-170.623463313527
 20
377.9772232349578
 30
0.0
  0
VERTEX
  5
56B
  8
0
  6
CONTINUOUS
 62
     7
 10
-170.6609819355968
 20
377.9885610758259
 30
0.0
  0
VERTEX
  5
56C
  8
0
  6
CONTINUOUS
 62
     7
 10
-170.7
 20
377.9923893961835
 30
0.0
  0
SEQEND
  5
5AC
  8
0
  6
CONTINUOUS
 62
     7
  0
LINE
  5
221
  8
0
  6
CONTINUOUS
 62
     7
 10
-329.3
 20
252.0076106038165
 30
0.0
 11
-322.7
 21
252.0076106038165
 31
0.0
  0
LINE
  5
222
  8
0
  6
CONTINUOUS
 62
     7
 10
-170.7
 20
377.9923893961835
 30
0.0
 11
-177.3
 21
377.9923893961835
 31
0.0
  0
LINE
  5
223
  8
0
  6
CONTINUOUS
 62
     7
 10
-170.5
 20
253.5
 30
0.0
 11
-170.5
 21
252.2068495434349
 31
0.0
  0
POLYLINE
  5
224
  8
0
  6
CONTINUOUS
 62
     7
 66
     1
 10
0.0
 20
0.0
 30
0.0
  0
VERTEX
  5
56D
  8
0
  6
CONTINUOUS
 62
     7
 10
-170.7000000000002
 20
252.0076106038165
 30
0.0
  0
VERTEX
  5
56E
  8
0
  6
CONTINUOUS
 62
     7
 10
-170.6609819355969
 20
252.011438924174
 30
0.0
  0
VERTEX
  5
56F
  8
0
  6
CONTINUOUS
 62
     7
 10
-170.6234633135271
 20
252.0227767650422
 30
0.0
  0
VERTEX
  5
570
  8
0
  6
CONTINUOUS
 62
     7
 10
-170.5888859533962
 20
252.0411884195548
 30
0.0
  0
VERTEX
  5
571
  8
0
  6
CONTINUOUS
 62
     7
 10
-170.5585786437628
 20
252.0659663381543
 30
0.0
  0
VERTEX
  5
572
  8
0
  6
CONTINUOUS
 62
     7
 10
-170.5337060775395
 20
252.0961583193245
 30
0.0
  0
VERTEX
  5
573
  8
0
  6
CONTINUOUS
 62
     7
 10
-170.5152240934978
 20
252.1306041021609
 30
0.0
  0
VERTEX
  5
574
  8
0
  6
CONTINUOUS
 62
     7
 10
-170.5038429439194
 20
252.1679799545466
 30
0.0
  0
VERTEX
  5
575
  8
0
  6
CONTINUOUS
 62
     7
 10
-170.5
 20
252.2068495434349
 30
0.0
  0
SEQEND
  5
5AD
  8
0
  6
CONTINUOUS
 62
     7
  0
LINE
  5
225
  8
0
  6
CONTINUOUS
 62
     7
 10
-322.5
 20
253.5
 30
0.0
 11
-322.5
 21
252.2068495434349
 31
0.0
  0
POLYLINE
  5
226
  8
0
  6
CONTINUOUS
 62
     7
 66
     1
 10
0.0
 20
0.0
 30
0.0
  0
VERTEX
  5
576
  8
0
  6
CONTINUOUS
 62
     7
 10
-322.7000000000002
 20
252.0076106038165
 30
0.0
  0
VERTEX
  5
577
  8
0
  6
CONTINUOUS
 62
     7
 10
-322.6609819355969
 20
252.011438924174
 30
0.0
  0
VERTEX
  5
578
  8
0
  6
CONTINUOUS
 62
     7
 10
-322.6234633135271
 20
252.0227767650422
 30
0.0
  0
VERTEX
  5
579
  8
0
  6
CONTINUOUS
 62
     7
 10
-322.5888859533961
 20
252.0411884195548
 30
0.0
  0
VERTEX
  5
57A
  8
0
  6
CONTINUOUS
 62
     7
 10
-322.5585786437627
 20
252.0659663381543
 30
0.0
  0
VERTEX
  5
57B
  8
0
  6
CONTINUOUS
 62
     7
 10
-322.5337060775395
 20
252.0961583193245
 30
0.0
  0
VERTEX
  5
57C
  8
0
  6
CONTINUOUS
 62
     7
 10
-322.5152240934977
 20
252.1306041021609
 30
0.0
  0
VERTEX
  5
57D
  8
0
  6
CONTINUOUS
 62
     7
 10
-322.5038429439193
 20
252.1679799545466
 30
0.0
  0
VERTEX
  5
57E
  8
0
  6
CONTINUOUS
 62
     7
 10
-322.5
 20
252.2068495434349
 30
0.0
  0
SEQEND
  5
5AE
  8
0
  6
CONTINUOUS
 62
     7
  0
LINE
  5
227
  8
0
  6
CONTINUOUS
 62
     7
 10
-329.3
 20
377.9923893961835
 30
0.0
 11
-322.7
 21
377.9923893961835
 31
0.0
  0
LINE
  5
228
  8
0
  6
CONTINUOUS
 62
     7
 10
-329.5
 20
252.2068495434349
 30
0.0
 11
-329.5
 21
253.5
 31
0.0
  0
POLYLINE
  5
229
  8
0
  6
CONTINUOUS
 62
     7
 66
     1
 10
0.0
 20
0.0
 30
0.0
  0
VERTEX
  5
57F
  8
0
  6
CONTINUOUS
 62
     7
 10
-329.4999999999999
 20
252.2068495434349
 30
0.0
  0
VERTEX
  5
580
  8
0
  6
CONTINUOUS
 62
     7
 10
-329.4961570560806
 20
252.1679799545466
 30
0.0
  0
VERTEX
  5
581
  8
0
  6
CONTINUOUS
 62
     7
 10
-329.4847759065022
 20
252.1306041021609
 30
0.0
  0
VERTEX
  5
582
  8
0
  6
CONTINUOUS
 62
     7
 10
-329.4662939224605
 20
252.0961583193245
 30
0.0
  0
VERTEX
  5
583
  8
0
  6
CONTINUOUS
 62
     7
 10
-329.4414213562372
 20
252.0659663381543
 30
0.0
  0
VERTEX
  5
584
  8
0
  6
CONTINUOUS
 62
     7
 10
-329.4111140466039
 20
252.0411884195548
 30
0.0
  0
VERTEX
  5
585
  8
0
  6
CONTINUOUS
 62
     7
 10
-329.376536686473
 20
252.0227767650422
 30
0.0
  0
VERTEX
  5
586
  8
0
  6
CONTINUOUS
 62
     7
 10
-329.3390180644032
 20
252.011438924174
 30
0.0
  0
VERTEX
  5
587
  8
0
  6
CONTINUOUS
 62
     7
 10
-329.3
 20
252.0076106038165
 30
0.0
  0
SEQEND
  5
5AF
  8
0
  6
CONTINUOUS
 62
     7
  0
LINE
  5
22A
  8
0
  6
CONTINUOUS
 62
     7
 10
-322.5
 20
377.7931504565651
 30
0.0
 11
-322.5
 21
376.5
 31
0.0
  0
POLYLINE
  5
22B
  8
0
  6
CONTINUOUS
 62
     7
 66
     1
 10
0.0
 20
0.0
 30
0.0
  0
VERTEX
  5
588
  8
0
  6
CONTINUOUS
 62
     7
 10
-322.5
 20
377.7931504565651
 30
0.0
  0
VERTEX
  5
589
  8
0
  6
CONTINUOUS
 62
     7
 10
-322.5038429439193
 20
377.8320200454534
 30
0.0
  0
VERTEX
  5
58A
  8
0
  6
CONTINUOUS
 62
     7
 10
-322.5152240934977
 20
377.8693958978391
 30
0.0
  0
VERTEX
  5
58B
  8
0
  6
CONTINUOUS
 62
     7
 10
-322.5337060775395
 20
377.9038416806754
 30
0.0
  0
VERTEX
  5
58C
  8
0
  6
CONTINUOUS
 62
     7
 10
-322.5585786437627
 20
377.9340336618457
 30
0.0
  0
VERTEX
  5
58D
  8
0
  6
CONTINUOUS
 62
     7
 10
-322.5888859533961
 20
377.9588115804452
 30
0.0
  0
VERTEX
  5
58E
  8
0
  6
CONTINUOUS
 62
     7
 10
-322.6234633135269
 20
377.9772232349578
 30
0.0
  0
VERTEX
  5
58F
  8
0
  6
CONTINUOUS
 62
     7
 10
-322.6609819355967
 20
377.9885610758259
 30
0.0
  0
VERTEX
  5
590
  8
0
  6
CONTINUOUS
 62
     7
 10
-322.7
 20
377.9923893961835
 30
0.0
  0
SEQEND
  5
5B0
  8
0
  6
CONTINUOUS
 62
     7
  0
CIRCLE
  5
22C
  8
0
  6
CONTINUOUS
 62
     7
 10
-254.2501868581007
 20
307.6389532001742
 30
0.0
 40
1.499946976382318
  0
CIRCLE
  5
22D
  8
0
  6
CONTINUOUS
 62
     7
 10
-254.2497600980449
 20
322.3612931898588
 30
0.0
 40
1.499946976382317
  0
CIRCLE
  5
22E
  8
0
  6
CONTINUOUS
 62
     7
 10
-250.0
 20
315.0
 30
0.0
 40
5.749999999999999
  0
CIRCLE
  5
22F
  8
0
  6
CONTINUOUS
 62
     7
 10
-245.7502399019551
 20
307.6387068101412
 30
0.0
 40
1.499946976382318
  0
CIRCLE
  5
230
  8
0
  6
CONTINUOUS
 62
     7
 10
-258.4999469561456
 20
315.0002463900331
 30
0.0
 40
1.499946976382318
  0
CIRCLE
  5
231
  8
0
  6
CONTINUOUS
 62
     7
 10
-245.7498131418993
 20
322.3610467998257
 30
0.0
 40
1.499946976382318
  0
CIRCLE
  5
232
  8
0
  6
CONTINUOUS
 62
     7
 10
-241.5000530438544
 20
314.9997536099669
 30
0.0
 40
1.499946976382318
  0
CIRCLE
  5
233
  8
0
  6
CONTINUOUS
 62
     7
 10
-250.0
 20
315.0
 30
0.0
 40
13.5
  0
ARC
  5
234
  8
0
  6
CONTINUOUS
 62
     7
 10
-231.0
 20
315.0
 30
0.0
 40
6.5
 50
209.2245980261437
 51
278.8498830984291
  0
LINE
  5
235
  8
0
  6
CONTINUOUS
 62
     7
 10
-236.7435113701453
 20
312.0374395915733
 30
0.0
 11
-236.6726315789474
 21
311.8264765686182
 31
0.0
  0
LINE
  5
236
  8
0
  6
CONTINUOUS
 62
     7
 10
-236.7435113701453
 20
317.9625604084268
 30
0.0
 11
-236.7935621759688
 21
317.8
 31
0.0
  0
ARC
  5
237
  8
0
  6
CONTINUOUS
 62
     7
 10
-282.4999999999999
 20
315.0
 30
0.0
 40
6.5
 50
207.4864262503813
 51
332.5135737496187
  0
LINE
  5
238
  8
0
  6
CONTINUOUS
 62
     7
 10
-276.0
 20
312.0
 30
0.0
 11
-276.0
 21
269.0
 31
0.0
  0
LINE
  5
239
  8
0
  6
CONTINUOUS
 62
     7
 10
-252.8
 20
301.7935621759689
 30
0.0
 11
-252.9625604084268
 21
301.7435113701453
 31
0.0
  0
LINE
  5
23A
  8
0
  6
CONTINUOUS
 62
     7
 10
-263.2064378240311
 20
317.8
 30
0.0
 11
-263.2564886298547
 21
317.9625604084268
 31
0.0
  0
LINE
  5
23B
  8
0
  6
CONTINUOUS
 62
     7
 10
-247.0374395915732
 20
328.2564886298547
 30
0.0
 11
-246.8264765686182
 21
328.3273684210527
 31
0.0
  0
LINE
  5
23C
  8
0
  6
CONTINUOUS
 62
     7
 10
-253.1735234313818
 20
328.3273684210527
 30
0.0
 11
-252.9625604084268
 21
328.2564886298547
 31
0.0
  0
ARC
  5
23D
  8
0
  6
CONTINUOUS
 62
     7
 10
-250.0
 20
334.0
 30
0.0
 40
6.5
 50
299.2245980261437
 51
240.7754019738563
  0
LINE
  5
23E
  8
0
  6
CONTINUOUS
 62
     7
 10
-319.5
 20
312.0
 30
0.0
 11
-288.2662812973354
 21
312.0
 31
0.0
  0
LINE
  5
23F
  8
0
  6
CONTINUOUS
 62
     7
 10
-270.0
 20
321.4226162893326
 30
0.0
 11
-270.0
 21
361.0
 31
0.0
  0
ARC
  5
240
  8
0
  6
CONTINUOUS
 62
     7
 10
-217.5
 20
315.0
 30
0.0
 40
6.5
 50
27.48642625038133
 51
152.5135737496187
  0
LINE
  5
241
  8
0
  6
CONTINUOUS
 62
     7
 10
-252.9625604084268
 20
301.7435113701453
 30
0.0
 11
-253.1735234313818
 21
301.6726315789473
 31
0.0
  0
LINE
  5
242
  8
0
  6
CONTINUOUS
 62
     7
 10
-246.8264765686182
 20
301.6726315789473
 30
0.0
 11
-247.0374395915732
 21
301.7435113701453
 31
0.0
  0
ARC
  5
243
  8
0
  6
CONTINUOUS
 62
     7
 10
-250.0
 20
296.0
 30
0.0
 40
6.5
 50
119.2245980261436
 51
60.77540197385634
  0
CIRCLE
  5
244
  8
0
  6
CONTINUOUS
 62
     7
 10
-250.0
 20
334.0
 30
0.0
 40
2.999999999999999
  0
ARC
  5
245
  8
0
  6
CONTINUOUS
 62
     7
 10
-269.0
 20
315.0
 30
0.0
 40
6.5
 50
29.22459802614367
 51
98.84988309842912
  0
LINE
  5
246
  8
0
  6
CONTINUOUS
 62
     7
 10
-263.2564886298547
 20
317.9625604084267
 30
0.0
 11
-263.3273684210527
 21
318.1735234313818
 31
0.0
  0
LINE
  5
247
  8
0
  6
CONTINUOUS
 62
     7
 10
-252.9625604084267
 20
328.2564886298547
 30
0.0
 11
-252.8
 21
328.2064378240311
 31
0.0
  0
LINE
  5
248
  8
0
  6
CONTINUOUS
 62
     7
 10
-180.5
 20
318.0
 30
0.0
 11
-211.7337187026646
 21
318.0
 31
0.0
  0
LINE
  5
249
  8
0
  6
CONTINUOUS
 62
     7
 10
-263.3273684210527
 20
311.8264765686182
 30
0.0
 11
-263.2564886298547
 21
312.0374395915732
 31
0.0
  0
ARC
  5
24A
  8
0
  6
CONTINUOUS
 62
     7
 10
-269.0
 20
315.0
 30
0.0
 40
6.5
 50
261.150116901571
 51
330.7754019738563
  0
LINE
  5
24B
  8
0
  6
CONTINUOUS
 62
     7
 10
-224.0
 20
269.0
 30
0.0
 11
-224.0
 21
312.0
 31
0.0
  0
LINE
  5
24C
  8
0
  6
CONTINUOUS
 62
     7
 10
-288.2662812973354
 20
318.0
 30
0.0
 11
-319.5
 21
318.0
 31
0.0
  0
LINE
  5
24D
  8
0
  6
CONTINUOUS
 62
     7
 10
-276.0
 20
361.0
 30
0.0
 11
-276.0
 21
318.0
 31
0.0
  0
LINE
  5
24E
  8
0
  6
CONTINUOUS
 62
     7
 10
-276.7337187026646
 20
312.0
 30
0.0
 11
-276.0
 21
312.0
 31
0.0
  0
LINE
  5
24F
  8
0
  6
CONTINUOUS
 62
     7
 10
-247.2
 20
328.2064378240311
 30
0.0
 11
-247.0374395915732
 21
328.2564886298547
 31
0.0
  0
LINE
  5
250
  8
0
  6
CONTINUOUS
 62
     7
 10
-230.0
 20
308.5773837106674
 30
0.0
 11
-230.0
 21
269.0
 31
0.0
  0
LINE
  5
251
  8
0
  6
CONTINUOUS
 62
     7
 10
-236.7935621759688
 20
312.2
 30
0.0
 11
-236.7435113701453
 21
312.0374395915732
 31
0.0
  0
CIRCLE
  5
252
  8
0
  6
CONTINUOUS
 62
     7
 10
-282.4999999999999
 20
315.0
 30
0.0
 40
2.999999999999996
  0
LINE
  5
253
  8
0
  6
CONTINUOUS
 62
     7
 10
-263.2564886298547
 20
312.0374395915732
 30
0.0
 11
-263.2064378240311
 21
312.2
 31
0.0
  0
LINE
  5
254
  8
0
  6
CONTINUOUS
 62
     7
 10
-223.2662812973354
 20
318.0
 30
0.0
 11
-224.0
 21
318.0
 31
0.0
  0
LINE
  5
255
  8
0
  6
CONTINUOUS
 62
     7
 10
-224.0
 20
318.0
 30
0.0
 11
-224.0
 21
361.0
 31
0.0
  0
CIRCLE
  5
256
  8
0
  6
CONTINUOUS
 62
     7
 10
-217.5
 20
315.0
 30
0.0
 40
2.999999999999996
  0
LINE
  5
257
  8
0
  6
CONTINUOUS
 62
     7
 10
-270.0
 20
269.0
 30
0.0
 11
-270.0
 21
308.5773837106674
 31
0.0
  0
ARC
  5
258
  8
0
  6
CONTINUOUS
 62
     7
 10
-282.4999999999999
 20
315.0
 30
0.0
 40
6.499999999999999
 50
27.48642625038133
 51
152.5135737496187
  0
LINE
  5
259
  8
0
  6
CONTINUOUS
 62
     7
 10
-276.0
 20
318.0
 30
0.0
 11
-276.7337187026646
 21
318.0
 31
0.0
  0
LINE
  5
25A
  8
0
  6
CONTINUOUS
 62
     7
 10
-247.0374395915732
 20
301.7435113701453
 30
0.0
 11
-247.2
 21
301.7935621759689
 31
0.0
  0
LINE
  5
25B
  8
0
  6
CONTINUOUS
 62
     7
 10
-224.0
 20
312.0
 30
0.0
 11
-223.2662812973354
 21
312.0
 31
0.0
  0
ARC
  5
25C
  8
0
  6
CONTINUOUS
 62
     7
 10
-217.5
 20
315.0
 30
0.0
 40
6.499999999999999
 50
207.4864262503813
 51
332.5135737496187
  0
CIRCLE
  5
25D
  8
0
  6
CONTINUOUS
 62
     7
 10
-250.0
 20
296.0
 30
0.0
 40
2.999999999999999
  0
LINE
  5
25E
  8
0
  6
CONTINUOUS
 62
     7
 10
-230.0
 20
361.0
 30
0.0
 11
-230.0
 21
321.4226162893326
 31
0.0
  0
LINE
  5
25F
  8
0
  6
CONTINUOUS
 62
     7
 10
-236.6726315789473
 20
318.1735234313818
 30
0.0
 11
-236.7435113701453
 21
317.9625604084268
 31
0.0
  0
ARC
  5
260
  8
0
  6
CONTINUOUS
 62
     7
 10
-231.0
 20
315.0
 30
0.0
 40
6.5
 50
81.15011690157093
 51
150.7754019738563
  0
LINE
  5
261
  8
0
  6
CONTINUOUS
 62
     7
 10
-211.7337187026646
 20
312.0
 30
0.0
 11
-180.5
 21
312.0
 31
0.0
  0
ENDBLK
  8
0
  0
ENDSEC
  0
SECTION
  2
ENTITIES
  0
INSERT
  5
B1
  8
0
  6
CONTINUOUS
 62
     7
  2
D_FRAME_VIEW_2838
 10
0.0
 20
0.0
 30
0.0
  0
INSERT
  5
111
  8
0
  6
CONTINUOUS
 62
     7
  2
D_FRAME_VIEW_3288
 10
0.0
 20
0.0
 30
0.0
  0
LINE
  5
112
  8
0
  6
CONTINUOUS
 62
     7
 10
-334.9999999999999
 20
177.0749999999992
 30
0.0
 11
-334.1809488918522
 21
177.075
 31
0.0
  0
LINE
  5
113
  8
0
  6
CONTINUOUS
 62
     7
 10
-165.8190511081478
 20
177.075
 30
0.0
 11
-165.0
 21
177.075
 31
0.0
  0
LINE
  5
114
  8
0
  6
CONTINUOUS
 62
     7
 10
-329.5
 20
210.875
 30
0.0
 11
-329.5
 21
212.675
 31
0.0
  0
LINE
  5
115
  8
0
  6
CONTINUOUS
 62
     7
 10
-251.0
 20
217.175
 30
0.0
 11
-249.0
 21
217.175
 31
0.0
  0
LINE
  5
116
  8
0
  6
CONTINUOUS
 62
     7
 10
-341.9999999999999
 20
213.3750000000025
 30
0.0
 11
-158.0
 21
213.3749999999974
 31
0.0
  0
LINE
  5
117
  8
0
  6
CONTINUOUS
 62
     7
 10
-341.9999999999999
 20
216.875
 30
0.0
 11
-158.0000000000001
 21
216.875
 31
0.0
  0
LINE
  5
118
  8
0
  6
CONTINUOUS
 62
     7
 10
-63.37499999999999
 20
373.0
 30
0.0
 11
-63.37499999999999
 21
257.0
 31
0.0
  0
LINE
  5
119
  8
0
  6
CONTINUOUS
 62
     7
 10
-165.0
 20
179.2749999999999
 30
0.0
 11
-165.8190511081478
 21
179.2749999999999
 31
0.0
  0
LINE
  5
11A
  8
0
  6
CONTINUOUS
 62
     7
 10
-169.6809488918523
 20
179.2749999999999
 30
0.0
 11
-170.5
 21
179.2749999999999
 31
0.0
  0
LINE
  5
11B
  8
0
  6
CONTINUOUS
 62
     7
 10
-329.5
 20
179.2749999999999
 30
0.0
 11
-330.3190511081477
 21
179.2749999999999
 31
0.0
  0
LINE
  5
11C
  8
0
  6
CONTINUOUS
 62
     7
 10
-330.3190511081477
 20
177.075
 30
0.0
 11
-329.5
 21
177.0749999999992
 31
0.0
  0
LINE
  5
11D
  8
0
  6
CONTINUOUS
 62
     7
 10
-170.5
 20
177.0749999999992
 30
0.0
 11
-169.6809488918523
 21
177.075
 31
0.0
  0
LINE
  5
11E
  8
0
  6
CONTINUOUS
 62
     7
 10
-322.5
 20
212.675
 30
0.0
 11
-322.5
 21
210.875
 31
0.0
  0
LINE
  5
11F
  8
0
  6
CONTINUOUS
 62
     7
 10
-334.1809488918522
 20
179.2749999999999
 30
0.0
 11
-334.9999999999999
 21
179.2749999999999
 31
0.0
  0
LINE
  5
120
  8
0
  6
CONTINUOUS
 62
     7
 10
-177.5
 20
227.375
 30
0.0
 11
-322.5
 21
227.375
 31
0.0
  0
LINE
  5
121
  8
0
  6
CONTINUOUS
 62
     7
 10
-170.6668823738855
 20
368.0
 30
0.0
 11
-173.0
 21
368.0
 31
0.0
  0
LINE
  5
122
  8
0
  6
CONTINUOUS
 62
     7
 10
-103.375
 20
254.0
 30
0.0
 11
-65.62499999999997
 21
254.0
 31
0.0
  0
LINE
  5
123
  8
0
  6
CONTINUOUS
 62
     7
 10
-109.8781242374329
 20
263.0
 30
0.0
 11
-108.275
 21
263.0
 31
0.0
  0
LINE
  5
124
  8
0
  6
CONTINUOUS
 62
     7
 10
-177.3331176261146
 20
367.0
 30
0.0
 11
-175.0
 21
367.0
 31
0.0
  0
LINE
  5
125
  8
0
  6
CONTINUOUS
 62
     7
 10
-324.9999999999999
 20
262.0
 30
0.0
 11
-322.6668823738854
 21
262.0
 31
0.0
  0
LINE
  5
126
  8
0
  6
CONTINUOUS
 62
     7
 10
-329.3331176261145
 20
262.0
 30
0.0
 11
-326.9999999999999
 21
262.0
 31
0.0
  0
LINE
  5
127
  8
0
  6
CONTINUOUS
 62
     7
 10
-326.9999999999999
 20
263.0
 30
0.0
 11
-329.3331176261145
 21
263.0
 31
0.0
  0
LINE
  5
128
  8
0
  6
CONTINUOUS
 62
     7
 10
-108.275
 20
262.0
 30
0.0
 11
-109.8781242374328
 21
262.0
 31
0.0
  0
LINE
  5
129
  8
0
  6
CONTINUOUS
 62
     7
 10
-322.6668823738854
 20
263.0
 30
0.0
 11
-324.9999999999999
 21
263.0
 31
0.0
  0
LINE
  5
12A
  8
0
  6
CONTINUOUS
 62
     7
 10
-107.175
 20
316.0
 30
0.0
 11
-107.175
 21
314.0
 31
0.0
  0
LINE
  5
12B
  8
0
  6
CONTINUOUS
 62
     7
 10
-173.0
 20
263.0
 30
0.0
 11
-170.6668823738855
 21
263.0
 31
0.0
  0
LINE
  5
12C
  8
0
  6
CONTINUOUS
 62
     7
 10
-175.0
 20
262.0
 30
0.0
 11
-177.3331176261146
 21
262.0
 31
0.0
  0
LINE
  5
12D
  8
0
  6
CONTINUOUS
 62
     7
 10
-324.9999999999999
 20
368.0
 30
0.0
 11
-322.6668823738854
 21
368.0
 31
0.0
  0
LINE
  5
12E
  8
0
  6
CONTINUOUS
 62
     7
 10
-326.9999999999999
 20
367.0
 30
0.0
 11
-329.3331176261145
 21
367.0
 31
0.0
  0
LINE
  5
12F
  8
0
  6
CONTINUOUS
 62
     7
 10
-103.375
 20
376.0
 30
0.0
 11
-65.62499999999997
 21
376.0
 31
0.0
  0
LINE
  5
130
  8
0
  6
CONTINUOUS
 62
     7
 10
-177.3331176261146
 20
263.0
 30
0.0
 11
-175.0
 21
263.0
 31
0.0
  0
LINE
  5
131
  8
0
  6
CONTINUOUS
 62
     7
 10
-106.875
 20
376.5
 30
0.0
 11
-106.875
 21
253.5
 31
0.0
  0
LINE
  5
132
  8
0
  6
CONTINUOUS
 62
     7
 10
-109.8781242374329
 20
367.0
 30
0.0
 11
-108.275
 21
367.0
 31
0.0
  0
LINE
  5
133
  8
0
  6
CONTINUOUS
 62
     7
 10
-103.375
 20
376.5
 30
0.0
 11
-103.375
 21
253.5
 31
0.0
  0
LINE
  5
134
  8
0
  6
CONTINUOUS
 62
     7
 10
-100.875
 20
254.0
 30
0.0
 11
-101.0493114854953
 21
252.0076106038165
 31
0.0
  0
LINE
  5
135
  8
0
  6
CONTINUOUS
 62
     7
 10
-108.275
 20
368.0
 30
0.0
 11
-109.8781242374328
 21
368.0
 31
0.0
  0
LINE
  5
136
  8
0
  6
CONTINUOUS
 62
     7
 10
-175.0
 20
368.0
 30
0.0
 11
-177.3331176261146
 21
368.0
 31
0.0
  0
LINE
  5
137
  8
0
  6
CONTINUOUS
 62
     7
 10
-101.0493114854953
 20
377.9923893961835
 30
0.0
 11
-100.8749999999999
 21
376.0
 31
0.0
  0
LINE
  5
138
  8
0
  6
CONTINUOUS
 62
     7
 10
-63.37499999999999
 20
319.0
 30
0.0
 11
-71.07499999999999
 21
319.0
 31
0.0
  0
LINE
  5
139
  8
0
  6
CONTINUOUS
 62
     7
 10
-71.07499999999999
 20
311.0
 30
0.0
 11
-63.37499999999999
 21
311.0
 31
0.0
  0
LINE
  5
13A
  8
0
  6
CONTINUOUS
 62
     7
 10
-274.6499999999884
 20
269.0
 30
0.0
 11
-274.650000000022
 21
361.0
 31
0.0
  0
LINE
  5
13B
  8
0
  6
CONTINUOUS
 62
     7
 10
-228.6499999999884
 20
269.0
 30
0.0
 11
-228.6500000000219
 21
361.0
 31
0.0
  0
LINE
  5
13C
  8
0
  6
CONTINUOUS
 62
     7
 10
-271.6499999999891
 20
269.0
 30
0.0
 11
-271.6500000000224
 21
361.0
 31
0.0
  0
LINE
  5
13D
  8
0
  6
CONTINUOUS
 62
     7
 10
-173.0
 20
367.0
 30
0.0
 11
-170.6668823738855
 21
367.0
 31
0.0
  0
LINE
  5
13E
  8
0
  6
CONTINUOUS
 62
     7
 10
-117.375
 20
266.0
 30
0.0
 11
-117.375
 21
364.0
 31
0.0
  0
LINE
  5
13F
  8
0
  6
CONTINUOUS
 62
     7
 10
-225.6499999999891
 20
269.0
 30
0.0
 11
-225.6500000000226
 21
361.0
 31
0.0
  0
LINE
  5
140
  8
0
  6
CONTINUOUS
 62
     7
 10
-329.3331176261145
 20
368.0
 30
0.0
 11
-326.9999999999999
 21
368.0
 31
0.0
  0
LINE
  5
141
  8
0
  6
CONTINUOUS
 62
     7
 10
-322.6668823738854
 20
367.0
 30
0.0
 11
-324.9999999999999
 21
367.0
 31
0.0
  0
ARC
  5
142
  8
0
  6
CONTINUOUS
 62
     7
 10
-231.0
 20
315.0
 30
0.0
 40
3.0
 50
44.20418388397118
 51
315.7958161160687
  0
ARC
  5
143
  8
0
  6
CONTINUOUS
 62
     7
 10
-332.25
 20
178.175
 30
0.0
 40
5.549999999999999
 50
239.8672781689898
 51
300.1327218310103
  0
ARC
  5
144
  8
0
  6
CONTINUOUS
 62
     7
 10
-158.5
 20
315.0
 30
0.0
 40
0.5000000000000004
 50
90.0
 51
270.0
  0
ARC
  5
145
  8
0
  6
CONTINUOUS
 62
     7
 10
-250.0
 20
376.0
 30
0.0
 40
0.5000000000000004
 50
180.0
 51
0.0
  0
ARC
  5
146
  8
0
  6
CONTINUOUS
 62
     7
 10
-250.0
 20
254.0
 30
0.0
 40
0.5000000000000004
 50
0.0
 51
180.0
  0
CIRCLE
  5
147
  8
0
  6
CONTINUOUS
 62
     7
 10
-325.9999999999999
 20
262.5
 30
0.0
 40
3.500000000000004
  0
CIRCLE
  5
148
  8
0
  6
CONTINUOUS
 62
     7
 10
-174.0
 20
262.5
 30
0.0
 40
3.500000000000004
  0
LINE
  5
149
  8
0
  6
CONTINUOUS
 62
     7
 10
-170.6668823738855
 20
262.0
 30
0.0
 11
-173.0
 21
262.0
 31
0.0
  0
CIRCLE
  5
14A
  8
0
  6
CONTINUOUS
 62
     7
 10
-174.0
 20
367.5
 30
0.0
 40
3.500000000000004
  0
ARC
  5
14B
  8
0
  6
CONTINUOUS
 62
     7
 10
-269.0
 20
315.0
 30
0.0
 40
3.0
 50
207.9528865888772
 51
152.0471134111642
  0
ARC
  5
14C
  8
0
  6
CONTINUOUS
 62
     7
 10
-341.5
 20
315.0
 30
0.0
 40
0.5000000000000004
 50
270.0
 51
90.0
  0
ARC
  5
14D
  8
0
  6
CONTINUOUS
 62
     7
 10
-167.75
 20
178.175
 30
0.0
 40
5.549999999999999
 50
239.8672781689898
 51
300.1327218310103
  0
CIRCLE
  5
14E
  8
0
  6
CONTINUOUS
 62
     7
 10
-325.9999999999999
 20
367.5
 30
0.0
 40
3.500000000000004
  0
INSERT
  5
262
  8
0
  6
CONTINUOUS
 62
     7
  2
D_FRAME_VIEW_1323
 10
0.0
 20
0.0
 30
0.0
  0
TEXT
  5
263
  8
0
  6
CONTINUOUS
 62
     7
 10
-167.0742966112292
 20
141.6568400650244
 30
0.0
 40
6.0
  1
CSW-3SN
  0
ENDSEC
  0
EOF
