  0
SECTION
  2
HEADER
  9
$ACADVER
  1
AC1006
  9
$DWGCODEPAGE
  3
ansi_932
  9
$INSBASE
 10
0.0
 20
0.0
 30
0.0
  9
$EXTMIN
 10
-348.5
 20
114.325
  9
$EXTMAX
 10
-14.32500000000005
 20
380.4923893961835
  9
$LIMMIN
 10
0.0
 20
0.0
  9
$LIMMAX
 10
12.0
 20
9.0
  9
$ORTHOMODE
 70
     0
  9
$REGENMODE
 70
     1
  9
$FILLMODE
 70
     1
  9
$QTEXTMODE
 70
     0
  9
$MIRRTEXT
 70
     1
  9
$DRAGMODE
 70
     2
  9
$LTSCALE
 40
1.0
  9
$OSMODE
 70
    37
  9
$ATTMODE
 70
     1
  9
$TEXTSIZE
 40
0.2
  9
$TRACEWID
 40
0.05
  9
$TEXTSTYLE
  7
STANDARD
  9
$CLAYER
  8
0
  9
$CELTYPE
  6
BYLAYER
  9
$CECOLOR
 62
   256
  9
$DIMSCALE
 40
1.0
  9
$DIMASZ
 40
3.0
  9
$DIMEXO
 40
0.0625
  9
$DIMDLI
 40
0.38
  9
$DIMRND
 40
0.0
  9
$DIMDLE
 40
0.0
  9
$DIMEXE
 40
1.5
  9
$DIMTP
 40
0.0
  9
$DIMTM
 40
0.0
  9
$DIMTXT
 40
3.0
  9
$DIMCEN
 40
0.09
  9
$DIMTSZ
 40
0.0
  9
$DIMTOL
 70
     0
  9
$DIMLIM
 70
     0
  9
$DIMTIH
 70
     1
  9
$DIMTOH
 70
     1
  9
$DIMSE1
 70
     0
  9
$DIMSE2
 70
     0
  9
$DIMTAD
 70
     1
  9
$DIMZIN
 70
     0
  9
$DIMBLK
  1

  9
$DIMASO
 70
     1
  9
$DIMSHO
 70
     1
  9
$DIMPOST
  1

  9
$DIMAPOST
  1

  9
$DIMALT
 70
     0
  9
$DIMALTD
 70
     2
  9
$DIMALTF
 40
25.4
  9
$DIMLFAC
 40
1.0
  9
$DIMTOFL
 70
     0
  9
$DIMTVP
 40
0.0
  9
$DIMTIX
 70
     0
  9
$DIMSOXD
 70
     0
  9
$DIMSAH
 70
     0
  9
$DIMBLK1
  1

  9
$DIMBLK2
  1

  9
$LUNITS
 70
     2
  9
$LUPREC
 70
     4
  9
$SKETCHINC
 40
0.1
  9
$FILLETRAD
 40
0.5
  9
$AUNITS
 70
     0
  9
$AUPREC
 70
     0
  9
$MENU
  1
.
  9
$ELEVATION
 40
0.0
  9
$THICKNESS
 40
0.0
  9
$LIMCHECK
 70
     0
  9
$CHAMFERA
 40
0.0
  9
$CHAMFERB
 40
0.0
  9
$SKPOLY
 70
     0
  9
$TDCREATE
 40
2459065.640169896
  9
$TDUPDATE
 40
2459065.640170069
  9
$TDINDWG
 40
0.0000000116
  9
$TDUSRTIMER
 40
0.0000000116
  9
$USRTIMER
 70
     1
  9
$ANGBASE
 50
0.0
  9
$ANGDIR
 70
     0
  9
$PDMODE
 70
     0
  9
$PDSIZE
 40
0.0
  9
$PLINEWID
 40
0.0
  9
$COORDS
 70
     1
  9
$SPLFRAME
 70
     0
  9
$SPLINETYPE
 70
     6
  9
$SPLINESEGS
 70
     8
  9
$ATTDIA
 70
     0
  9
$ATTREQ
 70
     1
  9
$HANDLING
 70
     1
  9
$HANDSEED
  5
344
  9
$SURFTAB1
 70
     6
  9
$SURFTAB2
 70
     6
  9
$SURFTYPE
 70
     6
  9
$SURFU
 70
     6
  9
$SURFV
 70
     6
  9
$UCSNAME
  2

  9
$UCSORG
 10
0.0
 20
0.0
 30
0.0
  9
$UCSXDIR
 10
1.0
 20
0.0
 30
0.0
  9
$UCSYDIR
 10
0.0
 20
1.0
 30
0.0
  9
$USERI1
 70
     0
  9
$USERI2
 70
     0
  9
$USERI3
 70
     0
  9
$USERI4
 70
     0
  9
$USERI5
 70
     0
  9
$USERR1
 40
0.0
  9
$USERR2
 40
0.0
  9
$USERR3
 40
0.0
  9
$USERR4
 40
0.0
  9
$USERR5
 40
0.0
  9
$WORLDVIEW
 70
     1
  0
ENDSEC
  0
SECTION
  2
TABLES
  0
TABLE
  2
VPORT
 70
     1
  0
VPORT
  2
*ACTIVE
 70
     0
 10
0.0
 20
0.0
 11
1.0
 21
1.0
 12
-181.4125
 22
247.4086946980918
 13
0.0
 23
0.0
 14
0.5
 24
0.5
 15
0.5
 25
0.5
 16
0.0
 26
0.0
 36
1.0
 17
0.0
 27
0.0
 37
0.0
 40
266.1673893961835
 41
1.6
 42
50.0
 43
0.0
 44
0.0
 50
0.0
 51
0.0
 71
     0
 72
   100
 73
     1
 74
     3
 75
     0
 76
     0
 77
     0
 78
     0
  0
ENDTAB
  0
TABLE
  2
LTYPE
 70
     1
  0
LTYPE
  2
CONTINUOUS
 70
     0
  3
Solid line
 72
    65
 73
     0
 40
0.0
  0
ENDTAB
  0
TABLE
  2
LAYER
 70
     1
  0
LAYER
  2
0
 70
     0
 62
     7
  6
CONTINUOUS
  0
ENDTAB
  0
TABLE
  2
STYLE
 70
     2
  0
STYLE
  2
STANDARD
 70
     0
 40
0.0
 41
1.0
 50
0.0
 71
     0
 42
0.2
  3
txt
  4

  0
STYLE
  2
ＭＳ_ゴシック
 70
     0
 40
0.0
 41
1.0
 50
0.0
 71
     0
 42
0.2
  3
ＭＳ ゴシック.shx
  4

  0
ENDTAB
  0
TABLE
  2
VIEW
 70
     0
  0
ENDTAB
  0
TABLE
  2
UCS
 70
     0
  0
ENDTAB
  0
ENDSEC
  0
SECTION
  2
BLOCKS
  0
BLOCK
  8
0
  2
D_FRAME_VIEW_1323
 70
     0
 10
0.0
 20
0.0
 30
0.0
  0
CIRCLE
  5
94
  8
0
  6
CONTINUOUS
 62
     9
 10
-303.5
 20
359.25
 30
0.0
 40
2.000000000000002
  0
LINE
  5
95
  8
0
  6
CONTINUOUS
 62
     7
 10
-178.7500000000001
 20
265.5
 30
0.0
 11
-180.2
 21
265.5
 31
0.0
  0
ARC
  5
96
  8
0
  6
CONTINUOUS
 62
     7
 10
-180.2
 20
266.3
 30
0.0
 40
0.800000000000002
 50
180.0
 51
269.999999999999
  0
LINE
  5
97
  8
0
  6
CONTINUOUS
 62
     7
 10
-181.0000000000001
 20
266.3
 30
0.0
 11
-181.0000000000001
 21
267.193741096848
 31
0.0
  0
ARC
  5
98
  8
0
  6
CONTINUOUS
 62
     7
 10
-181.5000000000001
 20
265.0
 30
0.0
 40
2.250000000000005
 50
77.16041159309587
 51
102.8395884069042
  0
LINE
  5
99
  8
0
  6
CONTINUOUS
 62
     7
 10
-182.0000000000001
 20
267.193741096848
 30
0.0
 11
-182.0000000000001
 21
266.3
 31
0.0
  0
ARC
  5
9A
  8
0
  6
CONTINUOUS
 62
     7
 10
-182.8
 20
266.3
 30
0.0
 40
0.7999999999999952
 50
270.0
 51
359.9999999999996
  0
LINE
  5
9B
  8
0
  6
CONTINUOUS
 62
     7
 10
-182.8
 20
265.5
 30
0.0
 11
-184.2500000000001
 21
265.5
 31
0.0
  0
LINE
  5
9C
  8
0
  6
CONTINUOUS
 62
     7
 10
-184.2500000000001
 20
265.5
 30
0.0
 11
-184.2500000000001
 21
264.5
 31
0.0
  0
LINE
  5
9D
  8
0
  6
CONTINUOUS
 62
     7
 10
-184.2500000000001
 20
264.5
 30
0.0
 11
-182.8
 21
264.5
 31
0.0
  0
ARC
  5
9E
  8
0
  6
CONTINUOUS
 62
     7
 10
-182.8
 20
263.7
 30
0.0
 40
0.800000000000002
 50
0.0
 51
90.0
  0
LINE
  5
9F
  8
0
  6
CONTINUOUS
 62
     7
 10
-182.0000000000001
 20
263.7
 30
0.0
 11
-182.0000000000001
 21
262.806258903152
 31
0.0
  0
ARC
  5
A0
  8
0
  6
CONTINUOUS
 62
     7
 10
-181.5000000000001
 20
265.0
 30
0.0
 40
2.250000000000005
 50
257.1604115930959
 51
282.8395884069041
  0
LINE
  5
A1
  8
0
  6
CONTINUOUS
 62
     7
 10
-181.0000000000001
 20
262.806258903152
 30
0.0
 11
-181.0000000000001
 21
263.7
 31
0.0
  0
ARC
  5
A2
  8
0
  6
CONTINUOUS
 62
     7
 10
-180.2
 20
263.7
 30
0.0
 40
0.7999999999999952
 50
90.0
 51
180.0
  0
LINE
  5
A3
  8
0
  6
CONTINUOUS
 62
     7
 10
-180.2
 20
264.5
 30
0.0
 11
-178.7500000000001
 21
264.5
 31
0.0
  0
LINE
  5
A4
  8
0
  6
CONTINUOUS
 62
     7
 10
-178.7500000000001
 20
264.5
 30
0.0
 11
-178.7500000000001
 21
265.5
 31
0.0
  0
LINE
  5
A5
  8
0
  6
CONTINUOUS
 62
     7
 10
-334.8
 20
264.5
 30
0.0
 11
-336.25
 21
264.5
 31
0.0
  0
ARC
  5
A6
  8
0
  6
CONTINUOUS
 62
     7
 10
-334.8
 20
263.7
 30
0.0
 40
0.7999999999999952
 50
0.0
 51
90.0
  0
LINE
  5
A7
  8
0
  6
CONTINUOUS
 62
     7
 10
-333.9999999999999
 20
262.806258903152
 30
0.0
 11
-333.9999999999999
 21
263.7
 31
0.0
  0
ARC
  5
A8
  8
0
  6
CONTINUOUS
 62
     7
 10
-333.4999999999999
 20
265.0
 30
0.0
 40
2.250000000000005
 50
257.1604115930959
 51
282.8395884069041
  0
LINE
  5
A9
  8
0
  6
CONTINUOUS
 62
     7
 10
-332.9999999999999
 20
263.7
 30
0.0
 11
-332.9999999999999
 21
262.806258903152
 31
0.0
  0
ARC
  5
AA
  8
0
  6
CONTINUOUS
 62
     7
 10
-332.1999999999999
 20
263.7
 30
0.0
 40
0.800000000000002
 50
90.0
 51
180.0
  0
LINE
  5
AB
  8
0
  6
CONTINUOUS
 62
     7
 10
-330.75
 20
264.5
 30
0.0
 11
-332.2
 21
264.5
 31
0.0
  0
LINE
  5
AC
  8
0
  6
CONTINUOUS
 62
     7
 10
-330.75
 20
265.5
 30
0.0
 11
-330.75
 21
264.5
 31
0.0
  0
LINE
  5
AD
  8
0
  6
CONTINUOUS
 62
     7
 10
-332.1999999999999
 20
265.5
 30
0.0
 11
-330.7499999999999
 21
265.5
 31
0.0
  0
ARC
  5
AE
  8
0
  6
CONTINUOUS
 62
     7
 10
-332.1999999999999
 20
266.3
 30
0.0
 40
0.7999999999999952
 50
180.0000000000005
 51
270.0
  0
LINE
  5
AF
  8
0
  6
CONTINUOUS
 62
     7
 10
-332.9999999999999
 20
267.193741096848
 30
0.0
 11
-332.9999999999999
 21
266.3
 31
0.0
  0
ARC
  5
B0
  8
0
  6
CONTINUOUS
 62
     7
 10
-333.4999999999999
 20
265.0
 30
0.0
 40
2.250000000000005
 50
77.16041159309589
 51
102.8395884069041
  0
LINE
  5
B1
  8
0
  6
CONTINUOUS
 62
     7
 10
-333.9999999999999
 20
266.3
 30
0.0
 11
-333.9999999999999
 21
267.193741096848
 31
0.0
  0
ARC
  5
B2
  8
0
  6
CONTINUOUS
 62
     7
 10
-334.8
 20
266.3
 30
0.0
 40
0.800000000000002
 50
270.000000000001
 51
0.0
  0
LINE
  5
B3
  8
0
  6
CONTINUOUS
 62
     7
 10
-336.2499999999999
 20
265.5
 30
0.0
 11
-334.7999999999999
 21
265.5
 31
0.0
  0
LINE
  5
B4
  8
0
  6
CONTINUOUS
 62
     7
 10
-336.2499999999999
 20
264.5
 30
0.0
 11
-336.2499999999999
 21
265.5
 31
0.0
  0
LINE
  5
B5
  8
0
  6
CONTINUOUS
 62
     7
 10
-180.2
 20
370.5
 30
0.0
 11
-178.7500000000001
 21
370.5
 31
0.0
  0
ARC
  5
B6
  8
0
  6
CONTINUOUS
 62
     7
 10
-180.2
 20
371.3
 30
0.0
 40
0.7999999999999952
 50
180.0
 51
270.0
  0
LINE
  5
B7
  8
0
  6
CONTINUOUS
 62
     7
 10
-181.0000000000001
 20
372.193741096848
 30
0.0
 11
-181.0000000000001
 21
371.3
 31
0.0
  0
ARC
  5
B8
  8
0
  6
CONTINUOUS
 62
     7
 10
-181.5000000000001
 20
370.0
 30
0.0
 40
2.250000000000005
 50
77.16041159309589
 51
102.8395884069041
  0
LINE
  5
B9
  8
0
  6
CONTINUOUS
 62
     7
 10
-182.0000000000001
 20
371.3
 30
0.0
 11
-182.0000000000001
 21
372.193741096848
 31
0.0
  0
ARC
  5
BA
  8
0
  6
CONTINUOUS
 62
     7
 10
-182.8
 20
371.3
 30
0.0
 40
0.800000000000002
 50
270.0
 51
0.0
  0
LINE
  5
BB
  8
0
  6
CONTINUOUS
 62
     7
 10
-184.2500000000001
 20
370.5
 30
0.0
 11
-182.8
 21
370.5
 31
0.0
  0
LINE
  5
BC
  8
0
  6
CONTINUOUS
 62
     7
 10
-184.2500000000001
 20
369.5
 30
0.0
 11
-184.2500000000001
 21
370.5
 31
0.0
  0
LINE
  5
BD
  8
0
  6
CONTINUOUS
 62
     7
 10
-182.8
 20
369.5
 30
0.0
 11
-184.2500000000001
 21
369.5
 31
0.0
  0
ARC
  5
BE
  8
0
  6
CONTINUOUS
 62
     7
 10
-182.8
 20
368.7
 30
0.0
 40
0.7999999999999952
 50
0.000000000000497
 51
90.0
  0
LINE
  5
BF
  8
0
  6
CONTINUOUS
 62
     7
 10
-182.0000000000001
 20
367.806258903152
 30
0.0
 11
-182.0000000000001
 21
368.7
 31
0.0
  0
ARC
  5
C0
  8
0
  6
CONTINUOUS
 62
     7
 10
-181.5000000000001
 20
370.0
 30
0.0
 40
2.250000000000005
 50
257.1604115930959
 51
282.8395884069041
  0
LINE
  5
C1
  8
0
  6
CONTINUOUS
 62
     7
 10
-181.0000000000001
 20
368.7
 30
0.0
 11
-181.0000000000001
 21
367.806258903152
 31
0.0
  0
ARC
  5
C2
  8
0
  6
CONTINUOUS
 62
     7
 10
-180.2
 20
368.7
 30
0.0
 40
0.800000000000002
 50
90.000000000001
 51
180.0
  0
LINE
  5
C3
  8
0
  6
CONTINUOUS
 62
     7
 10
-178.7500000000001
 20
369.5
 30
0.0
 11
-180.2
 21
369.5
 31
0.0
  0
LINE
  5
C4
  8
0
  6
CONTINUOUS
 62
     7
 10
-178.7500000000001
 20
370.5
 30
0.0
 11
-178.7500000000001
 21
369.5
 31
0.0
  0
LINE
  5
C5
  8
0
  6
CONTINUOUS
 62
     7
 10
-336.2499999999999
 20
369.5
 30
0.0
 11
-334.7999999999999
 21
369.5
 31
0.0
  0
ARC
  5
C6
  8
0
  6
CONTINUOUS
 62
     7
 10
-334.8
 20
368.7
 30
0.0
 40
0.800000000000002
 50
0.0
 51
89.99999999999898
  0
LINE
  5
C7
  8
0
  6
CONTINUOUS
 62
     7
 10
-333.9999999999999
 20
368.7
 30
0.0
 11
-333.9999999999999
 21
367.806258903152
 31
0.0
  0
ARC
  5
C8
  8
0
  6
CONTINUOUS
 62
     7
 10
-333.4999999999999
 20
370.0
 30
0.0
 40
2.250000000000005
 50
257.1604115930959
 51
282.8395884069041
  0
LINE
  5
C9
  8
0
  6
CONTINUOUS
 62
     7
 10
-332.9999999999999
 20
367.806258903152
 30
0.0
 11
-332.9999999999999
 21
368.7
 31
0.0
  0
ARC
  5
CA
  8
0
  6
CONTINUOUS
 62
     7
 10
-332.1999999999999
 20
368.7
 30
0.0
 40
0.7999999999999952
 50
90.0
 51
179.9999999999995
  0
LINE
  5
CB
  8
0
  6
CONTINUOUS
 62
     7
 10
-332.1999999999999
 20
369.5
 30
0.0
 11
-330.7499999999999
 21
369.5
 31
0.0
  0
LINE
  5
CC
  8
0
  6
CONTINUOUS
 62
     7
 10
-330.75
 20
369.5
 30
0.0
 11
-330.75
 21
370.5
 31
0.0
  0
LINE
  5
CD
  8
0
  6
CONTINUOUS
 62
     7
 10
-330.75
 20
370.5
 30
0.0
 11
-332.2
 21
370.5
 31
0.0
  0
ARC
  5
CE
  8
0
  6
CONTINUOUS
 62
     7
 10
-332.1999999999999
 20
371.3
 30
0.0
 40
0.800000000000002
 50
180.0
 51
270.0
  0
LINE
  5
CF
  8
0
  6
CONTINUOUS
 62
     7
 10
-332.9999999999999
 20
371.3
 30
0.0
 11
-332.9999999999999
 21
372.193741096848
 31
0.0
  0
ARC
  5
D0
  8
0
  6
CONTINUOUS
 62
     7
 10
-333.4999999999999
 20
370.0
 30
0.0
 40
2.250000000000005
 50
77.16041159309587
 51
102.8395884069042
  0
LINE
  5
D1
  8
0
  6
CONTINUOUS
 62
     7
 10
-333.9999999999999
 20
372.193741096848
 30
0.0
 11
-333.9999999999999
 21
371.3
 31
0.0
  0
ARC
  5
D2
  8
0
  6
CONTINUOUS
 62
     7
 10
-334.8
 20
371.3
 30
0.0
 40
0.7999999999999952
 50
270.0
 51
0.0
  0
LINE
  5
D3
  8
0
  6
CONTINUOUS
 62
     7
 10
-334.8
 20
370.5
 30
0.0
 11
-336.25
 21
370.5
 31
0.0
  0
LINE
  5
D4
  8
0
  6
CONTINUOUS
 62
     7
 10
-336.2499999999999
 20
370.5
 30
0.0
 11
-336.2499999999999
 21
369.5
 31
0.0
  0
CIRCLE
  5
D5
  8
0
  6
CONTINUOUS
 62
     7
 10
-211.5
 20
275.75
 30
0.0
 40
1.649999999999999
  0
CIRCLE
  5
D6
  8
0
  6
CONTINUOUS
 62
     7
 10
-257.5
 20
275.75
 30
0.0
 40
1.65
  0
CIRCLE
  5
D7
  8
0
  6
CONTINUOUS
 62
     7
 10
-303.5
 20
275.75
 30
0.0
 40
1.649999999999999
  0
CIRCLE
  5
D8
  8
0
  6
CONTINUOUS
 62
     7
 10
-211.5
 20
359.25
 30
0.0
 40
1.649999999999999
  0
CIRCLE
  5
D9
  8
0
  6
CONTINUOUS
 62
     7
 10
-257.5
 20
359.25
 30
0.0
 40
1.65
  0
CIRCLE
  5
DA
  8
0
  6
CONTINUOUS
 62
     7
 10
-303.5
 20
359.25
 30
0.0
 40
1.649999999999999
  0
ARC
  5
DB
  8
0
  6
CONTINUOUS
 62
     7
 10
-331.8
 20
269.5
 30
0.0
 40
0.5000000000000004
 50
270.0
 51
359.9999999999993
  0
ARC
  5
DC
  8
0
  6
CONTINUOUS
 62
     7
 10
-331.8
 20
270.2
 30
0.0
 40
0.5000000000000004
 50
0.0
 51
90.00000000000159
  0
LINE
  5
DD
  8
0
  6
CONTINUOUS
 62
     7
 10
-335.7
 20
269.5
 30
0.0
 11
-335.7
 21
270.2
 31
0.0
  0
LINE
  5
DE
  8
0
  6
CONTINUOUS
 62
     7
 10
-170.65
 20
361.8
 30
0.0
 11
-170.65
 21
371.35
 31
0.0
  0
ARC
  5
DF
  8
0
  6
CONTINUOUS
 62
     7
 10
-171.65
 20
361.8
 30
0.0
 40
1.000000000000001
 50
270.0
 51
0.0000000000003979
  0
LINE
  5
E0
  8
0
  6
CONTINUOUS
 62
     7
 10
-172.35
 20
360.8
 30
0.0
 11
-171.65
 21
360.8
 31
0.0
  0
ARC
  5
E1
  8
0
  6
CONTINUOUS
 62
     7
 10
-173.65
 20
263.65
 30
0.0
 40
3.000000000000003
 50
270.0
 51
359.9999999999998
  0
ARC
  5
E2
  8
0
  6
CONTINUOUS
 62
     7
 10
-342.65
 20
275.2
 30
0.0
 40
1.000000000000001
 50
270.0
 51
359.9999999999996
  0
ARC
  5
E3
  8
0
  6
CONTINUOUS
 62
     7
 10
-342.65
 20
287.8
 30
0.0
 40
1.000000000000001
 50
0.0
 51
90.0
  0
LINE
  5
E4
  8
0
  6
CONTINUOUS
 62
     7
 10
-343.35
 20
288.8
 30
0.0
 11
-342.65
 21
288.8
 31
0.0
  0
LINE
  5
E5
  8
0
  6
CONTINUOUS
 62
     7
 10
-344.35
 20
289.8
 30
0.0
 11
-344.35
 21
345.2
 31
0.0
  0
ARC
  5
E6
  8
0
  6
CONTINUOUS
 62
     7
 10
-342.65
 20
347.2
 30
0.0
 40
1.000000000000001
 50
270.0
 51
0.0
  0
ARC
  5
E7
  8
0
  6
CONTINUOUS
 62
     7
 10
-343.35
 20
361.8
 30
0.0
 40
1.000000000000001
 50
179.9999999999995
 51
270.0
  0
LINE
  5
E8
  8
0
  6
CONTINUOUS
 62
     7
 10
-344.35
 20
361.8
 30
0.0
 11
-344.35
 21
371.35
 31
0.0
  0
ARC
  5
E9
  8
0
  6
CONTINUOUS
 62
     7
 10
-173.65
 20
371.35
 30
0.0
 40
3.000000000000003
 50
0.000000000000265
 51
90.0
  0
LINE
  5
EA
  8
0
  6
CONTINUOUS
 62
     7
 10
-335.7
 20
365.5
 30
0.0
 11
-335.7
 21
364.8
 31
0.0
  0
LINE
  5
EB
  8
0
  6
CONTINUOUS
 62
     7
 10
-335.2
 20
364.3
 30
0.0
 11
-331.8
 21
364.3
 31
0.0
  0
ARC
  5
EC
  8
0
  6
CONTINUOUS
 62
     7
 10
-331.8
 20
364.8
 30
0.0
 40
0.5000000000000004
 50
269.9999999999984
 51
0.0
  0
ARC
  5
ED
  8
0
  6
CONTINUOUS
 62
     7
 10
-331.8
 20
365.5
 30
0.0
 40
0.5000000000000004
 50
0.0000000000007951
 51
90.0
  0
CIRCLE
  5
EE
  8
0
  6
CONTINUOUS
 62
     7
 10
-303.5
 20
359.25
 30
0.0
 40
4.000000000000004
  0
ARC
  5
EF
  8
0
  6
CONTINUOUS
 62
     7
 10
-264.1
 20
362.0
 30
0.0
 40
1.5
 50
0.0
 51
89.99999999999991
  0
LINE
  5
F0
  8
0
  6
CONTINUOUS
 62
     7
 10
-264.1
 20
363.5000000000001
 30
0.0
 11
-296.9
 21
363.5000000000001
 31
0.0
  0
ARC
  5
F1
  8
0
  6
CONTINUOUS
 62
     7
 10
-296.9
 20
362.0
 30
0.0
 40
1.500000000000001
 50
90.0
 51
180.0
  0
LINE
  5
F2
  8
0
  6
CONTINUOUS
 62
     7
 10
-298.4
 20
362.0
 30
0.0
 11
-298.4
 21
359.25
 31
0.0
  0
ARC
  5
F3
  8
0
  6
CONTINUOUS
 62
     7
 10
-303.5
 20
359.25
 30
0.0
 40
5.100000000000001
 50
180.0
 51
0.0
  0
LINE
  5
F4
  8
0
  6
CONTINUOUS
 62
     7
 10
-308.6
 20
359.25
 30
0.0
 11
-308.6
 21
362.0
 31
0.0
  0
ARC
  5
F5
  8
0
  6
CONTINUOUS
 62
     7
 10
-325.5
 20
362.0
 30
0.0
 40
1.500000000000001
 50
90.0
 51
179.9999999999995
  0
LINE
  5
F6
  8
0
  6
CONTINUOUS
 62
     7
 10
-327.0
 20
362.0
 30
0.0
 11
-327.0
 21
272.9999999999999
 31
0.0
  0
ARC
  5
F7
  8
0
  6
CONTINUOUS
 62
     7
 10
-325.5
 20
273.0
 30
0.0
 40
1.500000000000001
 50
180.0000000000004
 51
270.0
  0
LINE
  5
F8
  8
0
  6
CONTINUOUS
 62
     7
 10
-310.1
 20
271.5
 30
0.0
 11
-325.5
 21
271.5
 31
0.0
  0
ARC
  5
F9
  8
0
  6
CONTINUOUS
 62
     7
 10
-310.1
 20
273.0
 30
0.0
 40
1.500000000000001
 50
270.0
 51
0.0
  0
ARC
  5
FA
  8
0
  6
CONTINUOUS
 62
     7
 10
-303.5
 20
275.75
 30
0.0
 40
5.100000000000001
 50
0.0
 51
180.0
  0
LINE
  5
FB
  8
0
  6
CONTINUOUS
 62
     7
 10
-298.4
 20
273.0
 30
0.0
 11
-298.4
 21
275.75
 31
0.0
  0
ARC
  5
FC
  8
0
  6
CONTINUOUS
 62
     7
 10
-296.9
 20
273.0
 30
0.0
 40
1.500000000000001
 50
180.0
 51
270.0
  0
LINE
  5
FD
  8
0
  6
CONTINUOUS
 62
     7
 10
-264.1
 20
271.4999999999999
 30
0.0
 11
-296.9
 21
271.4999999999999
 31
0.0
  0
ARC
  5
FE
  8
0
  6
CONTINUOUS
 62
     7
 10
-264.1
 20
273.0
 30
0.0
 40
1.5
 50
270.0000000000001
 51
0.0
  0
LINE
  5
FF
  8
0
  6
CONTINUOUS
 62
     7
 10
-262.6
 20
275.75
 30
0.0
 11
-262.6
 21
273.0
 31
0.0
  0
ARC
  5
100
  8
0
  6
CONTINUOUS
 62
     7
 10
-257.5
 20
275.75
 30
0.0
 40
5.1
 50
359.9999999999999
 51
180.0000000000001
  0
LINE
  5
101
  8
0
  6
CONTINUOUS
 62
     7
 10
-216.6
 20
273.0
 30
0.0
 11
-216.6
 21
275.75
 31
0.0
  0
LINE
  5
102
  8
0
  6
CONTINUOUS
 62
     7
 10
-188.0
 20
362.0
 30
0.0
 11
-188.0
 21
272.9999999999999
 31
0.0
  0
ARC
  5
103
  8
0
  6
CONTINUOUS
 62
     7
 10
-189.5
 20
362.0
 30
0.0
 40
1.500000000000001
 50
0.0000000000005116
 51
90.0
  0
LINE
  5
104
  8
0
  6
CONTINUOUS
 62
     7
 10
-204.9
 20
363.5
 30
0.0
 11
-189.5
 21
363.5
 31
0.0
  0
ARC
  5
105
  8
0
  6
CONTINUOUS
 62
     7
 10
-204.9
 20
362.0
 30
0.0
 40
1.500000000000001
 50
90.0
 51
180.0
  0
ARC
  5
106
  8
0
  6
CONTINUOUS
 62
     7
 10
-257.5
 20
359.25
 30
0.0
 40
5.1
 50
179.9999999999999
 51
0.0000000000000568
  0
CIRCLE
  5
107
  8
0
  6
CONTINUOUS
 62
     7
 10
-257.5
 20
359.25
 30
0.0
 40
4.000000000000003
  0
ARC
  5
108
  8
0
  6
CONTINUOUS
 62
     7
 10
-218.1
 20
273.0
 30
0.0
 40
1.500000000000001
 50
270.0
 51
0.0
  0
ARC
  5
109
  8
0
  6
CONTINUOUS
 62
     7
 10
-343.35
 20
289.8
 30
0.0
 40
1.000000000000001
 50
180.0000000000004
 51
270.0
  0
ARC
  5
10A
  8
0
  6
CONTINUOUS
 62
     7
 10
-250.9
 20
273.0
 30
0.0
 40
1.5
 50
180.0
 51
269.9999999999999
  0
LINE
  5
10B
  8
0
  6
CONTINUOUS
 62
     7
 10
-308.6
 20
275.75
 30
0.0
 11
-308.6
 21
273.0
 31
0.0
  0
ARC
  5
10C
  8
0
  6
CONTINUOUS
 62
     7
 10
-343.35
 20
273.2
 30
0.0
 40
1.000000000000001
 50
90.0
 51
180.0000000000004
  0
ARC
  5
10D
  8
0
  6
CONTINUOUS
 62
     7
 10
-310.1
 20
362.0
 30
0.0
 40
1.500000000000001
 50
0.0
 51
90.0
  0
ARC
  5
10E
  8
0
  6
CONTINUOUS
 62
     7
 10
-172.35
 20
359.8
 30
0.0
 40
1.000000000000001
 50
90.0
 51
179.9999999999995
  0
LINE
  5
10F
  8
0
  6
CONTINUOUS
 62
     7
 10
-173.35
 20
347.2
 30
0.0
 11
-173.35
 21
359.8
 31
0.0
  0
ARC
  5
110
  8
0
  6
CONTINUOUS
 62
     7
 10
-172.35
 20
347.2
 30
0.0
 40
1.000000000000001
 50
180.0
 51
270.0
  0
LINE
  5
111
  8
0
  6
CONTINUOUS
 62
     7
 10
-171.65
 20
346.2
 30
0.0
 11
-172.35
 21
346.2
 31
0.0
  0
ARC
  5
112
  8
0
  6
CONTINUOUS
 62
     7
 10
-171.65
 20
345.2
 30
0.0
 40
1.000000000000001
 50
0.0000000000003976
 51
90.0
  0
LINE
  5
113
  8
0
  6
CONTINUOUS
 62
     7
 10
-170.65
 20
289.8
 30
0.0
 11
-170.65
 21
345.2
 31
0.0
  0
LINE
  5
114
  8
0
  6
CONTINUOUS
 62
     7
 10
-204.9
 20
271.5
 30
0.0
 11
-189.5
 21
271.5
 31
0.0
  0
ARC
  5
115
  8
0
  6
CONTINUOUS
 62
     7
 10
-204.9
 20
273.0
 30
0.0
 40
1.500000000000001
 50
180.0
 51
270.0
  0
ARC
  5
116
  8
0
  6
CONTINUOUS
 62
     7
 10
-211.5
 20
359.25
 30
0.0
 40
5.100000000000001
 50
180.0
 51
0.0
  0
LINE
  5
117
  8
0
  6
CONTINUOUS
 62
     7
 10
-310.1
 20
363.5
 30
0.0
 11
-325.5
 21
363.5
 31
0.0
  0
LINE
  5
118
  8
0
  6
CONTINUOUS
 62
     7
 10
-344.35
 20
273.2
 30
0.0
 11
-344.35
 21
263.65
 31
0.0
  0
ARC
  5
119
  8
0
  6
CONTINUOUS
 62
     7
 10
-171.65
 20
289.8
 30
0.0
 40
1.000000000000001
 50
270.0
 51
359.9999999999996
  0
ARC
  5
11A
  8
0
  6
CONTINUOUS
 62
     7
 10
-250.9
 20
362.0
 30
0.0
 40
1.5
 50
90.00000000000006
 51
180.0
  0
LINE
  5
11B
  8
0
  6
CONTINUOUS
 62
     7
 10
-252.4
 20
359.25
 30
0.0
 11
-252.4
 21
362.0
 31
0.0
  0
ARC
  5
11C
  8
0
  6
CONTINUOUS
 62
     7
 10
-342.65
 20
359.8
 30
0.0
 40
1.000000000000001
 50
0.0000000000003976
 51
90.0
  0
CIRCLE
  5
11D
  8
0
  6
CONTINUOUS
 62
     7
 10
-257.5
 20
275.75
 30
0.0
 40
4.000000000000003
  0
CIRCLE
  5
11E
  8
0
  6
CONTINUOUS
 62
     7
 10
-303.5
 20
275.75
 30
0.0
 40
4.000000000000004
  0
LINE
  5
11F
  8
0
  6
CONTINUOUS
 62
     7
 10
-343.35
 20
346.2
 30
0.0
 11
-342.65
 21
346.2
 31
0.0
  0
ARC
  5
120
  8
0
  6
CONTINUOUS
 62
     7
 10
-343.35
 20
345.2
 30
0.0
 40
1.000000000000001
 50
90.0
 51
179.9999999999995
  0
LINE
  5
121
  8
0
  6
CONTINUOUS
 62
     7
 10
-331.3
 20
270.2
 30
0.0
 11
-331.3
 21
269.4999999999999
 31
0.0
  0
LINE
  5
122
  8
0
  6
CONTINUOUS
 62
     7
 10
-335.2
 20
270.7
 30
0.0
 11
-331.8
 21
270.7
 31
0.0
  0
ARC
  5
123
  8
0
  6
CONTINUOUS
 62
     7
 10
-335.2
 20
270.2
 30
0.0
 40
0.5000000000000004
 50
90.0
 51
180.0
  0
ARC
  5
124
  8
0
  6
CONTINUOUS
 62
     7
 10
-172.35
 20
275.2
 30
0.0
 40
1.000000000000001
 50
180.0000000000004
 51
270.0
  0
ARC
  5
125
  8
0
  6
CONTINUOUS
 62
     7
 10
-218.1
 20
362.0
 30
0.0
 40
1.500000000000001
 50
0.0
 51
90.0
  0
LINE
  5
126
  8
0
  6
CONTINUOUS
 62
     7
 10
-341.35
 20
374.35
 30
0.0
 11
-173.65
 21
374.35
 31
0.0
  0
ARC
  5
127
  8
0
  6
CONTINUOUS
 62
     7
 10
-341.35
 20
263.65
 30
0.0
 40
3.000000000000003
 50
180.0000000000002
 51
270.0
  0
ARC
  5
128
  8
0
  6
CONTINUOUS
 62
     7
 10
-189.5
 20
273.0
 30
0.0
 40
1.500000000000001
 50
270.0
 51
359.9999999999995
  0
LINE
  5
129
  8
0
  6
CONTINUOUS
 62
     7
 10
-206.4
 20
275.75
 30
0.0
 11
-206.4
 21
273.0
 31
0.0
  0
ARC
  5
12A
  8
0
  6
CONTINUOUS
 62
     7
 10
-211.5
 20
275.75
 30
0.0
 40
5.100000000000001
 50
0.0
 51
180.0
  0
LINE
  5
12B
  8
0
  6
CONTINUOUS
 62
     7
 10
-341.65
 20
287.8
 30
0.0
 11
-341.65
 21
275.2
 31
0.0
  0
LINE
  5
12C
  8
0
  6
CONTINUOUS
 62
     7
 10
-250.9
 20
271.4999999999999
 30
0.0
 11
-218.1
 21
271.4999999999999
 31
0.0
  0
LINE
  5
12D
  8
0
  6
CONTINUOUS
 62
     7
 10
-252.4
 20
275.75
 30
0.0
 11
-252.4
 21
273.0
 31
0.0
  0
LINE
  5
12E
  8
0
  6
CONTINUOUS
 62
     7
 10
-331.3
 20
364.8
 30
0.0
 11
-331.3
 21
365.5000000000001
 31
0.0
  0
LINE
  5
12F
  8
0
  6
CONTINUOUS
 62
     7
 10
-206.4
 20
359.25
 30
0.0
 11
-206.4
 21
362.0
 31
0.0
  0
LINE
  5
130
  8
0
  6
CONTINUOUS
 62
     7
 10
-341.35
 20
260.65
 30
0.0
 11
-173.65
 21
260.65
 31
0.0
  0
LINE
  5
131
  8
0
  6
CONTINUOUS
 62
     7
 10
-216.6
 20
362.0
 30
0.0
 11
-216.6
 21
359.25
 31
0.0
  0
LINE
  5
132
  8
0
  6
CONTINUOUS
 62
     7
 10
-250.9
 20
363.5000000000001
 30
0.0
 11
-218.1
 21
363.5000000000001
 31
0.0
  0
ARC
  5
133
  8
0
  6
CONTINUOUS
 62
     7
 10
-341.35
 20
371.35
 30
0.0
 40
3.000000000000003
 50
90.0
 51
179.9999999999998
  0
LINE
  5
134
  8
0
  6
CONTINUOUS
 62
     7
 10
-341.65
 20
347.2
 30
0.0
 11
-341.65
 21
359.8
 31
0.0
  0
LINE
  5
135
  8
0
  6
CONTINUOUS
 62
     7
 10
-262.6
 20
359.25
 30
0.0
 11
-262.6
 21
362.0
 31
0.0
  0
ARC
  5
136
  8
0
  6
CONTINUOUS
 62
     7
 10
-335.2
 20
269.5
 30
0.0
 40
0.5000000000000004
 50
180.0
 51
270.0000000000015
  0
ARC
  5
137
  8
0
  6
CONTINUOUS
 62
     7
 10
-172.35
 20
287.8
 30
0.0
 40
1.000000000000001
 50
90.0
 51
180.0
  0
LINE
  5
138
  8
0
  6
CONTINUOUS
 62
     7
 10
-342.65
 20
274.2
 30
0.0
 11
-343.35
 21
274.2
 31
0.0
  0
LINE
  5
139
  8
0
  6
CONTINUOUS
 62
     7
 10
-183.7
 20
364.8
 30
0.0
 11
-183.7
 21
365.5000000000001
 31
0.0
  0
ARC
  5
13A
  8
0
  6
CONTINUOUS
 62
     7
 10
-335.2
 20
364.8
 30
0.0
 40
0.5000000000000004
 50
180.0
 51
270.0
  0
ARC
  5
13B
  8
0
  6
CONTINUOUS
 62
     7
 10
-335.2
 20
365.5
 30
0.0
 40
0.5000000000000004
 50
89.99999999999841
 51
180.0
  0
LINE
  5
13C
  8
0
  6
CONTINUOUS
 62
     7
 10
-171.65
 20
288.8
 30
0.0
 11
-172.35
 21
288.8
 31
0.0
  0
LINE
  5
13D
  8
0
  6
CONTINUOUS
 62
     7
 10
-179.8
 20
270.7
 30
0.0
 11
-183.2
 21
270.7
 31
0.0
  0
CIRCLE
  5
13E
  8
0
  6
CONTINUOUS
 62
     7
 10
-211.5
 20
275.75
 30
0.0
 40
4.000000000000004
  0
LINE
  5
13F
  8
0
  6
CONTINUOUS
 62
     7
 10
-342.65
 20
360.8
 30
0.0
 11
-343.35
 21
360.8
 31
0.0
  0
ARC
  5
140
  8
0
  6
CONTINUOUS
 62
     7
 10
-183.2
 20
364.8
 30
0.0
 40
0.5000000000000004
 50
180.0
 51
270.0000000000015
  0
LINE
  5
141
  8
0
  6
CONTINUOUS
 62
     7
 10
-172.35
 20
274.2
 30
0.0
 11
-171.65
 21
274.2
 31
0.0
  0
ARC
  5
142
  8
0
  6
CONTINUOUS
 62
     7
 10
-183.2
 20
269.5
 30
0.0
 40
0.5000000000000004
 50
180.0000000000008
 51
270.0
  0
LINE
  5
143
  8
0
  6
CONTINUOUS
 62
     7
 10
-183.7
 20
270.2
 30
0.0
 11
-183.7
 21
269.4999999999999
 31
0.0
  0
ARC
  5
144
  8
0
  6
CONTINUOUS
 62
     7
 10
-183.2
 20
270.2
 30
0.0
 40
0.5000000000000004
 50
89.99999999999841
 51
180.0
  0
LINE
  5
145
  8
0
  6
CONTINUOUS
 62
     7
 10
-170.65
 20
273.2
 30
0.0
 11
-170.65
 21
263.65
 31
0.0
  0
ARC
  5
146
  8
0
  6
CONTINUOUS
 62
     7
 10
-179.8
 20
270.2
 30
0.0
 40
0.5000000000000004
 50
0.0
 51
90.0
  0
LINE
  5
147
  8
0
  6
CONTINUOUS
 62
     7
 10
-179.3
 20
269.5
 30
0.0
 11
-179.3
 21
270.2
 31
0.0
  0
ARC
  5
148
  8
0
  6
CONTINUOUS
 62
     7
 10
-179.8
 20
269.5
 30
0.0
 40
0.5000000000000004
 50
269.9999999999984
 51
0.0
  0
CIRCLE
  5
149
  8
0
  6
CONTINUOUS
 62
     7
 10
-211.5
 20
359.25
 30
0.0
 40
4.000000000000004
  0
ARC
  5
14A
  8
0
  6
CONTINUOUS
 62
     7
 10
-179.8
 20
364.8
 30
0.0
 40
0.5000000000000004
 50
270.0
 51
0.0
  0
ARC
  5
14B
  8
0
  6
CONTINUOUS
 62
     7
 10
-171.65
 20
273.2
 30
0.0
 40
1.000000000000001
 50
359.9999999999996
 51
90.0
  0
ARC
  5
14C
  8
0
  6
CONTINUOUS
 62
     7
 10
-179.8
 20
365.5
 30
0.0
 40
0.5000000000000004
 50
0.0
 51
90.00000000000159
  0
LINE
  5
14D
  8
0
  6
CONTINUOUS
 62
     7
 10
-173.35
 20
287.8
 30
0.0
 11
-173.35
 21
275.2
 31
0.0
  0
LINE
  5
14E
  8
0
  6
CONTINUOUS
 62
     7
 10
-179.8
 20
364.3
 30
0.0
 11
-183.2
 21
364.3
 31
0.0
  0
LINE
  5
14F
  8
0
  6
CONTINUOUS
 62
     7
 10
-179.3
 20
365.5
 30
0.0
 11
-179.3
 21
364.8
 31
0.0
  0
ARC
  5
150
  8
0
  6
CONTINUOUS
 62
     7
 10
-183.2
 20
365.5
 30
0.0
 40
0.5000000000000004
 50
90.0
 51
179.9999999999992
  0
CIRCLE
  5
151
  8
0
  6
CONTINUOUS
 62
     7
 10
-303.5
 20
359.25
 30
0.0
 40
2.500000000000002
  0
CIRCLE
  5
152
  8
0
  6
CONTINUOUS
 62
     7
 10
-211.5
 20
275.75
 30
0.0
 40
2.099999999999998
  0
CIRCLE
  5
153
  8
0
  6
CONTINUOUS
 62
     7
 10
-257.5
 20
359.25
 30
0.0
 40
2.100000000000004
  0
CIRCLE
  5
154
  8
0
  6
CONTINUOUS
 62
     7
 10
-303.5
 20
275.75
 30
0.0
 40
2.099999999999998
  0
CIRCLE
  5
155
  8
0
  6
CONTINUOUS
 62
     7
 10
-211.5
 20
359.25
 30
0.0
 40
2.099999999999998
  0
CIRCLE
  5
156
  8
0
  6
CONTINUOUS
 62
     7
 10
-257.5
 20
275.75
 30
0.0
 40
2.100000000000004
  0
CIRCLE
  5
157
  8
0
  6
CONTINUOUS
 62
     7
 10
-303.5
 20
359.25
 30
0.0
 40
2.099999999999998
  0
ARC
  5
158
  8
0
  6
CONTINUOUS
 62
     7
 10
-331.9999999999998
 20
269.9999999999999
 30
0.0
 40
0.5000000000000004
 50
0.0
 51
90.0
  0
LINE
  5
159
  8
0
  6
CONTINUOUS
 62
     7
 10
-331.4999999999998
 20
269.7000000000001
 30
0.0
 11
-331.4999999999998
 21
269.9999999999999
 31
0.0
  0
ARC
  5
15A
  8
0
  6
CONTINUOUS
 62
     7
 10
-331.9999999999998
 20
269.7000000000001
 30
0.0
 40
0.5000000000000004
 50
270.0000000000015
 51
0.0
  0
LINE
  5
15B
  8
0
  6
CONTINUOUS
 62
     7
 10
-334.9999999999998
 20
269.2000000000001
 30
0.0
 11
-331.9999999999998
 21
269.2000000000001
 31
0.0
  0
ARC
  5
15C
  8
0
  6
CONTINUOUS
 62
     7
 10
-334.9999999999998
 20
269.7000000000001
 30
0.0
 40
0.5000000000000004
 50
180.0
 51
270.0
  0
LINE
  5
15D
  8
0
  6
CONTINUOUS
 62
     7
 10
-335.4999999999998
 20
269.9999999999999
 30
0.0
 11
-335.4999999999998
 21
269.7000000000001
 31
0.0
  0
ARC
  5
15E
  8
0
  6
CONTINUOUS
 62
     7
 10
-334.9999999999998
 20
269.9999999999999
 30
0.0
 40
0.5000000000000004
 50
90.00000000000159
 51
180.0
  0
LINE
  5
15F
  8
0
  6
CONTINUOUS
 62
     7
 10
-331.9999999999998
 20
270.5000000000001
 30
0.0
 11
-334.9999999999998
 21
270.5000000000001
 31
0.0
  0
LINE
  5
160
  8
0
  6
CONTINUOUS
 62
     7
 10
-183.5000000000002
 20
365.2999999999999
 30
0.0
 11
-183.5000000000002
 21
365.0000000000001
 31
0.0
  0
ARC
  5
161
  8
0
  6
CONTINUOUS
 62
     7
 10
-180.0000000000002
 20
365.2999999999999
 30
0.0
 40
0.5000000000000004
 50
0.0
 51
90.0
  0
ARC
  5
162
  8
0
  6
CONTINUOUS
 62
     7
 10
-180.0000000000002
 20
365.0000000000001
 30
0.0
 40
0.5000000000000004
 50
270.0000000000015
 51
0.0
  0
LINE
  5
163
  8
0
  6
CONTINUOUS
 62
     7
 10
-180.0000000000002
 20
365.7999999999999
 30
0.0
 11
-183.0000000000002
 21
365.7999999999999
 31
0.0
  0
LINE
  5
164
  8
0
  6
CONTINUOUS
 62
     7
 10
-179.5000000000002
 20
365.0000000000001
 30
0.0
 11
-179.5000000000002
 21
365.2999999999999
 31
0.0
  0
ARC
  5
165
  8
0
  6
CONTINUOUS
 62
     7
 10
-183.0000000000002
 20
365.0000000000001
 30
0.0
 40
0.5000000000000004
 50
180.0
 51
270.0
  0
ARC
  5
166
  8
0
  6
CONTINUOUS
 62
     7
 10
-183.0000000000002
 20
365.2999999999999
 30
0.0
 40
0.5000000000000004
 50
90.00000000000159
 51
180.0
  0
LINE
  5
167
  8
0
  6
CONTINUOUS
 62
     7
 10
-183.0000000000002
 20
364.4999999999999
 30
0.0
 11
-180.0000000000001
 21
364.4999999999999
 31
0.0
  0
LINE
  5
168
  8
0
  6
CONTINUOUS
 62
     7
 10
-331.4999999999998
 20
365.2999999999999
 30
0.0
 11
-331.4999999999998
 21
365.0000000000001
 31
0.0
  0
ARC
  5
169
  8
0
  6
CONTINUOUS
 62
     7
 10
-331.9999999999998
 20
365.0000000000001
 30
0.0
 40
0.5000000000000004
 50
270.0
 51
0.0
  0
ARC
  5
16A
  8
0
  6
CONTINUOUS
 62
     7
 10
-331.9999999999998
 20
365.2999999999999
 30
0.0
 40
0.5000000000000004
 50
0.0
 51
89.99999999999841
  0
ARC
  5
16B
  8
0
  6
CONTINUOUS
 62
     7
 10
-334.9999999999998
 20
365.2999999999999
 30
0.0
 40
0.5000000000000004
 50
90.0
 51
180.0
  0
ARC
  5
16C
  8
0
  6
CONTINUOUS
 62
     7
 10
-334.9999999999998
 20
365.0000000000001
 30
0.0
 40
0.5000000000000004
 50
180.0
 51
269.9999999999984
  0
LINE
  5
16D
  8
0
  6
CONTINUOUS
 62
     7
 10
-334.9999999999998
 20
365.7999999999999
 30
0.0
 11
-331.9999999999998
 21
365.7999999999999
 31
0.0
  0
LINE
  5
16E
  8
0
  6
CONTINUOUS
 62
     7
 10
-331.9999999999998
 20
364.4999999999999
 30
0.0
 11
-334.9999999999998
 21
364.4999999999999
 31
0.0
  0
LINE
  5
16F
  8
0
  6
CONTINUOUS
 62
     7
 10
-335.4999999999998
 20
365.0000000000001
 30
0.0
 11
-335.4999999999998
 21
365.2999999999999
 31
0.0
  0
LINE
  5
170
  8
0
  6
CONTINUOUS
 62
     7
 10
-180.0000000000002
 20
269.2000000000001
 30
0.0
 11
-183.0000000000002
 21
269.2000000000001
 31
0.0
  0
LINE
  5
171
  8
0
  6
CONTINUOUS
 62
     7
 10
-183.0000000000002
 20
270.5000000000001
 30
0.0
 11
-180.0000000000001
 21
270.5000000000001
 31
0.0
  0
ARC
  5
172
  8
0
  6
CONTINUOUS
 62
     7
 10
-183.0000000000002
 20
269.7000000000001
 30
0.0
 40
0.5000000000000004
 50
180.0
 51
269.9999999999984
  0
ARC
  5
173
  8
0
  6
CONTINUOUS
 62
     7
 10
-180.0000000000002
 20
269.9999999999999
 30
0.0
 40
0.5000000000000004
 50
0.0
 51
89.99999999999841
  0
LINE
  5
174
  8
0
  6
CONTINUOUS
 62
     7
 10
-179.5000000000002
 20
269.9999999999999
 30
0.0
 11
-179.5000000000002
 21
269.7000000000001
 31
0.0
  0
ARC
  5
175
  8
0
  6
CONTINUOUS
 62
     7
 10
-183.0000000000002
 20
269.9999999999999
 30
0.0
 40
0.5000000000000004
 50
90.0
 51
180.0
  0
LINE
  5
176
  8
0
  6
CONTINUOUS
 62
     7
 10
-183.5000000000002
 20
269.7000000000001
 30
0.0
 11
-183.5000000000002
 21
269.9999999999999
 31
0.0
  0
ARC
  5
177
  8
0
  6
CONTINUOUS
 62
     7
 10
-180.0000000000002
 20
269.7000000000001
 30
0.0
 40
0.5000000000000004
 50
270.0
 51
0.0
  0
ARC
  5
178
  8
0
  6
CONTINUOUS
 62
     7
 10
-341.9999999999999
 20
263.0
 30
0.0
 40
3.000000000000003
 50
180.0
 51
270.0
  0
LINE
  5
179
  8
0
  6
CONTINUOUS
 62
     7
 10
-167.25
 20
372.5
 30
0.0
 11
-167.25
 21
262.4999999999999
 31
0.0
  0
LINE
  5
17A
  8
0
  6
CONTINUOUS
 62
     7
 10
-169.2499999999999
 20
262.5
 30
0.0
 11
-169.2499999999999
 21
372.5000000000001
 31
0.0
  0
LINE
  5
17B
  8
0
  6
CONTINUOUS
 62
     7
 10
-341.9999999999999
 20
260.0
 30
0.0
 11
-173.0
 21
260.0
 31
0.0
  0
LINE
  5
17C
  8
0
  6
CONTINUOUS
 62
     7
 10
-344.9999999999999
 20
372.0
 30
0.0
 11
-344.9999999999999
 21
263.0
 31
0.0
  0
LINE
  5
17D
  8
0
  6
CONTINUOUS
 62
     7
 10
-167.25
 20
262.5
 30
0.0
 11
-169.2499999999999
 21
262.5
 31
0.0
  0
ARC
  5
17E
  8
0
  6
CONTINUOUS
 62
     7
 10
-173.0
 20
263.0
 30
0.0
 40
3.000000000000003
 50
270.0
 51
0.0
  0
LINE
  5
17F
  8
0
  6
CONTINUOUS
 62
     7
 10
-170.0
 20
263.0
 30
0.0
 11
-170.0
 21
372.0
 31
0.0
  0
ARC
  5
180
  8
0
  6
CONTINUOUS
 62
     7
 10
-173.0
 20
372.0
 30
0.0
 40
3.000000000000003
 50
0.0
 51
90.0
  0
LINE
  5
181
  8
0
  6
CONTINUOUS
 62
     7
 10
-173.0
 20
375.0
 30
0.0
 11
-341.9999999999999
 21
375.0
 31
0.0
  0
ARC
  5
182
  8
0
  6
CONTINUOUS
 62
     7
 10
-341.9999999999999
 20
372.0
 30
0.0
 40
3.000000000000003
 50
90.0
 51
180.0
  0
ARC
  5
183
  8
0
  6
CONTINUOUS
 62
     7
 10
-173.0
 20
263.0
 30
0.0
 40
6.499999999999999
 50
270.0
 51
0.0
  0
ARC
  5
184
  8
0
  6
CONTINUOUS
 62
     7
 10
-341.9999999999999
 20
372.0
 30
0.0
 40
6.499999999999999
 50
90.0
 51
180.0
  0
ARC
  5
185
  8
0
  6
CONTINUOUS
 62
     7
 10
-173.0
 20
372.0
 30
0.0
 40
6.500000000000005
 50
359.9999999999999
 51
90.0
  0
LINE
  5
186
  8
0
  6
CONTINUOUS
 62
     7
 10
-345.75
 20
372.5
 30
0.0
 11
-345.75
 21
262.4999999999999
 31
0.0
  0
LINE
  5
187
  8
0
  6
CONTINUOUS
 62
     7
 10
-347.75
 20
262.5
 30
0.0
 11
-347.75
 21
372.5000000000001
 31
0.0
  0
LINE
  5
188
  8
0
  6
CONTINUOUS
 62
     7
 10
-347.75
 20
262.5
 30
0.0
 11
-345.75
 21
262.5
 31
0.0
  0
LINE
  5
189
  8
0
  6
CONTINUOUS
 62
     7
 10
-345.75
 20
372.5
 30
0.0
 11
-347.75
 21
372.5
 31
0.0
  0
LINE
  5
18A
  8
0
  6
CONTINUOUS
 62
     7
 10
-166.5
 20
263.0
 30
0.0
 11
-166.5
 21
372.0
 31
0.0
  0
LINE
  5
18B
  8
0
  6
CONTINUOUS
 62
     7
 10
-341.9999999999999
 20
256.5
 30
0.0
 11
-173.0
 21
256.5
 31
0.0
  0
ARC
  5
18C
  8
0
  6
CONTINUOUS
 62
     7
 10
-341.9999999999999
 20
263.0
 30
0.0
 40
6.500000000000005
 50
179.9999999999999
 51
270.0
  0
LINE
  5
18D
  8
0
  6
CONTINUOUS
 62
     7
 10
-169.2499999999999
 20
372.5
 30
0.0
 11
-167.2499999999999
 21
372.5
 31
0.0
  0
LINE
  5
18E
  8
0
  6
CONTINUOUS
 62
     7
 10
-173.0
 20
378.5
 30
0.0
 11
-341.9999999999999
 21
378.5
 31
0.0
  0
LINE
  5
18F
  8
0
  6
CONTINUOUS
 62
     7
 10
-348.5
 20
372.0
 30
0.0
 11
-348.5
 21
263.0
 31
0.0
  0
LINE
  5
190
  8
0
  6
CONTINUOUS
 62
     7
 10
-337.0
 20
254.7068495434349
 30
0.0
 11
-337.0
 21
256.5
 31
0.0
  0
POLYLINE
  5
191
  8
0
  6
CONTINUOUS
 62
     7
 66
     1
 10
0.0
 20
0.0
 30
0.0
  0
VERTEX
  5
22E
  8
0
  6
CONTINUOUS
 62
     7
 10
-336.9999999999999
 20
254.7068495434349
 30
0.0
  0
VERTEX
  5
22F
  8
0
  6
CONTINUOUS
 62
     7
 10
-336.9961570560806
 20
254.6679799545466
 30
0.0
  0
VERTEX
  5
230
  8
0
  6
CONTINUOUS
 62
     7
 10
-336.9847759065022
 20
254.6306041021609
 30
0.0
  0
VERTEX
  5
231
  8
0
  6
CONTINUOUS
 62
     7
 10
-336.9662939224605
 20
254.5961583193245
 30
0.0
  0
VERTEX
  5
232
  8
0
  6
CONTINUOUS
 62
     7
 10
-336.9414213562372
 20
254.5659663381543
 30
0.0
  0
VERTEX
  5
233
  8
0
  6
CONTINUOUS
 62
     7
 10
-336.9111140466039
 20
254.5411884195548
 30
0.0
  0
VERTEX
  5
234
  8
0
  6
CONTINUOUS
 62
     7
 10
-336.876536686473
 20
254.5227767650422
 30
0.0
  0
VERTEX
  5
235
  8
0
  6
CONTINUOUS
 62
     7
 10
-336.8390180644032
 20
254.511438924174
 30
0.0
  0
VERTEX
  5
236
  8
0
  6
CONTINUOUS
 62
     7
 10
-336.8
 20
254.5076106038165
 30
0.0
  0
SEQEND
  5
334
  8
0
  6
CONTINUOUS
 62
     7
  0
LINE
  5
192
  8
0
  6
CONTINUOUS
 62
     7
 10
-178.2
 20
254.5076106038165
 30
0.0
 11
-184.8
 21
254.5076106038165
 31
0.0
  0
LINE
  5
193
  8
0
  6
CONTINUOUS
 62
     7
 10
-336.8
 20
380.4923893961835
 30
0.0
 11
-330.2
 21
380.4923893961835
 31
0.0
  0
LINE
  5
194
  8
0
  6
CONTINUOUS
 62
     7
 10
-330.0
 20
380.2931504565651
 30
0.0
 11
-330.0
 21
378.5
 31
0.0
  0
POLYLINE
  5
195
  8
0
  6
CONTINUOUS
 62
     7
 66
     1
 10
0.0
 20
0.0
 30
0.0
  0
VERTEX
  5
237
  8
0
  6
CONTINUOUS
 62
     7
 10
-330.0
 20
380.2931504565651
 30
0.0
  0
VERTEX
  5
238
  8
0
  6
CONTINUOUS
 62
     7
 10
-330.0038429439193
 20
380.3320200454534
 30
0.0
  0
VERTEX
  5
239
  8
0
  6
CONTINUOUS
 62
     7
 10
-330.0152240934977
 20
380.3693958978391
 30
0.0
  0
VERTEX
  5
23A
  8
0
  6
CONTINUOUS
 62
     7
 10
-330.0337060775395
 20
380.4038416806754
 30
0.0
  0
VERTEX
  5
23B
  8
0
  6
CONTINUOUS
 62
     7
 10
-330.0585786437627
 20
380.4340336618457
 30
0.0
  0
VERTEX
  5
23C
  8
0
  6
CONTINUOUS
 62
     7
 10
-330.0888859533961
 20
380.4588115804452
 30
0.0
  0
VERTEX
  5
23D
  8
0
  6
CONTINUOUS
 62
     7
 10
-330.1234633135269
 20
380.4772232349578
 30
0.0
  0
VERTEX
  5
23E
  8
0
  6
CONTINUOUS
 62
     7
 10
-330.1609819355967
 20
380.4885610758259
 30
0.0
  0
VERTEX
  5
23F
  8
0
  6
CONTINUOUS
 62
     7
 10
-330.2
 20
380.4923893961835
 30
0.0
  0
SEQEND
  5
335
  8
0
  6
CONTINUOUS
 62
     7
  0
LINE
  5
196
  8
0
  6
CONTINUOUS
 62
     7
 10
-185.0
 20
378.5
 30
0.0
 11
-185.0
 21
380.2931504565651
 31
0.0
  0
POLYLINE
  5
197
  8
0
  6
CONTINUOUS
 62
     7
 66
     1
 10
0.0
 20
0.0
 30
0.0
  0
VERTEX
  5
240
  8
0
  6
CONTINUOUS
 62
     7
 10
-184.7999999999999
 20
380.4923893961835
 30
0.0
  0
VERTEX
  5
241
  8
0
  6
CONTINUOUS
 62
     7
 10
-184.8390180644031
 20
380.488561075826
 30
0.0
  0
VERTEX
  5
242
  8
0
  6
CONTINUOUS
 62
     7
 10
-184.8765366864729
 20
380.4772232349578
 30
0.0
  0
VERTEX
  5
243
  8
0
  6
CONTINUOUS
 62
     7
 10
-184.9111140466038
 20
380.4588115804452
 30
0.0
  0
VERTEX
  5
244
  8
0
  6
CONTINUOUS
 62
     7
 10
-184.9414213562373
 20
380.4340336618457
 30
0.0
  0
VERTEX
  5
245
  8
0
  6
CONTINUOUS
 62
     7
 10
-184.9662939224605
 20
380.4038416806755
 30
0.0
  0
VERTEX
  5
246
  8
0
  6
CONTINUOUS
 62
     7
 10
-184.9847759065023
 20
380.3693958978391
 30
0.0
  0
VERTEX
  5
247
  8
0
  6
CONTINUOUS
 62
     7
 10
-184.9961570560806
 20
380.3320200454534
 30
0.0
  0
VERTEX
  5
248
  8
0
  6
CONTINUOUS
 62
     7
 10
-185.0
 20
380.2931504565651
 30
0.0
  0
SEQEND
  5
336
  8
0
  6
CONTINUOUS
 62
     7
  0
LINE
  5
198
  8
0
  6
CONTINUOUS
 62
     7
 10
-178.0
 20
380.2931504565651
 30
0.0
 11
-178.0
 21
378.5
 31
0.0
  0
POLYLINE
  5
199
  8
0
  6
CONTINUOUS
 62
     7
 66
     1
 10
0.0
 20
0.0
 30
0.0
  0
VERTEX
  5
249
  8
0
  6
CONTINUOUS
 62
     7
 10
-178.0
 20
380.2931504565651
 30
0.0
  0
VERTEX
  5
24A
  8
0
  6
CONTINUOUS
 62
     7
 10
-178.0038429439194
 20
380.3320200454534
 30
0.0
  0
VERTEX
  5
24B
  8
0
  6
CONTINUOUS
 62
     7
 10
-178.0152240934977
 20
380.3693958978391
 30
0.0
  0
VERTEX
  5
24C
  8
0
  6
CONTINUOUS
 62
     7
 10
-178.0337060775395
 20
380.4038416806754
 30
0.0
  0
VERTEX
  5
24D
  8
0
  6
CONTINUOUS
 62
     7
 10
-178.0585786437627
 20
380.4340336618457
 30
0.0
  0
VERTEX
  5
24E
  8
0
  6
CONTINUOUS
 62
     7
 10
-178.0888859533961
 20
380.4588115804452
 30
0.0
  0
VERTEX
  5
24F
  8
0
  6
CONTINUOUS
 62
     7
 10
-178.123463313527
 20
380.4772232349578
 30
0.0
  0
VERTEX
  5
250
  8
0
  6
CONTINUOUS
 62
     7
 10
-178.1609819355968
 20
380.4885610758259
 30
0.0
  0
VERTEX
  5
251
  8
0
  6
CONTINUOUS
 62
     7
 10
-178.2
 20
380.4923893961835
 30
0.0
  0
SEQEND
  5
337
  8
0
  6
CONTINUOUS
 62
     7
  0
LINE
  5
19A
  8
0
  6
CONTINUOUS
 62
     7
 10
-178.2
 20
380.4923893961835
 30
0.0
 11
-184.8
 21
380.4923893961835
 31
0.0
  0
LINE
  5
19B
  8
0
  6
CONTINUOUS
 62
     7
 10
-330.0
 20
256.5
 30
0.0
 11
-330.0
 21
254.7068495434349
 31
0.0
  0
POLYLINE
  5
19C
  8
0
  6
CONTINUOUS
 62
     7
 66
     1
 10
0.0
 20
0.0
 30
0.0
  0
VERTEX
  5
252
  8
0
  6
CONTINUOUS
 62
     7
 10
-330.2000000000002
 20
254.5076106038165
 30
0.0
  0
VERTEX
  5
253
  8
0
  6
CONTINUOUS
 62
     7
 10
-330.1609819355969
 20
254.511438924174
 30
0.0
  0
VERTEX
  5
254
  8
0
  6
CONTINUOUS
 62
     7
 10
-330.1234633135271
 20
254.5227767650422
 30
0.0
  0
VERTEX
  5
255
  8
0
  6
CONTINUOUS
 62
     7
 10
-330.0888859533961
 20
254.5411884195548
 30
0.0
  0
VERTEX
  5
256
  8
0
  6
CONTINUOUS
 62
     7
 10
-330.0585786437627
 20
254.5659663381543
 30
0.0
  0
VERTEX
  5
257
  8
0
  6
CONTINUOUS
 62
     7
 10
-330.0337060775395
 20
254.5961583193245
 30
0.0
  0
VERTEX
  5
258
  8
0
  6
CONTINUOUS
 62
     7
 10
-330.0152240934977
 20
254.6306041021609
 30
0.0
  0
VERTEX
  5
259
  8
0
  6
CONTINUOUS
 62
     7
 10
-330.0038429439193
 20
254.6679799545466
 30
0.0
  0
VERTEX
  5
25A
  8
0
  6
CONTINUOUS
 62
     7
 10
-330.0
 20
254.7068495434349
 30
0.0
  0
SEQEND
  5
338
  8
0
  6
CONTINUOUS
 62
     7
  0
LINE
  5
19D
  8
0
  6
CONTINUOUS
 62
     7
 10
-337.0
 20
378.5
 30
0.0
 11
-337.0
 21
380.2931504565651
 31
0.0
  0
POLYLINE
  5
19E
  8
0
  6
CONTINUOUS
 62
     7
 66
     1
 10
0.0
 20
0.0
 30
0.0
  0
VERTEX
  5
25B
  8
0
  6
CONTINUOUS
 62
     7
 10
-336.7999999999998
 20
380.4923893961835
 30
0.0
  0
VERTEX
  5
25C
  8
0
  6
CONTINUOUS
 62
     7
 10
-336.839018064403
 20
380.488561075826
 30
0.0
  0
VERTEX
  5
25D
  8
0
  6
CONTINUOUS
 62
     7
 10
-336.8765366864729
 20
380.4772232349578
 30
0.0
  0
VERTEX
  5
25E
  8
0
  6
CONTINUOUS
 62
     7
 10
-336.9111140466038
 20
380.4588115804452
 30
0.0
  0
VERTEX
  5
25F
  8
0
  6
CONTINUOUS
 62
     7
 10
-336.9414213562372
 20
380.4340336618457
 30
0.0
  0
VERTEX
  5
260
  8
0
  6
CONTINUOUS
 62
     7
 10
-336.9662939224604
 20
380.4038416806755
 30
0.0
  0
VERTEX
  5
261
  8
0
  6
CONTINUOUS
 62
     7
 10
-336.9847759065022
 20
380.3693958978391
 30
0.0
  0
VERTEX
  5
262
  8
0
  6
CONTINUOUS
 62
     7
 10
-336.9961570560806
 20
380.3320200454534
 30
0.0
  0
VERTEX
  5
263
  8
0
  6
CONTINUOUS
 62
     7
 10
-336.9999999999999
 20
380.2931504565651
 30
0.0
  0
SEQEND
  5
339
  8
0
  6
CONTINUOUS
 62
     7
  0
LINE
  5
19F
  8
0
  6
CONTINUOUS
 62
     7
 10
-336.8
 20
254.5076106038165
 30
0.0
 11
-330.2
 21
254.5076106038165
 31
0.0
  0
LINE
  5
1A0
  8
0
  6
CONTINUOUS
 62
     7
 10
-185.0
 20
254.7068495434349
 30
0.0
 11
-185.0
 21
256.5
 31
0.0
  0
POLYLINE
  5
1A1
  8
0
  6
CONTINUOUS
 62
     7
 66
     1
 10
0.0
 20
0.0
 30
0.0
  0
VERTEX
  5
264
  8
0
  6
CONTINUOUS
 62
     7
 10
-185.0
 20
254.7068495434349
 30
0.0
  0
VERTEX
  5
265
  8
0
  6
CONTINUOUS
 62
     7
 10
-184.9961570560807
 20
254.6679799545466
 30
0.0
  0
VERTEX
  5
266
  8
0
  6
CONTINUOUS
 62
     7
 10
-184.9847759065023
 20
254.6306041021609
 30
0.0
  0
VERTEX
  5
267
  8
0
  6
CONTINUOUS
 62
     7
 10
-184.9662939224605
 20
254.5961583193245
 30
0.0
  0
VERTEX
  5
268
  8
0
  6
CONTINUOUS
 62
     7
 10
-184.9414213562373
 20
254.5659663381543
 30
0.0
  0
VERTEX
  5
269
  8
0
  6
CONTINUOUS
 62
     7
 10
-184.9111140466039
 20
254.5411884195548
 30
0.0
  0
VERTEX
  5
26A
  8
0
  6
CONTINUOUS
 62
     7
 10
-184.876536686473
 20
254.5227767650422
 30
0.0
  0
VERTEX
  5
26B
  8
0
  6
CONTINUOUS
 62
     7
 10
-184.8390180644032
 20
254.511438924174
 30
0.0
  0
VERTEX
  5
26C
  8
0
  6
CONTINUOUS
 62
     7
 10
-184.8
 20
254.5076106038165
 30
0.0
  0
SEQEND
  5
33A
  8
0
  6
CONTINUOUS
 62
     7
  0
LINE
  5
1A2
  8
0
  6
CONTINUOUS
 62
     7
 10
-178.0
 20
256.5
 30
0.0
 11
-178.0
 21
254.7068495434349
 31
0.0
  0
POLYLINE
  5
1A3
  8
0
  6
CONTINUOUS
 62
     7
 66
     1
 10
0.0
 20
0.0
 30
0.0
  0
VERTEX
  5
26D
  8
0
  6
CONTINUOUS
 62
     7
 10
-178.2000000000002
 20
254.5076106038165
 30
0.0
  0
VERTEX
  5
26E
  8
0
  6
CONTINUOUS
 62
     7
 10
-178.1609819355969
 20
254.511438924174
 30
0.0
  0
VERTEX
  5
26F
  8
0
  6
CONTINUOUS
 62
     7
 10
-178.1234633135271
 20
254.5227767650422
 30
0.0
  0
VERTEX
  5
270
  8
0
  6
CONTINUOUS
 62
     7
 10
-178.0888859533962
 20
254.5411884195548
 30
0.0
  0
VERTEX
  5
271
  8
0
  6
CONTINUOUS
 62
     7
 10
-178.0585786437628
 20
254.5659663381543
 30
0.0
  0
VERTEX
  5
272
  8
0
  6
CONTINUOUS
 62
     7
 10
-178.0337060775395
 20
254.5961583193245
 30
0.0
  0
VERTEX
  5
273
  8
0
  6
CONTINUOUS
 62
     7
 10
-178.0152240934978
 20
254.6306041021609
 30
0.0
  0
VERTEX
  5
274
  8
0
  6
CONTINUOUS
 62
     7
 10
-178.0038429439194
 20
254.6679799545466
 30
0.0
  0
VERTEX
  5
275
  8
0
  6
CONTINUOUS
 62
     7
 10
-178.0
 20
254.7068495434349
 30
0.0
  0
SEQEND
  5
33B
  8
0
  6
CONTINUOUS
 62
     7
  0
CIRCLE
  5
1A4
  8
0
  6
CONTINUOUS
 62
     7
 10
-257.5
 20
317.5
 30
0.0
 40
13.5
  0
CIRCLE
  5
1A5
  8
0
  6
CONTINUOUS
 62
     7
 10
-261.7501868581007
 20
310.1389532001742
 30
0.0
 40
1.499946976382318
  0
CIRCLE
  5
1A6
  8
0
  6
CONTINUOUS
 62
     7
 10
-261.7497600980449
 20
324.8612931898588
 30
0.0
 40
1.499946976382317
  0
CIRCLE
  5
1A7
  8
0
  6
CONTINUOUS
 62
     7
 10
-257.5
 20
317.5
 30
0.0
 40
5.749999999999999
  0
CIRCLE
  5
1A8
  8
0
  6
CONTINUOUS
 62
     7
 10
-253.250239901955
 20
310.1387068101412
 30
0.0
 40
1.499946976382318
  0
CIRCLE
  5
1A9
  8
0
  6
CONTINUOUS
 62
     7
 10
-265.9999469561456
 20
317.5002463900331
 30
0.0
 40
1.499946976382318
  0
CIRCLE
  5
1AA
  8
0
  6
CONTINUOUS
 62
     7
 10
-253.2498131418993
 20
324.8610467998257
 30
0.0
 40
1.499946976382318
  0
CIRCLE
  5
1AB
  8
0
  6
CONTINUOUS
 62
     7
 10
-249.0000530438544
 20
317.4997536099669
 30
0.0
 40
1.499946976382318
  0
LINE
  5
1AC
  8
0
  6
CONTINUOUS
 62
     7
 10
-231.5
 20
320.5
 30
0.0
 11
-231.5
 21
363.5
 31
0.0
  0
ARC
  5
1AD
  8
0
  6
CONTINUOUS
 62
     7
 10
-225.0
 20
317.5
 30
0.0
 40
6.499999999999999
 50
207.4864262503813
 51
332.5135737496187
  0
LINE
  5
1AE
  8
0
  6
CONTINUOUS
 62
     7
 10
-219.2337187026646
 20
314.5
 30
0.0
 11
-188.0
 21
314.5
 31
0.0
  0
LINE
  5
1AF
  8
0
  6
CONTINUOUS
 62
     7
 10
-231.5
 20
271.5
 30
0.0
 11
-231.5
 21
314.5
 31
0.0
  0
LINE
  5
1B0
  8
0
  6
CONTINUOUS
 62
     7
 10
-231.5
 20
314.5
 30
0.0
 11
-230.7662812973354
 21
314.5
 31
0.0
  0
LINE
  5
1B1
  8
0
  6
CONTINUOUS
 62
     7
 10
-277.5
 20
271.5
 30
0.0
 11
-277.5
 21
311.0773837106674
 31
0.0
  0
ARC
  5
1B2
  8
0
  6
CONTINUOUS
 62
     7
 10
-276.5
 20
317.5
 30
0.0
 40
6.5
 50
29.22459802614367
 51
98.84988309842912
  0
LINE
  5
1B3
  8
0
  6
CONTINUOUS
 62
     7
 10
-270.7564886298547
 20
320.4625604084267
 30
0.0
 11
-270.8273684210527
 21
320.6735234313818
 31
0.0
  0
LINE
  5
1B4
  8
0
  6
CONTINUOUS
 62
     7
 10
-270.7564886298547
 20
314.5374395915732
 30
0.0
 11
-270.7064378240311
 21
314.7
 31
0.0
  0
LINE
  5
1B5
  8
0
  6
CONTINUOUS
 62
     7
 10
-270.7064378240311
 20
320.3
 30
0.0
 11
-270.7564886298547
 21
320.4625604084268
 31
0.0
  0
CIRCLE
  5
1B6
  8
0
  6
CONTINUOUS
 62
     7
 10
-290.0000000000001
 20
317.5
 30
0.0
 40
2.999999999999996
  0
LINE
  5
1B7
  8
0
  6
CONTINUOUS
 62
     7
 10
-260.4625604084268
 20
304.2435113701454
 30
0.0
 11
-260.6735234313819
 21
304.1726315789474
 31
0.0
  0
LINE
  5
1B8
  8
0
  6
CONTINUOUS
 62
     7
 10
-254.3264765686182
 20
304.1726315789473
 30
0.0
 11
-254.5374395915732
 21
304.2435113701453
 31
0.0
  0
ARC
  5
1B9
  8
0
  6
CONTINUOUS
 62
     7
 10
-257.5
 20
298.5
 30
0.0
 40
6.5
 50
119.2245980261436
 51
60.77540197385634
  0
LINE
  5
1BA
  8
0
  6
CONTINUOUS
 62
     7
 10
-254.5374395915732
 20
304.2435113701453
 30
0.0
 11
-254.7
 21
304.2935621759689
 31
0.0
  0
LINE
  5
1BB
  8
0
  6
CONTINUOUS
 62
     7
 10
-270.8273684210527
 20
314.3264765686182
 30
0.0
 11
-270.7564886298547
 21
314.5374395915732
 31
0.0
  0
ARC
  5
1BC
  8
0
  6
CONTINUOUS
 62
     7
 10
-276.5
 20
317.5
 30
0.0
 40
6.5
 50
261.150116901571
 51
330.7754019738563
  0
LINE
  5
1BD
  8
0
  6
CONTINUOUS
 62
     7
 10
-254.5374395915732
 20
330.7564886298547
 30
0.0
 11
-254.3264765686182
 21
330.8273684210527
 31
0.0
  0
LINE
  5
1BE
  8
0
  6
CONTINUOUS
 62
     7
 10
-260.6735234313818
 20
330.8273684210527
 30
0.0
 11
-260.4625604084268
 21
330.7564886298547
 31
0.0
  0
ARC
  5
1BF
  8
0
  6
CONTINUOUS
 62
     7
 10
-257.5
 20
336.5
 30
0.0
 40
6.5
 50
299.2245980261437
 51
240.7754019738563
  0
LINE
  5
1C0
  8
0
  6
CONTINUOUS
 62
     7
 10
-277.5
 20
323.9226162893326
 30
0.0
 11
-277.5
 21
363.5
 31
0.0
  0
ARC
  5
1C1
  8
0
  6
CONTINUOUS
 62
     7
 10
-225.0
 20
317.5
 30
0.0
 40
6.5
 50
27.48642625038133
 51
152.5135737496187
  0
CIRCLE
  5
1C2
  8
0
  6
CONTINUOUS
 62
     7
 10
-257.5
 20
336.5
 30
0.0
 40
2.999999999999999
  0
LINE
  5
1C3
  8
0
  6
CONTINUOUS
 62
     7
 10
-230.7662812973354
 20
320.5
 30
0.0
 11
-231.5
 21
320.5
 31
0.0
  0
LINE
  5
1C4
  8
0
  6
CONTINUOUS
 62
     7
 10
-237.5
 20
363.5000000000001
 30
0.0
 11
-237.5
 21
323.9226162893326
 31
0.0
  0
LINE
  5
1C5
  8
0
  6
CONTINUOUS
 62
     7
 10
-260.4625604084267
 20
330.7564886298547
 30
0.0
 11
-260.3
 21
330.7064378240311
 31
0.0
  0
LINE
  5
1C6
  8
0
  6
CONTINUOUS
 62
     7
 10
-327.0
 20
314.5
 30
0.0
 11
-295.7662812973354
 21
314.5
 31
0.0
  0
LINE
  5
1C7
  8
0
  6
CONTINUOUS
 62
     7
 10
-284.2337187026646
 20
314.5
 30
0.0
 11
-283.4999999999999
 21
314.5
 31
0.0
  0
LINE
  5
1C8
  8
0
  6
CONTINUOUS
 62
     7
 10
-295.7662812973354
 20
320.5
 30
0.0
 11
-327.0
 21
320.5
 31
0.0
  0
LINE
  5
1C9
  8
0
  6
CONTINUOUS
 62
     7
 10
-283.4999999999999
 20
363.5
 30
0.0
 11
-283.4999999999999
 21
320.5
 31
0.0
  0
LINE
  5
1CA
  8
0
  6
CONTINUOUS
 62
     7
 10
-260.3
 20
304.2935621759689
 30
0.0
 11
-260.4625604084268
 21
304.2435113701453
 31
0.0
  0
ARC
  5
1CB
  8
0
  6
CONTINUOUS
 62
     7
 10
-238.5
 20
317.5
 30
0.0
 40
6.5
 50
209.2245980261437
 51
278.8498830984291
  0
LINE
  5
1CC
  8
0
  6
CONTINUOUS
 62
     7
 10
-244.2435113701453
 20
314.5374395915733
 30
0.0
 11
-244.1726315789474
 21
314.3264765686182
 31
0.0
  0
LINE
  5
1CD
  8
0
  6
CONTINUOUS
 62
     7
 10
-188.0
 20
320.5
 30
0.0
 11
-219.2337187026646
 21
320.5
 31
0.0
  0
LINE
  5
1CE
  8
0
  6
CONTINUOUS
 62
     7
 10
-283.4999999999999
 20
314.5
 30
0.0
 11
-283.4999999999999
 21
271.5
 31
0.0
  0
ARC
  5
1CF
  8
0
  6
CONTINUOUS
 62
     7
 10
-290.0000000000001
 20
317.5
 30
0.0
 40
6.5
 50
207.4864262503813
 51
332.5135737496187
  0
CIRCLE
  5
1D0
  8
0
  6
CONTINUOUS
 62
     7
 10
-225.0
 20
317.5
 30
0.0
 40
2.999999999999996
  0
LINE
  5
1D1
  8
0
  6
CONTINUOUS
 62
     7
 10
-254.7
 20
330.7064378240311
 30
0.0
 11
-254.5374395915732
 21
330.7564886298547
 31
0.0
  0
CIRCLE
  5
1D2
  8
0
  6
CONTINUOUS
 62
     7
 10
-257.5
 20
298.5
 30
0.0
 40
2.999999999999999
  0
LINE
  5
1D3
  8
0
  6
CONTINUOUS
 62
     7
 10
-244.2435113701453
 20
320.4625604084268
 30
0.0
 11
-244.2935621759689
 21
320.3
 31
0.0
  0
LINE
  5
1D4
  8
0
  6
CONTINUOUS
 62
     7
 10
-244.2935621759689
 20
314.7
 30
0.0
 11
-244.2435113701453
 21
314.5374395915732
 31
0.0
  0
LINE
  5
1D5
  8
0
  6
CONTINUOUS
 62
     7
 10
-244.1726315789473
 20
320.6735234313818
 30
0.0
 11
-244.2435113701453
 21
320.4625604084268
 31
0.0
  0
ARC
  5
1D6
  8
0
  6
CONTINUOUS
 62
     7
 10
-238.5
 20
317.5
 30
0.0
 40
6.5
 50
81.15011690157093
 51
150.7754019738563
  0
LINE
  5
1D7
  8
0
  6
CONTINUOUS
 62
     7
 10
-283.4999999999999
 20
320.5
 30
0.0
 11
-284.2337187026645
 21
320.5
 31
0.0
  0
LINE
  5
1D8
  8
0
  6
CONTINUOUS
 62
     7
 10
-237.5
 20
311.0773837106674
 30
0.0
 11
-237.5
 21
271.5
 31
0.0
  0
ARC
  5
1D9
  8
0
  6
CONTINUOUS
 62
     7
 10
-290.0000000000001
 20
317.5
 30
0.0
 40
6.499999999999999
 50
27.48642625038133
 51
152.5135737496187
  0
ENDBLK
  8
0
  0
BLOCK
  8
0
  2
D_FRAME_VIEW_3012
 70
     0
 10
0.0
 20
0.0
 30
0.0
  0
LINE
  5
1DE
  8
0
  6
CONTINUOUS
 62
     7
 10
-118.025
 20
260.65
 30
0.0
 11
-117.7249999999999
 21
260.65
 31
0.0
  0
LINE
  5
1DF
  8
0
  6
CONTINUOUS
 62
     7
 10
-118.025
 20
374.35
 30
0.0
 11
-117.7249999999999
 21
374.35
 31
0.0
  0
CIRCLE
  5
1E0
  8
0
  6
CONTINUOUS
 62
     7
 10
-99.82499999999996
 20
280.0
 30
0.0
 40
10.89999999999996
  0
CIRCLE
  5
1E1
  8
0
  6
CONTINUOUS
 62
     7
 10
-99.82499999999996
 20
355.0
 30
0.0
 40
10.90000000000002
  0
ARC
  5
1E2
  8
0
  6
CONTINUOUS
 62
     7
 10
-85.42499999999995
 20
321.0
 30
0.0
 40
0.5000000000000004
 50
90.0
 51
179.9999999999995
  0
LINE
  5
1E3
  8
0
  6
CONTINUOUS
 62
     7
 10
-85.92499999999995
 20
321.0
 30
0.0
 11
-85.92499999999995
 21
314.0
 31
0.0
  0
ARC
  5
1E4
  8
0
  6
CONTINUOUS
 62
     7
 10
-85.42499999999995
 20
314.0
 30
0.0
 40
0.5000000000000004
 50
180.0000000000004
 51
270.0
  0
ARC
  5
1E5
  8
0
  6
CONTINUOUS
 62
     7
 10
-80.77612376024467
 20
259.5331590316133
 30
0.0
 40
3.051025190265355
 50
294.2090233946801
 51
359.3772880101367
  0
ARC
  5
1E6
  8
0
  6
CONTINUOUS
 62
     7
 10
-80.72499999999995
 20
259.5
 30
0.0
 40
3.0
 50
270.0
 51
293.5781784782008
  0
ARC
  5
1E7
  8
0
  6
CONTINUOUS
 62
     7
 10
-80.72499999999997
 20
375.5
 30
0.0
 40
3.000000000000003
 50
66.42182152179925
 51
90.0
  0
ARC
  5
1E8
  8
0
  6
CONTINUOUS
 62
     7
 10
-80.77323905104006
 20
375.4687291613889
 30
0.0
 40
3.048120695750924
 50
0.5878108786443477
 51
65.8258777165309
  0
LINE
  5
1E9
  8
0
  6
CONTINUOUS
 62
     7
 10
-77.72527876414038
 20
375.5
 30
0.0
 11
-77.72499999999995
 21
375.5
 31
0.0
  0
LINE
  5
1EA
  8
0
  6
CONTINUOUS
 62
     7
 10
-77.72527876414011
 20
259.5
 30
0.0
 11
-77.72499999999997
 21
259.5
 31
0.0
  0
LINE
  5
1EB
  8
0
  6
CONTINUOUS
 62
     7
 10
-76.97499999999995
 20
332.5
 30
0.0
 11
-77.72499999999997
 21
332.5
 31
0.0
  0
LINE
  5
1EC
  8
0
  6
CONTINUOUS
 62
     7
 10
-76.97499999999995
 20
302.5
 30
0.0
 11
-77.72499999999997
 21
302.5
 31
0.0
  0
ARC
  5
1ED
  8
0
  6
CONTINUOUS
 62
     7
 10
-115.225
 20
378.5
 30
0.0
 40
2.000000000000002
 50
95.00000000000018
 51
180.0
  0
ARC
  5
1EE
  8
0
  6
CONTINUOUS
 62
     7
 10
-115.225
 20
256.5
 30
0.0
 40
1.999999999999968
 50
180.0
 51
264.9999999999998
  0
ARC
  5
1EF
  8
0
  6
CONTINUOUS
 62
     7
 10
-79.97499999999995
 20
375.5
 30
0.0
 40
2.999999999999989
 50
0.0
 51
90.0
  0
ARC
  5
1F0
  8
0
  6
CONTINUOUS
 62
     7
 10
-79.97499999999995
 20
259.5
 30
0.0
 40
3.000000000000003
 50
270.0
 51
0.0
  0
LINE
  5
1F1
  8
0
  6
CONTINUOUS
 62
     7
 10
-76.97499999999995
 20
332.5
 30
0.0
 11
-76.97499999999995
 21
375.5
 31
0.0
  0
LINE
  5
1F2
  8
0
  6
CONTINUOUS
 62
     7
 10
-76.97499999999995
 20
259.5
 30
0.0
 11
-76.97499999999995
 21
302.5
 31
0.0
  0
ENDBLK
  8
0
  0
BLOCK
  8
0
  2
D_FRAME_VIEW_3399
 70
     0
 10
0.0
 20
0.0
 30
0.0
  0
LINE
  5
1F7
  8
0
  6
CONTINUOUS
 62
     7
 10
-170.65
 20
218.025
 30
0.0
 11
-170.65
 21
217.7249999999999
 31
0.0
  0
LINE
  5
1F8
  8
0
  6
CONTINUOUS
 62
     7
 10
-344.35
 20
218.025
 30
0.0
 11
-344.35
 21
217.7249999999999
 31
0.0
  0
ARC
  5
1F9
  8
0
  6
CONTINUOUS
 62
     7
 10
-330.2
 20
217.0249999999999
 30
0.0
 40
0.2000000000000057
 50
0.0
 51
90.0
  0
LINE
  5
1FA
  8
0
  6
CONTINUOUS
 62
     7
 10
-330.0
 20
217.0249999999999
 30
0.0
 11
-330.0
 21
215.3818803369458
 31
0.0
  0
POLYLINE
  5
1FB
  8
0
  6
CONTINUOUS
 62
     7
 66
     1
 10
0.0
 20
0.0
 30
0.0
  0
VERTEX
  5
278
  8
0
  6
CONTINUOUS
 62
     7
 10
-330.0
 20
215.3818803369457
 30
0.0
  0
VERTEX
  5
279
  8
0
  6
CONTINUOUS
 62
     7
 10
-330.0038429439194
 20
215.3852809853294
 30
0.0
  0
VERTEX
  5
27A
  8
0
  6
CONTINUOUS
 62
     7
 10
-330.0152240934977
 20
215.3885509487027
 30
0.0
  0
VERTEX
  5
27B
  8
0
  6
CONTINUOUS
 62
     7
 10
-330.0337060775395
 20
215.3915645642072
 30
0.0
  0
VERTEX
  5
27C
  8
0
  6
CONTINUOUS
 62
     7
 10
-330.0585786437627
 20
215.394206020289
 30
0.0
  0
VERTEX
  5
27D
  8
0
  6
CONTINUOUS
 62
     7
 10
-330.0888859533961
 20
215.3963738072722
 30
0.0
  0
VERTEX
  5
27E
  8
0
  6
CONTINUOUS
 62
     7
 10
-330.1234633135269
 20
215.3979846183188
 30
0.0
  0
VERTEX
  5
27F
  8
0
  6
CONTINUOUS
 62
     7
 10
-330.1609819355967
 20
215.3989765508636
 30
0.0
  0
VERTEX
  5
280
  8
0
  6
CONTINUOUS
 62
     7
 10
-330.2
 20
215.3993114854952
 30
0.0
  0
SEQEND
  5
33C
  8
0
  6
CONTINUOUS
 62
     7
  0
LINE
  5
1FC
  8
0
  6
CONTINUOUS
 62
     7
 10
-337.0
 20
215.3818803369458
 30
0.0
 11
-337.0
 21
217.0249999999999
 31
0.0
  0
ARC
  5
1FD
  8
0
  6
CONTINUOUS
 62
     7
 10
-336.8
 20
217.0249999999999
 30
0.0
 40
0.2000000000000335
 50
90.0
 51
180.0
  0
POLYLINE
  5
1FE
  8
0
  6
CONTINUOUS
 62
     7
 66
     1
 10
0.0
 20
0.0
 30
0.0
  0
VERTEX
  5
281
  8
0
  6
CONTINUOUS
 62
     7
 10
-336.8
 20
215.3993114854953
 30
0.0
  0
VERTEX
  5
282
  8
0
  6
CONTINUOUS
 62
     7
 10
-336.8390180644031
 20
215.3989765508636
 30
0.0
  0
VERTEX
  5
283
  8
0
  6
CONTINUOUS
 62
     7
 10
-336.8765366864729
 20
215.3979846183188
 30
0.0
  0
VERTEX
  5
284
  8
0
  6
CONTINUOUS
 62
     7
 10
-336.9111140466039
 20
215.3963738072722
 30
0.0
  0
VERTEX
  5
285
  8
0
  6
CONTINUOUS
 62
     7
 10
-336.9414213562372
 20
215.394206020289
 30
0.0
  0
VERTEX
  5
286
  8
0
  6
CONTINUOUS
 62
     7
 10
-336.9662939224605
 20
215.3915645642072
 30
0.0
  0
VERTEX
  5
287
  8
0
  6
CONTINUOUS
 62
     7
 10
-336.9847759065022
 20
215.3885509487027
 30
0.0
  0
VERTEX
  5
288
  8
0
  6
CONTINUOUS
 62
     7
 10
-336.9961570560806
 20
215.3852809853294
 30
0.0
  0
VERTEX
  5
289
  8
0
  6
CONTINUOUS
 62
     7
 10
-336.9999999999999
 20
215.3818803369457
 30
0.0
  0
SEQEND
  5
33D
  8
0
  6
CONTINUOUS
 62
     7
  0
ARC
  5
1FF
  8
0
  6
CONTINUOUS
 62
     7
 10
-178.2
 20
217.0249999999999
 30
0.0
 40
0.2000000000000057
 50
0.0
 51
90.0
  0
LINE
  5
200
  8
0
  6
CONTINUOUS
 62
     7
 10
-178.0
 20
217.0249999999999
 30
0.0
 11
-178.0
 21
215.3818803369458
 31
0.0
  0
POLYLINE
  5
201
  8
0
  6
CONTINUOUS
 62
     7
 66
     1
 10
0.0
 20
0.0
 30
0.0
  0
VERTEX
  5
28A
  8
0
  6
CONTINUOUS
 62
     7
 10
-178.0
 20
215.3818803369457
 30
0.0
  0
VERTEX
  5
28B
  8
0
  6
CONTINUOUS
 62
     7
 10
-178.0038429439194
 20
215.3852809853294
 30
0.0
  0
VERTEX
  5
28C
  8
0
  6
CONTINUOUS
 62
     7
 10
-178.0152240934977
 20
215.3885509487027
 30
0.0
  0
VERTEX
  5
28D
  8
0
  6
CONTINUOUS
 62
     7
 10
-178.0337060775395
 20
215.3915645642072
 30
0.0
  0
VERTEX
  5
28E
  8
0
  6
CONTINUOUS
 62
     7
 10
-178.0585786437627
 20
215.394206020289
 30
0.0
  0
VERTEX
  5
28F
  8
0
  6
CONTINUOUS
 62
     7
 10
-178.0888859533961
 20
215.3963738072722
 30
0.0
  0
VERTEX
  5
290
  8
0
  6
CONTINUOUS
 62
     7
 10
-178.123463313527
 20
215.3979846183188
 30
0.0
  0
VERTEX
  5
291
  8
0
  6
CONTINUOUS
 62
     7
 10
-178.1609819355968
 20
215.3989765508636
 30
0.0
  0
VERTEX
  5
292
  8
0
  6
CONTINUOUS
 62
     7
 10
-178.2
 20
215.3993114854953
 30
0.0
  0
SEQEND
  5
33E
  8
0
  6
CONTINUOUS
 62
     7
  0
POLYLINE
  5
202
  8
0
  6
CONTINUOUS
 62
     7
 66
     1
 10
0.0
 20
0.0
 30
0.0
  0
VERTEX
  5
293
  8
0
  6
CONTINUOUS
 62
     7
 10
-184.8
 20
215.3993114854953
 30
0.0
  0
VERTEX
  5
294
  8
0
  6
CONTINUOUS
 62
     7
 10
-184.8390180644032
 20
215.3989765508636
 30
0.0
  0
VERTEX
  5
295
  8
0
  6
CONTINUOUS
 62
     7
 10
-184.876536686473
 20
215.3979846183188
 30
0.0
  0
VERTEX
  5
296
  8
0
  6
CONTINUOUS
 62
     7
 10
-184.911114046604
 20
215.3963738072722
 30
0.0
  0
VERTEX
  5
297
  8
0
  6
CONTINUOUS
 62
     7
 10
-184.9414213562374
 20
215.394206020289
 30
0.0
  0
VERTEX
  5
298
  8
0
  6
CONTINUOUS
 62
     7
 10
-184.9662939224606
 20
215.3915645642072
 30
0.0
  0
VERTEX
  5
299
  8
0
  6
CONTINUOUS
 62
     7
 10
-184.9847759065023
 20
215.3885509487027
 30
0.0
  0
VERTEX
  5
29A
  8
0
  6
CONTINUOUS
 62
     7
 10
-184.9961570560807
 20
215.3852809853294
 30
0.0
  0
VERTEX
  5
29B
  8
0
  6
CONTINUOUS
 62
     7
 10
-185.0000000000001
 20
215.3818803369457
 30
0.0
  0
SEQEND
  5
33F
  8
0
  6
CONTINUOUS
 62
     7
  0
LINE
  5
203
  8
0
  6
CONTINUOUS
 62
     7
 10
-178.2
 20
215.3993114854952
 30
0.0
 11
-184.8
 21
215.3993114854952
 31
0.0
  0
LINE
  5
204
  8
0
  6
CONTINUOUS
 62
     7
 10
-336.8
 20
215.3993114854952
 30
0.0
 11
-330.2
 21
215.3993114854952
 31
0.0
  0
LINE
  5
205
  8
0
  6
CONTINUOUS
 62
     7
 10
-185.0
 20
215.3818803369458
 30
0.0
 11
-185.0
 21
217.0249999999999
 31
0.0
  0
ARC
  5
206
  8
0
  6
CONTINUOUS
 62
     7
 10
-184.8
 20
217.0249999999999
 30
0.0
 40
0.199999999999978
 50
90.0
 51
180.0
  0
LINE
  5
207
  8
0
  6
CONTINUOUS
 62
     7
 10
-336.8
 20
217.2249999999999
 30
0.0
 11
-330.2
 21
217.2249999999999
 31
0.0
  0
LINE
  5
208
  8
0
  6
CONTINUOUS
 62
     7
 10
-178.2
 20
217.2249999999999
 30
0.0
 11
-184.8
 21
217.2249999999999
 31
0.0
  0
LINE
  5
209
  8
0
  6
CONTINUOUS
 62
     7
 10
-172.4633934511597
 20
177.7252787641398
 30
0.0
 11
-172.4618949258339
 21
177.7272927127016
 31
0.0
  0
ARC
  5
20A
  8
0
  6
CONTINUOUS
 62
     7
 10
-169.5
 20
180.7249999999999
 30
0.0
 40
3.000000000000003
 50
270.0
 51
0.0000000000000568
  0
LINE
  5
20B
  8
0
  6
CONTINUOUS
 62
     7
 10
-169.5
 20
177.7249999999999
 30
0.0
 11
-172.463873656849
 21
177.7249999999999
 31
0.0
  0
CIRCLE
  5
20C
  8
0
  6
CONTINUOUS
 62
     7
 10
-257.5
 20
197.225
 30
0.0
 40
13.54999999999998
  0
CIRCLE
  5
20D
  8
0
  6
CONTINUOUS
 62
     7
 10
-310.5
 20
197.225
 30
0.0
 40
13.54999999999995
  0
ARC
  5
20E
  8
0
  6
CONTINUOUS
 62
     7
 10
-339.75
 20
182.5249999999999
 30
0.0
 40
2.250000000000008
 50
209.2675775975312
 51
330.7324224024687
  0
ARC
  5
20F
  8
0
  6
CONTINUOUS
 62
     7
 10
-337.0
 20
181.9249999999999
 30
0.0
 40
0.5000000000000004
 50
270.0000000000015
 51
0.0000000000005116
  0
LINE
  5
210
  8
0
  6
CONTINUOUS
 62
     7
 10
-336.5
 20
183.1249999999999
 30
0.0
 11
-336.5
 21
181.9249999999999
 31
0.0
  0
ARC
  5
211
  8
0
  6
CONTINUOUS
 62
     7
 10
-336.9999999999999
 20
183.1249999999999
 30
0.0
 40
0.5000000000000004
 50
0.0000000000002842
 51
90.0
  0
ARC
  5
212
  8
0
  6
CONTINUOUS
 62
     7
 10
-339.75
 20
182.5249999999999
 30
0.0
 40
2.249999999999995
 50
29.26757759753139
 51
150.7324224024687
  0
ARC
  5
213
  8
0
  6
CONTINUOUS
 62
     7
 10
-175.25
 20
182.5249999999999
 30
0.0
 40
2.249999999999995
 50
29.26757759753136
 51
150.7324224024686
  0
ARC
  5
214
  8
0
  6
CONTINUOUS
 62
     7
 10
-178.0
 20
183.1249999999999
 30
0.0
 40
0.5000000000000004
 50
90.0
 51
179.9999999999997
  0
LINE
  5
215
  8
0
  6
CONTINUOUS
 62
     7
 10
-178.5
 20
183.1249999999999
 30
0.0
 11
-178.5
 21
181.9249999999999
 31
0.0
  0
ARC
  5
216
  8
0
  6
CONTINUOUS
 62
     7
 10
-178.0
 20
181.9249999999999
 30
0.0
 40
0.5000000000000004
 50
179.9999999999995
 51
269.9999999999984
  0
ARC
  5
217
  8
0
  6
CONTINUOUS
 62
     7
 10
-175.25
 20
182.5249999999999
 30
0.0
 40
2.250000000000008
 50
209.2675775975313
 51
330.7324224024687
  0
CIRCLE
  5
218
  8
0
  6
CONTINUOUS
 62
     7
 10
-204.5
 20
197.225
 30
0.0
 40
13.55000000000001
  0
POLYLINE
  5
219
  8
0
  6
CONTINUOUS
 62
     7
 66
     1
 10
0.0
 20
0.0
 30
0.0
  0
VERTEX
  5
29C
  8
0
  6
CONTINUOUS
 62
     7
 10
-342.5
 20
183.6249999999999
 30
0.0
  0
VERTEX
  5
29D
  8
0
  6
CONTINUOUS
 62
     7
 10
-342.5208544899472
 20
183.6245632083979
 30
0.0
  0
VERTEX
  5
29E
  8
0
  6
CONTINUOUS
 62
     7
 10
-342.5416855958354
 20
183.6232562621068
 30
0.0
  0
VERTEX
  5
29F
  8
0
  6
CONTINUOUS
 62
     7
 10
-342.5624393428992
 20
183.6210843038988
 30
0.0
  0
VERTEX
  5
2A0
  8
0
  6
CONTINUOUS
 62
     7
 10
-342.583061756373
 20
183.618052476546
 30
0.0
  0
VERTEX
  5
2A1
  8
0
  6
CONTINUOUS
 62
     7
 10
-342.6041286537994
 20
183.6140351298499
 30
0.0
  0
VERTEX
  5
2A2
  8
0
  6
CONTINUOUS
 62
     7
 10
-342.6250185755064
 20
183.6091146947086
 30
0.0
  0
VERTEX
  5
2A3
  8
0
  6
CONTINUOUS
 62
     7
 10
-342.6456749669952
 20
183.6033063223728
 30
0.0
  0
VERTEX
  5
2A4
  8
0
  6
CONTINUOUS
 62
     7
 10
-342.6660412737668
 20
183.5966251640931
 30
0.0
  0
VERTEX
  5
2A5
  8
0
  6
CONTINUOUS
 62
     7
 10
-342.68553401254
 20
183.5893010758739
 30
0.0
  0
VERTEX
  5
2A6
  8
0
  6
CONTINUOUS
 62
     7
 10
-342.7047192259408
 20
183.581165671049
 30
0.0
  0
VERTEX
  5
2A7
  8
0
  6
CONTINUOUS
 62
     7
 10
-342.7235483456782
 20
183.5722409817171
 30
0.0
  0
VERTEX
  5
2A8
  8
0
  6
CONTINUOUS
 62
     7
 10
-342.7419728034613
 20
183.5625490399773
 30
0.0
  0
VERTEX
  5
2A9
  8
0
  6
CONTINUOUS
 62
     7
 10
-342.7604892570085
 20
183.5517827490409
 30
0.0
  0
VERTEX
  5
2AA
  8
0
  6
CONTINUOUS
 62
     7
 10
-342.7785443620689
 20
183.5402225668012
 30
0.0
  0
VERTEX
  5
2AB
  8
0
  6
CONTINUOUS
 62
     7
 10
-342.796089893658
 20
183.5279006614317
 30
0.0
  0
VERTEX
  5
2AC
  8
0
  6
CONTINUOUS
 62
     7
 10
-342.813077626791
 20
183.5148492011058
 30
0.0
  0
VERTEX
  5
2AD
  8
0
  6
CONTINUOUS
 62
     7
 10
-342.8290777352705
 20
183.5014388119571
 30
0.0
  0
VERTEX
  5
2AE
  8
0
  6
CONTINUOUS
 62
     7
 10
-342.8445198921039
 20
183.4873576730791
 30
0.0
  0
VERTEX
  5
2AF
  8
0
  6
CONTINUOUS
 62
     7
 10
-342.8593647144074
 20
183.4726425429919
 30
0.0
  0
VERTEX
  5
2B0
  8
0
  6
CONTINUOUS
 62
     7
 10
-342.8735728192972
 20
183.4573301802158
 30
0.0
  0
VERTEX
  5
2B1
  8
0
  6
CONTINUOUS
 62
     7
 10
-342.8875162109697
 20
183.4409577200909
 30
0.0
  0
VERTEX
  5
2B2
  8
0
  6
CONTINUOUS
 62
     7
 10
-342.9007585373449
 20
183.4239802784654
 30
0.0
  0
VERTEX
  5
2B3
  8
0
  6
CONTINUOUS
 62
     7
 10
-342.9132636435523
 20
183.406444944381
 30
0.0
  0
VERTEX
  5
2B4
  8
0
  6
CONTINUOUS
 62
     7
 10
-342.9249953747214
 20
183.3883988068792
 30
0.0
  0
VERTEX
  5
2B5
  8
0
  6
CONTINUOUS
 62
     7
 10
-342.9355983834264
 20
183.3704635078423
 30
0.0
  0
VERTEX
  5
2B6
  8
0
  6
CONTINUOUS
 62
     7
 10
-342.9454566381214
 20
183.3520800186393
 30
0.0
  0
VERTEX
  5
2B7
  8
0
  6
CONTINUOUS
 62
     7
 10
-342.9545446316805
 20
183.3332965775016
 30
0.0
  0
VERTEX
  5
2B8
  8
0
  6
CONTINUOUS
 62
     7
 10
-342.9628368569779
 20
183.3141614226601
 30
0.0
  0
VERTEX
  5
2B9
  8
0
  6
CONTINUOUS
 62
     7
 10
-342.9705321847968
 20
183.2941079128289
 30
0.0
  0
VERTEX
  5
2BA
  8
0
  6
CONTINUOUS
 62
     7
 10
-342.9773674218727
 20
183.2737172798749
 30
0.0
  0
VERTEX
  5
2BB
  8
0
  6
CONTINUOUS
 62
     7
 10
-342.9833239056636
 20
183.2530469692177
 30
0.0
  0
VERTEX
  5
2BC
  8
0
  6
CONTINUOUS
 62
     7
 10
-342.9883829736275
 20
183.2321544262772
 30
0.0
  0
VERTEX
  5
2BD
  8
0
  6
CONTINUOUS
 62
     7
 10
-342.992546583774
 20
183.2109897289085
 30
0.0
  0
VERTEX
  5
2BE
  8
0
  6
CONTINUOUS
 62
     7
 10
-342.9957970362398
 20
183.1896306899317
 30
0.0
  0
VERTEX
  5
2BF
  8
0
  6
CONTINUOUS
 62
     7
 10
-342.9981273862697
 20
183.1681385570115
 30
0.0
  0
VERTEX
  5
2C0
  8
0
  6
CONTINUOUS
 62
     7
 10
-342.9995306891082
 20
183.1465745778127
 30
0.0
  0
VERTEX
  5
2C1
  8
0
  6
CONTINUOUS
 62
     7
 10
-343.0
 20
183.1249999999999
 30
0.0
  0
SEQEND
  5
340
  8
0
  6
CONTINUOUS
 62
     7
  0
LINE
  5
21A
  8
0
  6
CONTINUOUS
 62
     7
 10
-343.0
 20
183.1249999999999
 30
0.0
 11
-342.9999999999999
 21
181.9249999999999
 31
0.0
  0
POLYLINE
  5
21B
  8
0
  6
CONTINUOUS
 62
     7
 66
     1
 10
0.0
 20
0.0
 30
0.0
  0
VERTEX
  5
2C2
  8
0
  6
CONTINUOUS
 62
     7
 10
-342.9999999999999
 20
181.9249999999999
 30
0.0
  0
VERTEX
  5
2C3
  8
0
  6
CONTINUOUS
 62
     7
 10
-342.9995734407267
 20
181.9043923067167
 30
0.0
  0
VERTEX
  5
2C4
  8
0
  6
CONTINUOUS
 62
     7
 10
-342.998296850908
 20
181.883802620076
 30
0.0
  0
VERTEX
  5
2C5
  8
0
  6
CONTINUOUS
 62
     7
 10
-342.9961748625456
 20
181.8632844814928
 30
0.0
  0
VERTEX
  5
2C6
  8
0
  6
CONTINUOUS
 62
     7
 10
-342.993212107641
 20
181.8428914323814
 30
0.0
  0
VERTEX
  5
2C7
  8
0
  6
CONTINUOUS
 62
     7
 10
-342.9892851386189
 20
181.8220525791261
 30
0.0
  0
VERTEX
  5
2C8
  8
0
  6
CONTINUOUS
 62
     7
 10
-342.984474720953
 20
181.8013840732124
 30
0.0
  0
VERTEX
  5
2C9
  8
0
  6
CONTINUOUS
 62
     7
 10
-342.978795823298
 20
181.7809421049787
 30
0.0
  0
VERTEX
  5
2CA
  8
0
  6
CONTINUOUS
 62
     7
 10
-342.9722634143088
 20
181.760782864763
 30
0.0
  0
VERTEX
  5
2CB
  8
0
  6
CONTINUOUS
 62
     7
 10
-342.9651031063271
 20
181.741485796445
 30
0.0
  0
VERTEX
  5
2CC
  8
0
  6
CONTINUOUS
 62
     7
 10
-342.9571502642886
 20
181.722488957035
 30
0.0
  0
VERTEX
  5
2CD
  8
0
  6
CONTINUOUS
 62
     7
 10
-342.9484269070163
 20
181.7038401697349
 30
0.0
  0
VERTEX
  5
2CE
  8
0
  6
CONTINUOUS
 62
     7
 10
-342.9389550533335
 20
181.685587257747
 30
0.0
  0
VERTEX
  5
2CF
  8
0
  6
CONTINUOUS
 62
     7
 10
-342.9284374847998
 20
181.6672413227471
 30
0.0
  0
VERTEX
  5
2D0
  8
0
  6
CONTINUOUS
 62
     7
 10
-342.9171471669813
 20
181.6493461161127
 30
0.0
  0
VERTEX
  5
2D1
  8
0
  6
CONTINUOUS
 62
     7
 10
-342.9051159288374
 20
181.6319483029098
 30
0.0
  0
VERTEX
  5
2D2
  8
0
  6
CONTINUOUS
 62
     7
 10
-342.8923755993275
 20
181.6150945482047
 30
0.0
  0
VERTEX
  5
2D3
  8
0
  6
CONTINUOUS
 62
     7
 10
-342.8792299493225
 20
181.5991426033374
 30
0.0
  0
VERTEX
  5
2D4
  8
0
  6
CONTINUOUS
 62
     7
 10
-342.8654280363371
 20
181.5837383711249
 30
0.0
  0
VERTEX
  5
2D5
  8
0
  6
CONTINUOUS
 62
     7
 10
-342.8510059874692
 20
181.5689196812161
 30
0.0
  0
VERTEX
  5
2D6
  8
0
  6
CONTINUOUS
 62
     7
 10
-342.8359999298165
 20
181.5547243632596
 30
0.0
  0
VERTEX
  5
2D7
  8
0
  6
CONTINUOUS
 62
     7
 10
-342.8199686236513
 20
181.5407887195568
 30
0.0
  0
VERTEX
  5
2D8
  8
0
  6
CONTINUOUS
 62
     7
 10
-342.8033474122145
 20
181.5275365478973
 30
0.0
  0
VERTEX
  5
2D9
  8
0
  6
CONTINUOUS
 62
     7
 10
-342.7861814058222
 20
181.5150019137791
 30
0.0
  0
VERTEX
  5
2DA
  8
0
  6
CONTINUOUS
 62
     7
 10
-342.7685157147903
 20
181.5032188827002
 30
0.0
  0
VERTEX
  5
2DB
  8
0
  6
CONTINUOUS
 62
     7
 10
-342.7507121133967
 20
181.4924011156934
 30
0.0
  0
VERTEX
  5
2DC
  8
0
  6
CONTINUOUS
 62
     7
 10
-342.7324575925967
 20
181.4823256859985
 30
0.0
  0
VERTEX
  5
2DD
  8
0
  6
CONTINUOUS
 62
     7
 10
-342.7137993592991
 20
181.4730174864091
 30
0.0
  0
VERTEX
  5
2DE
  8
0
  6
CONTINUOUS
 62
     7
 10
-342.694784620413
 20
181.464501409719
 30
0.0
  0
VERTEX
  5
2DF
  8
0
  6
CONTINUOUS
 62
     7
 10
-342.6748632700305
 20
181.45657607064
 30
0.0
  0
VERTEX
  5
2E0
  8
0
  6
CONTINUOUS
 62
     7
 10
-342.6545992405376
 20
181.4495047123151
 30
0.0
  0
VERTEX
  5
2E1
  8
0
  6
CONTINUOUS
 62
     7
 10
-342.6340479875004
 20
181.4433058247587
 30
0.0
  0
VERTEX
  5
2E2
  8
0
  6
CONTINUOUS
 62
     7
 10
-342.6132649664854
 20
181.4379978979849
 30
0.0
  0
VERTEX
  5
2E3
  8
0
  6
CONTINUOUS
 62
     7
 10
-342.5909310574793
 20
181.4333423644463
 30
0.0
  0
VERTEX
  5
2E4
  8
0
  6
CONTINUOUS
 62
     7
 10
-342.5683671050638
 20
181.4297059167275
 30
0.0
  0
VERTEX
  5
2E5
  8
0
  6
CONTINUOUS
 62
     7
 10
-342.5456436105028
 20
181.4270974459795
 30
0.0
  0
VERTEX
  5
2E6
  8
0
  6
CONTINUOUS
 62
     7
 10
-342.5228310750602
 20
181.4255258433533
 30
0.0
  0
VERTEX
  5
2E7
  8
0
  6
CONTINUOUS
 62
     7
 10
-342.5
 20
181.4249999999999
 30
0.0
  0
SEQEND
  5
341
  8
0
  6
CONTINUOUS
 62
     7
  0
LINE
  5
21C
  8
0
  6
CONTINUOUS
 62
     7
 10
-348.5
 20
180.7249999999999
 30
0.0
 11
-348.5
 21
217.7249999999999
 31
0.0
  0
ARC
  5
21D
  8
0
  6
CONTINUOUS
 62
     7
 10
-339.75
 20
182.5249999999999
 30
0.0
 40
5.550000000000011
 50
239.8615459693588
 51
239.8672781689898
  0
ARC
  5
21E
  8
0
  6
CONTINUOUS
 62
     7
 10
-175.25
 20
182.5249999999999
 30
0.0
 40
5.550000000000014
 50
300.1327218310103
 51
300.1384540306357
  0
LINE
  5
21F
  8
0
  6
CONTINUOUS
 62
     7
 10
-172.0
 20
181.9249999999999
 30
0.0
 11
-172.0
 21
183.1249999999999
 31
0.0
  0
POLYLINE
  5
220
  8
0
  6
CONTINUOUS
 62
     7
 66
     1
 10
0.0
 20
0.0
 30
0.0
  0
VERTEX
  5
2E8
  8
0
  6
CONTINUOUS
 62
     7
 10
-172.0
 20
183.1249999999999
 30
0.0
  0
VERTEX
  5
2E9
  8
0
  6
CONTINUOUS
 62
     7
 10
-172.0004265592733
 20
183.1456076932832
 30
0.0
  0
VERTEX
  5
2EA
  8
0
  6
CONTINUOUS
 62
     7
 10
-172.001703149092
 20
183.1661973799238
 30
0.0
  0
VERTEX
  5
2EB
  8
0
  6
CONTINUOUS
 62
     7
 10
-172.0038251374544
 20
183.1867155185071
 30
0.0
  0
VERTEX
  5
2EC
  8
0
  6
CONTINUOUS
 62
     7
 10
-172.006787892359
 20
183.2071085676184
 30
0.0
  0
VERTEX
  5
2ED
  8
0
  6
CONTINUOUS
 62
     7
 10
-172.0107148613811
 20
183.2279474208738
 30
0.0
  0
VERTEX
  5
2EE
  8
0
  6
CONTINUOUS
 62
     7
 10
-172.015525279047
 20
183.2486159267875
 30
0.0
  0
VERTEX
  5
2EF
  8
0
  6
CONTINUOUS
 62
     7
 10
-172.021204176702
 20
183.2690578950212
 30
0.0
  0
VERTEX
  5
2F0
  8
0
  6
CONTINUOUS
 62
     7
 10
-172.0277365856913
 20
183.2892171352369
 30
0.0
  0
VERTEX
  5
2F1
  8
0
  6
CONTINUOUS
 62
     7
 10
-172.0348968936729
 20
183.3085142035549
 30
0.0
  0
VERTEX
  5
2F2
  8
0
  6
CONTINUOUS
 62
     7
 10
-172.0428497357114
 20
183.3275110429649
 30
0.0
  0
VERTEX
  5
2F3
  8
0
  6
CONTINUOUS
 62
     7
 10
-172.0515730929837
 20
183.346159830265
 30
0.0
  0
VERTEX
  5
2F4
  8
0
  6
CONTINUOUS
 62
     7
 10
-172.0610449466665
 20
183.3644127422529
 30
0.0
  0
VERTEX
  5
2F5
  8
0
  6
CONTINUOUS
 62
     7
 10
-172.0715625152002
 20
183.3827586772528
 30
0.0
  0
VERTEX
  5
2F6
  8
0
  6
CONTINUOUS
 62
     7
 10
-172.0828528330186
 20
183.4006538838872
 30
0.0
  0
VERTEX
  5
2F7
  8
0
  6
CONTINUOUS
 62
     7
 10
-172.0948840711626
 20
183.41805169709
 30
0.0
  0
VERTEX
  5
2F8
  8
0
  6
CONTINUOUS
 62
     7
 10
-172.1076244006725
 20
183.4349054517952
 30
0.0
  0
VERTEX
  5
2F9
  8
0
  6
CONTINUOUS
 62
     7
 10
-172.1207700506775
 20
183.4508573966625
 30
0.0
  0
VERTEX
  5
2FA
  8
0
  6
CONTINUOUS
 62
     7
 10
-172.1345719636628
 20
183.4662616288749
 30
0.0
  0
VERTEX
  5
2FB
  8
0
  6
CONTINUOUS
 62
     7
 10
-172.1489940125308
 20
183.4810803187838
 30
0.0
  0
VERTEX
  5
2FC
  8
0
  6
CONTINUOUS
 62
     7
 10
-172.1640000701835
 20
183.4952756367402
 30
0.0
  0
VERTEX
  5
2FD
  8
0
  6
CONTINUOUS
 62
     7
 10
-172.1800313763487
 20
183.509211280443
 30
0.0
  0
VERTEX
  5
2FE
  8
0
  6
CONTINUOUS
 62
     7
 10
-172.1966525877855
 20
183.5224634521026
 30
0.0
  0
VERTEX
  5
2FF
  8
0
  6
CONTINUOUS
 62
     7
 10
-172.2138185941778
 20
183.5349980862208
 30
0.0
  0
VERTEX
  5
300
  8
0
  6
CONTINUOUS
 62
     7
 10
-172.2314842852097
 20
183.5467811172997
 30
0.0
  0
VERTEX
  5
301
  8
0
  6
CONTINUOUS
 62
     7
 10
-172.2492878866033
 20
183.5575988843064
 30
0.0
  0
VERTEX
  5
302
  8
0
  6
CONTINUOUS
 62
     7
 10
-172.2675424074033
 20
183.5676743140013
 30
0.0
  0
VERTEX
  5
303
  8
0
  6
CONTINUOUS
 62
     7
 10
-172.2862006407009
 20
183.5769825135907
 30
0.0
  0
VERTEX
  5
304
  8
0
  6
CONTINUOUS
 62
     7
 10
-172.305215379587
 20
183.5854985902808
 30
0.0
  0
VERTEX
  5
305
  8
0
  6
CONTINUOUS
 62
     7
 10
-172.3251367299694
 20
183.5934239293599
 30
0.0
  0
VERTEX
  5
306
  8
0
  6
CONTINUOUS
 62
     7
 10
-172.3454007594624
 20
183.6004952876848
 30
0.0
  0
VERTEX
  5
307
  8
0
  6
CONTINUOUS
 62
     7
 10
-172.3659520124996
 20
183.6066941752412
 30
0.0
  0
VERTEX
  5
308
  8
0
  6
CONTINUOUS
 62
     7
 10
-172.3867350335146
 20
183.612002102015
 30
0.0
  0
VERTEX
  5
309
  8
0
  6
CONTINUOUS
 62
     7
 10
-172.4090689425207
 20
183.6166576355536
 30
0.0
  0
VERTEX
  5
30A
  8
0
  6
CONTINUOUS
 62
     7
 10
-172.4316328949362
 20
183.6202940832724
 30
0.0
  0
VERTEX
  5
30B
  8
0
  6
CONTINUOUS
 62
     7
 10
-172.4543563894972
 20
183.6229025540204
 30
0.0
  0
VERTEX
  5
30C
  8
0
  6
CONTINUOUS
 62
     7
 10
-172.4771689249398
 20
183.6244741566465
 30
0.0
  0
VERTEX
  5
30D
  8
0
  6
CONTINUOUS
 62
     7
 10
-172.5
 20
183.6249999999999
 30
0.0
  0
SEQEND
  5
342
  8
0
  6
CONTINUOUS
 62
     7
  0
LINE
  5
221
  8
0
  6
CONTINUOUS
 62
     7
 10
-166.5
 20
217.7249999999999
 30
0.0
 11
-166.5
 21
180.7249999999999
 31
0.0
  0
POLYLINE
  5
222
  8
0
  6
CONTINUOUS
 62
     7
 66
     1
 10
0.0
 20
0.0
 30
0.0
  0
VERTEX
  5
30E
  8
0
  6
CONTINUOUS
 62
     7
 10
-172.5
 20
181.4249999999999
 30
0.0
  0
VERTEX
  5
30F
  8
0
  6
CONTINUOUS
 62
     7
 10
-172.4791455100529
 20
181.4254367916019
 30
0.0
  0
VERTEX
  5
310
  8
0
  6
CONTINUOUS
 62
     7
 10
-172.4583144041646
 20
181.426743737893
 30
0.0
  0
VERTEX
  5
311
  8
0
  6
CONTINUOUS
 62
     7
 10
-172.4375606571008
 20
181.4289156961011
 30
0.0
  0
VERTEX
  5
312
  8
0
  6
CONTINUOUS
 62
     7
 10
-172.416938243627
 20
181.4319475234538
 30
0.0
  0
VERTEX
  5
313
  8
0
  6
CONTINUOUS
 62
     7
 10
-172.3958713462006
 20
181.43596487015
 30
0.0
  0
VERTEX
  5
314
  8
0
  6
CONTINUOUS
 62
     7
 10
-172.3749814244936
 20
181.4408853052913
 30
0.0
  0
VERTEX
  5
315
  8
0
  6
CONTINUOUS
 62
     7
 10
-172.3543250330048
 20
181.4466936776271
 30
0.0
  0
VERTEX
  5
316
  8
0
  6
CONTINUOUS
 62
     7
 10
-172.3339587262332
 20
181.4533748359067
 30
0.0
  0
VERTEX
  5
317
  8
0
  6
CONTINUOUS
 62
     7
 10
-172.31446598746
 20
181.4606989241259
 30
0.0
  0
VERTEX
  5
318
  8
0
  6
CONTINUOUS
 62
     7
 10
-172.2952807740592
 20
181.4688343289509
 30
0.0
  0
VERTEX
  5
319
  8
0
  6
CONTINUOUS
 62
     7
 10
-172.2764516543218
 20
181.4777590182828
 30
0.0
  0
VERTEX
  5
31A
  8
0
  6
CONTINUOUS
 62
     7
 10
-172.2580271965387
 20
181.4874509600226
 30
0.0
  0
VERTEX
  5
31B
  8
0
  6
CONTINUOUS
 62
     7
 10
-172.2395107429915
 20
181.498217250959
 30
0.0
  0
VERTEX
  5
31C
  8
0
  6
CONTINUOUS
 62
     7
 10
-172.2214556379311
 20
181.5097774331986
 30
0.0
  0
VERTEX
  5
31D
  8
0
  6
CONTINUOUS
 62
     7
 10
-172.203910106342
 20
181.5220993385682
 30
0.0
  0
VERTEX
  5
31E
  8
0
  6
CONTINUOUS
 62
     7
 10
-172.186922373209
 20
181.535150798894
 30
0.0
  0
VERTEX
  5
31F
  8
0
  6
CONTINUOUS
 62
     7
 10
-172.1709222647295
 20
181.5485611880428
 30
0.0
  0
VERTEX
  5
320
  8
0
  6
CONTINUOUS
 62
     7
 10
-172.1554801078961
 20
181.5626423269208
 30
0.0
  0
VERTEX
  5
321
  8
0
  6
CONTINUOUS
 62
     7
 10
-172.1406352855927
 20
181.5773574570079
 30
0.0
  0
VERTEX
  5
322
  8
0
  6
CONTINUOUS
 62
     7
 10
-172.1264271807028
 20
181.592669819784
 30
0.0
  0
VERTEX
  5
323
  8
0
  6
CONTINUOUS
 62
     7
 10
-172.1124837890303
 20
181.609042279909
 30
0.0
  0
VERTEX
  5
324
  8
0
  6
CONTINUOUS
 62
     7
 10
-172.0992414626552
 20
181.6260197215344
 30
0.0
  0
VERTEX
  5
325
  8
0
  6
CONTINUOUS
 62
     7
 10
-172.0867363564477
 20
181.6435550556189
 30
0.0
  0
VERTEX
  5
326
  8
0
  6
CONTINUOUS
 62
     7
 10
-172.0750046252786
 20
181.6616011931207
 30
0.0
  0
VERTEX
  5
327
  8
0
  6
CONTINUOUS
 62
     7
 10
-172.0644016165736
 20
181.6795364921576
 30
0.0
  0
VERTEX
  5
328
  8
0
  6
CONTINUOUS
 62
     7
 10
-172.0545433618786
 20
181.6979199813606
 30
0.0
  0
VERTEX
  5
329
  8
0
  6
CONTINUOUS
 62
     7
 10
-172.0454553683195
 20
181.7167034224983
 30
0.0
  0
VERTEX
  5
32A
  8
0
  6
CONTINUOUS
 62
     7
 10
-172.0371631430221
 20
181.7358385773398
 30
0.0
  0
VERTEX
  5
32B
  8
0
  6
CONTINUOUS
 62
     7
 10
-172.0294678152032
 20
181.755892087171
 30
0.0
  0
VERTEX
  5
32C
  8
0
  6
CONTINUOUS
 62
     7
 10
-172.0226325781273
 20
181.776282720125
 30
0.0
  0
VERTEX
  5
32D
  8
0
  6
CONTINUOUS
 62
     7
 10
-172.0166760943364
 20
181.7969530307821
 30
0.0
  0
VERTEX
  5
32E
  8
0
  6
CONTINUOUS
 62
     7
 10
-172.0116170263725
 20
181.8178455737227
 30
0.0
  0
VERTEX
  5
32F
  8
0
  6
CONTINUOUS
 62
     7
 10
-172.007453416226
 20
181.8390102710914
 30
0.0
  0
VERTEX
  5
330
  8
0
  6
CONTINUOUS
 62
     7
 10
-172.0042029637602
 20
181.8603693100682
 30
0.0
  0
VERTEX
  5
331
  8
0
  6
CONTINUOUS
 62
     7
 10
-172.0018726137303
 20
181.8818614429884
 30
0.0
  0
VERTEX
  5
332
  8
0
  6
CONTINUOUS
 62
     7
 10
-172.0004693108918
 20
181.9034254221872
 30
0.0
  0
VERTEX
  5
333
  8
0
  6
CONTINUOUS
 62
     7
 10
-172.0
 20
181.9249999999999
 30
0.0
  0
SEQEND
  5
343
  8
0
  6
CONTINUOUS
 62
     7
  0
LINE
  5
223
  8
0
  6
CONTINUOUS
 62
     7
 10
-178.036126343151
 20
177.7249999999999
 30
0.0
 11
-336.963873656849
 21
177.7249999999999
 31
0.0
  0
LINE
  5
224
  8
0
  6
CONTINUOUS
 62
     7
 10
-342.536126343151
 20
177.7249999999999
 30
0.0
 11
-345.5
 21
177.7249999999999
 31
0.0
  0
ARC
  5
225
  8
0
  6
CONTINUOUS
 62
     7
 10
-345.5
 20
180.7249999999999
 30
0.0
 40
3.000000000000003
 50
180.0
 51
270.0
  0
ENDBLK
  8
0
  0
ENDSEC
  0
SECTION
  2
ENTITIES
  0
TEXT
  5
6F
  8
0
  6
CONTINUOUS
 62
     7
 10
-206.3606602475928
 20
144.1568400650244
 30
0.0
 40
6.0
  1
CSW-3SNF
  0
LINE
  5
70
  8
0
  6
CONTINUOUS
 62
     7
 10
-177.1809488918523
 20
183.6249999999999
 30
0.0
 11
-178.0
 21
183.6249999999999
 31
0.0
  0
LINE
  5
71
  8
0
  6
CONTINUOUS
 62
     7
 10
-279.1499999999891
 20
271.4999999999999
 30
0.0
 11
-279.1500000000224
 21
363.5
 31
0.0
  0
LINE
  5
72
  8
0
  6
CONTINUOUS
 62
     7
 10
-348.5
 20
217.7249999999999
 30
0.0
 11
-166.5
 21
217.7249999999999
 31
0.0
  0
LINE
  5
73
  8
0
  6
CONTINUOUS
 62
     7
 10
-172.5
 20
183.6249999999999
 30
0.0
 11
-173.3190511081478
 21
183.6249999999999
 31
0.0
  0
LINE
  5
74
  8
0
  6
CONTINUOUS
 62
     7
 10
-282.1499999999884
 20
271.5
 30
0.0
 11
-282.150000000022
 21
363.5000000000001
 31
0.0
  0
LINE
  5
75
  8
0
  6
CONTINUOUS
 62
     7
 10
-117.7249999999999
 20
378.5
 30
0.0
 11
-79.97499999999995
 21
378.5
 31
0.0
  0
LINE
  5
76
  8
0
  6
CONTINUOUS
 62
     7
 10
-77.72499999999997
 20
321.5
 30
0.0
 11
-85.42499999999995
 21
321.5
 31
0.0
  0
LINE
  5
77
  8
0
  6
CONTINUOUS
 62
     7
 10
-337.8190511081477
 20
181.425
 30
0.0
 11
-336.9999999999999
 21
181.4249999999992
 31
0.0
  0
LINE
  5
78
  8
0
  6
CONTINUOUS
 62
     7
 10
-178.0
 20
181.4249999999992
 30
0.0
 11
-177.1809488918523
 21
181.425
 31
0.0
  0
LINE
  5
79
  8
0
  6
CONTINUOUS
 62
     7
 10
-336.9999999999999
 20
183.6249999999999
 30
0.0
 11
-337.8190511081477
 21
183.6249999999999
 31
0.0
  0
LINE
  5
7A
  8
0
  6
CONTINUOUS
 62
     7
 10
-117.725
 20
256.5
 30
0.0
 11
-79.97499999999995
 21
256.5
 31
0.0
  0
LINE
  5
7B
  8
0
  6
CONTINUOUS
 62
     7
 10
-117.7249999999999
 20
256.5
 30
0.0
 11
-117.7249999999999
 21
378.5
 31
0.0
  0
LINE
  5
7C
  8
0
  6
CONTINUOUS
 62
     7
 10
-173.3190511081478
 20
181.4249999999999
 30
0.0
 11
-172.5
 21
181.4249999999999
 31
0.0
  0
LINE
  5
7D
  8
0
  6
CONTINUOUS
 62
     7
 10
-77.72499999999997
 20
375.5
 30
0.0
 11
-77.72499999999997
 21
259.5
 31
0.0
  0
LINE
  5
7E
  8
0
  6
CONTINUOUS
 62
     7
 10
-344.35
 20
218.025
 30
0.0
 11
-170.65
 21
218.025
 31
0.0
  0
LINE
  5
7F
  8
0
  6
CONTINUOUS
 62
     7
 10
-115.225
 20
378.5
 30
0.0
 11
-115.3993114854953
 21
380.4923893961835
 31
0.0
  0
LINE
  5
80
  8
0
  6
CONTINUOUS
 62
     7
 10
-341.6809488918522
 20
183.6249999999999
 30
0.0
 11
-342.4999999999999
 21
183.6249999999999
 31
0.0
  0
LINE
  5
81
  8
0
  6
CONTINUOUS
 62
     7
 10
-115.2249999999998
 20
256.5
 30
0.0
 11
-115.3993114854953
 21
254.5076106038165
 31
0.0
  0
LINE
  5
82
  8
0
  6
CONTINUOUS
 62
     7
 10
-342.5
 20
181.4249999999992
 30
0.0
 11
-341.6809488918522
 21
181.425
 31
0.0
  0
LINE
  5
83
  8
0
  6
CONTINUOUS
 62
     7
 10
-85.42499999999995
 20
313.5
 30
0.0
 11
-77.72499999999997
 21
313.5
 31
0.0
  0
LINE
  5
84
  8
0
  6
CONTINUOUS
 62
     7
 10
-118.025
 20
260.65
 30
0.0
 11
-118.025
 21
374.35
 31
0.0
  0
LINE
  5
85
  8
0
  6
CONTINUOUS
 62
     7
 10
-335.2
 20
269.0
 30
0.0
 11
-331.8
 21
269.0
 31
0.0
  0
ARC
  5
86
  8
0
  6
CONTINUOUS
 62
     7
 10
-276.5
 20
317.5
 30
0.0
 40
3.0
 50
207.9528865888772
 51
152.0471134111642
  0
LINE
  5
87
  8
0
  6
CONTINUOUS
 62
     7
 10
-236.1499999999884
 20
271.5
 30
0.0
 11
-236.1500000000219
 21
363.5
 31
0.0
  0
ARC
  5
88
  8
0
  6
CONTINUOUS
 62
     7
 10
-238.5
 20
317.5
 30
0.0
 40
3.0
 50
44.20418388397118
 51
315.7958161160687
  0
LINE
  5
89
  8
0
  6
CONTINUOUS
 62
     7
 10
-335.2
 20
366.0
 30
0.0
 11
-331.8
 21
366.0
 31
0.0
  0
CIRCLE
  5
8A
  8
0
  6
CONTINUOUS
 62
     7
 10
-333.5
 20
265.0
 30
0.0
 40
4.000000000000007
  0
LINE
  5
8B
  8
0
  6
CONTINUOUS
 62
     7
 10
-233.1499999999891
 20
271.5
 30
0.0
 11
-233.1500000000226
 21
363.5
 31
0.0
  0
CIRCLE
  5
8C
  8
0
  6
CONTINUOUS
 62
     7
 10
-181.5000000000001
 20
265.0
 30
0.0
 40
4.000000000000004
  0
ARC
  5
8D
  8
0
  6
CONTINUOUS
 62
     7
 10
-175.25
 20
182.5249999999999
 30
0.0
 40
5.549999999999999
 50
239.8672781689898
 51
300.1327218310103
  0
LINE
  5
8E
  8
0
  6
CONTINUOUS
 62
     7
 10
-179.8
 20
366.0
 30
0.0
 11
-183.2
 21
366.0
 31
0.0
  0
LINE
  5
8F
  8
0
  6
CONTINUOUS
 62
     7
 10
-179.8
 20
269.0
 30
0.0
 11
-183.2
 21
269.0
 31
0.0
  0
ARC
  5
90
  8
0
  6
CONTINUOUS
 62
     7
 10
-339.75
 20
182.5249999999999
 30
0.0
 40
5.549999999999999
 50
239.8672781689898
 51
300.1327218310103
  0
CIRCLE
  5
91
  8
0
  6
CONTINUOUS
 62
     7
 10
-333.5
 20
370.0
 30
0.0
 40
4.000000000000007
  0
CIRCLE
  5
92
  8
0
  6
CONTINUOUS
 62
     7
 10
-181.5000000000001
 20
370.0
 30
0.0
 40
4.000000000000004
  0
INSERT
  5
1DA
  8
0
  6
CONTINUOUS
 62
     7
  2
D_FRAME_VIEW_1323
 10
0.0
 20
0.0
 30
0.0
  0
INSERT
  5
1F3
  8
0
  6
CONTINUOUS
 62
     7
  2
D_FRAME_VIEW_3012
 10
0.0
 20
0.0
 30
0.0
  0
INSERT
  5
226
  8
0
  6
CONTINUOUS
 62
     7
  2
D_FRAME_VIEW_3399
 10
0.0
 20
0.0
 30
0.0
  0
ENDSEC
  0
EOF
